  0
SECTION
  2
HEADER
  9
$ACADVER
  1
AC1015
  9
$ACADMAINTVER
 70
     6
  9
$DWGCODEPAGE
  3
ANSI_1250
  9
$INSBASE
 10
0.0
 20
0.0
 30
0.0
  9
$EXTMIN
 10
0.0
 20
0.0
 30
0.0
  9
$EXTMAX
 10
20000.0
 20
10000.0
 30
0.0
  9
$LIMMIN
 10
0.0
 20
0.0
  9
$LIMMAX
 10
20000.0
 20
10000.0
  9
$ORTHOMODE
 70
     0
  9
$REGENMODE
 70
     1
  9
$FILLMODE
 70
     1
  9
$QTEXTMODE
 70
     0
  9
$MIRRTEXT
 70
     1
  9
$LTSCALE
 40
1.0
  9
$ATTMODE
 70
     1
  9
$TEXTSIZE
 40
2.0
  9
$TRACEWID
 40
1.0
  9
$TEXTSTYLE
  7
Standard
  9
$CLAYER
  8
0
  9
$CELTYPE
  6
ByLayer
  9
$CECOLOR
 62
   256
  9
$CELTSCALE
 40
1.0
  9
$DISPSILH
 70
     0
  9
$DIMSCALE
 40
1.0
  9
$DIMASZ
 40
2.0
  9
$DIMEXO
 40
1.0
  9
$DIMDLI
 40
3.75
  9
$DIMRND
 40
0.0
  9
$DIMDLE
 40
0.0
  9
$DIMEXE
 40
1.0
  9
$DIMTP
 40
0.0
  9
$DIMTM
 40
0.0
  9
$DIMTXT
 40
2.0
  9
$DIMCEN
 40
2.5
  9
$DIMTSZ
 40
0.0
  9
$DIMTOL
 70
     0
  9
$DIMLIM
 70
     0
  9
$DIMTIH
 70
     1
  9
$DIMTOH
 70
     1
  9
$DIMSE1
 70
     0
  9
$DIMSE2
 70
     0
  9
$DIMTAD
 70
     1
  9
$DIMZIN
 70
     0
  9
$DIMBLK
  1

  9
$DIMASO
 70
     1
  9
$DIMSHO
 70
     1
  9
$DIMPOST
  1

  9
$DIMAPOST
  1

  9
$DIMALT
 70
     0
  9
$DIMALTD
 70
     3
  9
$DIMALTF
 40
0.0393700787
  9
$DIMLFAC
 40
1.0
  9
$DIMTOFL
 70
     1
  9
$DIMTVP
 40
0.0
  9
$DIMTIX
 70
     0
  9
$DIMSOXD
 70
     0
  9
$DIMSAH
 70
     0
  9
$DIMBLK1
  1

  9
$DIMBLK2
  1

  9
$DIMSTYLE
  2
ISO-25
  9
$DIMCLRD
 70
     0
  9
$DIMCLRE
 70
     0
  9
$DIMCLRT
 70
     0
  9
$DIMTFAC
 40
1.0
  9
$DIMGAP
 40
1.524
  9
$DIMJUST
 70
     0
  9
$DIMSD1
 70
     0
  9
$DIMSD2
 70
     0
  9
$DIMTOLJ
 70
     0
  9
$DIMTZIN
 70
     0
  9
$DIMALTZ
 70
     0
  9
$DIMALTTZ
 70
     0
  9
$DIMUPT
 70
     0
  9
$DIMDEC
 70
     2
  9
$DIMTDEC
 70
     0
  9
$DIMALTU
 70
     2
  9
$DIMALTTD
 70
     3
  9
$DIMTXSTY
  7
Standard
  9
$DIMAUNIT
 70
     0
  9
$DIMADEC
 70
     2
  9
$DIMALTRND
 40
0.0
  9
$DIMAZIN
 70
     0
  9
$DIMDSEP
 70
    44
  9
$DIMATFIT
 70
     3
  9
$DIMFRAC
 70
     0
  9
$DIMLDRBLK
  1

  9
$DIMLUNIT
 70
     2
  9
$DIMLWD
 70
    -2
  9
$DIMLWE
 70
    -2
  9
$DIMTMOVE
 70
     0
  9
$LUNITS
 70
     2
  9
$LUPREC
 70
     3
  9
$SKETCHINC
 40
1.0
  9
$FILLETRAD
 40
10.0
  9
$AUNITS
 70
     0
  9
$AUPREC
 70
     2
  9
$MENU
  1
.
  9
$ELEVATION
 40
0.0
  9
$PELEVATION
 40
0.0
  9
$THICKNESS
 40
0.0
  9
$LIMCHECK
 70
     0
  9
$CHAMFERA
 40
0.0
  9
$CHAMFERB
 40
0.0
  9
$CHAMFERC
 40
0.0
  9
$CHAMFERD
 40
0.0
  9
$SKPOLY
 70
     0
  9
$TDCREATE
 40
2460290.265804549
  9
$TDUCREATE
 40
2460290.224137882
  9
$TDUPDATE
 40
2460290.265805775
  9
$TDUUPDATE
 40
2460290.224139109
  9
$TDINDWG
 40
0.0000000116
  9
$TDUSRTIMER
 40
0.0000000116
  9
$USRTIMER
 70
     1
  9
$ANGBASE
 50
0.0
  9
$ANGDIR
 70
     0
  9
$PDMODE
 70
     0
  9
$PDSIZE
 40
-1.0
  9
$PLINEWID
 40
0.0
  9
$SPLFRAME
 70
     0
  9
$SPLINETYPE
 70
     6
  9
$SPLINESEGS
 70
     8
  9
$HANDSEED
  5
15B
  9
$SURFTAB1
 70
     6
  9
$SURFTAB2
 70
     6
  9
$SURFTYPE
 70
     6
  9
$SURFU
 70
     6
  9
$SURFV
 70
     6
  9
$UCSBASE
  2

  9
$UCSNAME
  2

  9
$UCSORG
 10
0.0
 20
0.0
 30
0.0
  9
$UCSXDIR
 10
1.0
 20
0.0
 30
0.0
  9
$UCSYDIR
 10
0.0
 20
1.0
 30
0.0
  9
$UCSORTHOREF
  2

  9
$UCSORTHOVIEW
 70
     0
  9
$UCSORGTOP
 10
0.0
 20
0.0
 30
0.0
  9
$UCSORGBOTTOM
 10
0.0
 20
0.0
 30
0.0
  9
$UCSORGLEFT
 10
0.0
 20
0.0
 30
0.0
  9
$UCSORGRIGHT
 10
0.0
 20
0.0
 30
0.0
  9
$UCSORGFRONT
 10
0.0
 20
0.0
 30
0.0
  9
$UCSORGBACK
 10
0.0
 20
0.0
 30
0.0
  9
$PUCSBASE
  2

  9
$PUCSNAME
  2

  9
$PUCSORG
 10
0.0
 20
0.0
 30
0.0
  9
$PUCSXDIR
 10
1.0
 20
0.0
 30
0.0
  9
$PUCSYDIR
 10
0.0
 20
1.0
 30
0.0
  9
$PUCSORTHOREF
  2

  9
$PUCSORTHOVIEW
 70
     0
  9
$PUCSORGTOP
 10
0.0
 20
0.0
 30
0.0
  9
$PUCSORGBOTTOM
 10
0.0
 20
0.0
 30
0.0
  9
$PUCSORGLEFT
 10
0.0
 20
0.0
 30
0.0
  9
$PUCSORGRIGHT
 10
0.0
 20
0.0
 30
0.0
  9
$PUCSORGFRONT
 10
0.0
 20
0.0
 30
0.0
  9
$PUCSORGBACK
 10
0.0
 20
0.0
 30
0.0
  9
$USERI1
 70
     0
  9
$USERI2
 70
     0
  9
$USERI3
 70
     0
  9
$USERI4
 70
     0
  9
$USERI5
 70
     0
  9
$USERR1
 40
0.0
  9
$USERR2
 40
0.0
  9
$USERR3
 40
0.0
  9
$USERR4
 40
0.0
  9
$USERR5
 40
0.0
  9
$WORLDVIEW
 70
     1
  9
$SHADEDGE
 70
     3
  9
$SHADEDIF
 70
    70
  9
$TILEMODE
 70
     1
  9
$MAXACTVP
 70
    64
  9
$PINSBASE
 10
0.0
 20
0.0
 30
0.0
  9
$PLIMCHECK
 70
     0
  9
$PEXTMIN
 10
1.0000000000E+20
 20
1.0000000000E+20
 30
1.0000000000E+20
  9
$PEXTMAX
 10
-1.0000000000E+20
 20
-1.0000000000E+20
 30
-1.0000000000E+20
  9
$PLIMMIN
 10
0.0
 20
0.0
  9
$PLIMMAX
 10
420.0
 20
297.0
  9
$UNITMODE
 70
     0
  9
$VISRETAIN
 70
     1
  9
$PLINEGEN
 70
     0
  9
$PSLTSCALE
 70
     1
  9
$TREEDEPTH
 70
  3020
  9
$CMLSTYLE
  2
Standard
  9
$CMLJUST
 70
     0
  9
$CMLSCALE
 40
20.0
  9
$PROXYGRAPHICS
 70
     1
  9
$MEASUREMENT
 70
     1
  9
$CELWEIGHT
370
    -1
  9
$ENDCAPS
280
     0
  9
$JOINSTYLE
280
     0
  9
$LWDISPLAY
290
     1
  9
$INSUNITS
 70
     4
  9
$HYPERLINKBASE
  1

  9
$STYLESHEET
  1

  9
$XEDIT
290
     1
  9
$CEPSNTYPE
380
     0
  9
$PSTYLEMODE
290
     1
  9
$FINGERPRINTGUID
  2
{e1e21682-7fb7-49a1-8c93-e4d37f8cb794}
  9
$VERSIONGUID
  2
{FAEB1C32-E019-11D5-929B-00C0DF256EC4}
  9
$EXTNAMES
290
     1
  9
$PSVPSCALE
 40
0.0
  9
$OLESTARTUP
290
     0
  0
ENDSEC
  0
SECTION
  2
CLASSES
  0
CLASS
  1
ACDBDICTIONARYWDFLT
  2
AcDbDictionaryWithDefault
  3
ObjectDBX Classes
 90
        0
280
     0
281
     0
  0
CLASS
  1
VISUALSTYLE
  2
AcDbVisualStyle
  3
ObjectDBX Classes
 90
     4095
280
     0
281
     0
  0
CLASS
  1
MATERIAL
  2
AcDbMaterial
  3
ObjectDBX Classes
 90
     1153
280
     0
281
     0
  0
CLASS
  1
SCALE
  2
AcDbScale
  3
ObjectDBX Classes
 90
     1153
280
     0
281
     0
  0
CLASS
  1
TABLESTYLE
  2
AcDbTableStyle
  3
ObjectDBX Classes
 90
     4095
280
     0
281
     0
  0
CLASS
  1
MLEADERSTYLE
  2
AcDbMLeaderStyle
  3
ACDB_MLEADERSTYLE_CLASS
 90
     4095
280
     0
281
     0
  0
CLASS
  1
SUN
  2
AcDbSun
  3
SCENEOE
 90
     1153
280
     0
281
     0
  0
CLASS
  1
ACDBPLACEHOLDER
  2
AcDbPlaceHolder
  3
ObjectDBX Classes
 90
        0
280
     0
281
     0
  0
CLASS
  1
LAYOUT
  2
AcDbLayout
  3
ObjectDBX Classes
 90
        0
280
     0
281
     0
  0
ENDSEC
  0
SECTION
  2
TABLES
  0
TABLE
  2
VPORT
  5
8
330
0
100
AcDbSymbolTable
 70
     1
  0
VPORT
  5
29
330
8
100
AcDbSymbolTableRecord
100
AcDbViewportTableRecord
  2
*Active
 70
     0
 10
0.0
 20
0.0
 11
1.0
 21
1.0
 12
10000.0
 22
5000.0
 13
0.0
 23
0.0
 14
10.0
 24
10.0
 15
10.0
 25
10.0
 16
0.0
 26
0.0
 36
1.0
 17
0.0
 27
0.0
 37
0.0
 40
10000.0
 41
2.0
 42
50.0
 43
0.0
 44
0.0
 50
0.0
 51
0.0
 71
     0
 72
  2000
 73
     1
 74
     3
 75
     0
 76
     0
 77
     0
 78
     0
281
     0
 65
     1
110
0.0
120
0.0
130
0.0
111
1.0
121
0.0
131
0.0
112
0.0
122
1.0
132
0.0
 79
     0
146
0.0
  0
ENDTAB
  0
TABLE
  2
LTYPE
  5
5
330
0
100
AcDbSymbolTable
 70
     6
  0
LTYPE
  5
14
330
5
100
AcDbSymbolTableRecord
100
AcDbLinetypeTableRecord
  2
ByBlock
 70
     0
  3

 72
    65
 73
     0
 40
0.0
  0
LTYPE
  5
15
330
5
100
AcDbSymbolTableRecord
100
AcDbLinetypeTableRecord
  2
ByLayer
 70
     0
  3

 72
    65
 73
     0
 40
0.0
  0
LTYPE
  5
16
330
5
100
AcDbSymbolTableRecord
100
AcDbLinetypeTableRecord
  2
Continuous
 70
     0
  3
Solid line
 72
    65
 73
     0
 40
0.0
  0
LTYPE
  5
6E
330
5
100
AcDbSymbolTableRecord
100
AcDbLinetypeTableRecord
  2
HIDDEN
 70
     0
  3
Hidden __ __ __ __ __ __ __ __ __ __ __ __ __ __
 72
    65
 73
     2
 40
1.905
 49
1.27
 74
     0
 49
-0.635
 74
     0
  0
LTYPE
  5
6F
330
5
100
AcDbSymbolTableRecord
100
AcDbLinetypeTableRecord
  2
PHANTOM
 70
     0
  3
Phantom ______  __  __  ______  __  __  ______
 72
    65
 73
     6
 40
12.7
 49
6.35
 74
     0
 49
-1.27
 74
     0
 49
1.27
 74
     0
 49
-1.27
 74
     0
 49
1.27
 74
     0
 49
-1.27
 74
     0
  0
LTYPE
  5
70
330
5
100
AcDbSymbolTableRecord
100
AcDbLinetypeTableRecord
  2
CENTER
 70
     0
  3
Center ____ _ ____ _ ____ _ ____ _ ____ _ ____
 72
    65
 73
     4
 40
10.16
 49
6.35
 74
     0
 49
-1.27
 74
     0
 49
1.27
 74
     0
 49
-1.27
 74
     0
  0
LTYPE
  5
71
330
5
100
AcDbSymbolTableRecord
100
AcDbLinetypeTableRecord
  2
CENTERX2
 70
     0
  3
Center (2x) ________  __  ________  __  _____
 72
    65
 73
     4
 40
20.32
 49
12.7
 74
     0
 49
-2.54
 74
     0
 49
2.54
 74
     0
 49
-2.54
 74
     0
  0
LTYPE
  5
72
330
5
100
AcDbSymbolTableRecord
100
AcDbLinetypeTableRecord
  2
DOT2
 70
     0
  3
Dot (.5x) ........................................
 72
    65
 73
     2
 40
0.635
 49
0.0
 74
     0
 49
-0.635
 74
     0
  0
ENDTAB
  0
TABLE
  2
LAYER
  5
2
330
0
100
AcDbSymbolTable
 70
    13
  0
LAYER
  5
10
330
2
100
AcDbSymbolTableRecord
100
AcDbLayerTableRecord
  2
0
 70
     0
 62
     7
  6
Continuous
370
    -3
390
F
  0
LAYER
  5
73
330
2
100
AcDbSymbolTableRecord
100
AcDbLayerTableRecord
  2
FORMAT
 70
     0
 62
     7
  6
Continuous
370
    -3
390
F
  0
LAYER
  5
74
330
2
100
AcDbSymbolTableRecord
100
AcDbLayerTableRecord
  2
OSA
 70
     0
 62
     7
  6
CENTER
370
    -3
390
F
  0
LAYER
  5
75
330
2
100
AcDbSymbolTableRecord
100
AcDbLayerTableRecord
  2
0_35
 70
     0
 62
     7
  6
Continuous
370
    35
390
F
  0
LAYER
  5
76
330
2
100
AcDbSymbolTableRecord
100
AcDbLayerTableRecord
  2
0_5
 70
     0
 62
     7
  6
Continuous
370
    50
390
F
  0
LAYER
  5
77
330
2
100
AcDbSymbolTableRecord
100
AcDbLayerTableRecord
  2
0_25
 70
     0
 62
     7
  6
Continuous
370
    25
390
F
  0
LAYER
  5
78
330
2
100
AcDbSymbolTableRecord
100
AcDbLayerTableRecord
  2
0_18
 70
     0
 62
     7
  6
Continuous
370
    -3
390
F
  0
LAYER
  5
79
330
2
100
AcDbSymbolTableRecord
100
AcDbLayerTableRecord
  2
SLD-0
 70
     0
 62
   179
  6
Continuous
370
    -3
390
F
  0
LAYER
  5
7A
330
2
100
AcDbSymbolTableRecord
100
AcDbLayerTableRecord
  2
KOTY
 70
     0
 62
     7
  6
Continuous
370
    -3
390
F
  0
LAYER
  5
7B
330
2
100
AcDbSymbolTableRecord
100
AcDbLayerTableRecord
  2
SILNA
 70
     0
 62
   179
  6
Continuous
370
    -3
390
F
  0
LAYER
  5
7C
330
2
100
AcDbSymbolTableRecord
100
AcDbLayerTableRecord
  2
0_18_1
 70
     0
 62
   179
  6
Continuous
370
    -3
390
F
  0
LAYER
  5
7D
330
2
100
AcDbSymbolTableRecord
100
AcDbLayerTableRecord
  2
0_35_1
 70
     0
 62
   179
  6
Continuous
370
    35
390
F
  0
LAYER
  5
7E
330
2
100
AcDbSymbolTableRecord
100
AcDbLayerTableRecord
  2
0_5_1
 70
     0
 62
   179
  6
Continuous
370
    50
390
F
  0
ENDTAB
  0
TABLE
  2
STYLE
  5
3
330
0
100
AcDbSymbolTable
 70
     1
  0
STYLE
  5
11
330
3
100
AcDbSymbolTableRecord
100
AcDbTextStyleTableRecord
  2
Standard
 70
     0
 40
0.0
 41
1.0
 50
0.0
 71
     0
 42
2.0
  3
txt
  4

  0
ENDTAB
  0
TABLE
  2
VIEW
  5
6
330
0
100
AcDbSymbolTable
 70
     0
  0
ENDTAB
  0
TABLE
  2
UCS
  5
7
330
0
100
AcDbSymbolTable
 70
     0
  0
ENDTAB
  0
TABLE
  2
APPID
  5
9
330
0
100
AcDbSymbolTable
 70
     1
  0
APPID
  5
12
330
9
100
AcDbSymbolTableRecord
100
AcDbRegAppTableRecord
  2
ACAD
 70
     0
  0
ENDTAB
  0
TABLE
  2
DIMSTYLE
  5
A
330
0
100
AcDbSymbolTable
 70
     1
100
AcDbDimStyleTable
  0
DIMSTYLE
105
27
330
A
100
AcDbSymbolTableRecord
100
AcDbDimStyleTableRecord
  2
ISO-25
 70
     0
 41
2.5
 42
0.625
 43
3.75
 44
1.25
 73
     0
 74
     0
 77
     1
 78
     8
140
2.5
141
2.5
143
0.0393700787
147
0.625
171
     3
172
     1
178
     0
271
     2
272
     2
274
     3
278
    44
283
     0
284
     8
340
11
  0
ENDTAB
  0
TABLE
  2
BLOCK_RECORD
  5
1
330
0
100
AcDbSymbolTable
 70
     1
  0
BLOCK_RECORD
  5
1F
330
1
100
AcDbSymbolTableRecord
100
AcDbBlockTableRecord
  2
*Model_Space
340
22
  0
BLOCK_RECORD
  5
1B
330
1
100
AcDbSymbolTableRecord
100
AcDbBlockTableRecord
  2
*Paper_Space
340
1E
  0
BLOCK_RECORD
  5
23
330
1
100
AcDbSymbolTableRecord
100
AcDbBlockTableRecord
  2
*Paper_Space0
340
26
  0
ENDTAB
  0
ENDSEC
  0
SECTION
  2
BLOCKS
  0
BLOCK
  5
20
330
1F
100
AcDbEntity
  8
0
100
AcDbBlockBegin
  2
*Model_Space
 70
     0
 10
0.0
 20
0.0
 30
0.0
  3
*Model_Space
  1

  0
ENDBLK
  5
21
330
1F
100
AcDbEntity
  8
0
100
AcDbBlockEnd
  0
BLOCK
  5
1C
330
1B
100
AcDbEntity
 67
     1
  8
0
100
AcDbBlockBegin
  2
*Paper_Space
 70
     0
 10
0.0
 20
0.0
 30
0.0
  3
*Paper_Space
  1

  0
ENDBLK
  5
1D
330
1B
100
AcDbEntity
 67
     1
  8
0
100
AcDbBlockEnd
  0
BLOCK
  5
24
330
23
100
AcDbEntity
  8
0
100
AcDbBlockBegin
  2
*Paper_Space0
 70
     0
 10
0.0
 20
0.0
 30
0.0
  3
*Paper_Space0
  1

  0
ENDBLK
  5
25
330
23
100
AcDbEntity
  8
0
100
AcDbBlockEnd
  0
ENDSEC
  0
SECTION
  2
ENTITIES
  0
SPLINE
  5
7F
330
1F
100
AcDbEntity
  8
0
  6
Continuous
 62
     7
370
    25
100
AcDbSpline
210
0.0
220
0.0
230
1.0
 70
     8
 71
     3
 72
    35
 73
    31
 74
     0
 42
0.00000001
 43
0.00000001
 40
0.0
 40
0.0
 40
0.0
 40
0.0
 40
0.0564712121235397
 40
0.1100031124915928
 40
0.1605979127302679
 40
0.2082577175067131
 40
0.2529845235144642
 40
0.2947802184385584
 40
0.3336465801012195
 40
0.3667021666974135
 40
0.397298904071014
 40
0.4254379159860734
 40
0.451120247657375
 40
0.4743468659977995
 40
0.4951186602413812
 40
0.5112776609012775
 40
0.5289297646376332
 40
0.5487557619510922
 40
0.5707543297581229
 40
0.5949232255835522
 40
0.6207701627515863
 40
0.6487042150221093
 40
0.6787213195614892
 40
0.7108168789283402
 40
0.7517287682566922
 40
0.7955695516679225
 40
0.8423287995573296
 40
0.8919951924710414
 40
0.9445565722865743
 40
1.0
 40
1.0
 40
1.0
 40
1.0
 10
5845.321011974584
 20
5106.317174211214
 30
0.0
 10
5847.499847637762
 20
5098.860618581754
 30
0.0
 10
5851.744111140254
 20
5084.335619084439
 30
0.0
 10
5857.9390740117
 20
5063.123052186746
 30
0.0
 10
5863.792662311152
 20
5043.069840155798
 30
0.0
 10
5869.304935332808
 20
5024.175501898621
 30
0.0
 10
5874.476125190207
 20
5006.440155621981
 30
0.0
 10
5879.306523281445
 20
4989.863772244623
 30
0.0
 10
5883.685467242599
 20
4974.827574856014
 30
0.0
 10
5887.631509669232
 20
4961.269981005377
 30
0.0
 10
5891.163195371524
 20
4949.129359922541
 30
0.0
 10
5894.409850418481
 20
4937.96258138732
 30
0.0
 10
5897.371819000078
 20
4927.769686469715
 30
0.0
 10
5900.049495403531
 20
4918.550538308617
 30
0.0
 10
5902.360182862028
 20
4910.591191594783
 30
0.0
 10
5904.456220130844
 20
4903.368233821859
 30
0.0
 10
5906.512982976094
 20
4896.278024792629
 30
0.0
 10
5908.790883056045
 20
4888.421776682213
 30
0.0
 10
5911.31560006609
 20
4879.709588265388
 30
0.0
 10
5914.067978201867
 20
4870.205959363936
 30
0.0
 10
5917.044548275092
 20
4859.920947935676
 30
0.0
 10
5920.241644784243
 20
4848.864654577445
 30
0.0
 10
5923.673958565334
 20
4836.982642426081
 30
0.0
 10
5927.596790297688
 20
4823.384938201566
 30
0.0
 10
5932.039742158029
 20
4807.956644049833
 30
0.0
 10
5937.030341688601
 20
4790.582005262319
 30
0.0
 10
5942.339439742865
 20
4772.037261041221
 30
0.0
 10
5947.958466623904
 20
4752.321863747254
 30
0.0
 10
5953.881222433941
 20
4731.438014589607
 30
0.0
 10
5957.907185535042
 20
4717.111599458376
 30
0.0
 10
5959.973882372708
 20
4709.757245704188
 30
0.0
  0
ARC
  5
80
330
1F
100
AcDbEntity
  8
0
  6
Continuous
 62
     7
370
    25
100
AcDbCircle
 10
5847.2752994606
 20
5106.7572457299
 30
0.0
 40
1.999999974254175
100
AcDbArc
 50
89.9994059518
 51
196.5385963772
  0
CIRCLE
  5
81
330
1F
100
AcDbEntity
  8
0
  6
Continuous
 62
     7
370
    25
100
AcDbCircle
 10
6345.1901249004
 20
5664.7572457042
 30
0.0
 40
22.5
  0
LWPOLYLINE
  5
82
330
1F
100
AcDbEntity
  8
0
  6
Continuous
 62
     7
370
    25
100
AcDbPolyline
 90
       20
 70
   128
 43
0.0
 10
6345.1901249004
 20
5651.4207311375
 10
6346.2887353798
 20
5651.2911003167
 10
6347.2682943671
 20
5650.9162553652
 10
6348.0226514465
 20
5650.3368165498
 10
6348.4700603235
 20
5649.6155750571
 10
6348.5620373039
 20
5648.830688594
 10
6348.2886152549
 20
5648.0672117875
 10
6347.6794236978
 20
5647.4078791963
 10
6346.8004779906
 20
5646.9241397371
 10
6345.7470255389
 20
5646.6684140864
 10
6344.6332242618
 20
5646.6684140864
 10
6343.5797718101
 20
5646.9241397371
 10
6342.7008261029
 20
5647.4078791963
 10
6342.0916345459
 20
5648.0672117875
 10
6341.8182124968
 20
5648.830688594
 10
6341.9101894772
 20
5649.6155750571
 10
6342.3575983542
 20
5650.3368165498
 10
6343.1119554337
 20
5650.9162553652
 10
6344.091514421
 20
5651.2911003167
 10
6345.1901249004
 20
5651.4207311375
  0
LWPOLYLINE
  5
83
330
1F
100
AcDbEntity
  8
0
  6
Continuous
 62
     7
370
    25
100
AcDbPolyline
 90
       17
 70
   128
 43
0.0
 10
6345.1901249004
 20
5651.4207311375
 10
6344.2334163195
 20
5651.2861678906
 10
6343.4223579474
 20
5650.9029641845
 10
6342.8804260691
 20
5650.3294593097
 10
6342.6901249004
 20
5649.6529641845
 10
6342.8804260691
 20
5648.9764690594
 10
6343.4223579474
 20
5648.4029641845
 10
6344.2334163195
 20
5648.0197604784
 10
6345.1901249004
 20
5647.8851972316
 10
6346.1468334813
 20
5648.0197604784
 10
6346.9578918533
 20
5648.4029641845
 10
6347.4998237316
 20
5648.9764690594
 10
6347.6901249004
 20
5649.6529641845
 10
6347.4998237316
 20
5650.3294593097
 10
6346.9578918533
 20
5650.9029641845
 10
6346.1468334813
 20
5651.2861678906
 10
6345.1901249004
 20
5651.4207311375
  0
SPLINE
  5
84
330
1F
100
AcDbEntity
  8
0
  6
Continuous
 62
     7
370
    25
100
AcDbSpline
210
0.0
220
0.0
230
1.0
 70
     8
 71
     3
 72
    14
 73
    10
 74
     0
 42
0.00000001
 43
0.00000001
 40
0.0
 40
0.0
 40
0.0
 40
0.0
 40
0.1152028070608912
 40
0.2878682244147769
 40
0.4611314765705095
 40
0.5952826919413418
 40
0.729433891113577
 40
0.8647179348629094
 40
1.0
 40
1.0
 40
1.0
 40
1.0
 10
6140.615697316587
 20
5106.309850384512
 30
0.0
 10
6137.503732209457
 20
5106.30864412618
 30
0.0
 10
6129.727568653329
 20
5106.305629933615
 30
0.0
 10
6116.779882174735
 20
5106.298984200627
 30
0.0
 10
6102.879641291786
 20
5106.290241790653
 30
0.0
 10
6089.759330230952
 20
5106.280971265231
 30
0.0
 10
6077.527711358237
 20
5106.270550823943
 30
0.0
 10
6065.060395512834
 20
5106.262234250592
 30
0.0
 10
6056.569170534555
 20
5106.25282627721
 30
0.0
 10
6052.323589092988
 20
5106.24812232492
 30
0.0
  0
SPLINE
  5
85
330
1F
100
AcDbEntity
  8
0
  6
Continuous
 62
     7
370
    25
100
AcDbSpline
210
0.0
220
0.0
230
1.0
 70
     8
 71
     3
 72
    11
 73
     7
 74
     0
 42
0.00000001
 43
0.00000001
 40
0.0
 40
0.0
 40
0.0
 40
0.0
 40
0.0844950944070504
 40
0.4226156818311573
 40
0.7109344268643885
 40
1.0
 40
1.0
 40
1.0
 40
1.0
 10
6176.863768940184
 20
5106.317174211213
 30
0.0
 10
6175.916542120603
 20
5106.317132318297
 30
0.0
 10
6171.178836209804
 20
5106.316922784202
 30
0.0
 10
6162.875867080874
 20
5106.315606506365
 30
0.0
 10
6151.715710972783
 20
5106.313529709836
 30
0.0
 10
6144.318891051785
 20
5106.311077883407
 30
0.0
 10
6140.615697316587
 20
5106.309850384512
 30
0.0
  0
LINE
  5
86
330
1F
100
AcDbEntity
  8
0
  6
Continuous
 62
     7
370
    25
100
AcDbLine
 10
6344.9042073536
 20
5106.3171742112
 30
0.0
 11
6176.8637689402
 21
5106.3171742112
 31
0.0
  0
LINE
  5
87
330
1F
100
AcDbEntity
  8
0
  6
Continuous
 62
     7
370
    25
100
AcDbLine
 10
6344.9042073536
 20
5106.3171742112
 30
0.0
 11
6298.4394222392
 21
4709.7572457042
 31
0.0
  0
LINE
  5
88
330
1F
100
AcDbEntity
  8
0
  6
Continuous
 62
     7
370
    25
100
AcDbLine
 10
6113.6133445945
 20
4709.7572457042
 30
0.0
 11
6298.4394222392
 21
4709.7572457042
 31
0.0
  0
LINE
  5
89
330
1F
100
AcDbEntity
  8
0
  6
Continuous
 62
     7
370
    25
100
AcDbLine
 10
5959.9752091411
 20
4709.7572457042
 30
0.0
 11
6113.6133445957
 21
4709.7572457042
 31
0.0
  0
ARC
  5
8A
330
1F
100
AcDbEntity
  8
0
  6
Continuous
 62
     7
370
    25
100
AcDbCircle
 10
6049.4629492612
 20
5106.9690721963
 30
0.0
 40
2.95008965362796
100
AcDbArc
 50
345.8546639357
 51
37.3110706561
  0
SPLINE
  5
8B
330
1F
100
AcDbEntity
  8
0
  6
Continuous
 62
     7
370
    25
100
AcDbSpline
210
0.0
220
0.0
230
1.0
 70
    24
 71
     3
 72
    29
 73
    25
 74
     0
 42
0.00000001
 43
0.00000001
 40
0.0
 40
0.0
 40
0.0
 40
0.0
 40
0.0372761307745718
 40
0.0830208463965245
 40
0.1289290336348001
 40
0.1748371978701241
 40
0.2205818820123186
 40
0.2663259224820363
 40
0.3122333492157616
 40
0.3581407811998902
 40
0.4038848288548202
 40
0.4496410660626622
 40
0.4955608722577491
 40
0.5414806415967576
 40
0.5872368283666414
 40
0.632984392136842
 40
0.6788953838569742
 40
0.7248063617251789
 40
0.7705539065389062
 40
0.8163094544420033
 40
0.8622286337471143
 40
0.9081478065689705
 40
0.9539033455996467
 40
1.0
 40
1.0
 40
1.0
 40
1.0
 10
5847.369242780837
 20
5108.757245704188
 30
0.0
 10
5847.402711184724
 20
5108.757245704188
 30
0.0
 10
5847.477251518189
 20
5108.757245704188
 30
0.0
 10
5848.992335757245
 20
5108.757245704188
 30
0.0
 10
5851.614043792933
 20
5108.757245704188
 30
0.0
 10
5855.372091613386
 20
5108.757245704188
 30
0.0
 10
5860.201968581581
 20
5108.757245704188
 30
0.0
 10
5866.116188765058
 20
5108.757245704188
 30
0.0
 10
5873.045474071048
 20
5108.757245704188
 30
0.0
 10
5880.927040371902
 20
5108.757245704188
 30
0.0
 10
5889.704923314145
 20
5108.757245704188
 30
0.0
 10
5899.350998580005
 20
5108.757245704188
 30
0.0
 10
5909.783103014797
 20
5108.757245704188
 30
0.0
 10
5920.910241273268
 20
5108.757245704188
 30
0.0
 10
5932.646845647513
 20
5108.757245704188
 30
0.0
 10
5944.937513554326
 20
5108.757245704188
 30
0.0
 10
5957.692456042127
 20
5108.757245704188
 30
0.0
 10
5970.806129833775
 20
5108.757245704188
 30
0.0
 10
5984.175830204006
 20
5108.757245704188
 30
0.0
 10
5997.725664923213
 20
5108.757245704188
 30
0.0
 10
6011.370845644041
 20
5108.757245704188
 30
0.0
 10
6024.992699931456
 20
5108.757245704188
 30
0.0
 10
6038.540668346067
 20
5108.757245704188
 30
0.0
 10
6047.375500605972
 20
5108.757245704188
 30
0.0
 10
6051.809321880753
 20
5108.757245704188
 30
0.0
  0
LWPOLYLINE
  5
8C
330
1F
100
AcDbEntity
  8
0
  6
Continuous
 62
     7
370
    25
100
AcDbPolyline
 90
        9
 70
   128
 43
0.0
 10
6140.6156973166
 20
5106.3098503845
 10
6140.6447016718
 20
5106.7551331848
 10
6140.616235711
 20
5107.2005220575
 10
6140.5317287484
 20
5107.6236534252
 10
6140.3954239931
 20
5108.0032812897
 10
6140.214165491
 20
5108.3203440227
 10
6139.9970544766
 20
5108.5589214757
 10
6139.7549923875
 20
5108.7070343521
 10
6139.5001334885
 20
5108.7572457042
  0
SPLINE
  5
8D
330
1F
100
AcDbEntity
  8
0
  6
Continuous
 62
     7
370
    25
100
AcDbSpline
210
0.0
220
0.0
230
1.0
 70
    24
 71
     3
 72
    14
 73
    10
 74
     0
 42
0.00000001
 43
0.00000001
 40
0.0
 40
0.0
 40
0.0
 40
0.0
 40
0.1457558856010003
 40
0.2916033885533236
 40
0.4373622371893076
 40
0.5864758120169951
 40
0.7356851871160808
 40
0.8847987337415372
 40
0.9999999999999999
 40
0.9999999999999999
 40
0.9999999999999999
 40
0.9999999999999999
 10
6051.809321880753
 20
5108.757245704188
 30
0.0
 10
6056.351270702073
 20
5108.757245704188
 30
0.0
 10
6065.438023264217
 20
5108.757245704188
 30
0.0
 10
6078.793997906867
 20
5108.757245704188
 30
0.0
 10
6092.011239232398
 20
5108.757245704188
 30
0.0
 10
6105.033974325213
 20
5108.757245704188
 30
0.0
 10
6117.816923313692
 20
5108.757245704188
 30
0.0
 10
6129.318766061509
 20
5108.757245704188
 30
0.0
 10
6136.409601929248
 20
5108.757245704188
 30
0.0
 10
6139.500133488496
 20
5108.757245704188
 30
0.0
  0
LWPOLYLINE
  5
8E
330
1F
100
AcDbEntity
  8
0
  6
Continuous
 62
     7
370
    25
100
AcDbPolyline
 90
        9
 70
   128
 43
0.0
 10
6176.8637689402
 20
5106.3171742112
 10
6176.8984252399
 20
5106.7617053311
 10
6176.8623674895
 20
5107.2060134584
 10
6176.7573986669
 20
5107.6278820722
 10
6176.5887674766
 20
5108.0062166834
 10
6176.3649059012
 20
5108.3220996125
 10
6176.097007581
 20
5108.5597359203
 10
6175.7984681041
 20
5108.7072431955
 10
6175.4842151933
 20
5108.7572457042
  0
SPLINE
  5
8F
330
1F
100
AcDbEntity
  8
0
  6
Continuous
 62
     7
370
    25
100
AcDbSpline
210
0.0
220
0.0
230
1.0
 70
    24
 71
     3
 72
    11
 73
     7
 74
     0
 42
0.00000001
 43
0.00000001
 40
0.0
 40
0.0
 40
0.0
 40
0.0
 40
0.2490296997341863
 40
0.4980593120459107
 40
0.7490299169979262
 40
1.0
 40
1.0
 40
1.0
 40
1.0
 10
6139.500133488496
 20
5108.757245704188
 30
0.0
 10
6142.671824313025
 20
5108.757245704188
 30
0.0
 10
6149.015204848652
 20
5108.757245704188
 30
0.0
 10
6158.156749996891
 20
5108.757245704188
 30
0.0
 10
6167.036858612293
 20
5108.757245704188
 30
0.0
 10
6172.668431618325
 20
5108.757245704188
 30
0.0
 10
6175.484215193306
 20
5108.757245704188
 30
0.0
  0
LINE
  5
90
330
1F
100
AcDbEntity
  8
0
  6
Continuous
 62
     7
370
    25
100
AcDbLine
 10
6344.9284994802
 20
5106.5244986093
 30
0.0
 11
6344.9042073536
 21
5106.3171742112
 31
0.0
  0
SPLINE
  5
91
330
1F
100
AcDbEntity
  8
0
  6
Continuous
 62
     7
370
    25
100
AcDbSpline
210
0.0
220
0.0
230
1.0
 70
     8
 71
     3
 72
    14
 73
    10
 74
     0
 42
0.00000001
 43
0.00000001
 40
0.0
 40
0.0
 40
0.0
 40
0.0
 40
0.1796172964536664
 40
0.3591157593987254
 40
0.5423008471758279
 40
0.73736737289407
 40
0.9470955755818978
 40
0.99695327469568
 40
1.0
 40
1.0
 40
1.0
 40
1.0
 10
6344.928499480235
 20
5106.524498609346
 30
0.0
 10
6344.93374659771
 20
5106.735493708218
 30
0.0
 10
6344.944237361208
 20
5107.157344313125
 30
0.0
 10
6344.710845578165
 20
5107.755013268552
 30
0.0
 10
6344.317454026722
 20
5108.255956587758
 30
0.0
 10
6343.768836453211
 20
5108.618966106785
 30
0.0
 10
6343.284479995064
 20
5108.744345530649
 30
0.0
 10
6343.002244118188
 20
5108.75714840924
 30
0.0
 10
6342.945364169739
 20
5108.757240406156
 30
0.0
 10
6342.942088497049
 20
5108.757245704188
 30
0.0
  0
LINE
  5
92
330
1F
100
AcDbEntity
  8
0
  6
Continuous
 62
     7
370
    25
100
AcDbLine
 10
6175.4842151933
 20
5108.7572457042
 30
0.0
 11
6342.942088497
 21
5108.7572457042
 31
0.0
  0
LINE
  5
93
330
1F
100
AcDbEntity
  8
0
  6
Continuous
 62
     7
370
    25
100
AcDbLine
 10
6344.9285039066
 20
5106.5244986093
 30
0.0
 11
6344.9284994802
 21
5106.5244986093
 31
0.0
  0
LINE
  5
94
330
1F
100
AcDbEntity
  8
0
  6
Continuous
 62
     7
370
    25
100
AcDbLine
 10
6344.9285039066
 20
5106.5244986093
 30
0.0
 11
6343.6229725182
 21
5095.3822672726
 31
0.0
  0
LINE
  5
95
330
1F
100
AcDbEntity
  8
0
  6
Continuous
 62
     7
370
    25
100
AcDbLine
 10
6300.0065638318
 20
4723.1322241358
 30
0.0
 11
6298.4394222392
 21
4709.7572457042
 31
0.0
  0
LINE
  5
96
330
1F
100
AcDbEntity
  8
0
  6
Continuous
 62
     7
370
    25
100
AcDbLine
 10
6298.7648976222
 20
4709.7572457042
 30
0.0
 11
6525.1901249004
 21
4709.7572457042
 31
0.0
  0
LINE
  5
97
330
1F
100
AcDbEntity
  8
0
  6
Continuous
 62
     7
370
    25
100
AcDbLine
 10
6165.1901249004
 20
5108.7572457042
 30
0.0
 11
6165.1901249004
 21
5557.7572457042
 31
0.0
  0
LINE
  5
98
330
1F
100
AcDbEntity
  8
0
  6
Continuous
 62
     7
370
    25
100
AcDbLine
 10
6525.1901249004
 20
5557.7572457042
 30
0.0
 11
6165.1901249004
 21
5557.7572457042
 31
0.0
  0
LINE
  5
99
330
1F
100
AcDbEntity
  8
0
  6
Continuous
 62
     7
370
    25
100
AcDbLine
 10
6525.1901249004
 20
4709.7572457042
 30
0.0
 11
6525.1901249004
 21
5557.7572457042
 31
0.0
  0
ARC
  5
9A
330
1F
100
AcDbEntity
  8
0
  6
Continuous
 62
     7
370
    25
100
AcDbCircle
 10
6167.1901249004
 20
5557.7572457042
 30
0.0
 40
2.0
100
AcDbArc
 50
90.0
 51
180.0
  0
LINE
  5
9B
330
1F
100
AcDbEntity
  8
0
  6
Continuous
 62
     7
370
    25
100
AcDbLine
 10
6167.1901249004
 20
5559.7572457042
 30
0.0
 11
6523.1901249004
 21
5559.7572457042
 31
0.0
  0
ARC
  5
9C
330
1F
100
AcDbEntity
  8
0
  6
Continuous
 62
     7
370
    25
100
AcDbCircle
 10
6523.1901249004
 20
5557.7572457042
 30
0.0
 40
2.0
100
AcDbArc
 50
0.0
 51
90.0
  0
SPLINE
  5
9D
330
1F
100
AcDbEntity
  8
0
  6
Continuous
 62
     7
370
    25
100
AcDbSpline
210
0.0
220
0.0
230
1.0
 70
    11
 71
     3
 72
    39
 73
    35
 74
     0
 42
0.00000001
 43
0.00000001
 40
0.0
 40
0.0
 40
0.0
 40
0.0
 40
0.0312503792996385
 40
0.0625010686353629
 40
0.0937510335505543
 40
0.1250018190739995
 40
0.1562525618101816
 40
0.187502644571362
 40
0.2187529493829754
 40
0.2500036567052472
 40
0.2812542984490211
 40
0.3125045603175803
 40
0.343754697872389
 40
0.3750054821042899
 40
0.4062561961155836
 40
0.4375062577508762
 40
0.4687565877556103
 40
0.5000073230927624
 40
0.5312579282959203
 40
0.5625081724548461
 40
0.5937583406404543
 40
0.6250091419330661
 40
0.6562598272461697
 40
0.6875098697641802
 40
0.7187602266751884
 40
0.7500109868534707
 40
0.781261549097123
 40
0.8125118059291409
 40
0.8437619344586537
 40
0.875012761011835
 40
0.9062640238555336
 40
0.9375108598744738
 40
0.9687546138267316
 40
1.0
 40
1.0
 40
1.0
 40
1.0
 10
6459.190124900369
 20
5619.757245704189
 30
0.0
 10
6459.190122485041
 20
5620.673536191953
 30
0.0
 10
6459.009459405534
 20
5622.506127707138
 30
0.0
 10
6458.20760163045
 20
5625.149337721563
 30
0.0
 10
6456.90558492788
 20
5627.585407065744
 30
0.0
 10
6455.153324661091
 20
5629.720670295937
 30
0.0
 10
6453.018016186082
 20
5631.4728844214
 30
0.0
 10
6450.581917461441
 20
5632.774820467886
 30
0.0
 10
6447.93870166325
 20
5633.576666454568
 30
0.0
 10
6445.189802405765
 20
5633.847571883444
 30
0.0
 10
6442.440920935604
 20
5633.576518203391
 30
0.0
 10
6439.797740210433
 20
5632.774572137869
 30
0.0
 10
6437.361682238814
 20
5631.472550255205
 30
0.0
 10
6435.226472980638
 20
5629.720211542774
 30
0.0
 10
6433.474318236115
 20
5627.58486045183
 30
0.0
 10
6432.172423281159
 20
5625.148741144509
 30
0.0
 10
6431.370629100948
 20
5622.505506982813
 30
0.0
 10
6431.099802297324
 20
5619.756598837779
 30
0.0
 10
6431.370925592731
 20
5617.007726141582
 30
0.0
 10
6432.17292259139
 20
5614.364562809997
 30
0.0
 10
6433.474987719932
 20
5611.928525369677
 30
0.0
 10
6435.227391680914
 20
5609.79336724138
 30
0.0
 10
6437.362786369329
 20
5608.041270021795
 30
0.0
 10
6439.798926380464
 20
5606.739416991357
 30
0.0
 10
6442.442179147215
 20
5605.93767412447
 30
0.0
 10
6445.191095841337
 20
5605.666929754678
 30
0.0
 10
6447.93996132917
 20
5605.938115845956
 30
0.0
 10
6450.583103675131
 20
5606.740172156748
 30
0.0
 10
6453.019122314853
 20
5608.042270813408
 30
0.0
 10
6455.154250296345
 20
5609.794747283223
 30
0.0
 10
6456.906197014048
 20
5611.930156888282
 30
0.0
 10
6458.207978572823
 20
5614.366025857755
 30
0.0
 10
6459.009537235118
 20
5617.008862757227
 30
0.0
 10
6459.190127315313
 20
5618.841101619583
 30
0.0
 10
6459.19012490037
 20
5619.75724570419
 30
0.0
  0
SPLINE
  5
9E
330
1F
100
AcDbEntity
  8
0
  6
Continuous
 62
     7
370
    25
100
AcDbSpline
210
0.0
220
0.0
230
1.0
 70
    11
 71
     3
 72
    39
 73
    35
 74
     0
 42
0.00000001
 43
0.00000001
 40
0.0
 40
0.0
 40
0.0
 40
0.0
 40
0.0312503792996386
 40
0.0625010686353628
 40
0.0937510335505544
 40
0.1250018190739993
 40
0.1562525618101815
 40
0.187502644571362
 40
0.2187529493829752
 40
0.250003656705247
 40
0.2812542984490213
 40
0.3125045603175806
 40
0.3437546978723892
 40
0.3750054821042902
 40
0.4062561961155833
 40
0.4375062577508764
 40
0.4687565877556102
 40
0.5000073230927623
 40
0.5312579282959201
 40
0.5625081724548461
 40
0.5937583406404542
 40
0.625009141933066
 40
0.6562598272461694
 40
0.6875098697641804
 40
0.7187602266751882
 40
0.7500109868534707
 40
0.7812615490971229
 40
0.8125118059291407
 40
0.8437619344586532
 40
0.8750127610118349
 40
0.9062640238555335
 40
0.9375108598744735
 40
0.9687546138267313
 40
1.0
 40
1.0
 40
1.0
 40
1.0
 10
6259.190124900369
 20
5619.75724570419
 30
0.0
 10
6259.190122485042
 20
5620.673536191953
 30
0.0
 10
6259.009459405534
 20
5622.506127707138
 30
0.0
 10
6258.20760163045
 20
5625.149337721563
 30
0.0
 10
6256.90558492788
 20
5627.585407065744
 30
0.0
 10
6255.153324661091
 20
5629.720670295937
 30
0.0
 10
6253.018016186083
 20
5631.4728844214
 30
0.0
 10
6250.581917461441
 20
5632.774820467886
 30
0.0
 10
6247.93870166325
 20
5633.576666454568
 30
0.0
 10
6245.189802405766
 20
5633.847571883444
 30
0.0
 10
6242.440920935605
 20
5633.576518203391
 30
0.0
 10
6239.797740210433
 20
5632.774572137869
 30
0.0
 10
6237.361682238814
 20
5631.472550255205
 30
0.0
 10
6235.226472980639
 20
5629.720211542774
 30
0.0
 10
6233.474318236115
 20
5627.58486045183
 30
0.0
 10
6232.172423281158
 20
5625.148741144509
 30
0.0
 10
6231.370629100948
 20
5622.505506982813
 30
0.0
 10
6231.099802297324
 20
5619.756598837779
 30
0.0
 10
6231.370925592731
 20
5617.007726141582
 30
0.0
 10
6232.17292259139
 20
5614.364562809997
 30
0.0
 10
6233.474987719932
 20
5611.928525369677
 30
0.0
 10
6235.227391680915
 20
5609.79336724138
 30
0.0
 10
6237.362786369329
 20
5608.041270021795
 30
0.0
 10
6239.798926380464
 20
5606.739416991357
 30
0.0
 10
6242.442179147215
 20
5605.93767412447
 30
0.0
 10
6245.191095841336
 20
5605.666929754678
 30
0.0
 10
6247.93996132917
 20
5605.938115845956
 30
0.0
 10
6250.583103675131
 20
5606.740172156748
 30
0.0
 10
6253.019122314853
 20
5608.042270813408
 30
0.0
 10
6255.154250296345
 20
5609.794747283223
 30
0.0
 10
6256.906197014049
 20
5611.930156888282
 30
0.0
 10
6258.207978572822
 20
5614.366025857755
 30
0.0
 10
6259.009537235118
 20
5617.008862757227
 30
0.0
 10
6259.190127315313
 20
5618.841101619583
 30
0.0
 10
6259.190124900371
 20
5619.75724570419
 30
0.0
  0
CIRCLE
  5
9F
330
1F
100
AcDbEntity
  8
0
  6
Continuous
 62
     7
370
    25
100
AcDbCircle
 10
6445.1901249004
 20
5619.7572457042
 30
0.0
 40
15.0
  0
CIRCLE
  5
A0
330
1F
100
AcDbEntity
  8
0
  6
Continuous
 62
     7
370
    25
100
AcDbCircle
 10
6445.1901249004
 20
5619.7572457042
 30
0.0
 40
22.5
  0
CIRCLE
  5
A1
330
1F
100
AcDbEntity
  8
0
  6
Continuous
 62
     7
370
    25
100
AcDbCircle
 10
6245.1901249004
 20
5619.7572457042
 30
0.0
 40
22.50000000000091
  0
CIRCLE
  5
A2
330
1F
100
AcDbEntity
  8
0
  6
Continuous
 62
     7
370
    25
100
AcDbCircle
 10
6245.1901249004
 20
5619.7572457042
 30
0.0
 40
15.0
  0
LINE
  5
A3
330
1F
100
AcDbEntity
  8
0
  6
Continuous
 62
     7
370
    25
100
AcDbLine
 10
6523.1901249004
 20
5715.7572457042
 30
0.0
 11
6167.1901249004
 21
5715.7572457042
 31
0.0
  0
LINE
  5
A4
330
1F
100
AcDbEntity
  8
0
  6
Continuous
 62
     7
370
    25
100
AcDbLine
 10
6523.1901249004
 20
5584.7572457042
 30
0.0
 11
6523.1901249004
 21
5715.7572457042
 31
0.0
  0
LINE
  5
A5
330
1F
100
AcDbEntity
  8
0
  6
Continuous
 62
     7
370
    25
100
AcDbLine
 10
6167.1901249004
 20
5584.7572457042
 30
0.0
 11
6523.1901249004
 21
5584.7572457042
 31
0.0
  0
LINE
  5
A6
330
1F
100
AcDbEntity
  8
0
  6
Continuous
 62
     7
370
    25
100
AcDbLine
 10
6167.1901249004
 20
5715.7572457042
 30
0.0
 11
6167.1901249004
 21
5584.7572457042
 31
0.0
  0
LINE
  5
A7
330
1F
100
AcDbEntity
  8
0
  6
Continuous
 62
     7
370
    25
100
AcDbLine
 10
6167.1901249004
 20
5715.7572457042
 30
0.0
 11
6167.1901249004
 21
5717.7572457042
 31
0.0
  0
LINE
  5
A8
330
1F
100
AcDbEntity
  8
0
  6
Continuous
 62
     7
370
    25
100
AcDbLine
 10
6167.1901249004
 20
5717.7572457042
 30
0.0
 11
6523.1901249004
 21
5717.7572457042
 31
0.0
  0
LINE
  5
A9
330
1F
100
AcDbEntity
  8
0
  6
Continuous
 62
     7
370
    25
100
AcDbLine
 10
6523.1901249004
 20
5717.7572457042
 30
0.0
 11
6523.1901249004
 21
5715.7572457042
 31
0.0
  0
LINE
  5
AA
330
1F
100
AcDbEntity
  8
0
  6
Continuous
 62
     7
370
    25
100
AcDbLine
 10
6525.1901249004
 20
5582.7572457042
 30
0.0
 11
6523.1901249004
 21
5584.7572457042
 31
0.0
  0
LINE
  5
AB
330
1F
100
AcDbEntity
  8
0
  6
Continuous
 62
     7
370
    25
100
AcDbLine
 10
6525.1901249004
 20
5715.7572457042
 30
0.0
 11
6523.1901249004
 21
5715.7572457042
 31
0.0
  0
LINE
  5
AC
330
1F
100
AcDbEntity
  8
0
  6
Continuous
 62
     7
370
    25
100
AcDbLine
 10
6525.1901249004
 20
5715.7572457042
 30
0.0
 11
6525.1901249004
 21
5582.7572457042
 31
0.0
  0
LINE
  5
AD
330
1F
100
AcDbEntity
  8
0
  6
Continuous
 62
     7
370
    25
100
AcDbLine
 10
6167.1901249004
 20
5584.7572457042
 30
0.0
 11
6165.1901249004
 21
5582.7572457042
 31
0.0
  0
LINE
  5
AE
330
1F
100
AcDbEntity
  8
0
  6
Continuous
 62
     7
370
    25
100
AcDbLine
 10
6167.1901249004
 20
5715.7572457042
 30
0.0
 11
6165.1901249004
 21
5715.7572457042
 31
0.0
  0
LINE
  5
AF
330
1F
100
AcDbEntity
  8
0
  6
Continuous
 62
     7
370
    25
100
AcDbLine
 10
6165.1901249004
 20
5582.7572457042
 30
0.0
 11
6165.1901249004
 21
5715.7572457042
 31
0.0
  0
ARC
  5
B0
330
1F
100
AcDbEntity
  8
0
  6
Continuous
 62
     7
370
    25
100
AcDbCircle
 10
6523.1901249004
 20
5715.7572457042
 30
0.0
 40
2.0
100
AcDbArc
 50
0.0
 51
90.0
  0
LINE
  5
B1
330
1F
100
AcDbEntity
  8
0
  6
Continuous
 62
     7
370
    25
100
AcDbLine
 10
6525.1901249004
 20
5582.7572457042
 30
0.0
 11
6165.1901249004
 21
5582.7572457042
 31
0.0
  0
ARC
  5
B2
330
1F
100
AcDbEntity
  8
0
  6
Continuous
 62
     7
370
    25
100
AcDbCircle
 10
6167.1901249004
 20
5715.7572457042
 30
0.0
 40
1.999999999999091
100
AcDbArc
 50
90.0
 51
180.0
  0
LINE
  5
B3
330
1F
100
AcDbEntity
  8
0
  6
Continuous
 62
     7
370
    25
100
AcDbLine
 10
6523.1901249004
 20
5559.7572457042
 30
0.0
 11
6523.1901249004
 21
5582.7572457042
 31
0.0
  0
LINE
  5
B4
330
1F
100
AcDbEntity
  8
0
  6
Continuous
 62
     7
370
    25
100
AcDbLine
 10
6525.1901249004
 20
5582.7572457042
 30
0.0
 11
6525.1901249004
 21
5557.7572457042
 31
0.0
  0
LINE
  5
B5
330
1F
100
AcDbEntity
  8
0
  6
Continuous
 62
     7
370
    25
100
AcDbLine
 10
6167.1901249004
 20
5582.7572457042
 30
0.0
 11
6167.1901249004
 21
5559.7572457042
 31
0.0
  0
LINE
  5
B6
330
1F
100
AcDbEntity
  8
0
  6
Continuous
 62
     7
370
    25
100
AcDbLine
 10
6165.1901249004
 20
5557.7572457042
 30
0.0
 11
6165.1901249004
 21
5582.7572457042
 31
0.0
  0
SPLINE
  5
B7
330
1F
100
AcDbEntity
  8
0
  6
Continuous
 62
     8
370
    25
100
AcDbSpline
210
0.0
220
0.0
230
1.0
 70
     8
 71
     3
 72
    30
 73
    26
 74
     0
 42
0.00000001
 43
0.00000001
 40
0.0
 40
0.0
 40
0.0
 40
0.0
 40
0.0461007690422377
 40
0.0912850101552074
 40
0.1364692999786637
 40
0.1829665921685731
 40
0.2294638782006767
 40
0.2746368966664821
 40
0.3198098866453105
 40
0.3662939556318988
 40
0.4127780563406684
 40
0.4579573927498415
 40
0.5031367430734389
 40
0.5496278986528975
 40
0.5961190397597489
 40
0.6412870691804602
 40
0.6864550812336075
 40
0.7329335038914376
 40
0.7794119594474366
 40
0.8245829304577996
 40
0.869753899610548
 40
0.916236233336067
 40
0.9627185242391177
 40
0.9887527161721879
 40
1.0
 40
1.0
 40
1.0
 40
1.0
 10
6052.323589092988
 20
5106.24812232492
 30
0.0
 10
6047.836285638778
 20
5106.242186540537
 30
0.0
 10
6038.950890668213
 20
5106.230432980911
 30
0.0
 10
6025.374390580983
 20
5106.214212858458
 30
0.0
 10
6011.66586801069
 20
5106.199027614386
 30
0.0
 10
5997.79881642105
 20
5106.185002666034
 30
0.0
 10
5984.014538426556
 20
5106.172358237776
 30
0.0
 10
5970.540198165314
 20
5106.161259807472
 30
0.0
 10
5957.333173611596
 20
5106.151611676349
 30
0.0
 10
5944.368483217103
 20
5106.143418589891
 30
0.0
 10
5931.867840507678
 20
5106.136818948048
 30
0.0
 10
5920.033872475205
 20
5106.131891076679
 30
0.0
 10
5908.815646477848
 20
5106.128555434611
 30
0.0
 10
5898.20711341373
 20
5106.126860131833
 30
0.0
 10
5888.396683781749
 20
5106.126852476468
 30
0.0
 10
5879.537373895103
 20
5106.128505823614
 30
0.0
 10
5871.57515715249
 20
5106.131772284184
 30
0.0
 10
5864.521075563112
 20
5106.136717036513
 30
0.0
 10
5858.506333822365
 20
5106.143295659866
 30
0.0
 10
5853.616579127492
 20
5106.151386716965
 30
0.0
 10
5849.806971657211
 20
5106.160981820423
 30
0.0
 10
5847.088280692224
 20
5106.172152481053
 30
0.0
 10
5845.793593869132
 20
5106.18306698476
 30
0.0
 10
5845.355157231966
 20
5106.191298167268
 30
0.0
 10
5845.390990872052
 20
5106.195226513041
 30
0.0
 10
5845.401801364726
 20
5106.196411638333
 30
0.0
  0
LINE
  5
B8
330
1F
100
AcDbEntity
  8
0
  6
Continuous
 62
     7
370
    25
100
AcDbLine
 10
7064.4953828141
 20
5687.2572457042
 30
0.0
 11
7061.9953828141
 21
5687.2572457042
 31
0.0
  0
LINE
  5
B9
330
1F
100
AcDbEntity
  8
0
  6
Continuous
 62
     7
370
    25
100
AcDbLine
 10
7063.9953828141
 20
5642.2572457042
 30
0.0
 11
7064.4953828141
 21
5642.2572457042
 31
0.0
  0
ARC
  5
BA
330
1F
100
AcDbEntity
  8
0
  6
Continuous
 62
     7
370
    25
100
AcDbCircle
 10
7064.4953828141
 20
5664.7572457042
 30
0.0
 40
22.50000000000042
100
AcDbArc
 50
323.6487392478
 51
0.0
  0
ARC
  5
BB
330
1F
100
AcDbEntity
  8
0
  6
Continuous
 62
     7
370
    25
100
AcDbCircle
 10
7064.4953828141
 20
5664.7572457042
 30
0.0
 40
22.50000000000134
100
AcDbArc
 50
270.0
 51
306.3512607522
  0
ARC
  5
BC
330
1F
100
AcDbEntity
  8
0
  6
Continuous
 62
     7
370
    25
100
AcDbCircle
 10
7064.4953828141
 20
5664.7572457042
 30
0.0
 40
22.5
100
AcDbArc
 50
0.0
 51
90.0
  0
SPLINE
  5
BD
330
1F
100
AcDbEntity
  8
0
  6
Continuous
 62
     7
370
    25
100
AcDbSpline
210
0.0
220
0.0
230
1.0
 70
     8
 71
     3
 72
    35
 73
    31
 74
     0
 42
0.00000001
 43
0.00000001
 40
0.0
 40
0.0
 40
0.0
 40
0.0
 40
0.0530133132154876
 40
0.103399804744853
 40
0.1511481704402736
 40
0.1962477504582683
 40
0.2386885749125604
 40
0.2784614069994962
 40
0.3155577727793658
 40
0.349969994665183
 40
0.378577836402561
 40
0.4050114996895216
 40
0.4292672617966526
 40
0.4513420820527229
 40
0.4712336957014095
 40
0.4889407647220815
 40
0.5051444294355721
 40
0.5279381525384405
 40
0.5536549352159501
 40
0.5822959462295825
 40
0.6138624646067429
 40
0.6483558804564074
 40
0.6857776952210459
 40
0.7261295215681103
 40
0.7656941002691451
 40
0.8077235587505949
 40
0.8522193833906477
 40
0.8991831373498945
 40
0.948616459866699
 40
1.0
 40
1.0
 40
1.0
 40
1.0
 10
7622.211625341751
 20
4709.757245704188
 30
0.0
 10
7624.186529589187
 20
4716.785700302612
 30
0.0
 10
7628.038481130953
 20
4730.494347980998
 30
0.0
 10
7633.711115341781
 20
4750.505313078048
 30
0.0
 10
7639.107903976625
 20
4769.451638503449
 30
0.0
 10
7644.223403476915
 20
4787.331302734092
 30
0.0
 10
7649.049837197332
 20
4804.144810229109
 30
0.0
 10
7653.582005900719
 20
4819.892038736305
 30
0.0
 10
7657.815756345173
 20
4834.573019910354
 30
0.0
 10
7661.629457690164
 20
4847.777127305797
 30
0.0
 10
7665.040424391668
 20
4859.573488992539
 30
0.0
 10
7668.066809855013
 20
4870.030798403189
 30
0.0
 10
7670.846372807536
 20
4879.628355652399
 30
0.0
 10
7673.378500915792
 20
4888.366156554184
 30
0.0
 10
7675.662734393456
 20
4896.244269975576
 30
0.0
 10
7677.724750102649
 20
4903.352596940367
 30
0.0
 10
7679.901119298589
 20
4910.852381647792
 30
0.0
 10
7682.385588985429
 20
4919.410142966535
 30
0.0
 10
7685.348978756821
 20
4929.61229929409
 30
0.0
 10
7688.650778338656
 20
4940.973300429191
 30
0.0
 10
7692.291495048199
 20
4953.493304569667
 30
0.0
 10
7696.271575710911
 20
4967.172264036835
 30
0.0
 10
7700.591472382021
 20
4982.0101947484
 30
0.0
 10
7705.108442359799
 20
4997.515653694666
 30
0.0
 10
7709.804616267252
 20
5013.627045588185
 30
0.0
 10
7714.662073373968
 20
5030.282804032808
 30
0.0
 10
7719.806202816626
 20
5047.912437040033
 30
0.0
 10
7725.237165351351
 20
5066.515840477046
 30
0.0
 10
7730.934892682381
 20
5086.024647933414
 30
0.0
 10
7734.822706101088
 20
5099.329667932234
 30
0.0
 10
7736.804216054677
 20
5106.110865155723
 30
0.0
  0
ARC
  5
BE
330
1F
100
AcDbEntity
  8
0
  6
Continuous
 62
     7
370
    25
100
AcDbCircle
 10
7734.9102166348
 20
5106.7572457092
 30
0.0
 40
1.99999999497124
100
AcDbArc
 50
343.0410771636
 51
90.000119965
  0
LINE
  5
BF
330
1F
100
AcDbEntity
  8
0
  6
Continuous
 62
     7
370
    25
100
AcDbLine
 10
7416.9953828141
 20
5108.7572457042
 30
0.0
 11
7416.9953828141
 21
5557.7572457042
 31
0.0
  0
ARC
  5
C0
330
1F
100
AcDbEntity
  8
0
  6
Continuous
 62
     7
370
    25
100
AcDbCircle
 10
7414.9953828141
 20
5557.7572457042
 30
0.0
 40
2.0
100
AcDbArc
 50
0.0
 51
90.0
  0
LINE
  5
C1
330
1F
100
AcDbEntity
  8
0
  6
Continuous
 62
     7
370
    25
100
AcDbLine
 10
7061.9953828141
 20
5597.2572457042
 30
0.0
 11
7063.9953828141
 21
5597.2572457042
 31
0.0
  0
LINE
  5
C2
330
1F
100
AcDbEntity
  8
0
  6
Continuous
 62
     7
370
    25
100
AcDbLine
 10
7063.9953828141
 20
5642.2572457042
 30
0.0
 11
7061.9953828141
 21
5642.2572457042
 31
0.0
  0
LINE
  5
C3
330
1F
100
AcDbEntity
  8
0
  6
Continuous
 62
     7
370
    25
100
AcDbLine
 10
7063.9953828141
 20
5605.75725184
 30
0.0
 11
7064.9953828141
 21
5605.75725184
 31
0.0
  0
LINE
  5
C4
330
1F
100
AcDbEntity
  8
0
  6
Continuous
 62
     7
370
    25
100
AcDbLine
 10
7064.9953828141
 20
5633.7572449883
 30
0.0
 11
7063.9953828141
 21
5633.7572449883
 31
0.0
  0
LINE
  5
C5
330
1F
100
AcDbEntity
  8
0
  6
Continuous
 62
     7
370
    25
100
AcDbLine
 10
7077.8318973808
 20
5646.6357838644
 30
0.0
 11
7082.6168446539
 21
5651.4207311375
 31
0.0
  0
SPLINE
  5
C6
330
1F
100
AcDbEntity
  8
0
  6
Continuous
 62
     7
370
    25
100
AcDbSpline
210
0.0
220
0.0
230
1.0
 70
     8
 71
     3
 72
    14
 73
    10
 74
     0
 42
0.00000001
 43
0.00000001
 40
0.0
 40
0.0
 40
0.0
 40
0.0
 40
0.115281730433652
 40
0.285068819642198
 40
0.4554242431348481
 40
0.5909843706964064
 40
0.7265444771714606
 40
0.8632722462615449
 40
1.0
 40
1.0
 40
1.0
 40
1.0
 10
7529.861918626447
 20
5106.248122324913
 30
0.0
 10
7526.242745434943
 20
5106.251593351126
 30
0.0
 10
7517.293249049855
 20
5106.260176509461
 30
0.0
 10
7503.25506255358
 20
5106.272308901269
 30
0.0
 10
7488.900144269282
 20
5106.283526330873
 30
0.0
 10
7475.889576372982
 20
5106.292496431688
 30
0.0
 10
7464.153578740377
 20
5106.299569695876
 30
0.0
 10
7452.664433358803
 20
5106.305508982076
 30
0.0
 10
7445.268017913166
 20
5106.308403250422
 30
0.0
 10
7441.569810397961
 20
5106.309850384512
 30
0.0
  0
LINE
  5
C7
330
1F
100
AcDbEntity
  8
0
  6
Continuous
 62
     7
370
    25
100
AcDbLine
 10
7736.7431717672
 20
5106.1969223983
 30
0.0
 11
7736.7311328254
 21
5106.1964384627
 31
0.0
  0
LINE
  5
C8
330
1F
100
AcDbEntity
  8
0
  6
Continuous
 62
     7
370
    25
100
AcDbLine
 10
7468.5721631187
 20
4709.7572457042
 30
0.0
 11
7622.2103000396
 21
4709.7572457042
 31
0.0
  0
LINE
  5
C9
330
1F
100
AcDbEntity
  8
0
  6
Continuous
 62
     7
370
    25
100
AcDbLine
 10
7283.7460854752
 20
4709.7572457042
 30
0.0
 11
7468.5721631187
 21
4709.7572457042
 31
0.0
  0
LINE
  5
CA
330
1F
100
AcDbEntity
  8
0
  6
Continuous
 62
     7
370
    25
100
AcDbLine
 10
7283.7460854752
 20
4709.7572457042
 30
0.0
 11
7237.2813003608
 21
5106.3171742112
 31
0.0
  0
LINE
  5
CB
330
1F
100
AcDbEntity
  8
0
  6
Continuous
 62
     7
370
    25
100
AcDbLine
 10
7405.3217387746
 20
5106.3171742112
 30
0.0
 11
7237.2813003608
 21
5106.3171742112
 31
0.0
  0
SPLINE
  5
CC
330
1F
100
AcDbEntity
  8
0
  6
Continuous
 62
     7
370
    25
100
AcDbSpline
210
0.0
220
0.0
230
1.0
 70
     8
 71
     3
 72
    11
 73
     7
 74
     0
 42
0.00000001
 43
0.00000001
 40
0.0
 40
0.0
 40
0.0
 40
0.0
 40
0.0844950609604888
 40
0.4226161766368846
 40
0.7109348338775398
 40
1.0
 40
1.0
 40
1.0
 40
1.0
 10
7441.569810397961
 20
5106.309850384512
 30
0.0
 10
7440.479820879071
 20
5106.310242977554
 30
0.0
 10
7435.028056032557
 20
5106.312206597298
 30
0.0
 10
7426.134302756312
 20
5106.314397194359
 30
0.0
 10
7415.133320225987
 20
5106.316350439966
 30
0.0
 10
7408.5950837223
 20
5106.316899384217
 30
0.0
 10
7405.321738774604
 20
5106.317174211213
 30
0.0
  0
ARC
  5
CD
330
1F
100
AcDbEntity
  8
0
  6
Continuous
 62
     7
370
    25
100
AcDbCircle
 10
7532.7225584585
 20
5106.9690721963
 30
0.0
 40
2.950089653883731
100
AcDbArc
 50
142.6889293477
 51
194.1453360631
  0
SPLINE
  5
CE
330
1F
100
AcDbEntity
  8
0
  6
Continuous
 62
     7
370
    25
100
AcDbSpline
210
0.0
220
0.0
230
1.0
 70
    24
 71
     3
 72
    29
 73
    25
 74
     0
 42
0.00000001
 43
0.00000001
 40
0.0
 40
0.0
 40
0.0
 40
0.0
 40
0.0457469711975718
 40
0.0916574114611838
 40
0.1375678918167503
 40
0.1833149178805173
 40
0.2290646610256963
 40
0.2749778937533685
 40
0.3208911034755609
 40
0.3666408151375219
 40
0.4123898830562641
 40
0.4583023551958036
 40
0.5042148325863234
 40
0.5499639076910675
 40
0.5957251736884032
 40
0.6416500266498555
 40
0.6875748427511786
 40
0.7333360583050128
 40
0.7790886499114623
 40
0.8250046874292147
 40
0.870920711093517
 40
0.9166732837414098
 40
0.9624338603582434
 40
0.9999999999999999
 40
0.9999999999999999
 40
0.9999999999999999
 40
0.9999999999999999
 10
7530.376185838622
 20
5108.757245704188
 30
0.0
 10
7534.776520633623
 20
5108.757245704188
 30
0.0
 10
7543.592914075946
 20
5108.757245704188
 30
0.0
 10
7557.117847688301
 20
5108.757245704188
 30
0.0
 10
7570.733958019993
 20
5108.757245704188
 30
0.0
 10
7584.360443364536
 20
5108.757245704188
 30
0.0
 10
7597.905330084171
 20
5108.757245704188
 30
0.0
 10
7611.291293909496
 20
5108.757245704188
 30
0.0
 10
7624.410943204936
 20
5108.757245704188
 30
0.0
 10
7637.155733400376
 20
5108.757245704188
 30
0.0
 10
7649.435854756091
 20
5108.757245704188
 30
0.0
 10
7661.190522903864
 20
5108.757245704188
 30
0.0
 10
7672.329223784669
 20
5108.757245704188
 30
0.0
 10
7682.757702854403
 20
5108.757245704188
 30
0.0
 10
7692.390551352981
 20
5108.757245704188
 30
0.0
 10
7701.191711876364
 20
5108.757245704188
 30
0.0
 10
7709.095934091998
 20
5108.757245704188
 30
0.0
 10
7716.03121577108
 20
5108.757245704188
 30
0.0
 10
7721.927743395308
 20
5108.757245704188
 30
0.0
 10
7726.776600004549
 20
5108.757245704188
 30
0.0
 10
7730.558360479264
 20
5108.757245704188
 30
0.0
 10
7733.192322495709
 20
5108.757245704188
 30
0.0
 10
7734.688451419604
 20
5108.757245704188
 30
0.0
 10
7734.771918316821
 20
5108.757245704188
 30
0.0
 10
7734.809547654171
 20
5108.757245704188
 30
0.0
  0
LWPOLYLINE
  5
CF
330
1F
100
AcDbEntity
  8
0
  6
Continuous
 62
     7
370
    25
100
AcDbPolyline
 90
        9
 70
   128
 43
0.0
 10
7441.569810398
 20
5106.3098503845
 10
7441.5408060427
 20
5106.7551331848
 10
7441.5692720036
 20
5107.2005220575
 10
7441.6537789661
 20
5107.6236534252
 10
7441.7900837215
 20
5108.0032812897
 10
7441.9713422236
 20
5108.3203440227
 10
7442.1884532379
 20
5108.5589214757
 10
7442.430515327
 20
5108.7070343521
 10
7442.6853742261
 20
5108.7572457042
  0
SPLINE
  5
D0
330
1F
100
AcDbEntity
  8
0
  6
Continuous
 62
     7
370
    25
100
AcDbSpline
210
0.0
220
0.0
230
1.0
 70
    24
 71
     3
 72
    14
 73
    10
 74
     0
 42
0.00000001
 43
0.00000001
 40
0.0
 40
0.0
 40
0.0
 40
0.0
 40
0.1457512863598517
 40
0.291592034658113
 40
0.4373432880133915
 40
0.5864385268240296
 40
0.7356295265151209
 40
0.8847247367711357
 40
1.0
 40
1.0
 40
1.0
 40
1.0
 10
7442.685374226052
 20
5108.757245704188
 30
0.0
 10
7446.603444923579
 20
5108.757245704188
 30
0.0
 10
7454.441991225018
 20
5108.757245704188
 30
0.0
 10
7466.679109520622
 20
5108.757245704188
 30
0.0
 10
7479.326020895597
 20
5108.757245704188
 30
0.0
 10
7492.398723008826
 20
5108.757245704188
 30
0.0
 10
7505.863308655848
 20
5108.757245704188
 30
0.0
 10
7518.538236302997
 20
5108.757245704188
 30
0.0
 10
7526.781722324764
 20
5108.757245704188
 30
0.0
 10
7530.376185838621
 20
5108.757245704188
 30
0.0
  0
LWPOLYLINE
  5
D1
330
1F
100
AcDbEntity
  8
0
  6
Continuous
 62
     7
370
    25
100
AcDbPolyline
 90
        9
 70
   128
 43
0.0
 10
7405.3217387746
 20
5106.3171742112
 10
7405.2870824749
 20
5106.7617053311
 10
7405.3231402253
 20
5107.2060134584
 10
7405.4281090479
 20
5107.6278820722
 10
7405.5967402382
 20
5108.0062166834
 10
7405.8206018136
 20
5108.3220996125
 10
7406.0885001338
 20
5108.5597359203
 10
7406.3870396107
 20
5108.7072431955
 10
7406.7012925215
 20
5108.7572457042
  0
SPLINE
  5
D2
330
1F
100
AcDbEntity
  8
0
  6
Continuous
 62
     7
370
    25
100
AcDbSpline
210
0.0
220
0.0
230
1.0
 70
    24
 71
     3
 72
    11
 73
     7
 74
     0
 42
0.00000001
 43
0.00000001
 40
0.0
 40
0.0
 40
0.0
 40
0.0
 40
0.085112583611551
 40
0.4257061745484481
 40
0.712485926095964
 40
1.0
 40
1.0
 40
1.0
 40
1.0
 10
7406.701292521487
 20
5108.757245704188
 30
0.0
 10
7407.648545141311
 20
5108.757245704188
 30
0.0
 10
7412.386402600285
 20
5108.757245704188
 30
0.0
 10
7420.649595274445
 20
5108.757245704188
 30
0.0
 10
7431.72481233322
 20
5108.757245704188
 30
0.0
 10
7439.028740532578
 20
5108.757245704188
 30
0.0
 10
7442.685374226052
 20
5108.757245704188
 30
0.0
  0
SPLINE
  5
D3
330
1F
100
AcDbEntity
  8
0
  6
Continuous
 62
     7
370
    25
100
AcDbSpline
210
0.0
220
0.0
230
1.0
 70
     8
 71
     3
 72
    14
 73
    10
 74
     0
 42
0.00000001
 43
0.00000001
 40
0.0
 40
0.0
 40
0.0
 40
0.0
 40
0.0030467252929627
 40
0.0529044244180805
 40
0.2626326271059238
 40
0.4576991528242009
 40
0.6408842406012885
 40
0.8203827035463404
 40
1.0
 40
1.0
 40
1.0
 40
1.0
 10
7239.243419217411
 20
5108.757245704188
 30
0.0
 10
7239.240143544729
 20
5108.757240406157
 30
0.0
 10
7239.183263596213
 20
5108.75714840924
 30
0.0
 10
7238.901027719549
 20
5108.744345530654
 30
0.0
 10
7238.416671261196
 20
5108.618966106785
 30
0.0
 10
7237.86805368775
 20
5108.255956587758
 30
0.0
 10
7237.474662136291
 20
5107.755013268551
 30
0.0
 10
7237.241270353253
 20
5107.157344313125
 30
0.0
 10
7237.25176111675
 20
5106.735493708218
 30
0.0
 10
7237.257008234226
 20
5106.524498609346
 30
0.0
  0
LINE
  5
D4
330
1F
100
AcDbEntity
  8
0
  6
Continuous
 62
     7
370
    25
100
AcDbLine
 10
7237.2813003608
 20
5106.3171742112
 30
0.0
 11
7237.2570082342
 21
5106.5244986093
 31
0.0
  0
LINE
  5
D5
330
1F
100
AcDbEntity
  8
0
  6
Continuous
 62
     7
370
    25
100
AcDbLine
 10
7239.2434192174
 20
5108.7572457042
 30
0.0
 11
7406.7012925215
 21
5108.7572457042
 31
0.0
  0
LINE
  5
D6
330
1F
100
AcDbEntity
  8
0
  6
Continuous
 62
     7
370
    25
100
AcDbLine
 10
7237.2570082342
 20
5106.5244986093
 30
0.0
 11
7237.2570038078
 21
5106.5244986093
 31
0.0
  0
LINE
  5
D7
330
1F
100
AcDbEntity
  8
0
  6
Continuous
 62
     7
370
    25
100
AcDbLine
 10
7237.2570038078
 20
5106.5244986093
 30
0.0
 11
7238.5625351963
 21
5095.3822672726
 31
0.0
  0
LINE
  5
D8
330
1F
100
AcDbEntity
  8
0
  6
Continuous
 62
     7
370
    25
100
AcDbLine
 10
7282.1789438826
 20
4723.1322241358
 30
0.0
 11
7283.7460854752
 21
4709.7572457042
 31
0.0
  0
LINE
  5
D9
330
1F
100
AcDbEntity
  8
0
  6
Continuous
 62
     7
370
    25
100
AcDbLine
 10
6976.9953828141
 20
4709.7572457042
 30
0.0
 11
6976.9953828141
 21
5715.7572457042
 31
0.0
  0
LINE
  5
DA
330
1F
100
AcDbEntity
  8
0
  6
Continuous
 62
     7
370
    25
100
AcDbLine
 10
7059.9953828141
 20
5715.7572457042
 30
0.0
 11
6976.9953828141
 21
5715.7572457042
 31
0.0
  0
LINE
  5
DB
330
1F
100
AcDbEntity
  8
0
  6
Continuous
 62
     7
370
    25
100
AcDbLine
 10
7059.9953828141
 20
5582.7572457042
 30
0.0
 11
7059.9953828141
 21
5715.7572457042
 31
0.0
  0
LINE
  5
DC
330
1F
100
AcDbEntity
  8
0
  6
Continuous
 62
     7
370
    25
100
AcDbLine
 10
7054.9953828141
 20
5582.7572457042
 30
0.0
 11
7059.9953828141
 21
5582.7572457042
 31
0.0
  0
LINE
  5
DD
330
1F
100
AcDbEntity
  8
0
  6
Continuous
 62
     7
370
    25
100
AcDbLine
 10
7054.9953828141
 20
5557.7572457042
 30
0.0
 11
7054.9953828141
 21
5582.7572457042
 31
0.0
  0
LINE
  5
DE
330
1F
100
AcDbEntity
  8
0
  6
Continuous
 62
     7
370
    25
100
AcDbLine
 10
7236.9953828141
 20
5557.7572457042
 30
0.0
 11
7054.9953828141
 21
5557.7572457042
 31
0.0
  0
LINE
  5
DF
330
1F
100
AcDbEntity
  8
0
  6
Continuous
 62
     7
370
    25
100
AcDbLine
 10
7236.9953828141
 20
4709.7572457042
 30
0.0
 11
7236.9953828141
 21
5557.7572457042
 31
0.0
  0
LINE
  5
E0
330
1F
100
AcDbEntity
  8
0
  6
Continuous
 62
     7
370
    25
100
AcDbLine
 10
6976.9953828141
 20
4709.7572457042
 30
0.0
 11
7236.9953828141
 21
4709.7572457042
 31
0.0
  0
LINE
  5
E1
330
1F
100
AcDbEntity
  8
0
  6
Continuous
 62
     7
370
    25
100
AcDbLine
 10
6976.9953828141
 20
5717.7572457042
 30
0.0
 11
7059.9953828141
 21
5717.7572457042
 31
0.0
  0
LINE
  5
E2
330
1F
100
AcDbEntity
  8
0
  6
Continuous
 62
     7
370
    25
100
AcDbLine
 10
7059.9953828141
 20
5717.7572457042
 30
0.0
 11
7059.9953828141
 21
5715.7572457042
 31
0.0
  0
LINE
  5
E3
330
1F
100
AcDbEntity
  8
0
  6
Continuous
 62
     7
370
    25
100
AcDbLine
 10
6976.9953828141
 20
5715.7572457042
 30
0.0
 11
6976.9953828141
 21
5717.7572457042
 31
0.0
  0
LINE
  5
E4
330
1F
100
AcDbEntity
  8
0
  6
Continuous
 62
     7
370
    25
100
AcDbLine
 10
7056.9953828141
 20
5559.7572457042
 30
0.0
 11
7236.9953828141
 21
5559.7572457042
 31
0.0
  0
LINE
  5
E5
330
1F
100
AcDbEntity
  8
0
  6
Continuous
 62
     7
370
    25
100
AcDbLine
 10
7236.9953828141
 20
5557.7572457042
 30
0.0
 11
7236.9953828141
 21
5559.7572457042
 31
0.0
  0
LINE
  5
E6
330
1F
100
AcDbEntity
  8
0
  6
Continuous
 62
     7
370
    25
100
AcDbLine
 10
7056.9953828141
 20
5559.7572457042
 30
0.0
 11
7054.9953828141
 21
5557.7572457042
 31
0.0
  0
LINE
  5
E7
330
1F
100
AcDbEntity
  8
0
  6
Continuous
 62
     7
370
    25
100
AcDbLine
 10
7061.9953828141
 20
5715.7572457042
 30
0.0
 11
7061.9953828141
 21
5584.7572457042
 31
0.0
  0
ARC
  5
E8
330
1F
100
AcDbEntity
  8
0
  6
Continuous
 62
     7
370
    25
100
AcDbCircle
 10
7059.9953828141
 20
5584.7572457042
 30
0.0
 40
2.000000000000909
100
AcDbArc
 50
270.0
 51
0.0
  0
LINE
  5
E9
330
1F
100
AcDbEntity
  8
0
  6
Continuous
 62
     7
370
    25
100
AcDbLine
 10
7061.9953828141
 20
5715.7572457042
 30
0.0
 11
7059.9953828141
 21
5715.7572457042
 31
0.0
  0
ARC
  5
EA
330
1F
100
AcDbEntity
  8
0
  6
Continuous
 62
     7
370
    25
100
AcDbCircle
 10
7059.9953828141
 20
5715.7572457042
 30
0.0
 40
2.000000000000909
100
AcDbArc
 50
0.0
 51
90.0
  0
LINE
  5
EB
330
1F
100
AcDbEntity
  8
0
  6
Continuous
 62
     7
370
    25
100
AcDbLine
 10
7056.9953828141
 20
5582.7572457042
 30
0.0
 11
7056.9953828141
 21
5559.7572457042
 31
0.0
  0
LINE
  5
EC
330
1F
100
AcDbEntity
  8
0
  6
Continuous
 62
     7
370
    25
100
AcDbLine
 10
7236.9953828141
 20
4709.7572457042
 30
0.0
 11
7409.5500275199
 21
4709.7572457042
 31
0.0
  0
LINE
  5
ED
330
1F
100
AcDbEntity
  8
0
  6
Continuous
 62
     7
370
    25
100
AcDbLine
 10
7236.9953828141
 20
5559.7572457042
 30
0.0
 11
7414.9953828141
 21
5559.7572457042
 31
0.0
  0
LINE
  5
EE
330
1F
100
AcDbEntity
  8
0
  6
Continuous
 62
     7
370
    25
100
AcDbLine
 10
7063.9953828141
 20
5642.2572457042
 30
0.0
 11
7063.9953828141
 21
5597.2572457042
 31
0.0
  0
SPLINE
  5
EF
330
1F
100
AcDbEntity
  8
0
  6
Continuous
 62
     7
370
    25
100
AcDbSpline
210
0.0
220
0.0
230
1.0
 70
    24
 71
     3
 72
    37
 73
    33
 74
     0
 42
0.00000001
 43
0.00000001
 40
0.0
 40
0.0
 40
0.0
 40
0.0
 40
0.0078261520023886
 40
0.0156413973698005
 40
0.0234504526884548
 40
0.0312580457628497
 40
0.0390689070527132
 40
0.0468877610858953
 40
0.0547193179249612
 40
0.0625682647640881
 40
0.0938210085609112
 40
0.125112713871145
 40
0.1563973742382656
 40
0.1876569332046216
 40
0.2501266222615651
 40
0.3125961709489264
 40
0.3750644155497862
 40
0.43753319661576
 40
0.500002787933084
 40
0.5624721191151715
 40
0.6249407285771018
 40
0.6874091861698982
 40
0.7498789093308595
 40
0.8123484006511166
 40
0.8436032180257025
 40
0.8748924571496276
 40
0.9061784473694217
 40
0.9374370665441871
 40
0.9531008268290078
 40
0.9687240807302478
 40
0.984344555880079
 40
1.0
 40
1.0
 40
1.0
 40
1.0
 10
7064.99538281409
 20
5633.757244988863
 30
0.0
 10
7064.99538281409
 20
5633.756440851069
 30
0.0
 10
7064.99538281409
 20
5633.754833696136
 30
0.0
 10
7064.99538281409
 20
5633.741748413783
 30
0.0
 10
7064.99538281409
 20
5633.720843886894
 30
0.0
 10
7064.99538281409
 20
5633.691357159996
 30
0.0
 10
7064.99538281409
 20
5633.653491856137
 30
0.0
 10
7064.99538281409
 20
5633.607195986409
 30
0.0
 10
7064.99538281409
 20
5633.55247431824
 30
0.0
 10
7064.99538281409
 20
5633.426701728775
 30
0.0
 10
7064.99538281409
 20
5633.176123087143
 30
0.0
 10
7064.99538281409
 20
5632.711899606466
 30
0.0
 10
7064.99538281409
 20
5632.123872510248
 30
0.0
 10
7064.99538281409
 20
5631.180988944631
 30
0.0
 10
7064.99538281409
 20
5629.720125200815
 30
0.0
 10
7064.99538281409
 20
5627.584883579042
 30
0.0
 10
7064.99538281409
 20
5625.148734975497
 30
0.0
 10
7064.99538281409
 20
5622.505508531667
 30
0.0
 10
7064.99538281409
 20
5619.756598811493
 30
0.0
 10
7064.99538281409
 20
5617.007724697888
 30
0.0
 10
7064.99538281409
 20
5614.364568610973
 30
0.0
 10
7064.99538281409
 20
5611.928503609312
 30
0.0
 10
7064.99538281409
 20
5609.793448483545
 30
0.0
 10
7064.99538281409
 20
5608.332849026915
 30
0.0
 10
7064.99538281409
 20
5607.390039631743
 30
0.0
 10
7064.99538281409
 20
5606.802162296001
 30
0.0
 10
7064.99538281409
 20
5606.337989736803
 30
0.0
 10
7064.99538281409
 20
5606.059787520148
 30
0.0
 10
7064.99538281409
 20
5605.902968607041
 30
0.0
 10
7064.99538281409
 20
5605.81930158202
 30
0.0
 10
7064.99538281409
 20
5605.766940556923
 30
0.0
 10
7064.99538281409
 20
5605.760483819877
 30
0.0
 10
7064.99538281409
 20
5605.75725184178
 30
0.0
  0
LINE
  5
F0
330
1F
100
AcDbEntity
  8
0
  6
Continuous
 62
     8
370
    25
100
AcDbLine
 10
7064.4953828141
 20
5687.2572457042
 30
0.0
 11
7064.4953828141
 21
5642.2572457042
 31
0.0
  0
SPLINE
  5
F1
330
1F
100
AcDbEntity
  8
0
  6
Continuous
 62
     8
370
    25
100
AcDbSpline
210
0.0
220
0.0
230
1.0
 70
     8
 71
     3
 72
    31
 73
    27
 74
     0
 42
0.00000001
 43
0.00000001
 40
0.0
 40
0.0
 40
0.0
 40
0.0
 40
0.0368214651072888
 40
0.0833227791588289
 40
0.1284997109239238
 40
0.173676614199574
 40
0.2201647100606184
 40
0.2666528376465913
 40
0.3118360879023719
 40
0.3570193520737826
 40
0.4035145351416022
 40
0.4500097037355603
 40
0.495181646023365
 40
0.5403535709421007
 40
0.5868360199852496
 40
0.6333185019294174
 40
0.6784933860617007
 40
0.7236682683362083
 40
0.7701546287858587
 40
0.8166409464093316
 40
0.8426773936617995
 40
0.8687737715774567
 40
0.9013405939004027
 40
0.9339073802566263
 40
0.9669536929602023
 40
1.0
 40
1.0
 40
1.0
 40
1.0
 10
7736.731132825385
 20
5106.196438462708
 30
0.0
 10
7736.697498259008
 20
5106.192635226139
 30
0.0
 10
7736.62138706848
 20
5106.184028935224
 30
0.0
 10
7735.099818930187
 20
5106.172383265535
 30
0.0
 10
7732.463707451733
 20
5106.161253189649
 30
0.0
 10
7728.68913938576
 20
5106.151613507092
 30
0.0
 10
7723.772359920167
 20
5106.143418092958
 30
0.0
 10
7717.76936562527
 20
5106.136819077034
 30
0.0
 10
7710.797456862619
 20
5106.131891042583
 30
0.0
 10
7702.871317424027
 20
5106.128555443984
 30
0.0
 10
7693.938571541415
 20
5106.126860129521
 30
0.0
 10
7684.137590248109
 20
5106.126852476214
 30
0.0
 10
7673.643718364797
 20
5106.128505826759
 30
0.0
 10
7662.455478482933
 20
5106.131772271672
 30
0.0
 10
7650.519258126089
 20
5106.136717084894
 30
0.0
 10
7638.026814367747
 20
5106.143295481572
 30
0.0
 10
7625.193752648211
 20
5106.151387361531
 30
0.0
 10
7612.000236655248
 20
5106.160979383048
 30
0.0
 10
7598.401688278721
 20
5106.172161872588
 30
0.0
 10
7586.529871132441
 20
5106.183038480181
 30
0.0
 10
7576.650019878267
 20
5106.192813100579
 30
0.0
 10
7568.156049198548
 20
5106.201684925562
 30
0.0
 10
7559.019317463662
 20
5106.211758402241
 30
0.0
 10
7549.241120280979
 20
5106.223230562297
 30
0.0
 10
7539.491392463343
 20
5106.23530108975
 30
0.0
 10
7533.071743055369
 20
5106.243848580103
 30
0.0
 10
7529.861918626447
 20
5106.248122324913
 30
0.0
  0
LINE
  5
F2
330
1F
100
AcDbEntity
  8
0
  6
Continuous
 62
     8
370
    25
100
AcDbLine
 10
7416.9953828141
 20
5557.7572457042
 30
0.0
 11
7236.9953828141
 21
5557.7572457042
 31
0.0
  0
LINE
  5
F3
330
1F
100
AcDbEntity
  8
0
  6
Continuous
 62
     7
370
    25
100
AcDbLine
 10
6367.6901249004
 20
4243.9766692248
 30
0.0
 11
6367.6901249004
 21
4246.4766692248
 31
0.0
  0
LINE
  5
F4
330
1F
100
AcDbEntity
  8
0
  6
Continuous
 62
     7
370
    25
100
AcDbLine
 10
6322.6901249004
 20
4246.4766692248
 30
0.0
 11
6322.6901249004
 21
4243.9766692248
 31
0.0
  0
ARC
  5
F5
330
1F
100
AcDbEntity
  8
0
  6
Continuous
 62
     7
370
    25
100
AcDbCircle
 10
6345.1901249004
 20
4243.9766692248
 30
0.0
 40
22.5
100
AcDbArc
 50
180.0
 51
270.0
  0
ARC
  5
F6
330
1F
100
AcDbEntity
  8
0
  6
Continuous
 62
     7
370
    25
100
AcDbCircle
 10
6345.1901249004
 20
4243.9766692248
 30
0.0
 40
22.5
100
AcDbArc
 50
270.0
 51
0.0
  0
LINE
  5
F7
330
1F
100
AcDbEntity
  8
0
  6
Continuous
 62
     7
370
    25
100
AcDbLine
 10
6165.0211057842
 20
4071.2286371984
 30
0.0
 11
6091.1022438409
 21
4071.2286327725
 31
0.0
  0
SPLINE
  5
F8
330
1F
100
AcDbEntity
  8
0
  6
Continuous
 62
     7
370
    25
100
AcDbSpline
210
0.0
220
0.0
230
1.0
 70
     8
 71
     3
 72
    11
 73
     7
 74
     0
 42
0.00000001
 43
0.00000001
 40
0.0
 40
0.0
 40
0.0
 40
0.0
 40
0.1856244611367018
 40
0.70032011633856
 40
0.9576637440748108
 40
1.0
 40
1.0
 40
1.0
 40
1.0
 10
6091.085950655342
 20
4071.221883913451
 30
0.0
 10
6080.68766632706
 20
4060.825649600359
 30
0.0
 10
6041.457234917802
 20
4021.60295244588
 30
0.0
 10
5987.87094103566
 20
3967.907528437124
 30
0.0
 10
5942.149366105466
 20
3922.398537026517
 30
0.0
 10
5925.438652860975
 20
3905.5380277099
 30
0.0
 10
5923.077903704349
 20
3903.156116622855
 30
0.0
  0
LINE
  5
F9
330
1F
100
AcDbEntity
  8
0
  6
Continuous
 62
     7
370
    25
100
AcDbLine
 10
6344.942088448
 20
3817.3887881654
 30
0.0
 11
6344.942092874
 21
3891.3076505395
 31
0.0
  0
SPLINE
  5
FA
330
1F
100
AcDbEntity
  8
0
  6
Continuous
 62
     7
370
    25
100
AcDbSpline
210
0.0
220
0.0
230
1.0
 70
     8
 71
     3
 72
    11
 73
     7
 74
     0
 42
0.00000001
 43
0.00000001
 40
0.0
 40
0.0
 40
0.0
 40
0.0
 40
0.0329390199654491
 40
0.0934407565856352
 40
0.6813275979097443
 40
0.9999999999999999
 40
0.9999999999999999
 40
0.9999999999999999
 40
0.9999999999999999
 10
6176.873189431433
 20
3649.360797363069
 30
0.0
 10
6178.72857910544
 20
3651.195340600461
 30
0.0
 10
6183.991911623598
 20
3656.399536361924
 30
0.0
 10
6222.085202648619
 20
3694.632037725357
 30
0.0
 10
6276.318323477753
 20
3748.733307083801
 30
0.0
 10
6327.08863327133
 20
3799.520021968181
 30
0.0
 10
6344.935339589
 20
3817.372494979789
 30
0.0
  0
SPLINE
  5
FB
330
1F
100
AcDbEntity
  8
0
  6
Continuous
 62
     7
370
    25
100
AcDbSpline
210
0.0
220
0.0
230
1.0
 70
     8
 71
     3
 72
    18
 73
    14
 74
     0
 42
0.00000001
 43
0.00000001
 40
0.0
 40
0.0
 40
0.0
 40
0.0
 40
0.0661934313645978
 40
0.1627523631264668
 40
0.2593456535779219
 40
0.3560314138788564
 40
0.4528764771173788
 40
0.5499462258600719
 40
0.647304538375233
 40
0.7450137304752403
 40
0.8432329317430997
 40
0.9284771648476664
 40
1.0
 40
1.0
 40
1.0
 40
1.0
 10
5892.693852634563
 20
3866.919813670922
 30
0.0
 10
5891.457862317576
 20
3865.144164016668
 30
0.0
 10
5888.418884873073
 20
3860.778305179062
 30
0.0
 10
5883.857419328951
 20
3853.631390199198
 30
0.0
 10
5878.99774596437
 20
3845.499065162365
 30
0.0
 10
5874.414385909979
 20
3837.196328282943
 30
0.0
 10
5870.099445389778
 20
3828.733818798954
 30
0.0
 10
5866.058295742685
 20
3820.112827863571
 30
0.0
 10
5862.291118315447
 20
3811.337928033408
 30
0.0
 10
5858.805050833525
 20
3802.407153959442
 30
0.0
 10
5855.729103696588
 20
3793.747077246958
 30
0.0
 10
5853.148518842207
 20
3785.82066585487
 30
0.0
 10
5851.779950821507
 20
3780.882842349438
 30
0.0
 10
5851.155560341876
 20
3778.630027772262
 30
0.0
  0
SPLINE
  5
FC
330
1F
100
AcDbEntity
  8
0
  6
Continuous
 62
     7
370
    25
100
AcDbSpline
210
0.0
220
0.0
230
1.0
 70
     8
 71
     3
 72
    56
 73
    52
 74
     0
 42
0.00000001
 43
0.00000001
 40
0.0
 40
0.0
 40
0.0
 40
0.0
 40
0.0171296266778865
 40
0.0370077621730163
 40
0.0579366054274723
 40
0.0787350424859089
 40
0.0995279426243266
 40
0.1203632306981143
 40
0.1412665138736127
 40
0.1617139803937712
 40
0.1822361735418735
 40
0.2028842938782476
 40
0.2236476567315371
 40
0.2445129727820971
 40
0.2654644254449876
 40
0.2864840725635087
 40
0.3075523192158268
 40
0.3286484511850767
 40
0.3497487789988705
 40
0.370827477299813
 40
0.3918643276788944
 40
0.4128405898725881
 40
0.4337395328891329
 40
0.4545469036940786
 40
0.4752513190994839
 40
0.4958445730137492
 40
0.5162988791794304
 40
0.5369001440403212
 40
0.5576851296215397
 40
0.5785212239713005
 40
0.5993926361662172
 40
0.6202821084417898
 40
0.6411672507668684
 40
0.662028277132959
 40
0.6828476273086015
 40
0.703620545407631
 40
0.7243110139181781
 40
0.7450771702662411
 40
0.7659449242534179
 40
0.7868781618553037
 40
0.8078389805060145
 40
0.8287789923942793
 40
0.8496560802187281
 40
0.8704333129401639
 40
0.8890347081716424
 40
0.9086769435090691
 40
0.9286153334726831
 40
0.9492377810677454
 40
0.9706055117697394
 40
0.992787269015278
 40
1.0
 40
1.0
 40
1.0
 40
1.0
 10
5851.16221185192
 20
3778.62713553323
 30
0.0
 10
5850.658131144155
 20
3776.723440910072
 30
0.0
 10
5849.569088207041
 20
3772.610597169301
 30
0.0
 10
5848.184043602972
 20
3766.093389662067
 30
0.0
 10
5846.985736762355
 20
3759.111995558407
 30
0.0
 10
5846.089792584808
 20
3751.978705602425
 30
0.0
 10
5845.508536539209
 20
3744.82397045487
 30
0.0
 10
5845.24118101805
 20
3737.638519879556
 30
0.0
 10
5845.292016775339
 20
3730.487831899406
 30
0.0
 10
5845.66668741071
 20
3723.382923535058
 30
0.0
 10
5846.351046129453
 20
3716.33070168203
 30
0.0
 10
5847.349497346592
 20
3709.279361704402
 30
0.0
 10
5848.66224918225
 20
3702.23960827998
 30
0.0
 10
5850.288169168214
 20
3695.229725925507
 30
0.0
 10
5852.224885556405
 20
3688.268688730365
 30
0.0
 10
5854.468840880329
 20
3681.375992795721
 30
0.0
 10
5857.015222098845
 20
3674.57143593804
 30
0.0
 10
5859.857859235757
 20
3667.875136571946
 30
0.0
 10
5862.989088374044
 20
3661.307486305434
 30
0.0
 10
5866.399979226165
 20
3654.888337011095
 30
0.0
 10
5870.080625734363
 20
3648.636494232599
 30
0.0
 10
5874.020525325742
 20
3642.569312370506
 30
0.0
 10
5878.208501042357
 20
3636.702999044927
 30
0.0
 10
5882.6329379744
 20
3631.052525372298
 30
0.0
 10
5887.28177461438
 20
3625.631370113244
 30
0.0
 10
5892.141615256233
 20
3620.45400397864
 30
0.0
 10
5897.220282990837
 20
3615.508297996918
 30
0.0
 10
5902.524602922567
 20
3610.772344549848
 30
0.0
 10
5908.064879759647
 20
3606.244921809056
 30
0.0
 10
5913.822602925484
 20
3601.945383837229
 30
0.0
 10
5919.772742302166
 20
3597.894929081292
 30
0.0
 10
5925.89919793918
 20
3594.105714335948
 30
0.0
 10
5932.184779241491
 20
3590.58917569549
 30
0.0
 10
5938.6115967335
 20
3587.35581737271
 30
0.0
 10
5945.162772789979
 20
3584.413790889349
 30
0.0
 10
5951.819937827401
 20
3581.772791192864
 30
0.0
 10
5958.581998709802
 20
3579.432110103082
 30
0.0
 10
5965.450323476726
 20
3577.38615723427
 30
0.0
 10
5972.428378060245
 20
3575.634738555925
 30
0.0
 10
5979.49800483991
 20
3574.184336539207
 30
0.0
 10
5986.632363577179
 20
3573.042273600678
 30
0.0
 10
5993.803438268174
 20
3572.213891810949
 30
0.0
 10
6000.982946811007
 20
3571.703181141123
 30
0.0
 10
6007.909213332656
 20
3571.515979599871
 30
0.0
 10
6014.694973053317
 20
3571.625155524188
 30
0.0
 10
6021.372557681221
 20
3572.042045092714
 30
0.0
 10
6028.256068461575
 20
3572.77415976359
 30
0.0
 10
6035.300320136061
 20
3573.818525685619
 30
0.0
 10
6042.545260520355
 20
3575.210907246828
 30
0.0
 10
6048.244457003553
 20
3576.477576356932
 30
0.0
 10
6051.504210382575
 20
3577.367750373885
 30
0.0
 10
6052.30407884823
 20
3577.58617859293
 30
0.0
  0
SPLINE
  5
FD
330
1F
100
AcDbEntity
  8
0
  6
Continuous
 62
     7
370
    25
100
AcDbSpline
210
0.0
220
0.0
230
1.0
 70
     8
 71
     3
 72
    18
 73
    14
 74
     0
 42
0.00000001
 43
0.00000001
 40
0.0
 40
0.0
 40
0.0
 40
0.0
 40
0.0684752195244416
 40
0.1517602007848415
 40
0.2420847885554719
 40
0.3424195947269781
 40
0.4401507348725048
 40
0.5377674978948154
 40
0.6352783435158506
 40
0.7326539127841806
 40
0.8298680440272319
 40
0.9268983183680998
 40
1.0
 40
1.0
 40
1.0
 40
1.0
 10
6052.342766804916
 20
3577.444448284803
 30
0.0
 10
6054.500159173467
 20
3578.040041441733
 30
0.0
 10
6059.281542881282
 20
3579.360042132632
 30
0.0
 10
6066.810368876049
 20
3581.799189808767
 30
0.0
 10
6075.25489379495
 20
3584.775038441547
 30
0.0
 10
6084.050011577569
 20
3588.168319560155
 30
0.0
 10
6092.942957433156
 20
3591.954001092406
 30
0.0
 10
6101.623052439492
 20
3595.99083727949
 30
0.0
 10
6110.153669124437
 20
3600.308800151812
 30
0.0
 10
6118.5264468733
 20
3604.898717510523
 30
0.0
 10
6126.722311017837
 20
3609.765247655075
 30
0.0
 10
6134.103848157893
 20
3614.445259343914
 30
0.0
 10
6138.668243399562
 20
3617.621264434785
 30
0.0
 10
6140.629456188134
 20
3618.985918780212
 30
0.0
  0
SPLINE
  5
FE
330
1F
100
AcDbEntity
  8
0
  6
Continuous
 62
     7
370
    25
100
AcDbSpline
210
0.0
220
0.0
230
1.0
 70
     8
 71
     3
 72
    13
 73
     9
 74
     0
 42
0.00000001
 43
0.00000001
 40
0.0
 40
0.0
 40
0.0
 40
0.0
 40
0.135097568725545
 40
0.3303059927614566
 40
0.5077385257851776
 40
0.6972940580328649
 40
0.8790777095425995
 40
1.0
 40
1.0
 40
1.0
 40
1.0
 10
5923.089896982116
 20
3903.144450262245
 30
0.0
 10
5921.595369357962
 20
3901.623521418665
 30
0.0
 10
5917.941332980678
 20
3897.904935537829
 30
0.0
 10
5912.510359937855
 20
3892.010212524543
 30
0.0
 10
5906.669513916931
 20
3885.32851363784
 30
0.0
 10
5901.233808695745
 20
3878.583232176449
 30
0.0
 10
5896.530176157861
 20
3872.396597967576
 30
0.0
 10
5893.799496130905
 20
3868.47586238301
 30
0.0
 10
5892.708668242888
 20
3866.90964163398
 30
0.0
  0
SPLINE
  5
FF
330
1F
100
AcDbEntity
  8
0
  6
Continuous
 62
     7
370
    25
100
AcDbSpline
210
0.0
220
0.0
230
1.0
 70
     8
 71
     3
 72
    13
 73
     9
 74
     0
 42
0.00000001
 43
0.00000001
 40
0.0
 40
0.0
 40
0.0
 40
0.0
 40
0.1040353791610313
 40
0.3021761824232982
 40
0.4744168228520921
 40
0.6556608873600227
 40
0.8433733221325183
 40
0.9999999999999999
 40
0.9999999999999999
 40
0.9999999999999999
 40
0.9999999999999999
 10
6140.620451772274
 20
3618.998984097461
 30
0.0
 10
6141.970684088895
 20
3619.933521366796
 30
0.0
 10
6145.892504243837
 20
3622.647933585576
 30
0.0
 10
6151.856757503145
 20
3627.179676246858
 30
0.0
 10
6158.647529963216
 20
3632.629797228906
 30
0.0
 10
6165.096842973276
 20
3638.233238317328
 30
0.0
 10
6171.208913390533
 20
3643.843703188178
 30
0.0
 10
6175.096187681665
 20
3647.642106797306
 30
0.0
 10
6176.86435991604
 20
3649.369855161227
 30
0.0
  0
LINE
  5
100
330
1F
100
AcDbEntity
  8
0
  6
Continuous
 62
     7
370
    25
100
AcDbLine
 10
6249.3262189567
 20
3919.0442207862
 30
0.0
 11
6249.4501070586
 21
3919.1681088881
 31
0.0
  0
LINE
  5
101
330
1F
100
AcDbEntity
  8
0
  6
Continuous
 62
     7
370
    25
100
AcDbLine
 10
6192.9061421127
 20
3975.7612289321
 30
0.0
 11
6192.7750858398
 21
3975.6301726591
 31
0.0
  0
LINE
  5
102
330
1F
100
AcDbEntity
  8
0
  6
Continuous
 62
     7
370
    25
100
AcDbLine
 10
6422.6901249004
 20
4246.4766692248
 30
0.0
 11
6422.6901249004
 21
4244.4766692248
 31
0.0
  0
LINE
  5
103
330
1F
100
AcDbEntity
  8
0
  6
Continuous
 62
     7
370
    25
100
AcDbLine
 10
6467.6901249004
 20
4244.4766692248
 30
0.0
 11
6467.6901249004
 21
4246.4766692248
 31
0.0
  0
LINE
  5
104
330
1F
100
AcDbEntity
  8
0
  6
Continuous
 62
     7
370
    25
100
AcDbLine
 10
6222.6901249004
 20
4246.4766692248
 30
0.0
 11
6222.6901249004
 21
4244.4766692248
 31
0.0
  0
LINE
  5
105
330
1F
100
AcDbEntity
  8
0
  6
Continuous
 62
     7
370
    25
100
AcDbLine
 10
6267.6901249004
 20
4244.4766692248
 30
0.0
 11
6267.6901249004
 21
4246.4766692248
 31
0.0
  0
LINE
  5
106
330
1F
100
AcDbEntity
  8
0
  6
Continuous
 62
     7
370
    25
100
AcDbLine
 10
6259.1901249023
 20
4243.4766692248
 30
0.0
 11
6259.1901249023
 21
4244.4766692248
 31
0.0
  0
LINE
  5
107
330
1F
100
AcDbEntity
  8
0
  6
Continuous
 62
     7
370
    25
100
AcDbLine
 10
6231.1901276832
 20
4244.4766692248
 30
0.0
 11
6231.1901276832
 21
4243.4766692248
 31
0.0
  0
LINE
  5
108
330
1F
100
AcDbEntity
  8
0
  6
Continuous
 62
     7
370
    25
100
AcDbLine
 10
6459.1901249023
 20
4243.4766692248
 30
0.0
 11
6459.1901249023
 21
4244.4766692248
 31
0.0
  0
LINE
  5
109
330
1F
100
AcDbEntity
  8
0
  6
Continuous
 62
     7
370
    25
100
AcDbLine
 10
6431.1901276832
 20
4244.4766692248
 30
0.0
 11
6431.1901276832
 21
4243.4766692248
 31
0.0
  0
LINE
  5
10A
330
1F
100
AcDbEntity
  8
0
  6
Continuous
 62
     7
370
    25
100
AcDbLine
 10
6165.0040223129
 20
4069.2286371974
 30
0.0
 11
6091.9211266881
 21
4069.2286328215
 31
0.0
  0
SPLINE
  5
10B
330
1F
100
AcDbEntity
  8
0
  6
Continuous
 62
     7
370
    25
100
AcDbSpline
210
0.0
220
0.0
230
1.0
 70
     8
 71
     3
 72
    14
 73
    10
 74
     0
 42
0.00000001
 43
0.00000001
 40
0.0
 40
0.0
 40
0.0
 40
0.0
 40
0.0030467252929627
 40
0.0529044244180805
 40
0.2626326271059238
 40
0.4576991528242009
 40
0.6408842406012885
 40
0.8203827035463404
 40
1.0
 40
1.0
 40
1.0
 40
1.0
 10
6091.921126688137
 20
4069.228632821501
 30
0.0
 10
6091.919769859966
 20
4069.231908494182
 30
0.0
 10
6091.896209411772
 20
4069.288788442699
 30
0.0
 10
6091.779303474271
 20
4069.571024319362
 30
0.0
 10
6091.578676442939
 20
4070.055380777715
 30
0.0
 10
6091.351431584309
 20
4070.603998351162
 30
0.0
 10
6091.188483454551
 20
4070.99738990262
 30
0.0
 10
6091.09180940449
 20
4071.230781685659
 30
0.0
 10
6091.096154821377
 20
4071.220290922162
 30
0.0
 10
6091.098328248782
 20
4071.215043804686
 30
0.0
  0
SPLINE
  5
10C
330
1F
100
AcDbEntity
  8
0
  6
Continuous
 62
     7
370
    25
100
AcDbSpline
210
0.0
220
0.0
230
1.0
 70
     8
 71
     3
 72
    12
 73
     8
 74
     0
 42
0.00000001
 43
0.00000001
 40
0.0
 40
0.0
 40
0.0
 40
0.0
 40
0.1406738833957157
 40
0.3554540420652529
 40
0.5702185564270384
 40
0.7849351621741695
 40
1.0
 40
1.0
 40
1.0
 40
1.0
 10
6165.021105785688
 20
4071.202989596427
 30
0.0
 10
6165.018835313319
 20
4071.203705173698
 30
0.0
 10
6165.01309829546
 20
4071.205513290649
 30
0.0
 10
6165.00484415331
 20
4070.951972576932
 30
0.0
 10
6164.998776266366
 20
4070.504260884432
 30
0.0
 10
6164.997462357152
 20
4069.903607844959
 30
0.0
 10
6165.001899106723
 20
4069.453749718328
 30
0.0
 10
6165.004119278954
 20
4069.228638405367
 30
0.0
  0
LINE
  5
10D
330
1F
100
AcDbEntity
  8
0
  6
Continuous
 62
     7
370
    25
100
AcDbLine
 10
6091.9211266881
 20
4069.2286328215
 30
0.0
 11
5924.4632533841
 21
3901.7707595174
 31
0.0
  0
SPLINE
  5
10E
330
1F
100
AcDbEntity
  8
0
  6
Continuous
 62
     7
370
    25
100
AcDbSpline
210
0.0
220
0.0
230
1.0
 70
     8
 71
     3
 72
    14
 73
    10
 74
     0
 42
0.00000001
 43
0.00000001
 40
0.0
 40
0.0
 40
0.0
 40
0.0
 40
0.1212103291967825
 40
0.3134881459758183
 40
0.5097150560359797
 40
0.718669300414414
 40
0.9433290566494836
 40
0.9967363637536026
 40
1.0
 40
1.0
 40
1.0
 40
1.0
 10
6344.919046402028
 20
3817.38878816676
 30
0.0
 10
6344.920493871678
 20
3817.38818860515
 30
0.0
 10
6344.924237484784
 20
3817.3866379497
 30
0.0
 10
6344.708057661287
 20
3817.47618257207
 30
0.0
 10
6344.318262552419
 20
3817.637641006449
 30
0.0
 10
6343.768585447432
 20
3817.865324737268
 30
0.0
 10
6343.284495964572
 20
3818.065841184271
 30
0.0
 10
6343.002244051322
 20
3818.18275376374
 30
0.0
 10
6342.945364166098
 20
3818.206314185907
 30
0.0
 10
6342.942088497049
 20
3818.207671012584
 30
0.0
  0
LINE
  5
10F
330
1F
100
AcDbEntity
  8
0
  6
Continuous
 62
     7
370
    25
100
AcDbLine
 10
6342.942088497
 20
3818.2076710126
 30
0.0
 11
6342.9420928729
 21
3891.2905676039
 31
0.0
  0
SPLINE
  5
110
330
1F
100
AcDbEntity
  8
0
  6
Continuous
 62
     7
370
    25
100
AcDbSpline
210
0.0
220
0.0
230
1.0
 70
     8
 71
     3
 72
    12
 73
     8
 74
     0
 42
0.00000001
 43
0.00000001
 40
0.0
 40
0.0
 40
0.0
 40
0.0
 40
0.2146661116584811
 40
0.429332634948532
 40
0.6439983903306424
 40
0.8587109414934425
 40
0.9999999999999999
 40
0.9999999999999999
 40
0.9999999999999999
 40
0.9999999999999999
 10
6342.942094068877
 20
3891.290663603556
 30
0.0
 10
6343.166784401023
 20
3891.288446493618
 30
0.0
 10
6343.616165496168
 20
3891.284012269493
 30
0.0
 10
6344.216531755207
 20
3891.285312708978
 30
0.0
 10
6344.66449019698
 20
3891.291368572179
 30
0.0
 10
6344.918737238533
 20
3891.299623790952
 30
0.0
 10
6344.917016562523
 20
3891.305369999644
 30
0.0
 10
6344.916333664786
 20
3891.307650541063
 30
0.0
  0
LINE
  5
111
330
1F
100
AcDbEntity
  8
0
  6
Continuous
 62
     7
370
    25
100
AcDbLine
 10
6175.4842151933
 20
3650.7497977088
 30
0.0
 11
6342.942088497
 21
3818.2076710126
 31
0.0
  0
LINE
  5
112
330
1F
100
AcDbEntity
  8
0
  6
Continuous
 62
     7
370
    25
100
AcDbLine
 10
6344.9285039066
 20
3891.3111894879
 30
0.0
 11
6343.6229725182
 21
3891.4834914835
 31
0.0
  0
ARC
  5
113
330
1F
100
AcDbEntity
  8
0
  6
Continuous
 62
     7
370
    25
100
AcDbCircle
 10
6345.1904907372
 20
4071.4770360405
 30
0.0
 40
180.2004958389543
100
AcDbArc
 50
180.7149098347
 51
269.2850904765
  0
LINE
  5
114
330
1F
100
AcDbEntity
  8
0
  6
Continuous
 62
     7
370
    25
100
AcDbLine
 10
6165.0246451634
 20
4071.2150482311
 30
0.0
 11
6165.1969471591
 21
4069.9095168426
 31
0.0
  0
LINE
  5
115
330
1F
100
AcDbEntity
  8
0
  6
Continuous
 62
     7
370
    25
100
AcDbLine
 10
6159.273193525
 20
3695.9045805197
 30
0.0
 11
6115.9046146085
 21
3656.4340593629
 31
0.0
  0
SPLINE
  5
116
330
1F
100
AcDbEntity
  8
0
  6
Continuous
 62
     7
370
    25
100
AcDbSpline
210
0.0
220
0.0
230
1.0
 70
     8
 71
     3
 72
    45
 73
    41
 74
     0
 42
0.00000001
 43
0.00000001
 40
0.0
 40
0.0
 40
0.0
 40
0.0
 40
0.0261269098619391
 40
0.0523465035684277
 40
0.0785639264500828
 40
0.1046878655492135
 40
0.1308191486073544
 40
0.157044095649453
 40
0.1832693929790732
 40
0.2094011554129439
 40
0.235501897303979
 40
0.2616958175174937
 40
0.2878896465438688
 40
0.3139902636448136
 40
0.3401021537647751
 40
0.3663073917602349
 40
0.3925124195987773
 40
0.4186240221162024
 40
0.4447278210873855
 40
0.4709253055454979
 40
0.4971226053587131
 40
0.5232261516374085
 40
0.5492692845514741
 40
0.5754053420032796
 40
0.6015416608613485
 40
0.6275851515097287
 40
0.6536533577587148
 40
0.6798144220986584
 40
0.7059757004731065
 40
0.7320441996265367
 40
0.7581596770307739
 40
0.784368528759296
 40
0.8105772191752136
 40
0.8366924758209678
 40
0.8627975807993218
 40
0.8889960319920939
 40
0.9151942169488249
 40
0.9412989575791546
 40
0.9706483067392078
 40
1.0
 40
1.0
 40
1.0
 40
1.0
 10
5969.61833438726
 20
3885.55955828295
 30
0.0
 10
5972.240970025859
 20
3888.27266358773
 30
0.0
 10
5977.495544965649
 20
3893.708498796282
 30
0.0
 10
5986.211086877555
 20
3900.995101156434
 30
0.0
 10
5995.452555433233
 20
3907.584224731001
 30
0.0
 10
6005.219288980424
 20
3913.351211223251
 30
0.0
 10
6015.447796022604
 20
3918.251443680254
 30
0.0
 10
6026.065150132931
 20
3922.280271655254
 30
0.0
 10
6036.980636214783
 20
3925.412338763683
 30
0.0
 10
6048.103325004913
 20
3927.615383167198
 30
0.0
 10
6059.370028252677
 20
3928.850496349103
 30
0.0
 10
6070.708830390143
 20
3929.137841309857
 30
0.0
 10
6082.03233801922
 20
3928.482930266958
 30
0.0
 10
6093.250135272372
 20
3926.882943299295
 30
0.0
 10
6104.289636795407
 20
3924.320612977103
 30
0.0
 10
6115.089368669456
 20
3920.838172990275
 30
0.0
 10
6125.562383952341
 20
3916.47044078781
 30
0.0
 10
6135.619783969989
 20
3911.246002763892
 30
0.0
 10
6145.186989269952
 20
3905.172285556228
 30
0.0
 10
6154.219832956765
 20
3898.309833593985
 30
0.0
 10
6162.650098238594
 20
3890.719337334653
 30
0.0
 10
6170.397855318934
 20
3882.462867119447
 30
0.0
 10
6177.396984380422
 20
3873.574290666413
 30
0.0
 10
6183.629097584733
 20
3864.127323203342
 30
0.0
 10
6189.055862187852
 20
3854.195789869071
 30
0.0
 10
6193.629301336952
 20
3843.853484684211
 30
0.0
 10
6197.295626982887
 20
3833.152110778254
 30
0.0
 10
6200.057201144917
 20
3822.165605672469
 30
0.0
 10
6201.898412125269
 20
3810.987948997691
 30
0.0
 10
6202.798415257574
 20
3799.701355927776
 30
0.0
 10
6202.722570365927
 20
3788.372239002465
 30
0.0
 10
6201.695789678105
 20
3777.069894454406
 30
0.0
 10
6199.733595805369
 20
3765.891920070873
 30
0.0
 10
6196.844090947586
 20
3754.931816160817
 30
0.0
 10
6193.019883988269
 20
3744.263257359097
 30
0.0
 10
6188.309986224675
 20
3733.943293661509
 30
0.0
 10
6182.762063463781
 20
3724.04660188958
 30
0.0
 10
6176.134752019195
 20
3714.287513469419
 30
0.0
 10
6168.40041036287
 20
3704.762573805641
 30
0.0
 10
6162.315680131169
 20
3698.85732355289
 30
0.0
 10
6159.273193524966
 20
3695.904580519737
 30
0.0
  0
LINE
  5
117
330
1F
100
AcDbEntity
  8
0
  6
Continuous
 62
     7
370
    25
100
AcDbLine
 10
5930.1468537424
 20
3842.1917556218
 30
0.0
 11
5969.6183343873
 21
3885.5595582829
 31
0.0
  0
SPLINE
  5
118
330
1F
100
AcDbEntity
  8
0
  6
Continuous
 62
     7
370
    25
100
AcDbSpline
210
0.0
220
0.0
230
1.0
 70
     8
 71
     3
 72
    43
 73
    39
 74
     0
 42
0.00000001
 43
0.00000001
 40
0.0
 40
0.0
 40
0.0
 40
0.0
 40
0.027769000454334
 40
0.0556342782004481
 40
0.083492172879909
 40
0.1112510701106211
 40
0.1390409971302945
 40
0.1669317872304288
 40
0.1948223347264676
 40
0.2226119297211147
 40
0.2501851533789097
 40
0.2778573399532547
 40
0.3055294947207662
 40
0.3331026748499279
 40
0.3606170304512661
 40
0.3882299079038198
 40
0.415842729303851
 40
0.4433570081962079
 40
0.4708428358986893
 40
0.4984268964334889
 40
0.5260109534372127
 40
0.553496776307382
 40
0.580981196656494
 40
0.6085638275360573
 40
0.6361465540989973
 40
0.6636311053915939
 40
0.6911183300382577
 40
0.7187036319400039
 40
0.7462890062129975
 40
0.7737763298998076
 40
0.8012845104457538
 40
0.8288906002533012
 40
0.8564969541378643
 40
0.8840054960699001
 40
0.9129431949665426
 40
0.9419932193810931
 40
0.971051288728259
 40
1.0
 40
1.0
 40
1.0
 40
1.0
 10
6115.904614608544
 20
3656.434059362873
 30
0.0
 10
6113.092167939313
 20
3653.992866268281
 30
0.0
 10
6107.457523628754
 20
3649.102016272118
 30
0.0
 10
6098.278215979475
 20
3642.667349714794
 30
0.0
 10
6088.642371354078
 20
3636.958720134072
 30
0.0
 10
6078.5523077937
 20
3632.109219382393
 30
0.0
 10
6068.07382676882
 20
3628.161066207309
 30
0.0
 10
6057.283516436807
 20
3625.104650281404
 30
0.0
 10
6046.27520937269
 20
3622.962649718985
 30
0.0
 10
6035.16684929173
 20
3621.762982836279
 30
0.0
 10
6024.025800756192
 20
3621.532967540043
 30
0.0
 10
6012.921234423536
 20
3622.238283480752
 30
0.0
 10
6001.913913238772
 20
3623.865385605995
 30
0.0
 10
5991.102011483797
 20
3626.406485473884
 30
0.0
 10
5980.557897451075
 20
3629.870333032011
 30
0.0
 10
5970.337250735786
 20
3634.208189151537
 30
0.0
 10
5960.512622707578
 20
3639.380721477769
 30
0.0
 10
5951.170370070165
 20
3645.350553070281
 30
0.0
 10
5942.381791622116
 20
3652.102667416889
 30
0.0
 10
5934.183559981995
 20
3659.573316112769
 30
0.0
 10
5926.634168254731
 20
3667.699092787574
 30
0.0
 10
5919.800063250671
 20
3676.418979295505
 30
0.0
 10
5913.744424000373
 20
3685.696182073811
 30
0.0
 10
5908.481843572171
 20
3695.459093151489
 30
0.0
 10
5904.048169522669
 20
3705.625308043604
 30
0.0
 10
5900.485533644997
 20
3716.115743747599
 30
0.0
 10
5897.841081908451
 20
3726.87474681965
 30
0.0
 10
5896.10496842266
 20
3737.83005808661
 30
0.0
 10
5895.283970706211
 20
3748.891662619998
 30
0.0
 10
5895.391798887519
 20
3759.973542498344
 30
0.0
 10
5896.4550502423
 20
3771.007619069595
 30
0.0
 10
5898.440357668117
 20
3781.92904330755
 30
0.0
 10
5901.324602805892
 20
3792.648291414603
 30
0.0
 10
5905.152790601884
 20
3803.258237703776
 30
0.0
 10
5909.993757197461
 20
3813.664250403686
 30
0.0
 10
5915.856659906153
 20
3823.764860233489
 30
0.0
 10
5922.512095581036
 20
3833.375822671715
 30
0.0
 10
5927.605134929254
 20
3839.256807040484
 30
0.0
 10
5930.146853742368
 20
3842.191755621816
 30
0.0
  0
SPLINE
  5
119
330
1F
100
AcDbEntity
  8
0
  6
Continuous
 62
     7
370
    25
100
AcDbSpline
210
0.0
220
0.0
230
1.0
 70
     8
 71
     3
 72
    11
 73
     7
 74
     0
 42
0.00000001
 43
0.00000001
 40
0.0
 40
0.0
 40
0.0
 40
0.0
 40
0.2490296997341863
 40
0.4980593120459107
 40
0.7490299169979262
 40
1.0
 40
1.0
 40
1.0
 40
1.0
 10
6139.500133488496
 20
3620.604351107033
 30
0.0
 10
6142.671824313025
 20
3622.877445679882
 30
0.0
 10
6149.015204848652
 20
3627.423634027605
 30
0.0
 10
6158.156749996891
 20
3634.789014912576
 30
0.0
 10
6167.036858612293
 20
3642.514143015095
 30
0.0
 10
6172.668431618325
 20
3648.004581380697
 30
0.0
 10
6175.484215193306
 20
3650.749797708845
 30
0.0
  0
SPLINE
  5
11A
330
1F
100
AcDbEntity
  8
0
  6
Continuous
 62
     7
370
    25
100
AcDbSpline
210
0.0
220
0.0
230
1.0
 70
     8
 71
     3
 72
    14
 73
    10
 74
     0
 42
0.00000001
 43
0.00000001
 40
0.0
 40
0.0
 40
0.0
 40
0.0
 40
0.1457558856010003
 40
0.2916033885533236
 40
0.4373622371893076
 40
0.5864758120169951
 40
0.7356851871160808
 40
0.8847987337415372
 40
0.9999999999999999
 40
0.9999999999999999
 40
0.9999999999999999
 40
0.9999999999999999
 10
6051.809321880753
 20
3579.377390401385
 30
0.0
 10
6056.351270702073
 20
3580.701650935609
 30
0.0
 10
6065.438023264217
 20
3583.351004390635
 30
0.0
 10
6078.793997906867
 20
3588.180257259257
 30
0.0
 10
6092.011239232398
 20
3593.655914751755
 30
0.0
 10
6105.033974325213
 20
3599.844836156221
 30
0.0
 10
6117.816923313692
 20
3606.742158237316
 30
0.0
 10
6129.318766061509
 20
3613.671668139797
 30
0.0
 10
6136.409601929248
 20
3618.499950528805
 30
0.0
 10
6139.500133488496
 20
3620.604351107033
 30
0.0
  0
SPLINE
  5
11B
330
1F
100
AcDbEntity
  8
0
  6
Continuous
 62
     7
370
    25
100
AcDbSpline
210
0.0
220
0.0
230
1.0
 70
     8
 71
     3
 72
    32
 73
    28
 74
     0
 42
0.00000001
 43
0.00000001
 40
0.0
 40
0.0
 40
0.0
 40
0.0
 40
0.0399137869934021
 40
0.0799701991554467
 40
0.1200266462973313
 40
0.1599404811609545
 40
0.1998566866516572
 40
0.2399155352114078
 40
0.2799743636991014
 40
0.3198905417210029
 40
0.3598061580832132
 40
0.3998643430372229
 40
0.4399225325726618
 40
0.4798381552045888
 40
0.5197644142716158
 40
0.559833401372209
 40
0.5999023563126985
 40
0.6398285713682615
 40
0.6797472621136911
 40
0.7198085578254803
 40
0.7598698414502691
 40
0.7997885156545425
 40
0.8397141732437928
 40
0.8797826133288729
 40
0.9198510477567544
 40
0.959776697604053
 40
1.0
 40
1.0
 40
1.0
 40
1.0
 10
5853.09084607557
 20
3778.09586620029
 30
0.0
 10
5851.994574039848
 20
3773.695531405289
 30
0.0
 10
5849.798112625656
 20
3764.879137962966
 30
0.0
 10
5847.931350596032
 20
3751.35420435061
 30
0.0
 10
5847.111244906798
 20
3737.738094018922
 30
0.0
 10
5847.456748088046
 20
3724.11160867436
 30
0.0
 10
5848.971087790716
 20
3710.566721954796
 30
0.0
 10
5851.619746421306
 20
3697.180758129211
 30
0.0
 10
5855.370569667613
 20
3684.061108834738
 30
0.0
 10
5860.202375716192
 20
3671.316318635698
 30
0.0
 10
5866.116079239539
 20
3659.036197293429
 30
0.0
 10
5873.045503465994
 20
3647.281529095303
 30
0.0
 10
5880.927032526887
 20
3636.142828402335
 30
0.0
 10
5889.704925413417
 20
3625.714348633955
 30
0.0
 10
5899.350998015199
 20
3616.081502744585
 30
0.0
 10
5909.783103166383
 20
3607.280332448973
 30
0.0
 10
5920.910241232812
 20
3599.376146687583
 30
0.0
 10
5932.646845658332
 20
3592.440729440898
 30
0.0
 10
5944.937513551415
 20
3586.544707892539
 30
0.0
 10
5957.692456042908
 20
3581.693956068113
 30
0.0
 10
5970.806129833567
 20
3577.919265523339
 30
0.0
 10
5984.175830204063
 20
3575.259008291288
 30
0.0
 10
5997.725664923199
 20
3573.764197820576
 30
0.0
 10
6011.370845644044
 20
3573.404754674264
 30
0.0
 10
6024.992699931455
 20
3574.200334712761
 30
0.0
 10
6038.540668346067
 20
3576.062663338793
 30
0.0
 10
6047.375500605972
 20
3578.269749197867
 30
0.0
 10
6051.809321880753
 20
3579.377390401385
 30
0.0
  0
SPLINE
  5
11C
330
1F
100
AcDbEntity
  8
0
  6
Continuous
 62
     7
370
    25
100
AcDbSpline
210
0.0
220
0.0
230
1.0
 70
     8
 71
     3
 72
    14
 73
    10
 74
     0
 42
0.00000001
 43
0.00000001
 40
0.0
 40
0.0
 40
0.0
 40
0.0
 40
0.1457512863598517
 40
0.291592034658113
 40
0.4373432880133915
 40
0.5864385268240296
 40
0.7356295265151209
 40
0.8847247367711357
 40
1.0
 40
1.0
 40
1.0
 40
1.0
 10
5894.317806782518
 20
3865.78667781286
 30
0.0
 10
5891.666398803589
 20
3861.868607115333
 30
0.0
 10
5886.361955415173
 20
3854.030060813894
 30
0.0
 10
5879.155344996221
 20
3841.79294251829
 30
0.0
 10
5872.469201557882
 20
3829.146031143315
 30
0.0
 10
5866.390020372587
 20
3816.073329030086
 30
0.0
 10
5860.94681666145
 20
3802.608743383065
 30
0.0
 10
5856.509654245438
 20
3789.933815735915
 30
0.0
 10
5854.12892967193
 20
3781.690329714148
 30
0.0
 10
5853.09084607557
 20
3778.09586620029
 30
0.0
  0
SPLINE
  5
11D
330
1F
100
AcDbEntity
  8
0
  6
Continuous
 62
     7
370
    25
100
AcDbSpline
210
0.0
220
0.0
230
1.0
 70
     8
 71
     3
 72
    11
 73
     7
 74
     0
 42
0.00000001
 43
0.00000001
 40
0.0
 40
0.0
 40
0.0
 40
0.0
 40
0.085112583611551
 40
0.4257061745484481
 40
0.712485926095964
 40
1.0
 40
1.0
 40
1.0
 40
1.0
 10
5924.463253384058
 20
3901.770759517425
 30
0.0
 10
5923.5248268172
 20
3900.823506897601
 30
0.0
 10
5918.831114478554
 20
3896.085649438628
 30
0.0
 10
5911.316773750688
 20
3887.822456764467
 30
0.0
 10
5902.206358447549
 20
3876.747239705692
 30
0.0
 10
5896.94956454212
 20
3869.443311506333
 30
0.0
 10
5894.317806782518
 20
3865.78667781286
 30
0.0
  0
ARC
  5
11E
330
1F
100
AcDbEntity
  8
0
  6
Continuous
 62
     7
370
    25
100
AcDbCircle
 10
6070.4791404094
 20
3796.7656847338
 30
0.0
 40
37.50000000000087
100
AcDbArc
 50
315.0
 51
135.0
  0
SPLINE
  5
11F
330
1F
100
AcDbEntity
  8
0
  6
Continuous
 62
     7
370
    25
100
AcDbSpline
210
0.0
220
0.0
230
1.0
 70
     8
 71
     3
 72
    26
 73
    22
 74
     0
 42
0.00000001
 43
0.00000001
 40
0.0
 40
0.0
 40
0.0
 40
0.0
 40
0.0539861145401144
 40
0.107976120160387
 40
0.1619461644728133
 40
0.2159146965885689
 40
0.2700929017659645
 40
0.3242689458658369
 40
0.3780362283204329
 40
0.4317994444014345
 40
0.4848296450367138
 40
0.5378585149412296
 40
0.5903026024491442
 40
0.6427503706997665
 40
0.6955500765524282
 40
0.7483527284807159
 40
0.8018552613304515
 40
0.8553598014340008
 40
0.9093928582544596
 40
0.9634227828464695
 40
1.0
 40
1.0
 40
1.0
 40
1.0
 10
6043.9626284944
 20
3823.282192071724
 30
0.0
 10
6042.520644863554
 20
3821.704136428662
 30
0.0
 10
6039.636573670065
 20
3818.547911403271
 30
0.0
 10
6036.387704281006
 20
3812.982700510956
 30
0.0
 10
6034.071830693995
 20
3806.994802102004
 30
0.0
 10
6032.783344126536
 20
3800.687723400235
 30
0.0
 10
6032.591932566511
 20
3794.24793079379
 30
0.0
 10
6033.47028297694
 20
3787.872029836483
 30
0.0
 10
6035.433076635852
 20
3781.760317450485
 30
0.0
 10
6038.366861588484
 20
3776.101030247228
 30
0.0
 10
6042.222256487077
 20
3771.062354531704
 30
0.0
 10
6046.823463576418
 20
3766.77009658461
 30
0.0
 10
6052.075963542303
 20
3763.349136351528
 30
0.0
 10
6057.807528367144
 20
3760.835233486509
 30
0.0
 10
6063.896036020019
 20
3759.325229062676
 30
0.0
 10
6070.190314468988
 20
3758.819873017978
 30
0.0
 10
6076.507067215911
 20
3759.389498184635
 30
0.0
 10
6082.696708502838
 20
3760.990015456655
 30
0.0
 10
6088.532477487734
 20
3763.636563895027
 30
0.0
 10
6093.338396004384
 20
3766.796269297679
 30
0.0
 10
6095.943849099471
 20
3769.256146965083
 30
0.0
 10
6096.995645037477
 20
3770.249175526391
 30
0.0
  0
SPLINE
  5
120
330
1F
100
AcDbEntity
  8
0
  6
Continuous
 62
     7
370
    25
100
AcDbSpline
210
0.0
220
0.0
230
1.0
 70
     8
 71
     3
 72
    10
 73
     6
 74
     0
 42
0.00000001
 43
0.00000001
 40
0.0
 40
0.0
 40
0.0
 40
0.0
 40
0.0682225420743219
 40
0.341114240018062
 40
1.0
 40
1.0
 40
1.0
 40
1.0
 10
6114.619399235248
 20
3657.84559003512
 30
0.0
 10
6115.603793574362
 20
3658.744866166134
 30
0.0
 10
6120.525787341454
 20
3663.241266984254
 30
0.0
 10
6135.013035651997
 20
3676.357580799576
 30
0.0
 10
6148.439473908088
 20
3688.660627151647
 30
0.0
 10
6157.933681885504
 20
3697.360453464061
 30
0.0
  0
SPLINE
  5
121
330
1F
100
AcDbEntity
  8
0
  6
Continuous
 62
     7
370
    25
100
AcDbSpline
210
0.0
220
0.0
230
1.0
 70
     8
 71
     3
 72
    44
 73
    40
 74
     0
 42
0.00000001
 43
0.00000001
 40
0.0
 40
0.0
 40
0.0
 40
0.0
 40
0.0289597385647164
 40
0.0580310399539514
 40
0.0870975306874551
 40
0.1160506837918635
 40
0.1435602501764927
 40
0.1711676027988605
 40
0.1987747491758564
 40
0.2262840333166872
 40
0.2537667543265451
 40
0.2813473736276603
 40
0.3089279142162943
 40
0.3364105275085452
 40
0.3638872828776716
 40
0.3914620574501279
 40
0.4190367134548275
 40
0.4465133065637379
 40
0.473990380985189
 40
0.5015655528588611
 40
0.529140728743854
 40
0.5566178086548158
 40
0.584124268837032
 40
0.6117291223923396
 40
0.639334054684892
 40
0.6668406226200908
 40
0.6944093554804216
 40
0.7220769120885125
 40
0.7497445039235024
 40
0.7773132849926956
 40
0.8051042347311138
 40
0.8329960931799273
 40
0.8608881318056039
 40
0.8886793281315652
 40
0.8983457970177673
 40
0.9177189365928724
 40
0.9370921270121794
 40
0.968544226383807
 40
1.0
 40
1.0
 40
1.0
 40
1.0
 10
5931.55864294527
 20
3840.906313385515
 30
0.0
 10
5929.050272958022
 20
3838.016324110924
 30
0.0
 10
5924.02386988384
 20
3832.225212333949
 30
0.0
 10
5917.469292028101
 20
3822.747137638459
 30
0.0
 10
5911.700622276802
 20
3812.784536392824
 30
0.0
 10
5906.938434003427
 20
3802.524191035739
 30
0.0
 10
5903.171513034787
 20
3792.066845844687
 30
0.0
 10
5900.336347549342
 20
3781.503743415314
 30
0.0
 10
5898.386541462134
 20
3770.742118274912
 30
0.0
 10
5897.345086096606
 20
3759.870776038534
 30
0.0
 10
5897.244324669412
 20
3748.953649440147
 30
0.0
 10
5898.057878588865
 20
3738.057670993446
 30
0.0
 10
5899.772234159263
 20
3727.266699967758
 30
0.0
 10
5902.380599172905
 20
3716.669695597392
 30
0.0
 10
5905.892517769252
 20
3706.33771060841
 30
0.0
 10
5910.261557842885
 20
3696.325452505111
 30
0.0
 10
5915.446450783998
 20
3686.710332538481
 30
0.0
 10
5921.411898357773
 20
3677.573540020604
 30
0.0
 10
5928.143541211511
 20
3668.985526554261
 30
0.0
 10
5935.579202122076
 20
3660.982477463009
 30
0.0
 10
5943.653579334428
 20
3653.624331522914
 30
0.0
 10
5952.309222948425
 20
3646.973394433094
 30
0.0
 10
5961.510065588714
 20
3641.092401457811
 30
0.0
 10
5971.185961506484
 20
3635.996129487819
 30
0.0
 10
5981.251828907579
 20
3631.721384777431
 30
0.0
 10
5991.636715411685
 20
3628.306677621838
 30
0.0
 10
6002.285888161642
 20
3625.800005455128
 30
0.0
 10
6013.128188874159
 20
3624.192909902462
 30
0.0
 10
6024.066599362362
 20
3623.49318847845
 30
0.0
 10
6035.0421634485
 20
3623.714220692969
 30
0.0
 10
6045.986842194544
 20
3624.88991445937
 30
0.0
 10
6056.834343633031
 20
3626.994194677862
 30
0.0
 10
6067.46738622969
 20
3629.998219443611
 30
0.0
 10
6075.555301326493
 20
3633.042514145198
 30
0.0
 10
6082.413601103097
 20
3636.091339661241
 30
0.0
 10
6088.139756128853
 20
3638.945468569263
 30
0.0
 10
6096.175749857528
 20
3643.572499750273
 30
0.0
 10
6105.195628346085
 20
3649.678853919012
 30
0.0
 10
6111.47801996083
 20
3655.123238666807
 30
0.0
 10
6114.619399235248
 20
3657.84559003512
 30
0.0
  0
SPLINE
  5
122
330
1F
100
AcDbEntity
  8
0
  6
Continuous
 62
     7
370
    25
100
AcDbSpline
210
0.0
220
0.0
230
1.0
 70
     8
 71
     3
 72
    10
 73
     6
 74
     0
 42
0.00000001
 43
0.00000001
 40
0.0
 40
0.0
 40
0.0
 40
0.0
 40
0.0682221391123634
 40
0.3411110455799753
 40
0.9999999999999999
 40
0.9999999999999999
 40
0.9999999999999999
 40
0.9999999999999999
 10
5971.074119906677
 20
3884.220032682041
 30
0.0
 10
5970.171459303277
 20
3883.238718991972
 30
0.0
 10
5965.658151655117
 20
3878.332145506931
 30
0.0
 10
5952.433281093522
 20
3863.941932997923
 30
0.0
 10
5940.20537422239
 20
3850.44817040722
 30
0.0
 10
5931.55864294527
 20
3840.906313385515
 30
0.0
  0
SPLINE
  5
123
330
1F
100
AcDbEntity
  8
0
  6
Continuous
 62
     7
370
    25
100
AcDbSpline
210
0.0
220
0.0
230
1.0
 70
     8
 71
     3
 72
    46
 73
    42
 74
     0
 42
0.00000001
 43
0.00000001
 40
0.0
 40
0.0
 40
0.0
 40
0.0
 40
0.0293535237104485
 40
0.0587050603673093
 40
0.0848093511575266
 40
0.1110070634905426
 40
0.1372050078914163
 40
0.1633096162698043
 40
0.1894246233835908
 40
0.2156330944292423
 40
0.2418417234201794
 40
0.2679569466844887
 40
0.2940249717509077
 40
0.3201857957000922
 40
0.3463464162604709
 40
0.3724141629907899
 40
0.3984558754691767
 40
0.4245903846848054
 40
0.4507246527651172
 40
0.4767660352503327
 40
0.5028672540738912
 40
0.5290621598386294
 40
0.5552572304456369
 40
0.5813586748606799
 40
0.6074693303427958
 40
0.6336734047077213
 40
0.6598776734480706
 40
0.6859885949355385
 40
0.712088959019582
 40
0.73828256626632
 40
0.7644762603321441
 40
0.7905767432287217
 40
0.816708233768654
 40
0.8429332749566291
 40
0.8691579799573089
 40
0.8952890104177152
 40
0.9118204978168113
 40
0.9340111293634786
 40
0.9562303276192783
 40
0.97842075991958
 40
1.0
 40
1.0
 40
1.0
 40
1.0
 10
6157.933681885504
 20
3697.360453464061
 30
0.0
 10
6160.931637936515
 20
3700.269806498349
 30
0.0
 10
6166.92734709529
 20
3706.088315621562
 30
0.0
 10
6174.546624931726
 20
3715.474548282914
 30
0.0
 10
6181.076666100184
 20
3725.089820326244
 30
0.0
 10
6186.542801534143
 20
3734.840559575056
 30
0.0
 10
6191.183433042035
 20
3745.008225657763
 30
0.0
 10
6194.951410958783
 20
3755.519420695694
 30
0.0
 10
6197.798365178843
 20
3766.317945856984
 30
0.0
 10
6199.731534898561
 20
3777.331199348317
 30
0.0
 10
6200.742927278269
 20
3788.46699386714
 30
0.0
 10
6200.817229850338
 20
3799.629110065767
 30
0.0
 10
6199.92989885873
 20
3810.749244427484
 30
0.0
 10
6198.115125744133
 20
3821.761950176116
 30
0.0
 10
6195.393484165919
 20
3832.586242960879
 30
0.0
 10
6191.780447752643
 20
3843.129341467431
 30
0.0
 10
6187.273797299025
 20
3853.318419737871
 30
0.0
 10
6181.926637320928
 20
3863.102607321946
 30
0.0
 10
6175.786197236635
 20
3872.409424575775
 30
0.0
 10
6168.890317313357
 20
3881.166124611183
 30
0.0
 10
6161.257225983679
 20
3889.300213286288
 30
0.0
 10
6152.952041316912
 20
3896.778380644238
 30
0.0
 10
6144.053353419508
 20
3903.53950944594
 30
0.0
 10
6134.628136189679
 20
3909.523912535738
 30
0.0
 10
6124.719802836892
 20
3914.671855549246
 30
0.0
 10
6114.401766494685
 20
3918.975901192234
 30
0.0
 10
6103.761771822171
 20
3922.407751747627
 30
0.0
 10
6092.885369685243
 20
3924.933082457982
 30
0.0
 10
6081.833107004507
 20
3926.510181669765
 30
0.0
 10
6070.676518084634
 20
3927.155998147849
 30
0.0
 10
6059.504818079134
 20
3926.873295749946
 30
0.0
 10
6048.404144728756
 20
3925.656595640112
 30
0.0
 10
6037.445390272516
 20
3923.48611310006
 30
0.0
 10
6026.69078524469
 20
3920.399982407231
 30
0.0
 10
6016.230031691475
 20
3916.431060790611
 30
0.0
 10
6007.383878081007
 20
3912.190933991285
 30
0.0
 10
5999.362910665417
 20
3907.630235430681
 30
0.0
 10
5992.102501545279
 20
3902.88152472353
 30
0.0
 10
5984.569123732476
 20
3897.130110249628
 30
0.0
 10
5977.495316471146
 20
3890.944154546634
 30
0.0
 10
5973.194500140252
 20
3886.440443620515
 30
0.0
 10
5971.074119906677
 20
3884.220032682041
 30
0.0
  0
LINE
  5
124
330
1F
100
AcDbEntity
  8
0
  6
Continuous
 62
     7
370
    25
100
AcDbLine
 10
5971.0741199067
 20
3884.220032682
 30
0.0
 11
5969.6183343873
 21
3885.5595582829
 31
0.0
  0
LINE
  5
125
330
1F
100
AcDbEntity
  8
0
  6
Continuous
 62
     7
370
    25
100
AcDbLine
 10
6157.9336818855
 20
3697.3604534641
 30
0.0
 11
6159.273193525
 21
3695.9045805197
 31
0.0
  0
LINE
  5
126
330
1F
100
AcDbEntity
  8
0
  6
Continuous
 62
     7
370
    25
100
AcDbLine
 10
5930.1468537424
 20
3842.1917556218
 30
0.0
 11
5931.5586429453
 21
3840.9063133855
 31
0.0
  0
LINE
  5
127
330
1F
100
AcDbEntity
  8
0
  6
Continuous
 62
     7
370
    25
100
AcDbLine
 10
6115.9046146085
 20
3656.4340593629
 30
0.0
 11
6114.6193992352
 21
3657.8455900351
 31
0.0
  0
SPLINE
  5
128
330
1F
100
AcDbEntity
  8
0
  6
Continuous
 62
     7
370
    25
100
AcDbSpline
210
0.0
220
0.0
230
1.0
 70
     8
 71
     3
 72
    27
 73
    23
 74
     0
 42
0.00000001
 43
0.00000001
 40
0.0
 40
0.0
 40
0.0
 40
0.0
 40
0.0384361532397115
 40
0.0768723064794221
 40
0.1305609362687755
 40
0.1842495660581287
 40
0.2379381958474791
 40
0.2916268256368293
 40
0.3453154554261839
 40
0.3990040852155387
 40
0.4526927150048919
 40
0.5063813447942451
 40
0.5600699745835971
 40
0.6137586043729485
 40
0.6674472341623003
 40
0.721135863951652
 40
0.7748244937410028
 40
0.8285131235303527
 40
0.8822017533197056
 40
0.9358903831090576
 40
0.9679451915545295
 40
1.0
 40
1.0
 40
1.0
 40
1.0
 10
6043.962636114901
 20
3823.282189028344
 30
0.0
 10
6042.933667926112
 20
3822.177782427157
 30
0.0
 10
6040.875731548535
 20
3819.968969224783
 30
0.0
 10
6037.979398974911
 20
3815.72369541632
 30
0.0
 10
6035.428647737299
 20
3810.577403329351
 30
0.0
 10
6033.599843878743
 20
3804.497189640505
 30
0.0
 10
6032.835669599973
 20
3798.196091155271
 30
0.0
 10
6033.119094497979
 20
3791.85439067851
 30
0.0
 10
6034.484627891237
 20
3785.65520189273
 30
0.0
 10
6036.850964040408
 20
3779.764849941399
 30
0.0
 10
6040.191545170936
 20
3774.36705660095
 30
0.0
 10
6044.374195232157
 20
3769.591992040214
 30
0.0
 10
6049.313148876618
 20
3765.604194700269
 30
0.0
 10
6054.840561839667
 20
3762.482762261829
 30
0.0
 10
6060.821064259657
 20
3760.354544819709
 30
0.0
 10
6067.0700319098
 20
3759.238709916724
 30
0.0
 10
6073.417958335936
 20
3759.209832410526
 30
0.0
 10
6079.683465259284
 20
3760.22607071713
 30
0.0
 10
6085.684970487036
 20
3762.297274187872
 30
0.0
 10
6090.505795304411
 20
3764.931655552631
 30
0.0
 10
6094.248794023896
 20
3767.659327773484
 30
0.0
 10
6096.08002781056
 20
3769.385896217397
 30
0.0
 10
6096.995644703892
 20
3770.249180439353
 30
0.0
  0
SPLINE
  5
129
330
1F
100
AcDbEntity
  8
0
  6
Continuous
 62
     7
370
    25
100
AcDbSpline
210
0.0
220
0.0
230
1.0
 70
     8
 71
     3
 72
    27
 73
    23
 74
     0
 42
0.00000001
 43
0.00000001
 40
0.0
 40
0.0
 40
0.0
 40
0.0
 40
0.0433397026155077
 40
0.0970285688381111
 40
0.1507174350607132
 40
0.2044063012833152
 40
0.258095167505918
 40
0.3117840337285168
 40
0.3654728999511155
 40
0.4191617661737147
 40
0.4728506323963143
 40
0.4999980953093011
 40
0.5399106072556724
 40
0.5935994734782732
 40
0.6472883397008743
 40
0.7009772059234749
 40
0.7546660721460754
 40
0.8083549383686761
 40
0.8620438045912774
 40
0.9157326708138774
 40
0.9694215370364777
 40
1.0
 40
1.0
 40
1.0
 40
1.0
 10
6096.995644703892
 20
3770.249180439353
 30
0.0
 10
6098.150856420181
 20
3771.499881815356
 30
0.0
 10
6100.737134884779
 20
3774.299941742718
 30
0.0
 10
6103.874556782291
 20
3779.357563837113
 30
0.0
 10
6106.344572897413
 20
3785.199122153877
 30
0.0
 10
6107.763288332426
 20
3791.388463088864
 30
0.0
 10
6108.148676949721
 20
3797.723909147439
 30
0.0
 10
6107.441908936776
 20
3804.03248665048
 30
0.0
 10
6105.707463624451
 20
3810.138852462439
 30
0.0
 10
6102.953315416054
 20
3815.857594640543
 30
0.0
 10
6099.895879120056
 20
3820.191393724308
 30
0.0
 10
6096.688147518741
 20
3823.682436099245
 30
0.0
 10
6093.127796044422
 20
3826.825488252884
 30
0.0
 10
6088.253703833416
 20
3829.979187370475
 30
0.0
 10
6082.428721316963
 20
3832.502042931738
 30
0.0
 10
6076.257813846389
 20
3833.990153926788
 30
0.0
 10
6069.925981583406
 20
3834.443353831858
 30
0.0
 10
6063.610958825394
 20
3833.804316242875
 30
0.0
 10
6057.484016779419
 20
3832.138116546548
 30
0.0
 10
6051.744260745795
 20
3829.437388771387
 30
0.0
 10
6047.240008565105
 20
3826.377273082406
 30
0.0
 10
6044.835258526314
 20
3824.10627593083
 30
0.0
 10
6043.962636114901
 20
3823.282189028344
 30
0.0
  0
LINE
  5
12A
330
1F
100
AcDbEntity
  8
0
  6
Continuous
 62
     7
370
    25
100
AcDbLine
 10
6043.9626361149
 20
3823.2821890283
 30
0.0
 11
6096.9956447039
 21
3770.2491804394
 31
0.0
  0
LINE
  5
12B
330
1F
100
AcDbEntity
  8
0
  6
Continuous
 62
     7
370
    25
100
AcDbLine
 10
6523.1901249004
 20
4248.4766692248
 30
0.0
 11
6523.1901249004
 21
4331.4766692248
 31
0.0
  0
LINE
  5
12C
330
1F
100
AcDbEntity
  8
0
  6
Continuous
 62
     7
370
    25
100
AcDbLine
 10
6167.1901249004
 20
4248.4766692248
 30
0.0
 11
6523.1901249004
 21
4248.4766692248
 31
0.0
  0
LINE
  5
12D
330
1F
100
AcDbEntity
  8
0
  6
Continuous
 62
     7
370
    25
100
AcDbLine
 10
6167.1901249004
 20
4331.4766692248
 30
0.0
 11
6167.1901249004
 21
4248.4766692248
 31
0.0
  0
LINE
  5
12E
330
1F
100
AcDbEntity
  8
0
  6
Continuous
 62
     7
370
    25
100
AcDbLine
 10
6523.1901249004
 20
4331.4766692248
 30
0.0
 11
6167.1901249004
 21
4331.4766692248
 31
0.0
  0
LINE
  5
12F
330
1F
100
AcDbEntity
  8
0
  6
Continuous
 62
     7
370
    25
100
AcDbLine
 10
6525.1901249004
 20
4331.4766692248
 30
0.0
 11
6525.1901249004
 21
4248.4766692248
 31
0.0
  0
LINE
  5
130
330
1F
100
AcDbEntity
  8
0
  6
Continuous
 62
     7
370
    25
100
AcDbLine
 10
6525.1901249004
 20
4248.4766692248
 30
0.0
 11
6523.1901249004
 21
4248.4766692248
 31
0.0
  0
LINE
  5
131
330
1F
100
AcDbEntity
  8
0
  6
Continuous
 62
     7
370
    25
100
AcDbLine
 10
6523.1901249004
 20
4331.4766692248
 30
0.0
 11
6525.1901249004
 21
4331.4766692248
 31
0.0
  0
LINE
  5
132
330
1F
100
AcDbEntity
  8
0
  6
Continuous
 62
     7
370
    25
100
AcDbLine
 10
6167.1901249004
 20
4248.4766692248
 30
0.0
 11
6165.1901249004
 21
4248.4766692248
 31
0.0
  0
LINE
  5
133
330
1F
100
AcDbEntity
  8
0
  6
Continuous
 62
     7
370
    25
100
AcDbLine
 10
6165.1901249004
 20
4248.4766692248
 30
0.0
 11
6165.1901249004
 21
4331.4766692248
 31
0.0
  0
LINE
  5
134
330
1F
100
AcDbEntity
  8
0
  6
Continuous
 62
     7
370
    25
100
AcDbLine
 10
6165.1901249004
 20
4331.4766692248
 30
0.0
 11
6167.1901249004
 21
4331.4766692248
 31
0.0
  0
ARC
  5
135
330
1F
100
AcDbEntity
  8
0
  6
Continuous
 62
     7
370
    25
100
AcDbCircle
 10
6523.1901249004
 20
4248.4766692248
 30
0.0
 40
2.0
100
AcDbArc
 50
270.0
 51
0.0
  0
LINE
  5
136
330
1F
100
AcDbEntity
  8
0
  6
Continuous
 62
     7
370
    25
100
AcDbLine
 10
6523.1901249004
 20
4248.4766692248
 30
0.0
 11
6523.1901249004
 21
4246.4766692248
 31
0.0
  0
LINE
  5
137
330
1F
100
AcDbEntity
  8
0
  6
Continuous
 62
     7
370
    25
100
AcDbLine
 10
6523.1901249004
 20
4246.4766692248
 30
0.0
 11
6167.1901249004
 21
4246.4766692248
 31
0.0
  0
LINE
  5
138
330
1F
100
AcDbEntity
  8
0
  6
Continuous
 62
     7
370
    25
100
AcDbLine
 10
6167.1901249004
 20
4246.4766692248
 30
0.0
 11
6167.1901249004
 21
4248.4766692248
 31
0.0
  0
ARC
  5
139
330
1F
100
AcDbEntity
  8
0
  6
Continuous
 62
     7
370
    25
100
AcDbCircle
 10
6167.1901249004
 20
4248.4766692248
 30
0.0
 40
2.0
100
AcDbArc
 50
180.0
 51
270.0
  0
LINE
  5
13A
330
1F
100
AcDbEntity
  8
0
  6
Continuous
 62
     7
370
    25
100
AcDbLine
 10
6467.6901249004
 20
4244.4766692248
 30
0.0
 11
6422.6901249004
 21
4244.4766692248
 31
0.0
  0
LINE
  5
13B
330
1F
100
AcDbEntity
  8
0
  6
Continuous
 62
     7
370
    25
100
AcDbLine
 10
6267.6901249004
 20
4244.4766692248
 30
0.0
 11
6222.6901249004
 21
4244.4766692248
 31
0.0
  0
SPLINE
  5
13C
330
1F
100
AcDbEntity
  8
0
  6
Continuous
 62
     7
370
    25
100
AcDbSpline
210
0.0
220
0.0
230
1.0
 70
    24
 71
     3
 72
    37
 73
    33
 74
     0
 42
0.00000001
 43
0.00000001
 40
0.0
 40
0.0
 40
0.0
 40
0.0
 40
0.0078282980535877
 40
0.0156450745560246
 40
0.023455038615973
 40
0.0312629116683297
 40
0.039073418940021
 40
0.0468912808814956
 40
0.0547212046414159
 40
0.0625678756611394
 40
0.0938195721579884
 40
0.1251131061827898
 40
0.1563954899979693
 40
0.1876569029789375
 40
0.2501265118630145
 40
0.3125960352163271
 40
0.3750642392946348
 40
0.4375328872467029
 40
0.5000023398084148
 40
0.5624716612802032
 40
0.6249402233900839
 40
0.687408536999607
 40
0.7498781433019169
 40
0.8123476092348304
 40
0.8436004090787924
 40
0.8748916157228689
 40
0.9061762125296208
 40
0.9374360970952411
 40
0.9531017468291403
 40
0.9687257869134042
 40
0.9843459508066467
 40
1.0
 40
1.0
 40
1.0
 40
1.0
 10
6259.19012490037
 20
4243.476669224821
 30
0.0
 10
6259.189315254266
 20
4243.476669224821
 30
0.0
 10
6259.187697153679
 20
4243.476669224821
 30
0.0
 10
6259.174604259134
 20
4243.476669224821
 30
0.0
 10
6259.153698376977
 20
4243.476669224821
 30
0.0
 10
6259.12421734676
 20
4243.476669224821
 30
0.0
 10
6259.08636455433
 20
4243.476669224821
 30
0.0
 10
6259.040088057678
 20
4243.476669224821
 30
0.0
 10
6258.985392675224
 20
4243.476669224821
 30
0.0
 10
6258.859662499086
 20
4243.476669224821
 30
0.0
 10
6258.60911327761
 20
4243.476669224821
 30
0.0
 10
6258.144934240376
 20
4243.476669224821
 30
0.0
 10
6257.556919816852
 20
4243.476669224821
 30
0.0
 10
6256.614054996787
 20
4243.476669224821
 30
0.0
 10
6255.153239064033
 20
4243.476669224821
 30
0.0
 10
6253.018039113627
 20
4243.476669224821
 30
0.0
 10
6250.581911346244
 20
4243.476669224821
 30
0.0
 10
6247.938703196553
 20
4243.476669224821
 30
0.0
 10
6245.189802387864
 20
4243.476669224821
 30
0.0
 10
6242.440919473919
 20
4243.476669224821
 30
0.0
 10
6239.797746074986
 20
4243.476669224821
 30
0.0
 10
6237.361660242163
 20
4243.476669224821
 30
0.0
 10
6235.226555104487
 20
4243.476669224821
 30
0.0
 10
6233.765922967753
 20
4243.476669224821
 30
0.0
 10
6232.823084858664
 20
4243.476669224821
 30
0.0
 10
6232.235186647385
 20
4243.476669224821
 30
0.0
 10
6231.770965510338
 20
4243.476669224821
 30
0.0
 10
6231.492742281188
 20
4243.476669224821
 30
0.0
 10
6231.335887966425
 20
4243.476669224821
 30
0.0
 10
6231.252196773971
 20
4243.476669224821
 30
0.0
 10
6231.199819886638
 20
4243.476669224821
 30
0.0
 10
6231.19336075051
 20
4243.476669224821
 30
0.0
 10
6231.19012768324
 20
4243.476669224821
 30
0.0
  0
SPLINE
  5
13D
330
1F
100
AcDbEntity
  8
0
  6
Continuous
 62
     7
370
    25
100
AcDbSpline
210
0.0
220
0.0
230
1.0
 70
    24
 71
     3
 72
    37
 73
    33
 74
     0
 42
0.00000001
 43
0.00000001
 40
0.0
 40
0.0
 40
0.0
 40
0.0
 40
0.007828298052217
 40
0.0156450745536753
 40
0.0234550386130373
 40
0.0312629116651991
 40
0.0390734189370851
 40
0.0468912808791417
 40
0.0547212046400292
 40
0.0625678756611005
 40
0.0938195721566582
 40
0.1251131061827998
 40
0.1563954900009348
 40
0.1876569029789422
 40
0.2501265118630207
 40
0.3125960352163342
 40
0.3750642392946427
 40
0.4375328872467121
 40
0.5000023398084251
 40
0.5624716612802136
 40
0.6249402233900953
 40
0.6874085369996193
 40
0.7498781433019303
 40
0.8123476092348457
 40
0.843600409080443
 40
0.8748916157228604
 40
0.9061762125283863
 40
0.9374360970952298
 40
0.9531017468285058
 40
0.9687257869125604
 40
0.9843459508060128
 40
1.0
 40
1.0
 40
1.0
 40
1.0
 10
6459.19012490037
 20
4243.476669224821
 30
0.0
 10
6459.189315254265
 20
4243.476669224821
 30
0.0
 10
6459.187697153679
 20
4243.476669224821
 30
0.0
 10
6459.174604259134
 20
4243.476669224821
 30
0.0
 10
6459.153698376976
 20
4243.476669224821
 30
0.0
 10
6459.124217346759
 20
4243.476669224822
 30
0.0
 10
6459.086364554329
 20
4243.476669224822
 30
0.0
 10
6459.040088057677
 20
4243.476669224821
 30
0.0
 10
6458.985392675221
 20
4243.476669224822
 30
0.0
 10
6458.859662499107
 20
4243.476669224821
 30
0.0
 10
6458.609113277646
 20
4243.476669224822
 30
0.0
 10
6458.144934240362
 20
4243.476669224821
 30
0.0
 10
6457.55691981683
 20
4243.476669224822
 30
0.0
 10
6456.61405499676
 20
4243.476669224822
 30
0.0
 10
6455.153239064032
 20
4243.476669224822
 30
0.0
 10
6453.018039113627
 20
4243.476669224821
 30
0.0
 10
6450.581911346244
 20
4243.476669224822
 30
0.0
 10
6447.938703196553
 20
4243.476669224822
 30
0.0
 10
6445.189802387864
 20
4243.476669224822
 30
0.0
 10
6442.440919473919
 20
4243.476669224822
 30
0.0
 10
6439.797746074986
 20
4243.476669224821
 30
0.0
 10
6437.361660242163
 20
4243.476669224821
 30
0.0
 10
6435.22655510449
 20
4243.476669224821
 30
0.0
 10
6433.765922967728
 20
4243.476669224821
 30
0.0
 10
6432.823084858668
 20
4243.476669224821
 30
0.0
 10
6432.23518664738
 20
4243.476669224821
 30
0.0
 10
6431.770965510347
 20
4243.476669224821
 30
0.0
 10
6431.492742281195
 20
4243.476669224821
 30
0.0
 10
6431.335887966423
 20
4243.476669224821
 30
0.0
 10
6431.25219677397
 20
4243.476669224821
 30
0.0
 10
6431.199819886637
 20
4243.476669224821
 30
0.0
 10
6431.19336075051
 20
4243.476669224821
 30
0.0
 10
6431.19012768324
 20
4243.476669224821
 30
0.0
  0
LINE
  5
13E
330
1F
100
AcDbEntity
  8
0
  6
Continuous
 62
     7
370
    25
100
AcDbLine
 10
6525.1901249004
 20
4071.4766692248
 30
0.0
 11
6523.1901249004
 21
4071.4766692248
 31
0.0
  0
LINE
  5
13F
330
1F
100
AcDbEntity
  8
0
  6
Continuous
 62
     7
370
    25
100
AcDbLine
 10
6525.1901249004
 20
4248.4766692248
 30
0.0
 11
6525.1901249004
 21
4071.4766692248
 31
0.0
  0
LINE
  5
140
330
1F
100
AcDbEntity
  8
0
  6
Continuous
 62
     7
370
    25
100
AcDbLine
 10
6165.1901249004
 20
4071.4766692248
 30
0.0
 11
6167.1901249004
 21
4071.4766692248
 31
0.0
  0
LINE
  5
141
330
1F
100
AcDbEntity
  8
0
  6
Continuous
 62
     7
370
    25
100
AcDbLine
 10
6165.1901249004
 20
4071.4766692248
 30
0.0
 11
6165.1901249004
 21
4248.4766692248
 31
0.0
  0
ARC
  5
142
330
1F
100
AcDbEntity
  8
0
  6
Continuous
 62
     7
370
    25
100
AcDbCircle
 10
6345.1901249004
 20
4071.4766692248
 30
0.0
 40
178.0
100
AcDbArc
 50
180.0
 51
0.0
  0
SPLINE
  5
143
330
1F
100
AcDbEntity
  8
0
  6
Continuous
 62
     7
370
    25
100
AcDbSpline
210
0.0
220
0.0
230
1.0
 70
    11
 71
     3
 72
    70
 73
    66
 74
     0
 42
0.00000001
 43
0.00000001
 40
0.0
 40
0.0
 40
0.0
 40
0.0
 40
0.03125
 40
0.03125
 40
0.0625
 40
0.0625
 40
0.09375
 40
0.09375
 40
0.125
 40
0.125
 40
0.1562500000000001
 40
0.1562500000000001
 40
0.1875000000000001
 40
0.1875000000000001
 40
0.2187500000000001
 40
0.2187500000000001
 40
0.2500000000000001
 40
0.2500000000000001
 40
0.28125
 40
0.28125
 40
0.3125
 40
0.3125
 40
0.34375
 40
0.34375
 40
0.375
 40
0.375
 40
0.40625
 40
0.40625
 40
0.4375
 40
0.4375
 40
0.46875
 40
0.46875
 40
0.5
 40
0.5
 40
0.53125
 40
0.53125
 40
0.5625
 40
0.5625
 40
0.59375
 40
0.59375
 40
0.625
 40
0.625
 40
0.65625
 40
0.65625
 40
0.6875
 40
0.6875
 40
0.71875
 40
0.71875
 40
0.75
 40
0.75
 40
0.78125
 40
0.78125
 40
0.8125
 40
0.8125
 40
0.84375
 40
0.84375
 40
0.875
 40
0.875
 40
0.90625
 40
0.90625
 40
0.9375
 40
0.9375
 40
0.96875
 40
0.96875
 40
1.0
 40
1.0
 40
1.0
 40
1.0
 10
6342.696277847757
 20
4090.425982659002
 30
0.0
 10
6342.943970121355
 20
4090.590890835324
 30
0.0
 10
6343.203820964338
 20
4090.728783810945
 30
0.0
 10
6343.746904302117
 20
4090.952618298479
 30
0.0
 10
6344.033444546498
 20
4091.039055851785
 30
0.0
 10
6344.613467764558
 20
4091.152895519916
 30
0.0
 10
6344.905911510471
 20
4091.180906427413
 30
0.0
 10
6345.49562955182
 20
4091.17951133006
 30
0.0
 10
6345.794376289343
 20
4091.149159558103
 30
0.0
 10
6346.37099832162
 20
4091.032469778535
 30
0.0
 10
6346.652087242797
 20
4090.946444432986
 30
0.0
 10
6347.199452588256
 20
4090.717620942787
 30
0.0
 10
6347.460555051626
 20
4090.576528988654
 30
0.0
 10
6347.947212138667
 20
4090.248769537699
 30
0.0
 10
6348.176398650594
 20
4090.059519929493
 30
0.0
 10
6348.593037657263
 20
4089.639558179098
 30
0.0
 10
6348.77799501864
 20
4089.412117131724
 30
0.0
 10
6349.102321106731
 20
4088.923163006053
 30
0.0
 10
6349.242460367884
 20
4088.658787899633
 30
0.0
 10
6349.465135441205
 20
4088.115642221033
 30
0.0
 10
6349.549267519537
 20
4087.83544792694
 30
0.0
 10
6349.662622981907
 20
4087.257658436821
 30
0.0
 10
6349.690850823507
 20
4086.961294304793
 30
0.0
 10
6349.689370141637
 20
4086.376366189425
 30
0.0
 10
6349.660384907606
 20
4086.084621595735
 30
0.0
 10
6349.543546009013
 20
4085.503068806884
 30
0.0
 10
6349.45761680897
 20
4085.222771000494
 30
0.0
 10
6349.232896552672
 20
4084.682310954643
 30
0.0
 10
6349.092189974842
 20
4084.419522984563
 30
0.0
 10
6348.763981635716
 20
4083.929872851772
 30
0.0
 10
6348.577834559387
 20
4083.703672709033
 30
0.0
 10
6348.16179709322
 20
4083.28823331588
 30
0.0
 10
6347.929836393607
 20
4083.098274807656
 30
0.0
 10
6347.440716222083
 20
4082.772383236388
 30
0.0
 10
6347.181718357915
 20
4082.634075254413
 30
0.0
 10
6346.634150945078
 20
4082.407923203277
 30
0.0
 10
6346.348956870778
 20
4082.322082479383
 30
0.0
 10
6345.772632062736
 20
4082.208426259712
 30
0.0
 10
6345.477207035838
 20
4082.179579921686
 30
0.0
 10
6344.883270737842
 20
4082.180884738675
 30
0.0
 10
6344.590685528166
 20
4082.210638506106
 30
0.0
 10
6344.014030067005
 20
4082.326682636451
 30
0.0
 10
6343.727064330671
 20
4082.414506123352
 30
0.0
 10
6343.183154810291
 20
4082.641788022835
 30
0.0
 10
6342.924697899442
 20
4082.780872645744
 30
0.0
 10
6342.434876521805
 20
4083.110111230416
 30
0.0
 10
6342.204487085116
 20
4083.300582462697
 30
0.0
 10
6341.791126843246
 20
4083.716641676577
 30
0.0
 10
6341.605296288887
 20
4083.943958351653
 30
0.0
 10
6341.276900192556
 20
4084.438613918799
 30
0.0
 10
6341.139516988271
 20
4084.698241592604
 30
0.0
 10
6340.916904736366
 20
4085.239645847931
 30
0.0
 10
6340.831032067414
 20
4085.524805328366
 30
0.0
 10
6340.717649621812
 20
4086.102604234775
 30
0.0
 10
6340.689689328299
 20
4086.393705333283
 30
0.0
 10
6340.690570631304
 20
4086.980260160427
 30
0.0
 10
6340.720353456684
 20
4087.277704936172
 30
0.0
 10
6340.835564344171
 20
4087.852247755787
 30
0.0
 10
6340.920615970384
 20
4088.132246829838
 30
0.0
 10
6341.146806225229
 20
4088.677384017491
 30
0.0
 10
6341.28718117055
 20
4088.939148488796
 30
0.0
 10
6341.61278938911
 20
4089.42583463925
 30
0.0
 10
6341.799831039095
 20
4089.654109376722
 30
0.0
 10
6342.219818591408
 20
4090.073653682267
 30
0.0
 10
6342.44858557416
 20
4090.26107448268
 30
0.0
 10
6342.696277847757
 20
4090.425982659002
 30
0.0
  0
SPLINE
  5
144
330
1F
100
AcDbEntity
  8
0
  6
Continuous
 62
     7
370
    25
100
AcDbSpline
210
0.0
220
0.0
230
1.0
 70
    11
 71
     3
 72
    70
 73
    66
 74
     0
 42
0.00000001
 43
0.00000001
 40
0.0
 40
0.0
 40
0.0
 40
0.0
 40
0.03125
 40
0.03125
 40
0.0625
 40
0.0625
 40
0.09375
 40
0.09375
 40
0.125
 40
0.125
 40
0.15625
 40
0.15625
 40
0.1875
 40
0.1875
 40
0.21875
 40
0.21875
 40
0.25
 40
0.25
 40
0.28125
 40
0.28125
 40
0.3125
 40
0.3125
 40
0.34375
 40
0.34375
 40
0.375
 40
0.375
 40
0.40625
 40
0.40625
 40
0.4375
 40
0.4375
 40
0.46875
 40
0.46875
 40
0.5
 40
0.5
 40
0.53125
 40
0.53125
 40
0.5625
 40
0.5625
 40
0.59375
 40
0.59375
 40
0.625
 40
0.625
 40
0.65625
 40
0.65625
 40
0.6875
 40
0.6875
 40
0.71875
 40
0.71875
 40
0.75
 40
0.75
 40
0.78125
 40
0.78125
 40
0.8125
 40
0.8125
 40
0.84375
 40
0.84375
 40
0.875
 40
0.875
 40
0.90625
 40
0.90625
 40
0.9375
 40
0.9375
 40
0.96875
 40
0.96875
 40
1.0
 40
1.0
 40
1.0
 40
1.0
 10
6332.087484683005
 20
4086.031124433094
 30
0.0
 10
6332.335410940779
 20
4086.196397856376
 30
0.0
 10
6332.595370473668
 20
4086.334477358808
 30
0.0
 10
6333.138335768509
 20
4086.558554548812
 30
0.0
 10
6333.424622860945
 20
4086.645044192034
 30
0.0
 10
6334.0038936482
 20
4086.759089937481
 30
0.0
 10
6334.295807930058
 20
4086.787240490614
 30
0.0
 10
6334.884147219096
 20
4086.786396629212
 30
0.0
 10
6335.182068657881
 20
4086.756471739398
 30
0.0
 10
6335.757150620517
 20
4086.640972185883
 30
0.0
 10
6336.037460995389
 20
4086.555711544161
 30
0.0
 10
6336.583284609898
 20
4086.328889144212
 30
0.0
 10
6336.84406559326
 20
4086.188806694905
 30
0.0
 10
6337.330089670519
 20
4085.863399736251
 30
0.0
 10
6337.558865584952
 20
4085.675709866032
 30
0.0
 10
6337.976245076321
 20
4085.257791629271
 30
0.0
 10
6338.161676091353
 20
4085.03137619268
 30
0.0
 10
6338.487188503872
 20
4084.544509280598
 30
0.0
 10
6338.628222666394
 20
4084.280982333619
 30
0.0
 10
6338.853115606369
 20
4083.738320741002
 30
0.0
 10
6338.938316789855
 20
4083.458340217353
 30
0.0
 10
6339.053834896358
 20
4082.880955069703
 30
0.0
 10
6339.08328965401
 20
4082.583601686383
 30
0.0
 10
6339.083753891089
 20
4081.997169353474
 30
0.0
 10
6339.055607587081
 20
4081.704825525725
 30
0.0
 10
6338.940280843532
 20
4081.121952859258
 30
0.0
 10
6338.854507322355
 20
4080.839452505177
 30
0.0
 10
6338.630254764048
 20
4080.296810393448
 30
0.0
 10
6338.489806199894
 20
4080.033264597304
 30
0.0
 10
6338.161045702929
 20
4079.54111636666
 30
0.0
 10
6337.974582446961
 20
4079.314030647447
 30
0.0
 10
6337.558089912952
 20
4078.897320099097
 30
0.0
 10
6337.325796706836
 20
4078.706797362932
 30
0.0
 10
6336.836058058435
 20
4078.380068060969
 30
0.0
 10
6336.576910028539
 20
4078.241563436297
 30
0.0
 10
6336.029526701696
 20
4078.015196870217
 30
0.0
 10
6335.744431981101
 20
4077.929258342708
 30
0.0
 10
6335.168792390412
 20
4077.815409477146
 30
0.0
 10
6334.87396877257
 20
4077.786441656424
 30
0.0
 10
6334.281373030328
 20
4077.787212331938
 30
0.0
 10
6333.989527152566
 20
4077.816572387458
 30
0.0
 10
6333.414464408554
 20
4077.931450059729
 30
0.0
 10
6333.128363201473
 20
4078.01846987936
 30
0.0
 10
6332.585692950153
 20
4078.243927579562
 30
0.0
 10
6332.327766691358
 20
4078.381950847422
 30
0.0
 10
6331.838794959084
 20
4078.708704642797
 30
0.0
 10
6331.608323526615
 20
4078.89804914372
 30
0.0
 10
6331.194566890353
 20
4079.311831126497
 30
0.0
 10
6331.008408227113
 20
4079.537963900799
 30
0.0
 10
6330.679043786973
 20
4080.030118737785
 30
0.0
 10
6330.540320325551
 20
4080.289796947843
 30
0.0
 10
6330.315768810039
 20
4080.830157212767
 30
0.0
 10
6330.228884477412
 20
4081.11454988004
 30
0.0
 10
6330.113077638996
 20
4081.69334226684
 30
0.0
 10
6330.084066612624
 20
4081.984907897577
 30
0.0
 10
6330.082994736301
 20
4082.572315696799
 30
0.0
 10
6330.111890233044
 20
4082.870760897087
 30
0.0
 10
6330.225921061237
 20
4083.447766010177
 30
0.0
 10
6330.310562748595
 20
4083.728794858233
 30
0.0
 10
6330.536048913022
 20
4084.275648269849
 30
0.0
 10
6330.676672534239
 20
4084.539111819649
 30
0.0
 10
6331.00262183388
 20
4085.027887142066
 30
0.0
 10
6331.18960315457
 20
4085.256660481345
 30
0.0
 10
6331.610414864545
 20
4085.677878132305
 30
0.0
 10
6331.839558425231
 20
4085.865851009812
 30
0.0
 10
6332.087484683005
 20
4086.031124433094
 30
0.0
  0
SPLINE
  5
145
330
1F
100
AcDbEntity
  8
0
  6
Continuous
 62
     7
370
    25
100
AcDbSpline
210
0.0
220
0.0
230
1.0
 70
    11
 71
     3
 72
    70
 73
    66
 74
     0
 42
0.00000001
 43
0.00000001
 40
0.0
 40
0.0
 40
0.0
 40
0.0
 40
0.03125
 40
0.03125
 40
0.0625
 40
0.0625
 40
0.09375
 40
0.09375
 40
0.125
 40
0.125
 40
0.15625
 40
0.15625
 40
0.1875
 40
0.1875
 40
0.21875
 40
0.21875
 40
0.25
 40
0.25
 40
0.28125
 40
0.28125
 40
0.3125
 40
0.3125
 40
0.34375
 40
0.34375
 40
0.375
 40
0.375
 40
0.40625
 40
0.40625
 40
0.4375
 40
0.4375
 40
0.46875
 40
0.46875
 40
0.5
 40
0.5
 40
0.53125
 40
0.53125
 40
0.5625
 40
0.5625
 40
0.59375
 40
0.59375
 40
0.625
 40
0.625
 40
0.65625
 40
0.65625
 40
0.6875
 40
0.6875
 40
0.71875
 40
0.71875
 40
0.75
 40
0.75
 40
0.78125
 40
0.78125
 40
0.8125
 40
0.8125
 40
0.84375
 40
0.84375
 40
0.875
 40
0.875
 40
0.90625
 40
0.90625
 40
0.9375
 40
0.9375
 40
0.96875
 40
0.96875
 40
1.0
 40
1.0
 40
1.0
 40
1.0
 10
6327.00217876068
 20
4074.856225156433
 30
0.0
 10
6327.212015871094
 20
4075.06685129933
 30
0.0
 10
6327.43891245188
 20
4075.253264248783
 30
0.0
 10
6327.925335895855
 20
4075.579777265391
 30
0.0
 10
6328.187905451106
 20
4075.720996834632
 30
0.0
 10
6328.731677995771
 20
4075.947501739366
 30
0.0
 10
6329.011469295318
 20
4076.033021073618
 30
0.0
 10
6329.586683491268
 20
4076.14922045082
 30
0.0
 10
6329.884092947213
 20
4076.179349295954
 30
0.0
 10
6330.469946221098
 20
4076.18105547928
 30
0.0
 10
6330.761242469159
 20
4076.153575438933
 30
0.0
 10
6331.340501782483
 20
4076.04069209112
 30
0.0
 10
6331.624621470357
 20
4075.9554773005
 30
0.0
 10
6332.166108054005
 20
4075.73374874901
 30
0.0
 10
6332.427357041539
 20
4075.59589241118
 30
0.0
 10
6332.921179030676
 20
4075.268958003909
 30
0.0
 10
6333.148551636335
 20
4075.083711097348
 30
0.0
 10
6333.565321741321
 20
4074.670886392658
 30
0.0
 10
6333.756407875032
 20
4074.440376511569
 30
0.0
 10
6334.085892835877
 20
4073.951745694095
 30
0.0
 10
6334.225374683317
 20
4073.693617340456
 30
0.0
 10
6334.453665409583
 20
4073.149651994812
 30
0.0
 10
6334.541814573539
 20
4072.863097665586
 30
0.0
 10
6334.65871128343
 20
4072.286962635339
 30
0.0
 10
6334.688986070197
 20
4071.994334056033
 30
0.0
 10
6334.691201293044
 20
4071.399633073401
 30
0.0
 10
6334.662871363296
 20
4071.10503793349
 30
0.0
 10
6334.55013299063
 20
4070.528428748155
 30
0.0
 10
6334.464502025599
 20
4070.242434240305
 30
0.0
 10
6334.239464097319
 20
4069.695181421634
 30
0.0
 10
6334.101623267319
 20
4069.435957784484
 30
0.0
 10
6333.776157276118
 20
4068.945827430371
 30
0.0
 10
6333.586489808491
 20
4068.71357224692
 30
0.0
 10
6333.171964899226
 20
4068.297185492896
 30
0.0
 10
6332.945930217616
 20
4068.110519494645
 30
0.0
 10
6332.455706201074
 20
4067.780942497073
 30
0.0
 10
6332.193944200217
 20
4067.640375643967
 30
0.0
 10
6331.653822926623
 20
4067.414868709433
 30
0.0
 10
6331.371748200817
 20
4067.328062840864
 30
0.0
 10
6330.791809385417
 20
4067.210826193505
 30
0.0
 10
6330.500465553523
 20
4067.181405131846
 30
0.0
 10
6329.915116244122
 20
4067.179107163028
 30
0.0
 10
6329.617891223485
 20
4067.207092228942
 30
0.0
 10
6329.041077265443
 20
4067.319484591783
 30
0.0
 10
6328.760819813397
 20
4067.403134243447
 30
0.0
 10
6328.216618367013
 20
4067.625389767156
 30
0.0
 10
6327.952383414401
 20
4067.765071829531
 30
0.0
 10
6327.463495716927
 20
4068.088372786958
 30
0.0
 10
6327.235669071129
 20
4068.273022455707
 30
0.0
 10
6326.814376968051
 20
4068.6898803075
 30
0.0
 10
6326.625639945683
 20
4068.917892315535
 30
0.0
 10
6326.297251362471
 20
4069.403919431911
 30
0.0
 10
6326.155407263861
 20
4069.665583069034
 30
0.0
 10
6325.926168049595
 20
4070.211757555317
 30
0.0
 10
6325.839722774485
 20
4070.492537979027
 30
0.0
 10
6325.722101628065
 20
4071.06919056176
 30
0.0
 10
6325.691310647379
 20
4071.368003732798
 30
0.0
 10
6325.689007874248
 20
4071.957268607806
 30
0.0
 10
6325.716523267313
 20
4072.24979882495
 30
0.0
 10
6325.829602719115
 20
4072.830602381876
 30
0.0
 10
6325.91548717592
 20
4073.116781724227
 30
0.0
 10
6326.138434217881
 20
4073.660129461231
 30
0.0
 10
6326.276400197499
 20
4073.921013079797
 30
0.0
 10
6326.605215159587
 20
4074.416425088107
 30
0.0
 10
6326.792341650265
 20
4074.645599013535
 30
0.0
 10
6327.00217876068
 20
4074.856225156433
 30
0.0
  0
SPLINE
  5
146
330
1F
100
AcDbEntity
  8
0
  6
Continuous
 62
     7
370
    25
100
AcDbSpline
210
0.0
220
0.0
230
1.0
 70
    11
 71
     3
 72
    70
 73
    66
 74
     0
 42
0.00000001
 43
0.00000001
 40
0.0
 40
0.0
 40
0.0
 40
0.0
 40
0.03125
 40
0.03125
 40
0.0625
 40
0.0625
 40
0.09375
 40
0.09375
 40
0.125
 40
0.125
 40
0.15625
 40
0.15625
 40
0.1875
 40
0.1875
 40
0.21875
 40
0.21875
 40
0.25
 40
0.25
 40
0.28125
 40
0.28125
 40
0.3125
 40
0.3125
 40
0.34375
 40
0.34375
 40
0.375
 40
0.375
 40
0.40625
 40
0.40625
 40
0.4375
 40
0.4375
 40
0.46875
 40
0.46875
 40
0.5
 40
0.5
 40
0.53125
 40
0.53125
 40
0.5625
 40
0.5625
 40
0.59375
 40
0.59375
 40
0.625
 40
0.625
 40
0.65625
 40
0.65625
 40
0.6875
 40
0.6875
 40
0.71875
 40
0.71875
 40
0.75
 40
0.75
 40
0.78125
 40
0.78125
 40
0.8125
 40
0.8125
 40
0.84375
 40
0.84375
 40
0.875
 40
0.875
 40
0.90625
 40
0.90625
 40
0.9375
 40
0.9375
 40
0.96875
 40
0.96875
 40
1.0
 40
1.0
 40
1.0
 40
1.0
 10
6331.373151734679
 20
4064.226953729488
 30
0.0
 10
6331.580991960528
 20
4064.438553367138
 30
0.0
 10
6331.806098218876
 20
4064.626293524312
 30
0.0
 10
6332.289444003648
 20
4064.955987725673
 30
0.0
 10
6332.550701202557
 20
4065.09908626892
 30
0.0
 10
6333.092731760454
 20
4065.329707958033
 30
0.0
 10
6333.371990221658
 20
4065.417401769483
 30
0.0
 10
6333.946853291104
 20
4065.538024054968
 30
0.0
 10
6334.244600219611
 20
4065.570432473628
 30
0.0
 10
6334.831744712761
 20
4065.576349979338
 30
0.0
 10
6335.123948645984
 20
4065.550839209233
 30
0.0
 10
6335.705554560395
 20
4065.441525352705
 30
0.0
 10
6335.991239004014
 20
4065.357833206741
 30
0.0
 10
6336.535817577885
 20
4065.13867760562
 30
0.0
 10
6336.798793067652
 20
4065.001822226023
 30
0.0
 10
6337.295814488963
 20
4064.676628384964
 30
0.0
 10
6337.524754769456
 20
4064.492045962943
 30
0.0
 10
6337.944630197342
 20
4064.080186006334
 30
0.0
 10
6338.137210994599
 20
4063.850002283639
 30
0.0
 10
6338.469206424334
 20
4063.362388585007
 30
0.0
 10
6338.609948733055
 20
4063.104642259867
 30
0.0
 10
6338.840784743809
 20
4062.561194670796
 30
0.0
 10
6338.929990452056
 20
4062.275449790728
 30
0.0
 10
6339.049290476825
 20
4061.700593147752
 30
0.0
 10
6339.080870830153
 20
4061.40844206547
 30
0.0
 10
6339.085858387425
 20
4060.814352425456
 30
0.0
 10
6339.059092648514
 20
4060.521262546107
 30
0.0
 10
6338.949703608882
 20
4059.945661857846
 30
0.0
 10
6338.865789356498
 20
4059.659752286353
 30
0.0
 10
6338.644854593074
 20
4059.113412628347
 30
0.0
 10
6338.509109507576
 20
4058.854197218087
 30
0.0
 10
6338.187726738034
 20
4058.363309602074
 30
0.0
 10
6338.000196535734
 20
4058.130460316586
 30
0.0
 10
6337.589714372939
 20
4057.712271988006
 30
0.0
 10
6337.365507049166
 20
4057.524313688063
 30
0.0
 10
6336.878386049591
 20
4057.191531114383
 30
0.0
 10
6336.617940356676
 20
4057.049101801937
 30
0.0
 10
6336.079701412836
 20
4056.819557144158
 30
0.0
 10
6335.798333069873
 20
4056.730579669924
 30
0.0
 10
6335.218495299774
 20
4056.608805015989
 30
0.0
 10
6334.926888167014
 20
4056.577165167839
 30
0.0
 10
6334.340397992099
 20
4056.570632578834
 30
0.0
 10
6334.042221093185
 20
4056.596582497409
 30
0.0
 10
6333.462882487353
 20
4056.705435350738
 30
0.0
 10
6333.181216646241
 20
4056.787539738624
 30
0.0
 10
6332.633912442711
 20
4057.007176162522
 30
0.0
 10
6332.367988290152
 20
4057.145793930373
 30
0.0
 10
6331.875836248425
 20
4057.467397072806
 30
0.0
 10
6331.646379056278
 20
4057.651410906136
 30
0.0
 10
6331.221815424495
 20
4058.067417837034
 30
0.0
 10
6331.031878963317
 20
4058.294752188458
 30
0.0
 10
6330.70077465656
 20
4058.780031846403
 30
0.0
 10
6330.557495913432
 20
4059.041701037911
 30
0.0
 10
6330.326055928025
 20
4059.586487676426
 30
0.0
 10
6330.238426235176
 20
4059.866710422591
 30
0.0
 10
6330.118300385553
 20
4060.442523098587
 30
0.0
 10
6330.086248960715
 20
4060.740666322187
 30
0.0
 10
6330.081137825594
 20
4061.328295058212
 30
0.0
 10
6330.107101629374
 20
4061.620262657581
 30
0.0
 10
6330.216897492721
 20
4062.2004509169
 30
0.0
 10
6330.300802866027
 20
4062.485696489989
 30
0.0
 10
6330.519781799307
 20
4063.028526398074
 30
0.0
 10
6330.655887691906
 20
4063.289797241137
 30
0.0
 10
6330.980321509529
 20
4063.785574935144
 30
0.0
 10
6331.165311508829
 20
4064.015354091837
 30
0.0
 10
6331.373151734679
 20
4064.226953729488
 30
0.0
  0
SPLINE
  5
147
330
1F
100
AcDbEntity
  8
0
  6
Continuous
 62
     7
370
    25
100
AcDbSpline
210
0.0
220
0.0
230
1.0
 70
    11
 71
     3
 72
    70
 73
    66
 74
     0
 42
0.00000001
 43
0.00000001
 40
0.0
 40
0.0
 40
0.0
 40
0.0
 40
0.03125
 40
0.03125
 40
0.0625
 40
0.0625
 40
0.09375
 40
0.09375
 40
0.125
 40
0.125
 40
0.15625
 40
0.15625
 40
0.1875
 40
0.1875
 40
0.21875
 40
0.21875
 40
0.25
 40
0.25
 40
0.28125
 40
0.28125
 40
0.3125
 40
0.3125
 40
0.34375
 40
0.34375
 40
0.375
 40
0.375
 40
0.40625
 40
0.40625
 40
0.4375
 40
0.4375
 40
0.46875
 40
0.46875
 40
0.5
 40
0.5
 40
0.53125
 40
0.53125
 40
0.5625
 40
0.5625
 40
0.59375
 40
0.59375
 40
0.625
 40
0.625
 40
0.65625
 40
0.65625
 40
0.6875
 40
0.6875
 40
0.71875
 40
0.71875
 40
0.75
 40
0.75
 40
0.78125
 40
0.78125
 40
0.8125
 40
0.8125
 40
0.84375
 40
0.84375
 40
0.875
 40
0.875
 40
0.90625
 40
0.90625
 40
0.9375
 40
0.9375
 40
0.96875
 40
0.96875
 40
1.0
 40
1.0
 40
1.0
 40
1.0
 10
6342.658313455167
 20
4060.40042721871
 30
0.0
 10
6342.904296271827
 20
4060.567832505612
 30
0.0
 10
6343.162704755609
 20
4060.708348460349
 30
0.0
 10
6343.703413790041
 20
4060.937677232379
 30
0.0
 10
6343.989012841351
 20
4061.027019808305
 30
0.0
 10
6344.567774522486
 20
4061.146764426202
 30
0.0
 10
6344.859877866304
 20
4061.177760051612
 30
0.0
 10
6345.449491289964
 20
4061.182403771125
 30
0.0
 10
6345.748502691721
 20
4061.155121108855
 30
0.0
 10
6346.326242436623
 20
4061.044365083507
 30
0.0
 10
6346.608172734706
 20
4060.961239238723
 30
0.0
 10
6347.157801230542
 20
4060.738080838665
 30
0.0
 10
6347.420369341342
 20
4060.599669755739
 30
0.0
 10
6347.910370441319
 20
4060.276932374066
 30
0.0
 10
6348.141469682878
 20
4060.090071435872
 30
0.0
 10
6348.562461597798
 20
4059.674358743643
 30
0.0
 10
6348.749763415559
 20
4059.448804590435
 30
0.0
 10
6349.079114093185
 20
4058.963167354348
 30
0.0
 10
6349.221974702928
 20
4058.700213052733
 30
0.0
 10
6349.450238832377
 20
4058.159277963185
 30
0.0
 10
6349.537240393665
 20
4057.87991962932
 30
0.0
 10
6349.656500094642
 20
4057.303263529955
 30
0.0
 10
6349.687756148255
 20
4057.007135872116
 30
0.0
 10
6349.692230423259
 20
4056.422140614527
 30
0.0
 10
6349.666214228107
 20
4056.13011865187
 30
0.0
 10
6349.55527506373
 20
4055.547325697807
 30
0.0
 10
6349.47218582718
 20
4055.266145606253
 30
0.0
 10
6349.252950089132
 20
4054.723410847096
 30
0.0
 10
6349.114917629712
 20
4054.459214273563
 30
0.0
 10
6348.791689286314
 20
4053.966256675107
 30
0.0
 10
6348.607850381339
 20
4053.738188166289
 30
0.0
 10
6348.196078184363
 20
4053.318577188239
 30
0.0
 10
6347.966078222626
 20
4053.126290145908
 30
0.0
 10
6347.480341331247
 20
4052.795475223095
 30
0.0
 10
6347.222794477549
 20
4052.654557317629
 30
0.0
 10
6346.677640881807
 20
4052.422873271624
 30
0.0
 10
6346.393365932363
 20
4052.334136518075
 30
0.0
 10
6345.81831062776
 20
4052.214616686536
 30
0.0
 10
6345.523259767717
 20
4052.182756014931
 30
0.0
 10
6344.929395605788
 20
4052.177978185334
 30
0.0
 10
6344.63655187722
 20
4052.204728732376
 30
0.0
 10
6344.058806321251
 20
4052.314835277551
 30
0.0
 10
6343.770985762164
 20
4052.399694384667
 30
0.0
 10
6343.224786142336
 20
4052.621365524241
 30
0.0
 10
6342.964926142837
 20
4052.757778479855
 30
0.0
 10
6342.471777352665
 20
4053.081936443499
 30
0.0
 10
6342.239419816962
 20
4053.270039767234
 30
0.0
 10
6341.821785026402
 20
4053.681840868856
 30
0.0
 10
6341.633624488903
 20
4053.907238391933
 30
0.0
 10
6341.30016184466
 20
4054.398485781075
 30
0.0
 10
6341.160076068782
 20
4054.656761372741
 30
0.0
 10
6340.931899786644
 20
4055.195902356065
 30
0.0
 10
6340.843103127366
 20
4055.480175842609
 30
0.0
 10
6340.723788441263
 20
4056.056886537647
 30
0.0
 10
6340.69285065967
 20
4056.347726354737
 30
0.0
 10
6340.687740621772
 20
4056.934316740821
 30
0.0
 10
6340.714490160384
 20
4057.232090861083
 30
0.0
 10
6340.82385535581
 20
4057.807854573401
 30
0.0
 10
6340.906061724789
 20
4058.088729419174
 30
0.0
 10
6341.126704927948
 20
4058.636163714543
 30
0.0
 10
6341.264427261483
 20
4058.899371119335
 30
0.0
 10
6341.585085548813
 20
4059.389357567122
 30
0.0
 10
6341.769792708292
 20
4059.61951166322
 30
0.0
 10
6342.18548962794
 20
4060.043295365199
 30
0.0
 10
6342.412330638507
 20
4060.233021931809
 30
0.0
 10
6342.658313455167
 20
4060.40042721871
 30
0.0
  0
SPLINE
  5
148
330
1F
100
AcDbEntity
  8
0
  6
Continuous
 62
     7
370
    25
100
AcDbSpline
210
0.0
220
0.0
230
1.0
 70
    11
 71
     3
 72
    70
 73
    66
 74
     0
 42
0.00000001
 43
0.00000001
 40
0.0
 40
0.0
 40
0.0
 40
0.0
 40
0.03125
 40
0.03125
 40
0.0625
 40
0.0625
 40
0.09375
 40
0.09375
 40
0.125
 40
0.125
 40
0.15625
 40
0.15625
 40
0.1875
 40
0.1875
 40
0.21875
 40
0.21875
 40
0.25
 40
0.25
 40
0.28125
 40
0.28125
 40
0.3125
 40
0.3125
 40
0.34375
 40
0.34375
 40
0.375
 40
0.375
 40
0.40625
 40
0.40625
 40
0.4375
 40
0.4375
 40
0.46875
 40
0.46875
 40
0.5
 40
0.5
 40
0.53125
 40
0.53125
 40
0.5625
 40
0.5625
 40
0.59375
 40
0.59375
 40
0.625
 40
0.625
 40
0.65625
 40
0.65625
 40
0.6875
 40
0.6875
 40
0.71875
 40
0.71875
 40
0.75
 40
0.75
 40
0.78125
 40
0.78125
 40
0.8125
 40
0.8125
 40
0.84375
 40
0.84375
 40
0.875
 40
0.875
 40
0.90625
 40
0.90625
 40
0.9375
 40
0.9375
 40
0.96875
 40
0.96875
 40
1.0
 40
1.0
 40
1.0
 40
1.0
 10
6342.008858180396
 20
4074.862915621535
 30
0.0
 10
6342.219122460096
 20
4075.073085598214
 30
0.0
 10
6342.446495678921
 20
4075.259111673574
 30
0.0
 10
6342.934060610317
 20
4075.584850813968
 30
0.0
 10
6343.197338369822
 20
4075.725688327314
 30
0.0
 10
6343.742449855848
 20
4075.951197613208
 30
0.0
 10
6344.022969990059
 20
4076.03616330775
 30
0.0
 10
6344.5997963424
 20
4076.151014696306
 30
0.0
 10
6344.897974084689
 20
4076.18031350077
 30
0.0
 10
6345.485103943421
 20
4076.180128996679
 30
0.0
 10
6345.777009857477
 20
4076.151587277366
 30
0.0
 10
6346.357424465784
 20
4076.036246936011
 30
0.0
 10
6346.6414716933
 20
4075.949821527259
 30
0.0
 10
6347.182999260313
 20
4075.725508103524
 30
0.0
 10
6347.444528139444
 20
4075.586032291598
 30
0.0
 10
6347.936924853981
 20
4075.256921366931
 30
0.0
 10
6348.16355218031
 20
4075.070627819517
 30
0.0
 10
6348.578709378439
 20
4074.655724828789
 30
0.0
 10
6348.768784062869
 20
4074.424263198901
 30
0.0
 10
6349.095615349695
 20
4073.934930045541
 30
0.0
 10
6349.233857432082
 20
4073.676496675322
 30
0.0
 10
6349.459714109521
 20
4073.131943023021
 30
0.0
 10
6349.54639913049
 20
4072.845923652981
 30
0.0
 10
6349.660839511545
 20
4072.270727703496
 30
0.0
 10
6349.690038951766
 20
4071.978519380662
 30
0.0
 10
6349.690210473757
 20
4071.384522392284
 30
0.0
 10
6349.661068997028
 20
4071.091502045347
 30
0.0
 10
6349.546906932315
 20
4070.516442280685
 30
0.0
 10
6349.460576276492
 20
4070.230958161362
 30
0.0
 10
6349.234686392301
 20
4069.685568259396
 30
0.0
 10
6349.096484543884
 20
4069.427056249233
 30
0.0
 10
6348.770191883563
 20
4068.938047228361
 30
0.0
 10
6348.580145052622
 20
4068.706334295576
 30
0.0
 10
6348.164887824146
 20
4068.290969767124
 30
0.0
 10
6347.938409937932
 20
4068.104702508767
 30
0.0
 10
6347.446989189241
 20
4067.775868761697
 30
0.0
 10
6347.184690795255
 20
4067.635767878469
 30
0.0
 10
6346.643238242238
 20
4067.411221636508
 30
0.0
 10
6346.36025939768
 20
4067.324922385873
 30
0.0
 10
6345.778917517649
 20
4067.209073059622
 30
0.0
 10
6345.486868110641
 20
4067.180441574424
 30
0.0
 10
6344.90009523526
 20
4067.180003871391
 30
0.0
 10
6344.602158890234
 20
4067.209096865019
 30
0.0
 10
6344.024681540882
 20
4067.323800801794
 30
0.0
 10
6343.744170193683
 20
4067.408688245087
 30
0.0
 10
6343.199636869223
 20
4067.633650266672
 30
0.0
 10
6342.935804611438
 20
4067.774576427931
 30
0.0
 10
6342.447912738819
 20
4068.100236048051
 30
0.0
 10
6342.220655878597
 20
4068.28606555441
 30
0.0
 10
6341.800701496082
 20
4068.705351785825
 30
0.0
 10
6341.613574212213
 20
4068.933551101143
 30
0.0
 10
6341.287494790081
 20
4069.420710203538
 30
0.0
 10
6341.146706498876
 20
4069.683220715026
 30
0.0
 10
6340.92036389547
 20
4070.228882313588
 30
0.0
 10
6340.83518239689
 20
4070.509409623679
 30
0.0
 10
6340.719916056066
 20
4071.085614475871
 30
0.0
 10
6340.690294378386
 20
4071.383853480773
 30
0.0
 10
6340.689956906828
 20
4071.971420272522
 30
0.0
 10
6340.718282991588
 20
4072.263233679408
 30
0.0
 10
6340.832882854872
 20
4072.842854280245
 30
0.0
 10
6340.919258792228
 20
4073.127844417977
 30
0.0
 10
6341.143125978685
 20
4073.669620686361
 30
0.0
 10
6341.281649725948
 20
4073.930104772486
 30
0.0
 10
6341.611134850753
 20
4074.424120755602
 30
0.0
 10
6341.798593900695
 20
4074.652745644856
 30
0.0
 10
6342.008858180396
 20
4074.862915621535
 30
0.0
  0
SPLINE
  5
149
330
1F
100
AcDbEntity
  8
0
  6
Continuous
 62
     7
370
    25
100
AcDbSpline
210
0.0
220
0.0
230
1.0
 70
    11
 71
     3
 72
    70
 73
    66
 74
     0
 42
0.00000001
 43
0.00000001
 40
0.0
 40
0.0
 40
0.0
 40
0.0
 40
0.0312499999999987
 40
0.0312499999999987
 40
0.0624999999999975
 40
0.0624999999999975
 40
0.0937499999999962
 40
0.0937499999999962
 40
0.1249999999999949
 40
0.1249999999999949
 40
0.1562499999999937
 40
0.1562499999999937
 40
0.1874999999999924
 40
0.1874999999999924
 40
0.2187499999999912
 40
0.2187499999999912
 40
0.2499999999999899
 40
0.2499999999999899
 40
0.2812499999999886
 40
0.2812499999999886
 40
0.3124999999999873
 40
0.3124999999999873
 40
0.3437499999999861
 40
0.3437499999999861
 40
0.3749999999999848
 40
0.3749999999999848
 40
0.4062499999999836
 40
0.4062499999999836
 40
0.4374999999999852
 40
0.4374999999999852
 40
0.4687499999999868
 40
0.4687499999999868
 40
0.4999999999999885
 40
0.4999999999999885
 40
0.5312499999999901
 40
0.5312499999999901
 40
0.5624999999999917
 40
0.5624999999999917
 40
0.5937499999999933
 40
0.5937499999999933
 40
0.6249999999999949
 40
0.6249999999999949
 40
0.6562499999999966
 40
0.6562499999999966
 40
0.6874999999999982
 40
0.6874999999999982
 40
0.7187499999999998
 40
0.7187499999999998
 40
0.7500000000000014
 40
0.7500000000000014
 40
0.7812500000000031
 40
0.7812500000000031
 40
0.8125000000000047
 40
0.8125000000000047
 40
0.8437500000000063
 40
0.8437500000000063
 40
0.875000000000005
 40
0.875000000000005
 40
0.9062500000000038
 40
0.9062500000000038
 40
0.9375000000000026
 40
0.9375000000000026
 40
0.9687500000000012
 40
0.9687500000000012
 40
1.0
 40
1.0
 40
1.0
 40
1.0
 10
6352.642133602034
 20
4085.495957480475
 30
0.0
 10
6352.853632221502
 20
4085.703861546569
 30
0.0
 10
6353.081979932942
 20
4085.887618411491
 30
0.0
 10
6353.571015000644
 20
4086.208784891348
 30
0.0
 10
6353.834740114276
 20
4086.347286383402
 30
0.0
 10
6354.380748913855
 20
4086.56838359793
 30
0.0
 10
6354.661519683201
 20
4086.651176083546
 30
0.0
 10
6355.238465156366
 20
4086.761710351102
 30
0.0
 10
6355.536775820114
 20
4086.788894322792
 30
0.0
 10
6356.124020526861
 20
4086.784500101414
 30
0.0
 10
6356.415779081563
 20
4086.753853567096
 30
0.0
 10
6356.995479846246
 20
4086.634302579349
 30
0.0
 10
6357.279695048248
 20
4086.545577012569
 30
0.0
 10
6357.820422331247
 20
4086.316815143754
 30
0.0
 10
6358.081004554367
 20
4086.175304879881
 30
0.0
 10
6358.572261021162
 20
4085.841344862602
 30
0.0
 10
6358.797928917295
 20
4085.652723606681
 30
0.0
 10
6359.210502371786
 20
4085.2334544802
 30
0.0
 10
6359.398995126251
 20
4084.999875948416
 30
0.0
 10
6359.722302972164
 20
4084.506472703884
 30
0.0
 10
6359.858461032431
 20
4084.246279273033
 30
0.0
 10
6360.079643915923
 20
4083.698833818624
 30
0.0
 10
6360.163762601118
 20
4083.411609499521
 30
0.0
 10
6360.272868580603
 20
4082.834820135323
 30
0.0
 10
6360.299282508482
 20
4082.542193804641
 30
0.0
 10
6360.293785384752
 20
4081.948169757061
 30
0.0
 10
6360.261868763988
 20
4081.655719537085
 30
0.0
 10
6360.14238940514
 20
4081.082248100388
 30
0.0
 10
6360.053472152579
 20
4080.797897841248
 30
0.0
 10
6359.823034128081
 20
4080.255658726963
 30
0.0
 10
6359.682792481872
 20
4079.998913270105
 30
0.0
 10
6359.352903903247
 20
4079.51380266773
 30
0.0
 10
6359.161351928174
 20
4079.284303898198
 30
0.0
 10
6358.743660282712
 20
4078.873407371174
 30
0.0
 10
6358.516214426416
 20
4078.689408502142
 30
0.0
 10
6358.023352363674
 20
4078.36519799553
 30
0.0
 10
6357.760449385742
 20
4078.227340279537
 30
0.0
 10
6357.218243795106
 20
4078.007232377264
 30
0.0
 10
6356.935336468438
 20
4077.923183172195
 30
0.0
 10
6356.353367666415
 20
4077.811564835467
 30
0.0
 10
6356.061202315917
 20
4077.785036047675
 30
0.0
 10
6355.474580375301
 20
4077.788795103417
 30
0.0
 10
6355.176842058865
 20
4077.819984393552
 30
0.0
 10
6354.599390319027
 20
4077.939031625681
 30
0.0
 10
6354.319156094586
 20
4078.026099370778
 30
0.0
 10
6353.775693499238
 20
4078.255395744611
 30
0.0
 10
6353.512214793249
 20
4078.398707757118
 30
0.0
 10
6353.025747096345
 20
4078.728999643729
 30
0.0
 10
6352.799544161529
 20
4078.917067523793
 30
0.0
 10
6352.382341441539
 20
4079.340583248508
 30
0.0
 10
6352.196473349743
 20
4079.571226749127
 30
0.0
 10
6351.873996425124
 20
4080.062306285634
 30
0.0
 10
6351.73536008303
 20
4080.326499016136
 30
0.0
 10
6351.513622520898
 20
4080.875232495106
 30
0.0
 10
6351.43096901045
 20
4081.156935454536
 30
0.0
 10
6351.321048749084
 20
4081.73474222238
 30
0.0
 10
6351.294276333307
 20
4082.033361925595
 30
0.0
 10
6351.299537775841
 20
4082.620879615089
 30
0.0
 10
6351.330640367817
 20
4082.912300269942
 30
0.0
 10
6351.450629429516
 20
4083.490395870982
 30
0.0
 10
6351.539519763445
 20
4083.774039979036
 30
0.0
 10
6351.767970374717
 20
4084.312840739519
 30
0.0
 10
6351.908635210742
 20
4084.571659968081
 30
0.0
 10
6352.241668087288
 20
4085.061583132002
 30
0.0
 10
6352.430634982566
 20
4085.288053414381
 30
0.0
 10
6352.642133602034
 20
4085.495957480475
 30
0.0
  0
SPLINE
  5
14A
330
1F
100
AcDbEntity
  8
0
  6
Continuous
 62
     7
370
    25
100
AcDbSpline
210
0.0
220
0.0
230
1.0
 70
    11
 71
     3
 72
    70
 73
    66
 74
     0
 42
0.00000001
 43
0.00000001
 40
0.0
 40
0.0
 40
0.0
 40
0.0
 40
0.0312499999999999
 40
0.0312499999999999
 40
0.0624999999999998
 40
0.0624999999999998
 40
0.0937499999999998
 40
0.0937499999999998
 40
0.1249999999999997
 40
0.1249999999999997
 40
0.1562499999999996
 40
0.1562499999999996
 40
0.1874999999999995
 40
0.1874999999999995
 40
0.2187499999999994
 40
0.2187499999999994
 40
0.2499999999999993
 40
0.2499999999999993
 40
0.2812499999999992
 40
0.2812499999999992
 40
0.3124999999999992
 40
0.3124999999999992
 40
0.3437499999999991
 40
0.3437499999999991
 40
0.374999999999999
 40
0.374999999999999
 40
0.4062499999999989
 40
0.4062499999999989
 40
0.4374999999999988
 40
0.4374999999999988
 40
0.4687499999999988
 40
0.4687499999999988
 40
0.4999999999999987
 40
0.4999999999999987
 40
0.5312499999999986
 40
0.5312499999999986
 40
0.5624999999999984
 40
0.5624999999999984
 40
0.5937499999999984
 40
0.5937499999999984
 40
0.6249999999999983
 40
0.6249999999999983
 40
0.6562499999999984
 40
0.6562499999999984
 40
0.6874999999999986
 40
0.6874999999999986
 40
0.7187499999999988
 40
0.7187499999999988
 40
0.7499999999999989
 40
0.7499999999999989
 40
0.781249999999999
 40
0.781249999999999
 40
0.8124999999999991
 40
0.8124999999999991
 40
0.8437499999999993
 40
0.8437499999999993
 40
0.8749999999999994
 40
0.8749999999999994
 40
0.9062499999999996
 40
0.9062499999999996
 40
0.9374999999999997
 40
0.9374999999999997
 40
0.9687499999999999
 40
0.9687499999999999
 40
1.0
 40
1.0
 40
1.0
 40
1.0
 10
6356.470186836361
 20
4074.21242620196
 30
0.0
 10
6356.637614685382
 20
4074.458386262343
 30
0.0
 10
6356.826314603924
 20
4074.683672046888
 30
0.0
 10
6357.244402441117
 20
4075.094698629404
 30
0.0
 10
6357.476593516103
 20
4075.282108680461
 30
0.0
 10
6357.969510261232
 20
4075.605232893591
 30
0.0
 10
6358.228866227911
 20
4075.740966514654
 30
0.0
 10
6358.773080392039
 20
4075.961362761734
 30
0.0
 10
6359.05990564252
 20
4076.045817178809
 30
0.0
 10
6359.635452741709
 20
4076.15550473033
 30
0.0
 10
6359.926851781013
 20
4076.182196453551
 30
0.0
 10
6360.51706232542
 20
4076.17802131081
 30
0.0
 10
6360.811782647877
 20
4076.146659179366
 30
0.0
 10
6361.384640190603
 20
4076.02863007406
 30
0.0
 10
6361.666864807913
 20
4075.941296660356
 30
0.0
 10
6362.212012396127
 20
4075.711287518391
 30
0.0
 10
6362.469469417866
 20
4075.571301916986
 30
0.0
 10
6362.954977566512
 20
4075.242735779906
 30
0.0
 10
6363.185203472683
 20
4075.051598009171
 30
0.0
 10
6363.598929354637
 20
4074.632631945358
 30
0.0
 10
6363.783596014812
 20
4074.404900424866
 30
0.0
 10
6364.108356558387
 20
4073.912791901282
 30
0.0
 10
6364.247895892747
 20
4073.647659423929
 30
0.0
 10
6364.469261357252
 20
4073.10335488311
 30
0.0
 10
6364.553145738958
 20
4072.821469068638
 30
0.0
 10
6364.665369299187
 20
4072.237522545848
 30
0.0
 10
6364.692054577245
 20
4071.94279420514
 30
0.0
 10
6364.687978695905
 20
4071.355219178196
 30
0.0
 10
6364.656751263493
 20
4071.058244116761
 30
0.0
 10
6364.536802237334
 20
4070.478554701323
 30
0.0
 10
6364.449250550021
 20
4070.198166288591
 30
0.0
 10
6364.219904451957
 20
4069.655989362539
 30
0.0
 10
6364.076343117478
 20
4069.392486397257
 30
0.0
 10
6363.745673218346
 20
4068.906325301849
 30
0.0
 10
6363.557876883189
 20
4068.6809525085
 30
0.0
 10
6363.136623270002
 20
4068.266204030357
 30
0.0
 10
6362.905173736692
 20
4068.079629938468
 30
0.0
 10
6362.415647239834
 20
4067.758130206847
 30
0.0
 10
6362.154187940835
 20
4067.620663205009
 30
0.0
 10
6361.605697654835
 20
4067.398433209217
 30
0.0
 10
6361.324711650857
 20
4067.315772621497
 30
0.0
 10
6360.749684158683
 20
4067.205560110543
 30
0.0
 10
6360.452340338384
 20
4067.178274255974
 30
0.0
 10
6359.864866327821
 20
4067.182389490614
 30
0.0
 10
6359.574058200812
 20
4067.212915932912
 30
0.0
 10
6358.998307065471
 20
4067.330977031178
 30
0.0
 10
6358.71305735782
 20
4067.419465440518
 30
0.0
 10
6358.173264855959
 20
4067.646854882434
 30
0.0
 10
6357.915409354055
 20
4067.786199613514
 30
0.0
 10
6357.42461316645
 20
4068.117963494278
 30
0.0
 10
6357.19731142663
 20
4068.306949712312
 30
0.0
 10
6356.785057230003
 20
4068.723634078969
 30
0.0
 10
6356.597365738512
 20
4068.95448077831
 30
0.0
 10
6356.271338848987
 20
4069.448474038538
 30
0.0
 10
6356.134521091834
 20
4069.708268120019
 30
0.0
 10
6355.912330117181
 20
4070.252988461613
 30
0.0
 10
6355.826796028112
 20
4070.54086312994
 30
0.0
 10
6355.715499941537
 20
4071.119411561565
 30
0.0
 10
6355.688392853117
 20
4071.411968852974
 30
0.0
 10
6355.692026619583
 20
4072.003737697223
 30
0.0
 10
6355.723473123492
 20
4072.300964541919
 30
0.0
 10
6355.84208558608
 20
4072.876404641454
 30
0.0
 10
6355.929445918559
 20
4073.158436071838
 30
0.0
 10
6356.161126537156
 20
4073.706468243064
 30
0.0
 10
6356.302758987339
 20
4073.966466141577
 30
0.0
 10
6356.470186836361
 20
4074.21242620196
 30
0.0
  0
SPLINE
  5
14B
330
1F
100
AcDbEntity
  8
0
  6
Continuous
 62
     7
370
    25
100
AcDbSpline
210
0.0
220
0.0
230
1.0
 70
    11
 71
     3
 72
    70
 73
    66
 74
     0
 42
0.00000001
 43
0.00000001
 40
0.0
 40
0.0
 40
0.0
 40
0.0
 40
0.03125
 40
0.03125
 40
0.0625
 40
0.0625
 40
0.09375
 40
0.09375
 40
0.125
 40
0.125
 40
0.15625
 40
0.15625
 40
0.1875
 40
0.1875
 40
0.21875
 40
0.21875
 40
0.25
 40
0.25
 40
0.28125
 40
0.28125
 40
0.3125
 40
0.3125
 40
0.34375
 40
0.34375
 40
0.375
 40
0.375
 40
0.40625
 40
0.40625
 40
0.4375
 40
0.4375
 40
0.46875
 40
0.46875
 40
0.5
 40
0.5
 40
0.53125
 40
0.53125
 40
0.5625
 40
0.5625
 40
0.59375
 40
0.59375
 40
0.625
 40
0.625
 40
0.65625
 40
0.65625
 40
0.6875
 40
0.6875
 40
0.71875
 40
0.71875
 40
0.75
 40
0.75
 40
0.78125
 40
0.78125
 40
0.8125
 40
0.8125
 40
0.84375
 40
0.84375
 40
0.875
 40
0.875
 40
0.90625
 40
0.90625
 40
0.9375
 40
0.9375
 40
0.96875
 40
0.96875
 40
1.0
 40
1.0
 40
1.0
 40
1.0
 10
6353.314914123725
 20
4064.827365448076
 30
0.0
 10
6353.563434556103
 20
4064.991676289653
 30
0.0
 10
6353.823880715436
 20
4065.128753652228
 30
0.0
 10
6354.367612362716
 20
4065.350752477329
 30
0.0
 10
6354.654177201674
 20
4065.436153748769
 30
0.0
 10
6355.233810132006
 20
4065.548018825838
 30
0.0
 10
6355.525796257526
 20
4065.575076551144
 30
0.0
 10
6356.114062403689
 20
4065.57204331744
 30
0.0
 10
6356.411855589134
 20
4065.541015598532
 30
0.0
 10
6356.986486617815
 20
4065.423387612876
 30
0.0
 10
6357.266467746012
 20
4065.337091950516
 30
0.0
 10
6357.811420695343
 20
4065.108262480332
 30
0.0
 10
6358.071719553464
 20
4064.967196813011
 30
0.0
 10
6358.556555349503
 20
4064.639973710688
 30
0.0
 10
6358.784622235796
 20
4064.451447671725
 30
0.0
 10
6359.20050716612
 20
4064.031916501409
 30
0.0
 10
6359.385112651054
 20
4063.804782629165
 30
0.0
 10
6359.708829781692
 20
4063.316656492553
 30
0.0
 10
6359.848888934798
 20
4063.052577032345
 30
0.0
 10
6360.071771491662
 20
4062.508988236448
 30
0.0
 10
6360.155922586551
 20
4062.22865421716
 30
0.0
 10
6360.269261934944
 20
4061.650786924815
 30
0.0
 10
6360.297591324222
 20
4061.353280418517
 30
0.0
 10
6360.295820906742
 20
4060.766791181292
 30
0.0
 10
6360.266555076488
 20
4060.474538079441
 30
0.0
 10
6360.148997472393
 20
4059.892093744089
 30
0.0
 10
6360.062135416838
 20
4059.609899516386
 30
0.0
 10
6359.835803270072
 20
4059.068115090636
 30
0.0
 10
6359.694349787576
 20
4058.805117893893
 30
0.0
 10
6359.363719898494
 20
4058.314249173782
 30
0.0
 10
6359.176400605773
 20
4058.087892552629
 30
0.0
 10
6358.75835794567
 20
4057.672810576144
 30
0.0
 10
6358.525367819614
 20
4057.483195663855
 30
0.0
 10
6358.034452707056
 20
4057.158366262206
 30
0.0
 10
6357.774818115333
 20
4057.020862151333
 30
0.0
 10
6357.226671689885
 20
4056.796594239768
 30
0.0
 10
6356.941294584726
 20
4056.711737175623
 30
0.0
 10
6356.365317642354
 20
4056.600057448071
 30
0.0
 10
6356.070447868815
 20
4056.572191952154
 30
0.0
 10
6355.477916461093
 20
4056.575160499763
 30
0.0
 10
6355.186210176867
 20
4056.605597192814
 30
0.0
 10
6354.611634014288
 20
4056.722584078166
 30
0.0
 10
6354.325878885398
 20
4056.810646924302
 30
0.0
 10
6353.784041926635
 20
4057.038098631296
 30
0.0
 10
6353.526627164915
 20
4057.177068548696
 30
0.0
 10
6353.038867055147
 20
4057.505612823894
 30
0.0
 10
6352.809063619469
 20
4057.695826184012
 30
0.0
 10
6352.396795507289
 20
4058.111173461526
 30
0.0
 10
6352.21145977078
 20
4058.338012418542
 30
0.0
 10
6351.883899976734
 20
4058.831416923298
 30
0.0
 10
6351.746100086472
 20
4059.091688075321
 30
0.0
 10
6351.5235380465
 20
4059.632964379443
 30
0.0
 10
6351.437713308373
 20
4059.917704429756
 30
0.0
 10
6351.324065596497
 20
4060.497043084346
 30
0.0
 10
6351.296155789843
 20
4060.788761553859
 30
0.0
 10
6351.297314966416
 20
4061.376236280315
 30
0.0
 10
6351.327350481199
 20
4061.674600537657
 30
0.0
 10
6351.443594824116
 20
4062.251220933784
 30
0.0
 10
6351.5293174954
 20
4062.531939112674
 30
0.0
 10
6351.756899752576
 20
4063.077933818222
 30
0.0
 10
6351.898531951404
 20
4063.34085570767
 30
0.0
 10
6352.226339459876
 20
4063.828364037712
 30
0.0
 10
6352.414183767434
 20
4064.0564060557
 30
0.0
 10
6352.836560603555
 20
4064.475975911701
 30
0.0
 10
6353.066393691346
 20
4064.663054606499
 30
0.0
 10
6353.314914123725
 20
4064.827365448076
 30
0.0
  0
ARC
  5
14C
330
1F
100
AcDbEntity
  8
0
  6
Continuous
 62
     7
370
    25
100
AcDbCircle
 10
6345.1901249004
 20
4071.4766692248
 30
0.0
 40
180.0
100
AcDbArc
 50
180.0
 51
0.0
  0
LINE
  5
14D
330
1F
100
AcDbEntity
  8
0
  6
Continuous
 62
     8
370
    25
100
AcDbLine
 10
6367.6901249004
 20
4243.9766692248
 30
0.0
 11
6322.6901249004
 21
4243.9766692248
 31
0.0
  0
LINE
  5
14E
330
1F
100
AcDbEntity
  8
0
  6
Continuous
 62
     8
370
    25
100
AcDbLine
 10
5923.0490398849
 20
3903.1849730165
 30
0.0
 11
5924.4632533841
 21
3901.7707595174
 31
0.0
  0
LINE
  5
14F
330
1F
100
AcDbEntity
  8
0
  6
Continuous
 62
     8
370
    25
100
AcDbLine
 10
6176.8984287138
 20
3649.3355841884
 30
0.0
 11
6175.4842151933
 21
3650.7497977088
 31
0.0
  0
LINE
  5
150
330
1F
100
AcDbEntity
  8
0
  6
Continuous
 62
     8
370
    25
100
AcDbLine
 10
5892.6776963616
 20
3866.9312466306
 30
0.0
 11
5894.3178067825
 21
3865.7866778129
 31
0.0
  0
LINE
  5
151
330
1F
100
AcDbEntity
  8
0
  6
Continuous
 62
     8
370
    25
100
AcDbLine
 10
5851.162841319
 20
3778.6276522007
 30
0.0
 11
5853.0908460756
 21
3778.0958662003
 31
0.0
  0
LINE
  5
152
330
1F
100
AcDbEntity
  8
0
  6
Continuous
 62
     8
370
    25
100
AcDbLine
 10
6052.341104297
 20
3577.4493986393
 30
0.0
 11
6051.8093218808
 21
3579.3773904014
 31
0.0
  0
LINE
  5
153
330
1F
100
AcDbEntity
  8
0
  6
Continuous
 62
     8
370
    25
100
AcDbLine
 10
6140.6447022938
 20
3618.9642407039
 30
0.0
 11
6139.5001334885
 21
3620.604351107
 31
0.0
  0
LINE
  5
154
330
1F
100
AcDbEntity
  8
0
  6
Continuous
 62
     8
370
    25
100
AcDbLine
 10
6523.1901249004
 20
4071.4766692248
 30
0.0
 11
6523.1901249004
 21
4246.4766692248
 31
0.0
  0
LINE
  5
155
330
1F
100
AcDbEntity
  8
0
  6
Continuous
 62
     8
370
    25
100
AcDbLine
 10
6167.1901249004
 20
4246.4766692248
 30
0.0
 11
6167.1901249004
 21
4071.4766692248
 31
0.0
  0
ARC
  5
156
330
1F
100
AcDbEntity
  8
0
  6
Continuous
 62
     8
370
    25
100
AcDbCircle
 10
6345.1901249004
 20
4071.4766692248
 30
0.0
 40
158.4873812011547
100
AcDbArc
 50
96.1030147039
 51
270.0
  0
ARC
  5
157
330
1F
100
AcDbEntity
  8
0
  6
Continuous
 62
     8
370
    25
100
AcDbCircle
 10
6345.1901249004
 20
4071.4766692248
 30
0.0
 40
158.4873812011546
100
AcDbArc
 50
270.0
 51
83.8969852961
  0
ARC
  5
158
330
1F
100
AcDbEntity
  8
0
  6
Continuous
 62
     8
370
    25
100
AcDbCircle
 10
6345.1901249004
 20
4071.4766692248
 30
0.0
 40
156.4875404288997
100
AcDbArc
 50
270.0
 51
84.4856224457
  0
ARC
  5
159
330
1F
100
AcDbEntity
  8
0
  6
Continuous
 62
     8
370
    25
100
AcDbCircle
 10
6345.1901249004
 20
4071.4766692248
 30
0.0
 40
156.4875404288997
100
AcDbArc
 50
95.5143775543
 51
270.0
  0
ENDSEC
  0
SECTION
  2
OBJECTS
  0
DICTIONARY
  5
C
330
0
100
AcDbDictionary
281
     1
  3
ACAD_GROUP
350
D
  3
ACAD_LAYOUT
350
1A
  3
ACAD_MLINESTYLE
350
17
  3
ACAD_PLOTSETTINGS
350
19
  3
ACAD_PLOTSTYLENAME
350
E
  3
ACAD_SCALELIST
350
47
  3
DWGPROPS
350
15A
  0
DICTIONARY
  5
D
102
{ACAD_REACTORS
330
C
102
}
330
C
100
AcDbDictionary
281
     1
  0
DICTIONARY
  5
1A
102
{ACAD_REACTORS
330
C
102
}
330
C
100
AcDbDictionary
281
     1
  3
Layout1
350
1E
  3
Layout2
350
26
  3
Model
350
22
  0
DICTIONARY
  5
17
102
{ACAD_REACTORS
330
C
102
}
330
C
100
AcDbDictionary
281
     1
  3
Standard
350
18
  0
DICTIONARY
  5
19
102
{ACAD_REACTORS
330
C
102
}
330
C
100
AcDbDictionary
281
     1
  0
ACDBDICTIONARYWDFLT
  5
E
102
{ACAD_REACTORS
330
C
102
}
330
C
100
AcDbDictionary
281
     1
  3
Normal
350
F
100
AcDbDictionaryWithDefault
340
F
  0
DICTIONARY
  5
47
102
{ACAD_REACTORS
330
C
102
}
330
C
100
AcDbDictionary
281
     1
  3
A0
350
48
  3
A1
350
49
  3
A2
350
4A
  3
A3
350
4B
  3
A4
350
4C
  3
A5
350
4D
  3
A6
350
4E
  3
A7
350
4F
  3
A8
350
50
  3
A9
350
51
  3
B0
350
52
  3
B1
350
53
  3
B2
350
54
  3
B3
350
55
  3
B4
350
56
  3
B5
350
57
  3
B6
350
58
  3
B7
350
59
  3
B8
350
5A
  3
B9
350
5B
  3
C0
350
5C
  3
C1
350
5D
  3
C2
350
5E
  3
C3
350
5F
  3
C4
350
60
  3
C5
350
61
  3
C6
350
62
  3
C7
350
63
  3
C8
350
64
  3
C9
350
65
  3
D0
350
66
  3
D1
350
67
  3
D2
350
68
  0
XRECORD
  5
15A
102
{ACAD_REACTORS
330
C
102
}
330
C
100
AcDbXrecord
280
     1
  1
DWGPROPS COOKIE
  2

  3

  4

  6

  7

  8
radek.stransky
  9

300
=
301
=
302
=
303
=
304
=
305
=
306
=
307
=
308
=
309
=
 40
0.0
 41
2460290.224137882
 42
2460290.224139109
  1

 90
        0
  0
LAYOUT
  5
1E
102
{ACAD_REACTORS
330
1A
102
}
330
1A
100
AcDbPlotSettings
  1

  2
none_device
  4

  6

 40
0.0
 41
0.0
 42
0.0
 43
0.0
 44
0.0
 45
0.0
 46
0.0
 47
0.0
 48
0.0
 49
0.0
140
0.0
141
0.0
142
1.0
143
1.0
 70
   688
 72
     1
 73
     0
 74
     5
  7

 75
    16
147
1.0
148
0.0
149
0.0
100
AcDbLayout
  1
Layout1
 70
     1
 71
     1
 10
0.0
 20
0.0
 11
420.0
 21
297.0
 12
0.0
 22
0.0
 32
0.0
 14
1.0000000000E+20
 24
1.0000000000E+20
 34
1.0000000000E+20
 15
-1.0000000000E+20
 25
-1.0000000000E+20
 35
-1.0000000000E+20
146
0.0
 13
0.0
 23
0.0
 33
0.0
 16
1.0
 26
0.0
 36
0.0
 17
0.0
 27
1.0
 37
0.0
 76
     0
330
1B
  0
LAYOUT
  5
26
102
{ACAD_REACTORS
330
1A
102
}
330
1A
100
AcDbPlotSettings
  1

  2
none_device
  4

  6

 40
0.0
 41
0.0
 42
0.0
 43
0.0
 44
0.0
 45
0.0
 46
0.0
 47
0.0
 48
0.0
 49
0.0
140
0.0
141
0.0
142
1.0
143
1.0
 70
   688
 72
     1
 73
     0
 74
     5
  7

 75
    16
147
1.0
148
0.0
149
0.0
100
AcDbLayout
  1
Layout2
 70
     1
 71
     2
 10
0.0
 20
0.0
 11
0.0
 21
0.0
 12
0.0
 22
0.0
 32
0.0
 14
0.0
 24
0.0
 34
0.0
 15
0.0
 25
0.0
 35
0.0
146
0.0
 13
0.0
 23
0.0
 33
0.0
 16
1.0
 26
0.0
 36
0.0
 17
0.0
 27
1.0
 37
0.0
 76
     0
330
23
  0
LAYOUT
  5
22
102
{ACAD_REACTORS
330
1A
102
}
330
1A
100
AcDbPlotSettings
  1

  2
none_device
  4
Letter_(8.50_x_11.00_Inches)
  6

 40
6.35
 41
6.35
 42
6.35000508
 43
6.35000508
 44
215.9
 45
279.4
 46
0.0
 47
0.0
 48
0.0
 49
0.0
140
0.0
141
0.0
142
1.0
143
1.0
 70
  1712
 72
     1
 73
     0
 74
     0
  7

 75
     0
147
1.0
148
0.0
149
0.0
100
AcDbLayout
  1
Model
 70
     1
 71
     0
 10
0.0
 20
0.0
 11
20000.0
 21
10000.0
 12
0.0
 22
0.0
 32
0.0
 14
0.0
 24
0.0
 34
0.0
 15
20000.0
 25
10000.0
 35
0.0
146
0.0
 13
0.0
 23
0.0
 33
0.0
 16
1.0
 26
0.0
 36
0.0
 17
0.0
 27
1.0
 37
0.0
 76
     0
330
1F
331
29
  0
MLINESTYLE
  5
18
102
{ACAD_REACTORS
330
17
102
}
330
17
100
AcDbMlineStyle
  2
Standard
 70
     0
  3

 62
   256
 51
90.0
 52
90.0
 71
     2
 49
0.5
 62
   256
  6
BYLAYER
 49
-0.5
 62
   256
  6
BYLAYER
  0
ACDBPLACEHOLDER
  5
F
102
{ACAD_REACTORS
330
E
102
}
330
E
  0
SCALE
  5
48
102
{ACAD_REACTORS
330
47
102
}
330
47
100
AcDbScale
 70
     0
300
1:1
140
1.0
141
1.0
290
     1
  0
SCALE
  5
49
102
{ACAD_REACTORS
330
47
102
}
330
47
100
AcDbScale
 70
     0
300
1:2
140
1.0
141
2.0
290
     0
  0
SCALE
  5
4A
102
{ACAD_REACTORS
330
47
102
}
330
47
100
AcDbScale
 70
     0
300
1:4
140
1.0
141
4.0
290
     0
  0
SCALE
  5
4B
102
{ACAD_REACTORS
330
47
102
}
330
47
100
AcDbScale
 70
     0
300
1:5
140
1.0
141
5.0
290
     0
  0
SCALE
  5
4C
102
{ACAD_REACTORS
330
47
102
}
330
47
100
AcDbScale
 70
     0
300
1:8
140
1.0
141
8.0
290
     0
  0
SCALE
  5
4D
102
{ACAD_REACTORS
330
47
102
}
330
47
100
AcDbScale
 70
     0
300
1:10
140
1.0
141
10.0
290
     0
  0
SCALE
  5
4E
102
{ACAD_REACTORS
330
47
102
}
330
47
100
AcDbScale
 70
     0
300
1:16
140
1.0
141
16.0
290
     0
  0
SCALE
  5
4F
102
{ACAD_REACTORS
330
47
102
}
330
47
100
AcDbScale
 70
     0
300
1:20
140
1.0
141
20.0
290
     0
  0
SCALE
  5
50
102
{ACAD_REACTORS
330
47
102
}
330
47
100
AcDbScale
 70
     0
300
1:30
140
1.0
141
30.0
290
     0
  0
SCALE
  5
51
102
{ACAD_REACTORS
330
47
102
}
330
47
100
AcDbScale
 70
     0
300
1:40
140
1.0
141
40.0
290
     0
  0
SCALE
  5
52
102
{ACAD_REACTORS
330
47
102
}
330
47
100
AcDbScale
 70
     0
300
1:50
140
1.0
141
50.0
290
     0
  0
SCALE
  5
53
102
{ACAD_REACTORS
330
47
102
}
330
47
100
AcDbScale
 70
     0
300
1:100
140
1.0
141
100.0
290
     0
  0
SCALE
  5
54
102
{ACAD_REACTORS
330
47
102
}
330
47
100
AcDbScale
 70
     0
300
2:1
140
2.0
141
1.0
290
     0
  0
SCALE
  5
55
102
{ACAD_REACTORS
330
47
102
}
330
47
100
AcDbScale
 70
     0
300
4:1
140
4.0
141
1.0
290
     0
  0
SCALE
  5
56
102
{ACAD_REACTORS
330
47
102
}
330
47
100
AcDbScale
 70
     0
300
8:1
140
8.0
141
1.0
290
     0
  0
SCALE
  5
57
102
{ACAD_REACTORS
330
47
102
}
330
47
100
AcDbScale
 70
     0
300
10:1
140
10.0
141
1.0
290
     0
  0
SCALE
  5
58
102
{ACAD_REACTORS
330
47
102
}
330
47
100
AcDbScale
 70
     0
300
100:1
140
100.0
141
1.0
290
     0
  0
SCALE
  5
59
102
{ACAD_REACTORS
330
47
102
}
330
47
100
AcDbScale
 70
     0
300
1/128" = 1'-0"
140
0.0078125
141
12.0
290
     0
  0
SCALE
  5
5A
102
{ACAD_REACTORS
330
47
102
}
330
47
100
AcDbScale
 70
     0
300
1/64" = 1'-0"
140
0.015625
141
12.0
290
     0
  0
SCALE
  5
5B
102
{ACAD_REACTORS
330
47
102
}
330
47
100
AcDbScale
 70
     0
300
1/32" = 1'-0"
140
0.03125
141
12.0
290
     0
  0
SCALE
  5
5C
102
{ACAD_REACTORS
330
47
102
}
330
47
100
AcDbScale
 70
     0
300
1/16" = 1'-0"
140
0.0625
141
12.0
290
     0
  0
SCALE
  5
5D
102
{ACAD_REACTORS
330
47
102
}
330
47
100
AcDbScale
 70
     0
300
3/32" = 1'-0"
140
0.09375
141
12.0
290
     0
  0
SCALE
  5
5E
102
{ACAD_REACTORS
330
47
102
}
330
47
100
AcDbScale
 70
     0
300
1/8" = 1'-0"
140
0.125
141
12.0
290
     0
  0
SCALE
  5
5F
102
{ACAD_REACTORS
330
47
102
}
330
47
100
AcDbScale
 70
     0
300
3/16" = 1'-0"
140
0.1875
141
12.0
290
     0
  0
SCALE
  5
60
102
{ACAD_REACTORS
330
47
102
}
330
47
100
AcDbScale
 70
     0
300
1/4" = 1'-0"
140
0.25
141
12.0
290
     0
  0
SCALE
  5
61
102
{ACAD_REACTORS
330
47
102
}
330
47
100
AcDbScale
 70
     0
300
3/8" = 1'-0"
140
0.375
141
12.0
290
     0
  0
SCALE
  5
62
102
{ACAD_REACTORS
330
47
102
}
330
47
100
AcDbScale
 70
     0
300
1/2" = 1'-0"
140
0.5
141
12.0
290
     0
  0
SCALE
  5
63
102
{ACAD_REACTORS
330
47
102
}
330
47
100
AcDbScale
 70
     0
300
3/4" = 1'-0"
140
0.75
141
12.0
290
     0
  0
SCALE
  5
64
102
{ACAD_REACTORS
330
47
102
}
330
47
100
AcDbScale
 70
     0
300
1" = 1'-0"
140
1.0
141
12.0
290
     0
  0
SCALE
  5
65
102
{ACAD_REACTORS
330
47
102
}
330
47
100
AcDbScale
 70
     0
300
1-1/2" = 1'-0"
140
1.5
141
12.0
290
     0
  0
SCALE
  5
66
102
{ACAD_REACTORS
330
47
102
}
330
47
100
AcDbScale
 70
     0
300
3" = 1'-0"
140
3.0
141
12.0
290
     0
  0
SCALE
  5
67
102
{ACAD_REACTORS
330
47
102
}
330
47
100
AcDbScale
 70
     0
300
6" = 1'-0"
140
6.0
141
12.0
290
     0
  0
SCALE
  5
68
102
{ACAD_REACTORS
330
47
102
}
330
47
100
AcDbScale
 70
     0
300
1'-0" = 1'-0"
140
12.0
141
12.0
290
     0
  0
ENDSEC
  0
EOF
