  0
SECTION
  2
HEADER
  9
$ACADVER
  1
AC1032
  9
$ACADMAINTVER
 90
       55
  9
$DWGCODEPAGE
  3
ANSI_1250
  9
$LASTSAVEDBY
  1
radek.stransky
  9
$REQUIREDVERSIONS
160
                 0
  9
$INSBASE
 10
0.0
 20
0.0
 30
0.0
  9
$EXTMIN
 10
0.0
 20
0.0
 30
0.0
  9
$EXTMAX
 10
20000.0
 20
10000.0
 30
0.0
  9
$LIMMIN
 10
0.0
 20
0.0
  9
$LIMMAX
 10
20000.0
 20
10000.0
  9
$ORTHOMODE
 70
     0
  9
$REGENMODE
 70
     1
  9
$FILLMODE
 70
     1
  9
$QTEXTMODE
 70
     0
  9
$MIRRTEXT
 70
     1
  9
$LTSCALE
 40
1.0
  9
$ATTMODE
 70
     1
  9
$TEXTSIZE
 40
2.0
  9
$TRACEWID
 40
1.0
  9
$TEXTSTYLE
  7
Standard
  9
$CLAYER
  8
0
  9
$CELTYPE
  6
ByLayer
  9
$CECOLOR
 62
   256
  9
$CELTSCALE
 40
1.0
  9
$DISPSILH
 70
     0
  9
$DIMSCALE
 40
1.0
  9
$DIMASZ
 40
2.0
  9
$DIMEXO
 40
1.0
  9
$DIMDLI
 40
3.75
  9
$DIMRND
 40
0.0
  9
$DIMDLE
 40
0.0
  9
$DIMEXE
 40
1.0
  9
$DIMTP
 40
0.0
  9
$DIMTM
 40
0.0
  9
$DIMTXT
 40
2.0
  9
$DIMCEN
 40
2.5
  9
$DIMTSZ
 40
0.0
  9
$DIMTOL
 70
     0
  9
$DIMLIM
 70
     0
  9
$DIMTIH
 70
     1
  9
$DIMTOH
 70
     1
  9
$DIMSE1
 70
     0
  9
$DIMSE2
 70
     0
  9
$DIMTAD
 70
     1
  9
$DIMZIN
 70
     0
  9
$DIMBLK
  1

  9
$DIMASO
 70
     1
  9
$DIMSHO
 70
     1
  9
$DIMPOST
  1

  9
$DIMAPOST
  1

  9
$DIMALT
 70
     0
  9
$DIMALTD
 70
     3
  9
$DIMALTF
 40
0.0393700787
  9
$DIMLFAC
 40
1.0
  9
$DIMTOFL
 70
     1
  9
$DIMTVP
 40
0.0
  9
$DIMTIX
 70
     0
  9
$DIMSOXD
 70
     0
  9
$DIMSAH
 70
     0
  9
$DIMBLK1
  1

  9
$DIMBLK2
  1

  9
$DIMSTYLE
  2
ISO-25
  9
$DIMCLRD
 70
     0
  9
$DIMCLRE
 70
     0
  9
$DIMCLRT
 70
     0
  9
$DIMTFAC
 40
1.0
  9
$DIMGAP
 40
1.524
  9
$DIMJUST
 70
     0
  9
$DIMSD1
 70
     0
  9
$DIMSD2
 70
     0
  9
$DIMTOLJ
 70
     0
  9
$DIMTZIN
 70
     0
  9
$DIMALTZ
 70
     0
  9
$DIMALTTZ
 70
     0
  9
$DIMUPT
 70
     0
  9
$DIMDEC
 70
     2
  9
$DIMTDEC
 70
     0
  9
$DIMALTU
 70
     2
  9
$DIMALTTD
 70
     3
  9
$DIMTXSTY
  7
Standard
  9
$DIMAUNIT
 70
     0
  9
$DIMADEC
 70
     2
  9
$DIMALTRND
 40
0.0
  9
$DIMAZIN
 70
     0
  9
$DIMDSEP
 70
    44
  9
$DIMATFIT
 70
     3
  9
$DIMFRAC
 70
     0
  9
$DIMLDRBLK
  1

  9
$DIMLUNIT
 70
     2
  9
$DIMLWD
 70
    -2
  9
$DIMLWE
 70
    -2
  9
$DIMTMOVE
 70
     0
  9
$DIMFXL
 40
1.0
  9
$DIMFXLON
 70
     0
  9
$DIMJOGANG
 40
0.7853981634
  9
$DIMTFILL
 70
     0
  9
$DIMTFILLCLR
 70
     0
  9
$DIMARCSYM
 70
     0
  9
$DIMLTYPE
  6

  9
$DIMLTEX1
  6

  9
$DIMLTEX2
  6

  9
$DIMTXTDIRECTION
 70
     0
  9
$LUNITS
 70
     2
  9
$LUPREC
 70
     3
  9
$SKETCHINC
 40
1.0
  9
$FILLETRAD
 40
10.0
  9
$AUNITS
 70
     0
  9
$AUPREC
 70
     2
  9
$MENU
  1
.
  9
$ELEVATION
 40
0.0
  9
$PELEVATION
 40
0.0
  9
$THICKNESS
 40
0.0
  9
$LIMCHECK
 70
     0
  9
$CHAMFERA
 40
0.0
  9
$CHAMFERB
 40
0.0
  9
$CHAMFERC
 40
0.0
  9
$CHAMFERD
 40
0.0
  9
$SKPOLY
 70
     0
  9
$TDCREATE
 40
2460168.456712743
  9
$TDUCREATE
 40
2460168.37337941
  9
$TDUPDATE
 40
2460168.456754121
  9
$TDUUPDATE
 40
2460168.373420787
  9
$TDINDWG
 40
0.0000000116
  9
$TDUSRTIMER
 40
0.0000000116
  9
$USRTIMER
 70
     1
  9
$ANGBASE
 50
0.0
  9
$ANGDIR
 70
     0
  9
$PDMODE
 70
     0
  9
$PDSIZE
 40
-1.0
  9
$PLINEWID
 40
0.0
  9
$SPLFRAME
 70
     0
  9
$SPLINETYPE
 70
     6
  9
$SPLINESEGS
 70
     8
  9
$HANDSEED
  5
4F0
  9
$SURFTAB1
 70
     6
  9
$SURFTAB2
 70
     6
  9
$SURFTYPE
 70
     6
  9
$SURFU
 70
     6
  9
$SURFV
 70
     6
  9
$UCSBASE
  2

  9
$UCSNAME
  2

  9
$UCSORG
 10
0.0
 20
0.0
 30
0.0
  9
$UCSXDIR
 10
1.0
 20
0.0
 30
0.0
  9
$UCSYDIR
 10
0.0
 20
1.0
 30
0.0
  9
$UCSORTHOREF
  2

  9
$UCSORTHOVIEW
 70
     0
  9
$UCSORGTOP
 10
0.0
 20
0.0
 30
0.0
  9
$UCSORGBOTTOM
 10
0.0
 20
0.0
 30
0.0
  9
$UCSORGLEFT
 10
0.0
 20
0.0
 30
0.0
  9
$UCSORGRIGHT
 10
0.0
 20
0.0
 30
0.0
  9
$UCSORGFRONT
 10
0.0
 20
0.0
 30
0.0
  9
$UCSORGBACK
 10
0.0
 20
0.0
 30
0.0
  9
$PUCSBASE
  2

  9
$PUCSNAME
  2

  9
$PUCSORG
 10
0.0
 20
0.0
 30
0.0
  9
$PUCSXDIR
 10
1.0
 20
0.0
 30
0.0
  9
$PUCSYDIR
 10
0.0
 20
1.0
 30
0.0
  9
$PUCSORTHOREF
  2

  9
$PUCSORTHOVIEW
 70
     0
  9
$PUCSORGTOP
 10
0.0
 20
0.0
 30
0.0
  9
$PUCSORGBOTTOM
 10
0.0
 20
0.0
 30
0.0
  9
$PUCSORGLEFT
 10
0.0
 20
0.0
 30
0.0
  9
$PUCSORGRIGHT
 10
0.0
 20
0.0
 30
0.0
  9
$PUCSORGFRONT
 10
0.0
 20
0.0
 30
0.0
  9
$PUCSORGBACK
 10
0.0
 20
0.0
 30
0.0
  9
$USERI1
 70
     0
  9
$USERI2
 70
     0
  9
$USERI3
 70
     0
  9
$USERI4
 70
     0
  9
$USERI5
 70
     0
  9
$USERR1
 40
0.0
  9
$USERR2
 40
0.0
  9
$USERR3
 40
0.0
  9
$USERR4
 40
0.0
  9
$USERR5
 40
0.0
  9
$WORLDVIEW
 70
     1
  9
$SHADEDGE
 70
     3
  9
$SHADEDIF
 70
    70
  9
$TILEMODE
 70
     1
  9
$MAXACTVP
 70
    64
  9
$PINSBASE
 10
0.0
 20
0.0
 30
0.0
  9
$PLIMCHECK
 70
     0
  9
$PEXTMIN
 10
1.0000000000E+20
 20
1.0000000000E+20
 30
1.0000000000E+20
  9
$PEXTMAX
 10
-1.0000000000E+20
 20
-1.0000000000E+20
 30
-1.0000000000E+20
  9
$PLIMMIN
 10
0.0
 20
0.0
  9
$PLIMMAX
 10
420.0
 20
297.0
  9
$UNITMODE
 70
     0
  9
$VISRETAIN
 70
     1
  9
$PLINEGEN
 70
     0
  9
$PSLTSCALE
 70
     1
  9
$TREEDEPTH
 70
  3020
  9
$CMLSTYLE
  2
Standard
  9
$CMLJUST
 70
     0
  9
$CMLSCALE
 40
20.0
  9
$PROXYGRAPHICS
 70
     1
  9
$MEASUREMENT
 70
     1
  9
$CELWEIGHT
370
    -1
  9
$ENDCAPS
280
     0
  9
$JOINSTYLE
280
     0
  9
$LWDISPLAY
290
     1
  9
$INSUNITS
 70
     4
  9
$HYPERLINKBASE
  1

  9
$STYLESHEET
  1

  9
$XEDIT
290
     1
  9
$CEPSNTYPE
380
     0
  9
$PSTYLEMODE
290
     1
  9
$FINGERPRINTGUID
  2
{2f7ba1d2-00a5-4508-a358-5de6309b9a4a}
  9
$VERSIONGUID
  2
{FAEB1C32-E019-11D5-929B-00C0DF256EC4}
  9
$EXTNAMES
290
     1
  9
$PSVPSCALE
 40
0.0
  9
$OLESTARTUP
290
     0
  9
$SORTENTS
280
   127
  9
$INDEXCTL
280
     0
  9
$HIDETEXT
280
     1
  9
$XCLIPFRAME
280
     2
  9
$HALOGAP
280
     0
  9
$OBSCOLOR
 70
   257
  9
$OBSLTYPE
280
     0
  9
$INTERSECTIONDISPLAY
280
     0
  9
$INTERSECTIONCOLOR
 70
   257
  9
$DIMASSOC
280
     2
  9
$PROJECTNAME
  1

  9
$CAMERADISPLAY
290
     0
  9
$LENSLENGTH
 40
50.0
  9
$CAMERAHEIGHT
 40
0.0
  9
$STEPSPERSEC
 40
2.0
  9
$STEPSIZE
 40
6.0
  9
$3DDWFPREC
 40
2.0
  9
$PSOLWIDTH
 40
5.0
  9
$PSOLHEIGHT
 40
80.0
  9
$LOFTANG1
 40
1.5707963268
  9
$LOFTANG2
 40
1.5707963268
  9
$LOFTMAG1
 40
0.0
  9
$LOFTMAG2
 40
0.0
  9
$LOFTPARAM
 70
     7
  9
$LOFTNORMALS
280
     1
  9
$LATITUDE
 40
37.795
  9
$LONGITUDE
 40
-122.394
  9
$NORTHDIRECTION
 40
0.0
  9
$TIMEZONE
 70
 -8000
  9
$LIGHTGLYPHDISPLAY
280
     1
  9
$TILEMODELIGHTSYNCH
280
     1
  9
$CMATERIAL
347
44
  9
$SOLIDHIST
280
     0
  9
$SHOWHIST
280
     1
  9
$DWFFRAME
280
     2
  9
$DGNFRAME
280
     2
  9
$REALWORLDSCALE
290
     1
  9
$INTERFERECOLOR
 62
   256
  9
$CSHADOW
280
     0
  9
$SHADOWPLANELOCATION
 40
0.0
  0
ENDSEC
  0
SECTION
  2
CLASSES
  0
CLASS
  1
ACDBDICTIONARYWDFLT
  2
AcDbDictionaryWithDefault
  3
ObjectDBX Classes
 90
        0
 91
        3
280
     0
281
     0
  0
CLASS
  1
VISUALSTYLE
  2
AcDbVisualStyle
  3
ObjectDBX Classes
 90
     4095
 91
        3
280
     0
281
     0
  0
CLASS
  1
MATERIAL
  2
AcDbMaterial
  3
ObjectDBX Classes
 90
     1153
 91
        3
280
     0
281
     0
  0
CLASS
  1
SCALE
  2
AcDbScale
  3
ObjectDBX Classes
 90
     1153
 91
        3
280
     0
281
     0
  0
CLASS
  1
TABLESTYLE
  2
AcDbTableStyle
  3
ObjectDBX Classes
 90
     4095
 91
        3
280
     0
281
     0
  0
CLASS
  1
MLEADERSTYLE
  2
AcDbMLeaderStyle
  3
ACDB_MLEADERSTYLE_CLASS
 90
     4095
 91
        3
280
     0
281
     0
  0
CLASS
  1
SUN
  2
AcDbSun
  3
SCENEOE
 90
     1153
 91
        3
280
     0
281
     0
  0
CLASS
  1
DICTIONARYVAR
  2
AcDbDictionaryVar
  3
ObjectDBX Classes
 90
        0
 91
        3
280
     0
281
     0
  0
CLASS
  1
CELLSTYLEMAP
  2
AcDbCellStyleMap
  3
ObjectDBX Classes
 90
     1152
 91
        3
280
     0
281
     0
  0
ENDSEC
  0
SECTION
  2
TABLES
  0
TABLE
  2
VPORT
  5
8
330
0
100
AcDbSymbolTable
 70
     1
  0
VPORT
  5
29
330
8
100
AcDbSymbolTableRecord
100
AcDbViewportTableRecord
  2
*Active
 70
     0
 10
0.0
 20
0.0
 11
1.0
 21
1.0
 12
10000.0
 22
5000.0
 13
0.0
 23
0.0
 14
10.0
 24
10.0
 15
10.0
 25
10.0
 16
0.0
 26
0.0
 36
1.0
 17
0.0
 27
0.0
 37
0.0
 40
10000.0
 41
2.0
 42
50.0
 43
0.0
 44
0.0
 50
0.0
 51
0.0
 71
     0
 72
  2000
 73
     1
 74
     3
 75
     0
 76
     0
 77
     0
 78
     0
281
     0
 65
     1
110
0.0
120
0.0
130
0.0
111
1.0
121
0.0
131
0.0
112
0.0
122
1.0
132
0.0
 79
     0
146
0.0
348
2F
 60
     3
 61
     5
292
     1
282
     1
141
0.0
142
0.0
 63
   250
361
6D
  0
ENDTAB
  0
TABLE
  2
LTYPE
  5
5
330
0
100
AcDbSymbolTable
 70
     6
  0
LTYPE
  5
14
330
5
100
AcDbSymbolTableRecord
100
AcDbLinetypeTableRecord
  2
ByBlock
 70
     0
  3

 72
    65
 73
     0
 40
0.0
  0
LTYPE
  5
15
330
5
100
AcDbSymbolTableRecord
100
AcDbLinetypeTableRecord
  2
ByLayer
 70
     0
  3

 72
    65
 73
     0
 40
0.0
  0
LTYPE
  5
16
330
5
100
AcDbSymbolTableRecord
100
AcDbLinetypeTableRecord
  2
Continuous
 70
     0
  3
Solid line
 72
    65
 73
     0
 40
0.0
  0
LTYPE
  5
6E
330
5
100
AcDbSymbolTableRecord
100
AcDbLinetypeTableRecord
  2
HIDDEN
 70
     0
  3
Hidden __ __ __ __ __ __ __ __ __ __ __ __ __ __
 72
    65
 73
     2
 40
1.905
 49
1.27
 74
     0
 49
-0.635
 74
     0
  0
LTYPE
  5
6F
330
5
100
AcDbSymbolTableRecord
100
AcDbLinetypeTableRecord
  2
PHANTOM
 70
     0
  3
Phantom ______  __  __  ______  __  __  ______
 72
    65
 73
     6
 40
12.7
 49
6.35
 74
     0
 49
-1.27
 74
     0
 49
1.27
 74
     0
 49
-1.27
 74
     0
 49
1.27
 74
     0
 49
-1.27
 74
     0
  0
LTYPE
  5
70
330
5
100
AcDbSymbolTableRecord
100
AcDbLinetypeTableRecord
  2
CENTER
 70
     0
  3
Center ____ _ ____ _ ____ _ ____ _ ____ _ ____
 72
    65
 73
     4
 40
10.16
 49
6.35
 74
     0
 49
-1.27
 74
     0
 49
1.27
 74
     0
 49
-1.27
 74
     0
  0
LTYPE
  5
71
330
5
100
AcDbSymbolTableRecord
100
AcDbLinetypeTableRecord
  2
CENTERX2
 70
     0
  3
Center (2x) ________  __  ________  __  _____
 72
    65
 73
     4
 40
20.32
 49
12.7
 74
     0
 49
-2.54
 74
     0
 49
2.54
 74
     0
 49
-2.54
 74
     0
  0
LTYPE
  5
72
330
5
100
AcDbSymbolTableRecord
100
AcDbLinetypeTableRecord
  2
DOT2
 70
     0
  3
Dot (.5x) ........................................
 72
    65
 73
     2
 40
0.635
 49
0.0
 74
     0
 49
-0.635
 74
     0
  0
ENDTAB
  0
TABLE
  2
LAYER
  5
2
330
0
100
AcDbSymbolTable
 70
    13
  0
LAYER
  5
10
330
2
100
AcDbSymbolTableRecord
100
AcDbLayerTableRecord
  2
0
 70
     0
 62
     7
  6
Continuous
370
    -3
390
F
347
46
348
0
  0
LAYER
  5
73
330
2
100
AcDbSymbolTableRecord
100
AcDbLayerTableRecord
  2
FORMAT
 70
     0
 62
     7
  6
Continuous
370
    -3
390
F
347
46
348
0
  0
LAYER
  5
74
330
2
100
AcDbSymbolTableRecord
100
AcDbLayerTableRecord
  2
OSA
 70
     0
 62
     7
  6
CENTER
370
    -3
390
F
347
46
348
0
  0
LAYER
  5
75
330
2
100
AcDbSymbolTableRecord
100
AcDbLayerTableRecord
  2
0_35
 70
     0
 62
     7
  6
Continuous
370
    35
390
F
347
46
348
0
  0
LAYER
  5
76
330
2
100
AcDbSymbolTableRecord
100
AcDbLayerTableRecord
  2
0_5
 70
     0
 62
     7
  6
Continuous
370
    50
390
F
347
46
348
0
  0
LAYER
  5
77
330
2
100
AcDbSymbolTableRecord
100
AcDbLayerTableRecord
  2
0_25
 70
     0
 62
     7
  6
Continuous
370
    25
390
F
347
46
348
0
  0
LAYER
  5
78
330
2
100
AcDbSymbolTableRecord
100
AcDbLayerTableRecord
  2
0_18
 70
     0
 62
     7
  6
Continuous
370
    -3
390
F
347
46
348
0
  0
LAYER
  5
79
330
2
100
AcDbSymbolTableRecord
100
AcDbLayerTableRecord
  2
SLD-0
 70
     0
 62
   179
  6
Continuous
370
    -3
390
F
347
46
348
0
  0
LAYER
  5
7A
330
2
100
AcDbSymbolTableRecord
100
AcDbLayerTableRecord
  2
KOTY
 70
     0
 62
     7
  6
Continuous
370
    -3
390
F
347
46
348
0
  0
LAYER
  5
7B
330
2
100
AcDbSymbolTableRecord
100
AcDbLayerTableRecord
  2
SILNA
 70
     0
 62
   179
  6
Continuous
370
    -3
390
F
347
46
348
0
  0
LAYER
  5
7C
330
2
100
AcDbSymbolTableRecord
100
AcDbLayerTableRecord
  2
0_18_1
 70
     0
 62
   179
  6
Continuous
370
    -3
390
F
347
46
348
0
  0
LAYER
  5
7D
330
2
100
AcDbSymbolTableRecord
100
AcDbLayerTableRecord
  2
0_35_1
 70
     0
 62
   179
  6
Continuous
370
    35
390
F
347
46
348
0
  0
LAYER
  5
7E
330
2
100
AcDbSymbolTableRecord
100
AcDbLayerTableRecord
  2
0_5_1
 70
     0
 62
   179
  6
Continuous
370
    50
390
F
347
46
348
0
  0
ENDTAB
  0
TABLE
  2
STYLE
  5
3
330
0
100
AcDbSymbolTable
 70
     1
  0
STYLE
  5
11
330
3
100
AcDbSymbolTableRecord
100
AcDbTextStyleTableRecord
  2
Standard
 70
     0
 40
0.0
 41
1.0
 50
0.0
 71
     0
 42
2.0
  3
txt
  4

  0
ENDTAB
  0
TABLE
  2
VIEW
  5
6
330
0
100
AcDbSymbolTable
 70
     0
  0
ENDTAB
  0
TABLE
  2
UCS
  5
7
330
0
100
AcDbSymbolTable
 70
     0
  0
ENDTAB
  0
TABLE
  2
APPID
  5
9
330
0
100
AcDbSymbolTable
 70
     1
  0
APPID
  5
12
330
9
100
AcDbSymbolTableRecord
100
AcDbRegAppTableRecord
  2
ACAD
 70
     0
  0
ENDTAB
  0
TABLE
  2
DIMSTYLE
  5
A
330
0
100
AcDbSymbolTable
 70
     1
100
AcDbDimStyleTable
  0
DIMSTYLE
105
27
330
A
100
AcDbSymbolTableRecord
100
AcDbDimStyleTableRecord
  2
ISO-25
 70
     0
 41
2.5
 42
0.625
 43
3.75
 44
1.25
 73
     0
 74
     0
 77
     1
 78
     8
140
2.5
141
2.5
143
0.0393700787
147
0.625
171
     3
172
     1
178
     0
271
     2
272
     2
274
     3
278
    44
283
     0
284
     8
340
11
  0
ENDTAB
  0
TABLE
  2
BLOCK_RECORD
  5
1
330
0
100
AcDbSymbolTable
 70
     1
  0
BLOCK_RECORD
  5
1F
330
1
100
AcDbSymbolTableRecord
100
AcDbBlockTableRecord
  2
*Model_Space
340
22
 70
     0
280
     1
281
     0
  0
BLOCK_RECORD
  5
1B
330
1
100
AcDbSymbolTableRecord
100
AcDbBlockTableRecord
  2
*Paper_Space
340
1E
 70
     0
280
     1
281
     0
  0
BLOCK_RECORD
  5
23
330
1
100
AcDbSymbolTableRecord
100
AcDbBlockTableRecord
  2
*Paper_Space0
340
26
 70
     0
280
     1
281
     0
  0
ENDTAB
  0
ENDSEC
  0
SECTION
  2
BLOCKS
  0
BLOCK
  5
20
330
1F
100
AcDbEntity
  8
0
100
AcDbBlockBegin
  2
*Model_Space
 70
     0
 10
0.0
 20
0.0
 30
0.0
  3
*Model_Space
  1

  0
ENDBLK
  5
21
330
1F
100
AcDbEntity
  8
0
100
AcDbBlockEnd
  0
BLOCK
  5
1C
330
1B
100
AcDbEntity
 67
     1
  8
0
100
AcDbBlockBegin
  2
*Paper_Space
 70
     0
 10
0.0
 20
0.0
 30
0.0
  3
*Paper_Space
  1

  0
ENDBLK
  5
1D
330
1B
100
AcDbEntity
 67
     1
  8
0
100
AcDbBlockEnd
  0
BLOCK
  5
24
330
23
100
AcDbEntity
  8
0
100
AcDbBlockBegin
  2
*Paper_Space0
 70
     0
 10
0.0
 20
0.0
 30
0.0
  3
*Paper_Space0
  1

  0
ENDBLK
  5
25
330
23
100
AcDbEntity
  8
0
100
AcDbBlockEnd
  0
ENDSEC
  0
SECTION
  2
ENTITIES
  0
ARC
  5
7F
330
1F
100
AcDbEntity
  8
0
  6
Continuous
 62
     7
370
    25
100
AcDbCircle
 10
6519.2852410686
 20
4869.7005898765
 30
0.0
 40
45.30880650918112
100
AcDbArc
 50
76.2128993594
 51
77.6089071177
  0
LWPOLYLINE
  5
80
330
1F
100
AcDbEntity
  8
0
  6
Continuous
 62
     7
370
    25
100
AcDbPolyline
 90
        3
 70
   128
 43
0.0
 10
6520.2140385205
 20
4944.1395569418
 10
6520.3165837607
 20
4944.3653723485
 10
6520.4640385205
 20
4944.7054088765
  0
LINE
  5
81
330
1F
100
AcDbEntity
  8
0
  6
Continuous
 62
     7
370
    25
100
AcDbLine
 10
6529.2729513446
 20
4988.4539571422
 30
0.0
 11
6529.3111238052
 21
4988.7039571422
 31
0.0
  0
LINE
  5
82
330
1F
100
AcDbEntity
  8
0
  6
Continuous
 62
     7
370
    25
100
AcDbLine
 10
6525.2669187966
 20
4988.7039571422
 30
0.0
 11
6525.2288516651
 21
4988.4539571422
 31
0.0
  0
LINE
  5
83
330
1F
100
AcDbEntity
  8
0
  6
Continuous
 62
     7
370
    25
100
AcDbLine
 10
6590.2140385205
 20
4851.6039571422
 30
0.0
 11
6590.2140385205
 21
4851.7039571422
 31
0.0
  0
LINE
  5
84
330
1F
100
AcDbEntity
  8
0
  6
Continuous
 62
     7
370
    25
100
AcDbLine
 10
6590.2140385205
 20
4851.6039571422
 30
0.0
 11
6550.2140385205
 21
4851.6039571422
 31
0.0
  0
LINE
  5
85
330
1F
100
AcDbEntity
  8
0
  6
Continuous
 62
     7
370
    25
100
AcDbLine
 10
6550.2140385205
 20
4851.6039571422
 30
0.0
 11
6550.2140385205
 21
4851.7039571422
 31
0.0
  0
LINE
  5
86
330
1F
100
AcDbEntity
  8
0
  6
Continuous
 62
     7
370
    25
100
AcDbLine
 10
6597.2077894885
 20
4875.7469474824
 30
0.0
 11
6596.0586054539
 21
4879.0172363706
 31
0.0
  0
ARC
  5
87
330
1F
100
AcDbEntity
  8
0
  6
Continuous
 62
     7
370
    25
100
AcDbCircle
 10
6597.821091081
 20
4872.563188066
 30
0.0
 40
3.242292840647093
100
AcDbArc
 50
100.9035774826
 51
339.7784241175
  0
LINE
  5
88
330
1F
100
AcDbEntity
  8
0
  6
Continuous
 62
     7
370
    25
100
AcDbLine
 10
6604.4169320756
 20
4871.4424844131
 30
0.0
 11
6600.8635384818
 21
4871.4424844131
 31
0.0
  0
ARC
  5
89
330
1F
100
AcDbEntity
  8
0
  6
Continuous
 62
     7
370
    25
100
AcDbCircle
 10
6597.821091081
 20
4872.563188066
 30
0.0
 40
6.690373315708635
100
AcDbArc
 50
191.2354356829
 51
350.3569301531
  0
ARC
  5
8A
330
1F
100
AcDbEntity
  8
0
  6
Continuous
 62
     7
370
    25
100
AcDbCircle
 10
6597.821091081
 20
4872.563188066
 30
0.0
 40
3.742292840647666
100
AcDbArc
 50
109.715387238
 51
334.336960814
  0
LINE
  5
8B
330
1F
100
AcDbEntity
  8
0
  6
Continuous
 62
     7
370
    25
100
AcDbLine
 10
6596.5586357552
 20
4876.0861076302
 30
0.0
 11
6595.7470191524
 21
4878.3957644627
 31
0.0
  0
ARC
  5
8C
330
1F
100
AcDbEntity
  8
0
  6
Continuous
 62
     7
370
    25
100
AcDbCircle
 10
6597.821091081
 20
4872.563188066
 30
0.0
 40
6.190373315707767
100
AcDbArc
 50
109.5754541721
 51
168.2492122301
  0
LINE
  5
8D
330
1F
100
AcDbEntity
  8
0
  6
Continuous
 62
     7
370
    25
100
AcDbLine
 10
6591.7604514463
 20
4873.8238898572
 30
0.0
 11
6580.6326919922
 21
4873.8238898572
 31
0.0
  0
LINE
  5
8E
330
1F
100
AcDbEntity
  8
0
  6
Continuous
 62
     7
370
    25
100
AcDbLine
 10
6580.6326919922
 20
4873.8238898572
 30
0.0
 11
6580.6326919922
 21
4866.7039571422
 31
0.0
  0
LINE
  5
8F
330
1F
100
AcDbEntity
  8
0
  6
Continuous
 62
     7
370
    25
100
AcDbLine
 10
6584.9842581433
 20
4871.7596290072
 30
0.0
 11
6584.9842581433
 21
4866.7039571422
 31
0.0
  0
LINE
  5
90
330
1F
100
AcDbEntity
  8
0
  6
Continuous
 62
     7
370
    25
100
AcDbLine
 10
6584.9842581433
 20
4866.7039571422
 30
0.0
 11
6586.5862255327
 21
4866.7039571422
 31
0.0
  0
LINE
  5
91
330
1F
100
AcDbEntity
  8
0
  6
Continuous
 62
     7
370
    25
100
AcDbLine
 10
6587.0862255326
 20
4871.2596290072
 30
0.0
 11
6591.258939842
 21
4871.2596290072
 31
0.0
  0
LINE
  5
92
330
1F
100
AcDbEntity
  8
0
  6
Continuous
 62
     7
370
    25
100
AcDbLine
 10
6582.2346593815
 20
4866.7039571422
 30
0.0
 11
6582.2346593815
 21
4871.7596290072
 31
0.0
  0
ARC
  5
93
330
1F
100
AcDbEntity
  8
0
  6
Continuous
 62
     7
370
    25
100
AcDbCircle
 10
6597.821091081
 20
4872.563188066
 30
0.0
 40
6.690373315707461
100
AcDbArc
 50
105.2740442828
 51
164.7417911144
  0
LINE
  5
94
330
1F
100
AcDbEntity
  8
0
  6
Continuous
 62
     7
370
    25
100
AcDbLine
 10
6591.3665559075
 20
4874.3238898572
 30
0.0
 11
6580.1326919922
 21
4874.3238898572
 31
0.0
  0
LINE
  5
95
330
1F
100
AcDbEntity
  8
0
  6
Continuous
 62
     7
370
    25
100
AcDbLine
 10
6603.7955401315
 20
4870.9424844131
 30
0.0
 11
6601.1942313649
 21
4870.9424844131
 31
0.0
  0
LINE
  5
96
330
1F
100
AcDbEntity
  8
0
  6
Continuous
 62
     7
370
    25
100
AcDbLine
 10
6587.0862255326
 20
4866.2039571422
 30
0.0
 11
6587.0862255326
 21
4871.2596290072
 31
0.0
  0
LINE
  5
97
330
1F
100
AcDbEntity
  8
0
  6
Continuous
 62
     7
370
    25
100
AcDbLine
 10
6582.2346593815
 20
4871.7596290072
 30
0.0
 11
6584.9842581433
 21
4871.7596290072
 31
0.0
  0
LINE
  5
98
330
1F
100
AcDbEntity
  8
0
  6
Continuous
 62
     7
370
    25
100
AcDbLine
 10
6580.1326919922
 20
4866.2039571422
 30
0.0
 11
6582.7346593815
 21
4866.2039571422
 31
0.0
  0
LINE
  5
99
330
1F
100
AcDbEntity
  8
0
  6
Continuous
 62
     7
370
    25
100
AcDbLine
 10
6580.1326919922
 20
4874.3238898572
 30
0.0
 11
6580.1326919922
 21
4866.2039571422
 31
0.0
  0
LINE
  5
9A
330
1F
100
AcDbEntity
  8
0
  6
Continuous
 62
     7
370
    25
100
AcDbLine
 10
6586.5862255327
 20
4866.7039571422
 30
0.0
 11
6586.5862255327
 21
4871.7596290072
 31
0.0
  0
LINE
  5
9B
330
1F
100
AcDbEntity
  8
0
  6
Continuous
 62
     7
370
    25
100
AcDbLine
 10
6586.5862255327
 20
4871.7596290072
 30
0.0
 11
6591.6830934737
 21
4871.7596290072
 31
0.0
  0
ARC
  5
9C
330
1F
100
AcDbEntity
  8
0
  6
Continuous
 62
     7
370
    25
100
AcDbCircle
 10
6597.821091081
 20
4872.563188066
 30
0.0
 40
6.190373315708068
100
AcDbArc
 50
187.4584889226
 51
344.8224923901
  0
LINE
  5
9D
330
1F
100
AcDbEntity
  8
0
  6
Continuous
 62
     7
370
    25
100
AcDbLine
 10
6584.4842581433
 20
4871.2596290072
 30
0.0
 11
6584.4842581433
 21
4866.2039571422
 31
0.0
  0
LINE
  5
9E
330
1F
100
AcDbEntity
  8
0
  6
Continuous
 62
     7
370
    25
100
AcDbLine
 10
6582.7346593815
 20
4871.2596290072
 30
0.0
 11
6584.4842581433
 21
4871.2596290072
 31
0.0
  0
LINE
  5
9F
330
1F
100
AcDbEntity
  8
0
  6
Continuous
 62
     7
370
    25
100
AcDbLine
 10
6582.7346593815
 20
4866.2039571422
 30
0.0
 11
6582.7346593815
 21
4871.2596290072
 31
0.0
  0
LINE
  5
A0
330
1F
100
AcDbEntity
  8
0
  6
Continuous
 62
     7
370
    25
100
AcDbLine
 10
6580.6326919922
 20
4866.7039571422
 30
0.0
 11
6582.2346593815
 21
4866.7039571422
 31
0.0
  0
LINE
  5
A1
330
1F
100
AcDbEntity
  8
0
  6
Continuous
 62
     7
370
    25
100
AcDbLine
 10
6584.4842581433
 20
4866.2039571422
 30
0.0
 11
6587.0862255326
 21
4866.2039571422
 31
0.0
  0
LINE
  5
A2
330
1F
100
AcDbEntity
  8
0
  6
Continuous
 62
     7
370
    25
100
AcDbLine
 10
6605.4063959485
 20
4877.4919192624
 30
0.0
 11
6605.4063959485
 21
4879.3907798908
 31
0.0
  0
LINE
  5
A3
330
1F
100
AcDbEntity
  8
0
  6
Continuous
 62
     7
370
    25
100
AcDbLine
 10
6612.3311205112
 20
4870.513791895
 30
0.0
 11
6608.7845586977
 21
4875.9744125033
 31
0.0
  0
LINE
  5
A4
330
1F
100
AcDbEntity
  8
0
  6
Continuous
 62
     7
370
    25
100
AcDbLine
 10
6613.5007555747
 20
4871.2596290072
 30
0.0
 11
6612.3311205112
 21
4870.513791895
 31
0.0
  0
LINE
  5
A5
330
1F
100
AcDbEntity
  8
0
  6
Continuous
 62
     7
370
    25
100
AcDbLine
 10
6615.2140385205
 20
4869.7679547827
 30
0.0
 11
6613.5007555747
 21
4871.2596290072
 31
0.0
  0
LINE
  5
A6
330
1F
100
AcDbEntity
  8
0
  6
Continuous
 62
     7
370
    25
100
AcDbLine
 10
6610.8659889112
 20
4866.8850088461
 30
0.0
 11
6615.2140385205
 21
4869.7679547827
 31
0.0
  0
LINE
  5
A7
330
1F
100
AcDbEntity
  8
0
  6
Continuous
 62
     7
370
    25
100
AcDbLine
 10
6611.0064056659
 20
4867.578033474
 30
0.0
 11
6614.3906179092
 21
4869.821913331
 31
0.0
  0
LINE
  5
A8
330
1F
100
AcDbEntity
  8
0
  6
Continuous
 62
     7
370
    25
100
AcDbLine
 10
6614.3906179092
 20
4869.821913331
 30
0.0
 11
6613.454379463
 21
4870.6370517538
 31
0.0
  0
LINE
  5
A9
330
1F
100
AcDbEntity
  8
0
  6
Continuous
 62
     7
370
    25
100
AcDbLine
 10
6613.454379463
 20
4870.6370517538
 30
0.0
 11
6612.1818742895
 21
4869.8256178172
 31
0.0
  0
LINE
  5
AA
330
1F
100
AcDbEntity
  8
0
  6
Continuous
 62
     7
370
    25
100
AcDbLine
 10
6612.1818742895
 20
4869.8256178172
 30
0.0
 11
6608.5130972468
 21
4875.4744125033
 31
0.0
  0
LINE
  5
AB
330
1F
100
AcDbEntity
  8
0
  6
Continuous
 62
     7
370
    25
100
AcDbLine
 10
6608.5130972468
 20
4875.4744125033
 30
0.0
 11
6601.6588964442
 21
4875.4744125033
 31
0.0
  0
LINE
  5
AC
330
1F
100
AcDbEntity
  8
0
  6
Continuous
 62
     7
370
    25
100
AcDbLine
 10
6601.6588964442
 20
4875.4744125033
 30
0.0
 11
6600.8846314988
 21
4877.9919192624
 31
0.0
  0
LINE
  5
AD
330
1F
100
AcDbEntity
  8
0
  6
Continuous
 62
     7
370
    25
100
AcDbLine
 10
6600.8846314988
 20
4877.9919192624
 30
0.0
 11
6604.9063959485
 21
4877.9919192624
 31
0.0
  0
LINE
  5
AE
330
1F
100
AcDbEntity
  8
0
  6
Continuous
 62
     7
370
    25
100
AcDbLine
 10
6604.9063959485
 20
4877.9919192624
 30
0.0
 11
6604.9063959485
 21
4878.9164474905
 31
0.0
  0
LINE
  5
AF
330
1F
100
AcDbEntity
  8
0
  6
Continuous
 62
     7
370
    25
100
AcDbLine
 10
6604.9063959485
 20
4878.9164474905
 30
0.0
 11
6600.0879526586
 21
4879.1704958314
 31
0.0
  0
ARC
  5
B0
330
1F
100
AcDbEntity
  8
0
  6
Continuous
 62
     7
370
    25
100
AcDbCircle
 10
6598.7266160721
 20
4884.1227717471
 30
0.0
 40
3.496762199309624
100
AcDbArc
 50
284.561383426
 51
243.4937138986
  0
LINE
  5
B1
330
1F
100
AcDbEntity
  8
0
  6
Continuous
 62
     7
370
    25
100
AcDbLine
 10
6597.1660251018
 20
4880.9935702992
 30
0.0
 11
6599.924907532
 21
4873.1424844131
 31
0.0
  0
LINE
  5
B2
330
1F
100
AcDbEntity
  8
0
  6
Continuous
 62
     7
370
    25
100
AcDbLine
 10
6599.924907532
 20
4873.1424844131
 30
0.0
 11
6607.3169327606
 21
4873.1424844131
 31
0.0
  0
LINE
  5
B3
330
1F
100
AcDbEntity
  8
0
  6
Continuous
 62
     7
370
    25
100
AcDbLine
 10
6607.3169327606
 20
4873.1424844131
 30
0.0
 11
6611.0064056659
 21
4867.578033474
 31
0.0
  0
LINE
  5
B4
330
1F
100
AcDbEntity
  8
0
  6
Continuous
 62
     7
370
    25
100
AcDbLine
 10
6607.0485322852
 20
4872.6424844131
 30
0.0
 11
6610.8659889112
 21
4866.8850088461
 31
0.0
  0
LINE
  5
B5
330
1F
100
AcDbEntity
  8
0
  6
Continuous
 62
     7
370
    25
100
AcDbLine
 10
6599.5706358342
 20
4872.6424844131
 30
0.0
 11
6607.0485322852
 21
4872.6424844131
 31
0.0
  0
LINE
  5
B6
330
1F
100
AcDbEntity
  8
0
  6
Continuous
 62
     7
370
    25
100
AcDbLine
 10
6600.0879526586
 20
4879.1704958314
 30
0.0
 11
6599.6057618076
 21
4880.738329599
 31
0.0
  0
LINE
  5
B7
330
1F
100
AcDbEntity
  8
0
  6
Continuous
 62
     7
370
    25
100
AcDbLine
 10
6600.463159975
 20
4879.6514078202
 30
0.0
 11
6600.2272615301
 21
4880.418426827
 31
0.0
  0
LINE
  5
B8
330
1F
100
AcDbEntity
  8
0
  6
Continuous
 62
     7
370
    25
100
AcDbLine
 10
6605.4063959485
 20
4879.3907798908
 30
0.0
 11
6600.463159975
 21
4879.6514078202
 31
0.0
  0
LINE
  5
B9
330
1F
100
AcDbEntity
  8
0
  6
Continuous
 62
     7
370
    25
100
AcDbLine
 10
6602.0282331993
 20
4875.9744125033
 30
0.0
 11
6601.5615205346
 21
4877.4919192624
 31
0.0
  0
LINE
  5
BA
330
1F
100
AcDbEntity
  8
0
  6
Continuous
 62
     7
370
    25
100
AcDbLine
 10
6596.7589122426
 20
4880.6439429619
 30
0.0
 11
6599.5706358342
 21
4872.6424844131
 31
0.0
  0
LINE
  5
BB
330
1F
100
AcDbEntity
  8
0
  6
Continuous
 62
     7
370
    25
100
AcDbLine
 10
6601.5615205346
 20
4877.4919192624
 30
0.0
 11
6605.4063959485
 21
4877.4919192624
 31
0.0
  0
ARC
  5
BC
330
1F
100
AcDbEntity
  8
0
  6
Continuous
 62
     7
370
    25
100
AcDbCircle
 10
6598.7266160721
 20
4884.1227717471
 30
0.0
 40
3.996762199309742
100
AcDbArc
 50
292.0530732017
 51
240.5065229539
  0
LINE
  5
BD
330
1F
100
AcDbEntity
  8
0
  6
Continuous
 62
     7
370
    25
100
AcDbLine
 10
6608.7845586977
 20
4875.9744125033
 30
0.0
 11
6602.0282331993
 21
4875.9744125033
 31
0.0
  0
ARC
  5
BE
330
1F
100
AcDbEntity
  8
0
  6
Continuous
 62
     7
370
    25
100
AcDbCircle
 10
6545.2140385205
 20
4871.2039571422
 30
0.0
 40
5.600000000000586
100
AcDbArc
 50
4.4980126049
 51
354.2523695851
  0
LINE
  5
BF
330
1F
100
AcDbEntity
  8
0
  6
Continuous
 62
     7
370
    25
100
AcDbLine
 10
6550.7967908263
 20
4871.6431344319
 30
0.0
 11
6550.5961499378
 21
4871.6431344319
 31
0.0
  0
ARC
  5
C0
330
1F
100
AcDbEntity
  8
0
  6
Continuous
 62
     7
370
    25
100
AcDbCircle
 10
6545.2140385205
 20
4871.2039571422
 30
0.0
 40
5.400000000000643
100
AcDbArc
 50
4.6649681226
 51
354.0387368535
  0
LINE
  5
C1
330
1F
100
AcDbEntity
  8
0
  6
Continuous
 62
     7
370
    25
100
AcDbLine
 10
6550.5848371471
 20
4870.6431344319
 30
0.0
 11
6550.7858854215
 21
4870.6431344319
 31
0.0
  0
ARC
  5
C2
330
1F
100
AcDbEntity
  8
0
  6
Continuous
 62
     7
370
    25
100
AcDbCircle
 10
6546.999366872
 20
4871.6431344319
 30
0.0
 40
0.5331629282962127
100
AcDbArc
 50
220.711185677
 51
0.0
  0
ARC
  5
C3
330
1F
100
AcDbEntity
  8
0
  6
Continuous
 62
     7
370
    25
100
AcDbCircle
 10
6545.8372186179
 20
4870.6431344319
 30
0.0
 40
1.000000000000909
100
AcDbArc
 50
40.711185677
 51
90.0
  0
LINE
  5
C4
330
1F
100
AcDbEntity
  8
0
  6
Continuous
 62
     7
370
    25
100
AcDbLine
 10
6545.8372186179
 20
4871.6431344319
 30
0.0
 11
6545.2672732235
 21
4871.6431344319
 31
0.0
  0
LINE
  5
C5
330
1F
100
AcDbEntity
  8
0
  6
Continuous
 62
     7
370
    25
100
AcDbLine
 10
6545.2672732235
 20
4871.6431344319
 30
0.0
 11
6545.085060226
 21
4871.4569077702
 31
0.0
  0
ARC
  5
C6
330
1F
100
AcDbEntity
  8
0
  6
Continuous
 62
     7
370
    25
100
AcDbCircle
 10
6542.5906434084
 20
4870.9569077702
 30
0.0
 40
0.5000000000009095
100
AcDbArc
 50
90.0
 51
270.0
  0
LINE
  5
C7
330
1F
100
AcDbEntity
  8
0
  6
Continuous
 62
     7
370
    25
100
AcDbLine
 10
6545.5056693987
 20
4870.4569077702
 30
0.0
 11
6545.6878823963
 21
4870.6431344319
 31
0.0
  0
LINE
  5
C8
330
1F
100
AcDbEntity
  8
0
  6
Continuous
 62
     7
370
    25
100
AcDbLine
 10
6545.6878823963
 20
4870.6431344319
 30
0.0
 11
6545.8372186179
 21
4870.6431344319
 31
0.0
  0
ARC
  5
C9
330
1F
100
AcDbEntity
  8
0
  6
Continuous
 62
     7
370
    25
100
AcDbCircle
 10
6546.999366872
 20
4871.6431344319
 30
0.0
 40
1.533162928296554
100
AcDbArc
 50
220.7111856769
 51
319.288814323
  0
LINE
  5
CA
330
1F
100
AcDbEntity
  8
0
  6
Continuous
 62
     7
370
    25
100
AcDbLine
 10
6542.5906434084
 20
4870.4569077702
 30
0.0
 11
6545.5056693987
 21
4870.4569077702
 31
0.0
  0
LINE
  5
CB
330
1F
100
AcDbEntity
  8
0
  6
Continuous
 62
     7
370
    25
100
AcDbLine
 10
6545.085060226
 20
4871.4569077702
 30
0.0
 11
6542.5906434084
 21
4871.4569077702
 31
0.0
  0
LINE
  5
CC
330
1F
100
AcDbEntity
  8
0
  6
Continuous
 62
     7
370
    25
100
AcDbLine
 10
6550.5961499378
 20
4871.6431344319
 30
0.0
 11
6547.5325298003
 21
4871.6431344319
 31
0.0
  0
LINE
  5
CD
330
1F
100
AcDbEntity
  8
0
  6
Continuous
 62
     7
370
    25
100
AcDbLine
 10
6548.1615151262
 20
4870.6431344319
 30
0.0
 11
6550.5848371471
 21
4870.6431344319
 31
0.0
  0
CIRCLE
  5
CE
330
1F
100
AcDbEntity
  8
0
  6
Continuous
 62
     7
370
    25
100
AcDbCircle
 10
6545.2140385205
 20
4875.2039571422
 30
0.0
 40
14.0
  0
CIRCLE
  5
CF
330
1F
100
AcDbEntity
  8
0
  6
Continuous
 62
     7
370
    25
100
AcDbCircle
 10
6545.2140385205
 20
4875.2039571422
 30
0.0
 40
14.99999999999909
  0
ARC
  5
D0
330
1F
100
AcDbEntity
  8
0
  6
Continuous
 62
     7
370
    25
100
AcDbCircle
 10
6545.2140385205
 20
4871.2039571422
 30
0.0
 40
5.600000000000586
100
AcDbArc
 50
354.2523695851
 51
4.4980126049
  0
LWPOLYLINE
  5
D1
330
1F
100
AcDbEntity
  8
0
  6
Continuous
 62
     7
370
    25
100
AcDbPolyline
 90
        3
 70
   128
 43
0.0
 10
6513.2379790328
 20
4853.2136157467
 10
6513.2159912939
 20
4853.2084060655
 10
6513.1447304404
 20
4853.2039571422
  0
LWPOLYLINE
  5
D2
330
1F
100
AcDbEntity
  8
0
  6
Continuous
 62
     7
370
    25
100
AcDbPolyline
 90
       17
 70
   128
 43
0.0
 10
6512.8209746695
 20
4854.2039571422
 10
6512.9263337644
 20
4854.0246539316
 10
6513.0219765946
 20
4853.8296561558
 10
6513.1079031602
 20
4853.6206154501
 10
6513.1841134612
 20
4853.3998843556
 10
6513.2491867045
 20
4853.1748593138
 10
6513.3021155231
 20
4852.9517728315
 10
6513.3428999171
 20
4852.7340913017
 10
6513.3715398864
 20
4852.5256707153
 10
6513.3875402382
 20
4852.3344888374
 10
6513.3905819554
 20
4852.1655987498
 10
6513.3806650379
 20
4852.0208993971
 10
6513.3577894858
 20
4851.9019930443
 10
6513.3225208165
 20
4851.8117459336
 10
6513.2752547526
 20
4851.7501835294
 10
6513.2159912939
 20
4851.7150794504
 10
6513.1447304404
 20
4851.7039571422
  0
LINE
  5
D3
330
1F
100
AcDbEntity
  8
0
  6
Continuous
 62
     7
370
    25
100
AcDbLine
 10
6513.1447304404
 20
4851.7039571422
 30
0.0
 11
6513.1447304404
 21
4853.2039571422
 31
0.0
  0
LINE
  5
D4
330
1F
100
AcDbEntity
  8
0
  6
Continuous
 62
     7
370
    25
100
AcDbLine
 10
6627.6071023713
 20
4854.2039571422
 30
0.0
 11
6512.8209746695
 21
4854.2039571422
 31
0.0
  0
LWPOLYLINE
  5
D5
330
1F
100
AcDbEntity
  8
0
  6
Continuous
 62
     7
370
    25
100
AcDbPolyline
 90
       17
 70
   128
 43
0.0
 10
6627.2833466006
 20
4851.7039571422
 10
6627.2122029203
 20
4851.7150464556
 10
6627.1529785194
 20
4851.7500941346
 10
6627.1056733977
 20
4851.8116441664
 10
6627.0702875552
 20
4851.9019930443
 10
6627.0474224406
 20
4852.0204980595
 10
6627.0375090023
 20
4852.1649629953
 10
6627.0405472403
 20
4852.3339419846
 10
6627.0565371545
 20
4852.5256707153
 10
6627.0850348531
 20
4852.7334642606
 10
6627.1257718235
 20
4852.9508782617
 10
6627.1787480657
 20
4853.1741528279
 10
6627.2439635797
 20
4853.3998843556
 10
6627.3200063846
 20
4853.6203626741
 10
6627.4058771182
 20
4853.8293134597
 10
6627.5015757804
 20
4854.0243946472
 10
6627.6071023713
 20
4854.2039571422
  0
LINE
  5
D6
330
1F
100
AcDbEntity
  8
0
  6
Continuous
 62
     7
370
    25
100
AcDbLine
 10
6627.2833466006
 20
4851.7039571422
 30
0.0
 11
6513.1447304404
 21
4851.7039571422
 31
0.0
  0
LINE
  5
D7
330
1F
100
AcDbEntity
  8
0
  6
Continuous
 62
     7
370
    25
100
AcDbLine
 10
6510.8140385205
 20
4854.5271804469
 30
0.0
 11
6511.8908152158
 21
4854.5271804469
 31
0.0
  0
LINE
  5
D8
330
1F
100
AcDbEntity
  8
0
  6
Continuous
 62
     7
370
    25
100
AcDbLine
 10
6510.8140385205
 20
4896.2039571422
 30
0.0
 11
6510.8140385205
 21
4854.5271804469
 31
0.0
  0
LINE
  5
D9
330
1F
100
AcDbEntity
  8
0
  6
Continuous
 62
     7
370
    25
100
AcDbLine
 10
6629.6140385205
 20
4896.2039571422
 30
0.0
 11
6510.8140385205
 21
4896.2039571422
 31
0.0
  0
LINE
  5
DA
330
1F
100
AcDbEntity
  8
0
  6
Continuous
 62
     7
370
    25
100
AcDbLine
 10
6629.6140385205
 20
4896.2039571422
 30
0.0
 11
6629.6140385205
 21
4854.5271804469
 31
0.0
  0
LINE
  5
DB
330
1F
100
AcDbEntity
  8
0
  6
Continuous
 62
     7
370
    25
100
AcDbLine
 10
6629.6140385205
 20
4854.5271804469
 30
0.0
 11
6628.5372618252
 21
4854.5271804469
 31
0.0
  0
ARC
  5
DC
330
1F
100
AcDbEntity
  8
0
  6
Continuous
 62
     7
370
    25
100
AcDbCircle
 10
6628.5372618252
 20
4853.0271804469
 30
0.0
 40
1.500000000000187
100
AcDbArc
 50
90.0
 51
128.3238976647
  0
ARC
  5
DD
330
1F
100
AcDbEntity
  8
0
  6
Continuous
 62
     7
370
    25
100
AcDbCircle
 10
6511.8908152158
 20
4853.0271804469
 30
0.0
 40
1.500000000000502
100
AcDbArc
 50
51.6761023392
 51
90.0
  0
LINE
  5
DE
330
1F
100
AcDbEntity
  8
0
  6
Continuous
 62
     7
370
    25
100
AcDbLine
 10
6627.5019064862
 20
4898.7039571422
 30
0.0
 11
6512.9261705549
 21
4898.7039571422
 31
0.0
  0
LWPOLYLINE
  5
DF
330
1F
100
AcDbEntity
  8
0
  6
Continuous
 62
     7
370
    25
100
AcDbPolyline
 90
       13
 70
   128
 43
0.0
 10
6629.6140385205
 20
4896.2039571422
 10
6629.4380275177
 20
4896.5302726227
 10
6629.2620165148
 20
4896.8510047549
 10
6629.0860055119
 20
4897.1606657231
 10
6628.9099945091
 20
4897.4539571422
 10
6628.7339835062
 20
4897.7258607147
 10
6628.5579725034
 20
4897.9717240951
 10
6628.3819615005
 20
4898.1873404929
 10
6628.2059504976
 20
4898.3690206516
 10
6628.0299394948
 20
4898.5136559735
 10
6627.8539284919
 20
4898.6187717079
 10
6627.677917489
 20
4898.6825692956
 10
6627.5019064862
 20
4898.7039571422
  0
LWPOLYLINE
  5
E0
330
1F
100
AcDbEntity
  8
0
  6
Continuous
 62
     7
370
    25
100
AcDbPolyline
 90
       13
 70
   128
 43
0.0
 10
6512.9261705549
 20
4898.7039571422
 10
6512.750159552
 20
4898.6825692956
 10
6512.5741485491
 20
4898.6187717079
 10
6512.3981375463
 20
4898.5136559735
 10
6512.2221265434
 20
4898.3690206516
 10
6512.0461155406
 20
4898.1873404929
 10
6511.8701045377
 20
4897.9717240951
 10
6511.6940935348
 20
4897.7258607147
 10
6511.518082532
 20
4897.4539571422
 10
6511.3420715291
 20
4897.1606657231
 10
6511.1660605262
 20
4896.8510047549
 10
6510.9900495234
 20
4896.5302726227
 10
6510.8140385205
 20
4896.2039571422
  0
LWPOLYLINE
  5
E1
330
1F
100
AcDbEntity
  8
0
  6
Continuous
 62
     7
370
    25
100
AcDbPolyline
 90
        3
 70
   128
 43
0.0
 10
6627.2833466006
 20
4853.2039571422
 10
6627.2122029203
 20
4853.2083928676
 10
6627.1901485149
 20
4853.2136133896
  0
LINE
  5
E2
330
1F
100
AcDbEntity
  8
0
  6
Continuous
 62
     7
370
    25
100
AcDbLine
 10
6627.2833466006
 20
4851.7039571422
 30
0.0
 11
6627.2833466006
 21
4853.2039571422
 31
0.0
  0
LINE
  5
E3
330
1F
100
AcDbEntity
  8
0
  6
Continuous
 62
     7
370
    25
100
AcDbLine
 10
6510.8140385205
 20
4896.2039571422
 30
0.0
 11
6510.2140385205
 21
4896.2039571422
 31
0.0
  0
LINE
  5
E4
330
1F
100
AcDbEntity
  8
0
  6
Continuous
 62
     7
370
    25
100
AcDbLine
 10
6512.7140385205
 20
4898.7039571422
 30
0.0
 11
6512.7140385205
 21
4898.6694767353
 31
0.0
  0
ARC
  5
E5
330
1F
100
AcDbEntity
  8
0
  6
Continuous
 62
     7
370
    25
100
AcDbCircle
 10
6512.7140385205
 20
4896.2039571422
 30
0.0
 40
2.500000000000909
100
AcDbArc
 50
90.0
 51
180.0
  0
LINE
  5
E6
330
1F
100
AcDbEntity
  8
0
  6
Continuous
 62
     7
370
    25
100
AcDbLine
 10
6511.7140385205
 20
4854.5271804469
 30
0.0
 11
6511.7140385205
 21
4854.5221105514
 31
0.0
  0
LINE
  5
E7
330
1F
100
AcDbEntity
  8
0
  6
Continuous
 62
     7
370
    25
100
AcDbLine
 10
6510.2140385205
 20
4854.5221105514
 30
0.0
 11
6511.7140385205
 21
4854.5221105514
 31
0.0
  0
LINE
  5
E8
330
1F
100
AcDbEntity
  8
0
  6
Continuous
 62
     7
370
    25
100
AcDbLine
 10
6510.2140385205
 20
4854.5221105514
 30
0.0
 11
6510.2140385205
 21
4896.2039571422
 31
0.0
  0
LINE
  5
E9
330
1F
100
AcDbEntity
  8
0
  6
Continuous
 62
     7
370
    25
100
AcDbLine
 10
6629.6140385205
 20
4896.2039571422
 30
0.0
 11
6630.2140385205
 21
4896.2039571422
 31
0.0
  0
LINE
  5
EA
330
1F
100
AcDbEntity
  8
0
  6
Continuous
 62
     7
370
    25
100
AcDbLine
 10
6630.2140385205
 20
4854.5221105513
 30
0.0
 11
6630.2140385205
 21
4896.2039571422
 31
0.0
  0
LINE
  5
EB
330
1F
100
AcDbEntity
  8
0
  6
Continuous
 62
     7
370
    25
100
AcDbLine
 10
6628.7140385205
 20
4854.5221105513
 30
0.0
 11
6630.2140385205
 21
4854.5221105513
 31
0.0
  0
LINE
  5
EC
330
1F
100
AcDbEntity
  8
0
  6
Continuous
 62
     7
370
    25
100
AcDbLine
 10
6628.7140385205
 20
4854.5271804469
 30
0.0
 11
6628.7140385205
 21
4854.5221105513
 31
0.0
  0
ARC
  5
ED
330
1F
100
AcDbEntity
  8
0
  6
Continuous
 62
     7
370
    25
100
AcDbCircle
 10
6627.7140385205
 20
4896.2039571422
 30
0.0
 40
2.499999999999091
100
AcDbArc
 50
360.0
 51
90.0
  0
LINE
  5
EE
330
1F
100
AcDbEntity
  8
0
  6
Continuous
 62
     7
370
    25
100
AcDbLine
 10
6627.7140385205
 20
4898.7039571422
 30
0.0
 11
6627.7140385205
 21
4898.6694767353
 31
0.0
  0
LINE
  5
EF
330
1F
100
AcDbEntity
  8
0
  6
Continuous
 62
     7
370
    25
100
AcDbLine
 10
6510.2140385205
 20
4854.2039571422
 30
0.0
 11
6511.7140385205
 21
4854.2039571422
 31
0.0
  0
LINE
  5
F0
330
1F
100
AcDbEntity
  8
0
  6
Continuous
 62
     7
370
    25
100
AcDbLine
 10
6511.7140385205
 20
4854.2039571422
 30
0.0
 11
6511.7140385205
 21
4854.5221105514
 31
0.0
  0
LINE
  5
F1
330
1F
100
AcDbEntity
  8
0
  6
Continuous
 62
     7
370
    25
100
AcDbLine
 10
6510.2140385205
 20
4854.2039571422
 30
0.0
 11
6510.2140385205
 21
4854.5221105514
 31
0.0
  0
LINE
  5
F2
330
1F
100
AcDbEntity
  8
0
  6
Continuous
 62
     7
370
    25
100
AcDbLine
 10
6630.2140385205
 20
4854.2039571422
 30
0.0
 11
6628.7140385205
 21
4854.2039571422
 31
0.0
  0
LINE
  5
F3
330
1F
100
AcDbEntity
  8
0
  6
Continuous
 62
     7
370
    25
100
AcDbLine
 10
6630.2140385205
 20
4854.2039571422
 30
0.0
 11
6630.2140385205
 21
4854.5221105513
 31
0.0
  0
LINE
  5
F4
330
1F
100
AcDbEntity
  8
0
  6
Continuous
 62
     7
370
    25
100
AcDbLine
 10
6628.7140385205
 20
4854.2039571422
 30
0.0
 11
6628.7140385205
 21
4854.5221105513
 31
0.0
  0
LINE
  5
F5
330
1F
100
AcDbEntity
  8
0
  6
Continuous
 62
     7
370
    25
100
AcDbLine
 10
6512.7140385205
 20
4853.2039571422
 30
0.0
 11
6513.1447304404
 21
4853.2039571422
 31
0.0
  0
LINE
  5
F6
330
1F
100
AcDbEntity
  8
0
  6
Continuous
 62
     7
370
    25
100
AcDbLine
 10
6512.7140385205
 20
4851.7039571422
 30
0.0
 11
6513.1447304404
 21
4851.7039571422
 31
0.0
  0
LINE
  5
F7
330
1F
100
AcDbEntity
  8
0
  6
Continuous
 62
     7
370
    25
100
AcDbLine
 10
6512.7140385205
 20
4851.7039571422
 30
0.0
 11
6512.7140385205
 21
4853.2039571422
 31
0.0
  0
LINE
  5
F8
330
1F
100
AcDbEntity
  8
0
  6
Continuous
 62
     7
370
    25
100
AcDbLine
 10
6627.7140385205
 20
4851.7039571422
 30
0.0
 11
6627.7140385205
 21
4853.2039571422
 31
0.0
  0
LINE
  5
F9
330
1F
100
AcDbEntity
  8
0
  6
Continuous
 62
     7
370
    25
100
AcDbLine
 10
6627.2833466006
 20
4851.7039571422
 30
0.0
 11
6627.7140385205
 21
4851.7039571422
 31
0.0
  0
LINE
  5
FA
330
1F
100
AcDbEntity
  8
0
  6
Continuous
 62
     7
370
    25
100
AcDbLine
 10
6627.2833466006
 20
4853.2039571422
 30
0.0
 11
6627.7140385205
 21
4853.2039571422
 31
0.0
  0
ARC
  5
FB
330
1F
100
AcDbEntity
  8
0
  6
Continuous
 62
     7
370
    25
100
AcDbCircle
 10
6627.7140385205
 20
4854.2039571422
 30
0.0
 40
1.000000000000909
100
AcDbArc
 50
269.999999999
 51
0.0
  0
ARC
  5
FC
330
1F
100
AcDbEntity
  8
0
  6
Continuous
 62
     7
370
    25
100
AcDbCircle
 10
6627.7140385205
 20
4854.2039571422
 30
0.0
 40
2.499999999999091
100
AcDbArc
 50
269.999999999
 51
0.0
  0
ARC
  5
FD
330
1F
100
AcDbEntity
  8
0
  6
Continuous
 62
     7
370
    25
100
AcDbCircle
 10
6512.7140385205
 20
4854.2039571422
 30
0.0
 40
2.500000000000909
100
AcDbArc
 50
180.0
 51
270.0000000003
  0
ARC
  5
FE
330
1F
100
AcDbEntity
  8
0
  6
Continuous
 62
     7
370
    25
100
AcDbCircle
 10
6512.7140385205
 20
4854.2039571422
 30
0.0
 40
1.000000000000909
100
AcDbArc
 50
180.0
 51
270.0000000003
  0
LINE
  5
FF
330
1F
100
AcDbEntity
  8
0
  6
Continuous
 62
     7
370
    25
100
AcDbLine
 10
6520.4640385205
 20
4953.0539549236
 30
0.0
 11
6520.2140385205
 21
4953.0539549236
 31
0.0
  0
LINE
  5
100
330
1F
100
AcDbEntity
  8
0
  6
Continuous
 62
     7
370
    25
100
AcDbLine
 10
6520.4640385205
 20
4959.2539595012
 30
0.0
 11
6520.2140385205
 21
4959.2539595012
 31
0.0
  0
LINE
  5
101
330
1F
100
AcDbEntity
  8
0
  6
Continuous
 62
     7
370
    25
100
AcDbLine
 10
6520.4640385205
 20
4953.2539595012
 30
0.0
 11
6520.2140385205
 21
4953.2539595012
 31
0.0
  0
LINE
  5
102
330
1F
100
AcDbEntity
  8
0
  6
Continuous
 62
     7
370
    25
100
AcDbLine
 10
6520.4640385205
 20
4959.2539595668
 30
0.0
 11
6520.2140385205
 21
4959.2539595668
 31
0.0
  0
LINE
  5
103
330
1F
100
AcDbEntity
  8
0
  6
Continuous
 62
     7
370
    25
100
AcDbLine
 10
6520.4640385205
 20
4952.5039595012
 30
0.0
 11
6520.2140385205
 21
4952.5039595012
 31
0.0
  0
LINE
  5
104
330
1F
100
AcDbEntity
  8
0
  6
Continuous
 62
     7
370
    25
100
AcDbLine
 10
6520.4640385205
 20
4952.5039595668
 30
0.0
 11
6520.2140385205
 21
4952.5039595668
 31
0.0
  0
LINE
  5
105
330
1F
100
AcDbEntity
  8
0
  6
Continuous
 62
     7
370
    25
100
AcDbLine
 10
6520.4640385205
 20
4965.6039579753
 30
0.0
 11
6520.2140385205
 21
4965.6039579753
 31
0.0
  0
LINE
  5
106
330
1F
100
AcDbEntity
  8
0
  6
Continuous
 62
     7
370
    25
100
AcDbLine
 10
6520.4640385205
 20
4959.6039579753
 30
0.0
 11
6520.2140385205
 21
4959.6039579753
 31
0.0
  0
LINE
  5
107
330
1F
100
AcDbEntity
  8
0
  6
Continuous
 62
     7
370
    25
100
AcDbLine
 10
6520.4640385205
 20
4965.6039580409
 30
0.0
 11
6520.2140385205
 21
4965.6039580409
 31
0.0
  0
LINE
  5
108
330
1F
100
AcDbEntity
  8
0
  6
Continuous
 62
     7
370
    25
100
AcDbLine
 10
6521.0065744156
 20
4987.3439578207
 30
0.0
 11
6520.7019880086
 21
4987.3439578207
 31
0.0
  0
LINE
  5
109
330
1F
100
AcDbEntity
  8
0
  6
Continuous
 62
     7
370
    25
100
AcDbLine
 10
6521.0065677648
 20
4987.3439488686
 30
0.0
 11
6520.7019821642
 21
4987.3439488686
 31
0.0
  0
LINE
  5
10A
330
1F
100
AcDbEntity
  8
0
  6
Continuous
 62
     7
370
    25
100
AcDbLine
 10
6520.4640385205
 20
4966.6439488686
 30
0.0
 11
6520.2140385205
 21
4966.6439488686
 31
0.0
  0
LINE
  5
10B
330
1F
100
AcDbEntity
  8
0
  6
Continuous
 62
     7
370
    25
100
AcDbLine
 10
6520.4030396605
 20
4959.6039579753
 30
0.0
 11
6520.4030396605
 21
4959.2539595668
 31
0.0
  0
LINE
  5
10C
330
1F
100
AcDbEntity
  8
0
  6
Continuous
 62
     7
370
    25
100
AcDbLine
 10
6520.4640385205
 20
4946.2540557501
 30
0.0
 11
6520.2140385205
 21
4946.2540557392
 31
0.0
  0
LINE
  5
10D
330
1F
100
AcDbEntity
  8
0
  6
Continuous
 62
     7
370
    25
100
AcDbLine
 10
6520.4640385205
 20
4951.1540557501
 30
0.0
 11
6520.2140385205
 21
4951.1540557392
 31
0.0
  0
LWPOLYLINE
  5
10E
330
1F
100
AcDbEntity
  8
0
  6
Continuous
 62
     7
370
    25
100
AcDbPolyline
 90
       17
 70
   128
 43
0.0
 10
6627.2833466006
 20
5126.2039571421
 10
6627.2122029204
 20
5126.4391668237
 10
6627.1529785194
 20
5126.6820328055
 10
6627.1056733977
 20
5126.9297936431
 10
6627.0702875553
 20
5127.1791295844
 10
6627.0474224407
 20
5127.4215393508
 10
6627.0375090024
 20
5127.6505057481
 10
6627.0405472404
 20
5127.8631868763
 10
6627.0565371546
 20
5128.0568885142
 10
6627.0850348533
 20
5128.2257510698
 10
6627.1257718237
 20
5128.367240138
 10
6627.1787480659
 20
5128.4820052266
 10
6627.2439635799
 20
5128.5711214699
 10
6627.3200063848
 20
5128.6348864906
 10
6627.4058771183
 20
5128.6757261669
 10
6627.5015757806
 20
5128.6975002661
 10
6627.6071023715
 20
5128.7039571422
  0
LINE
  5
10F
330
1F
100
AcDbEntity
  8
0
  6
Continuous
 62
     7
370
    25
100
AcDbLine
 10
6513.1447304404
 20
5126.2039571422
 30
0.0
 11
6627.2833466006
 21
5126.2039571422
 31
0.0
  0
LWPOLYLINE
  5
110
330
1F
100
AcDbEntity
  8
0
  6
Continuous
 62
     7
370
    25
100
AcDbPolyline
 90
       17
 70
   128
 43
0.0
 10
6512.8209746695
 20
5128.7039571422
 10
6512.9263337643
 20
5128.6975189238
 10
6513.0219765946
 20
5128.6757780847
 10
6513.1079031602
 20
5128.6349471608
 10
6513.1841134612
 20
5128.5711214699
 10
6513.2491867045
 20
5128.4823244655
 10
6513.3021155231
 20
5128.3677580694
 10
6513.3428999171
 20
5128.2262069812
 10
6513.3715398864
 20
5128.0568885142
 10
6513.3875402382
 20
5127.8638029957
 10
6513.3905819554
 20
5127.6514014639
 10
6513.3806650379
 20
5127.4222587805
 10
6513.3577894857
 20
5127.1791295844
 10
6513.3225208165
 20
5126.930128977
 10
6513.2752547525
 20
5126.6824914222
 10
6513.2159912938
 20
5126.439515703
 10
6513.1447304404
 20
5126.2039571421
  0
LINE
  5
111
330
1F
100
AcDbEntity
  8
0
  6
Continuous
 62
     7
370
    25
100
AcDbLine
 10
6512.8209746695
 20
5128.7039571422
 30
0.0
 11
6627.6071023715
 21
5128.7039571422
 31
0.0
  0
LWPOLYLINE
  5
112
330
1F
100
AcDbEntity
  8
0
  6
Continuous
 62
     7
370
    25
100
AcDbPolyline
 90
        6
 70
   128
 43
0.0
 10
6512.8209746695
 20
5127.2039571422
 10
6513.0219765946
 20
5127.1926855192
 10
6513.1841134612
 20
5127.1508228733
 10
6513.2491867045
 20
5127.1153040715
 10
6513.3021155231
 20
5127.0694775131
 10
6513.3356617909
 20
5127.0229056728
  0
LINE
  5
113
330
1F
100
AcDbEntity
  8
0
  6
Continuous
 62
     7
370
    25
100
AcDbLine
 10
6512.8209746695
 20
5128.7039571422
 30
0.0
 11
6512.8209746695
 21
5127.2039571422
 31
0.0
  0
ARC
  5
114
330
1F
100
AcDbEntity
  8
0
  6
Continuous
 62
     7
370
    25
100
AcDbCircle
 10
6523.2140385205
 20
4916.7039571422
 30
0.0
 40
3.0
100
AcDbArc
 50
180.0
 51
270.0
  0
LINE
  5
115
330
1F
100
AcDbEntity
  8
0
  6
Continuous
 62
     7
370
    25
100
AcDbLine
 10
6523.2140385205
 20
4913.7039571422
 30
0.0
 11
6617.2140385205
 21
4913.7039571422
 31
0.0
  0
ARC
  5
116
330
1F
100
AcDbEntity
  8
0
  6
Continuous
 62
     7
370
    25
100
AcDbCircle
 10
6617.2140385205
 20
4916.7039571422
 30
0.0
 40
3.0
100
AcDbArc
 50
270.0
 51
0.0
  0
LINE
  5
117
330
1F
100
AcDbEntity
  8
0
  6
Continuous
 62
     7
370
    25
100
AcDbLine
 10
6620.2140385205
 20
4916.7039571422
 30
0.0
 11
6620.2140385205
 21
4985.7039571422
 31
0.0
  0
ARC
  5
118
330
1F
100
AcDbEntity
  8
0
  6
Continuous
 62
     7
370
    25
100
AcDbCircle
 10
6617.2140385205
 20
4985.7039571422
 30
0.0
 40
3.0
100
AcDbArc
 50
0.0
 51
90.0
  0
LINE
  5
119
330
1F
100
AcDbEntity
  8
0
  6
Continuous
 62
     7
370
    25
100
AcDbLine
 10
6617.2140385205
 20
4988.7039571422
 30
0.0
 11
6523.2140385205
 21
4988.7039571422
 31
0.0
  0
ARC
  5
11A
330
1F
100
AcDbEntity
  8
0
  6
Continuous
 62
     7
370
    25
100
AcDbCircle
 10
6523.2140385205
 20
4985.7039571422
 30
0.0
 40
3.0
100
AcDbArc
 50
90.0
 51
180.0
  0
LINE
  5
11B
330
1F
100
AcDbEntity
  8
0
  6
Continuous
 62
     7
370
    25
100
AcDbLine
 10
6520.2140385205
 20
4985.7039571422
 30
0.0
 11
6520.2140385205
 21
4916.7039571422
 31
0.0
  0
LINE
  5
11C
330
1F
100
AcDbEntity
  8
0
  6
Continuous
 62
     7
370
    25
100
AcDbLine
 10
6590.6982786362
 20
5038.801292172
 30
0.0
 11
6590.6982786362
 21
4999.3967024476
 31
0.0
  0
ELLIPSE
  5
11D
330
1F
100
AcDbEntity
  8
0
  6
Continuous
 62
     7
370
    25
100
AcDbEllipse
 10
6591.6986214287
 20
4999.3971593679
 30
0.0
 11
0.8324947319651982
 21
0.554926033839365
 31
0.0
210
0.0
220
0.0
230
1.0
 40
0.9995051766
 41
2.553877046051479
 42
4.124216522090475
  0
LINE
  5
11E
330
1F
100
AcDbEntity
  8
0
  6
Continuous
 62
     7
370
    25
100
AcDbLine
 10
6591.6981644214
 20
4998.3970070399
 30
0.0
 11
6600.2767081686
 21
4998.3970070399
 31
0.0
  0
ELLIPSE
  5
11F
330
1F
100
AcDbEntity
  8
0
  6
Continuous
 62
     7
370
    25
100
AcDbEllipse
 10
6600.2762511612
 20
4999.3971593679
 30
0.0
 11
-0.8324947319633793
 21
0.5549260338384556
 31
0.0
210
0.0
220
0.0
230
1.0
 40
0.9995051766
 41
2.158968785091567
 42
3.729308261127095
  0
LINE
  5
120
330
1F
100
AcDbEntity
  8
0
  6
Continuous
 62
     7
370
    25
100
AcDbLine
 10
6601.2765939537
 20
4999.3967024476
 30
0.0
 11
6601.2765939537
 21
5038.801292172
 31
0.0
  0
ELLIPSE
  5
121
330
1F
100
AcDbEntity
  8
0
  6
Continuous
 62
     7
370
    25
100
AcDbEllipse
 10
6600.2762511612
 20
5038.8006067044
 30
0.0
 11
-0.707591479943403
 21
-0.707591479943403
 31
0.0
210
0.0
220
0.0
230
1.0
 40
0.999315002
 41
2.356537106530389
 42
3.926648200649211
  0
LINE
  5
122
330
1F
100
AcDbEntity
  8
0
  6
Continuous
 62
     7
370
    25
100
AcDbLine
 10
6600.2769366288
 20
5039.8009494969
 30
0.0
 11
6591.6979359612
 21
5039.8009494969
 31
0.0
  0
ELLIPSE
  5
123
330
1F
100
AcDbEntity
  8
0
  6
Continuous
 62
     7
370
    25
100
AcDbEllipse
 10
6591.6986214287
 20
5038.8006067044
 30
0.0
 11
0.7075914799434031
 21
-0.7075914799424937
 31
0.0
210
0.0
220
0.0
230
1.0
 40
0.999315002
 41
2.356537106530334
 42
3.926648200647982
  0
LINE
  5
124
330
1F
100
AcDbEntity
  8
0
  6
Continuous
 62
     7
370
    25
100
AcDbLine
 10
6591.3382862977
 20
5113.203499438
 30
0.0
 11
6591.3382862977
 21
5081.1698015512
 31
0.0
  0
LINE
  5
125
330
1F
100
AcDbEntity
  8
0
  6
Continuous
 62
     7
370
    25
100
AcDbLine
 10
6591.3382862977
 20
5081.1698015512
 30
0.0
 11
6587.5422900635
 21
5081.1698015512
 31
0.0
  0
LINE
  5
126
330
1F
100
AcDbEntity
  8
0
  6
Continuous
 62
     7
370
    25
100
AcDbLine
 10
6587.5422900635
 20
5081.1698015512
 30
0.0
 11
6587.5422900636
 21
5061.2905205124
 31
0.0
  0
LINE
  5
127
330
1F
100
AcDbEntity
  8
0
  6
Continuous
 62
     7
370
    25
100
AcDbLine
 10
6587.5422900636
 20
5061.2905205124
 30
0.0
 11
6608.898879518
 21
5061.2905205124
 31
0.0
  0
LINE
  5
128
330
1F
100
AcDbEntity
  8
0
  6
Continuous
 62
     7
370
    25
100
AcDbLine
 10
6608.898879518
 20
5061.2905205124
 30
0.0
 11
6608.898879518
 21
5081.1698015513
 31
0.0
  0
LINE
  5
129
330
1F
100
AcDbEntity
  8
0
  6
Continuous
 62
     7
370
    25
100
AcDbLine
 10
6608.898879518
 20
5081.1698015513
 30
0.0
 11
6599.4628147854
 21
5081.1698015513
 31
0.0
  0
LINE
  5
12A
330
1F
100
AcDbEntity
  8
0
  6
Continuous
 62
     7
370
    25
100
AcDbLine
 10
6599.4628147854
 20
5081.1698015513
 30
0.0
 11
6599.4628147854
 21
5113.203499438
 31
0.0
  0
ELLIPSE
  5
12B
330
1F
100
AcDbEntity
  8
0
  6
Continuous
 62
     7
370
    25
100
AcDbEllipse
 10
6598.4626624574
 20
5113.2025847962
 30
0.0
 11
-0.3164782046942491
 21
-0.9502067146549962
 31
0.0
210
0.0
220
0.0
230
1.0
 40
0.9984778551
 41
1.892760065824242
 42
3.462643004114159
  0
LINE
  5
12C
330
1F
100
AcDbEntity
  8
0
  6
Continuous
 62
     7
370
    25
100
AcDbLine
 10
6598.4635759849
 20
5114.2039571422
 30
0.0
 11
6592.3375250982
 21
5114.2039571422
 31
0.0
  0
ELLIPSE
  5
12D
330
1F
100
AcDbEntity
  8
0
  6
Continuous
 62
     7
370
    25
100
AcDbEllipse
 10
6592.3384386258
 20
5113.2025847962
 30
0.0
 11
-0.3164782046951586
 21
0.9502067146549962
 31
0.0
210
0.0
220
0.0
230
1.0
 40
0.9984778551
 41
5.962134956655554
 42
7.532017894944017
  0
ARC
  5
12E
330
1F
100
AcDbEntity
  8
0
  6
Continuous
 62
     7
370
    25
100
AcDbCircle
 10
6511.8908152158
 20
4900.3807338375
 30
0.0
 40
1.500000000000597
100
AcDbArc
 50
33.2857917134
 51
56.7142082845
  0
LINE
  5
12F
330
1F
100
AcDbEntity
  8
0
  6
Continuous
 62
     7
370
    25
100
AcDbLine
 10
6512.7140385205
 20
4901.6346490622
 30
0.0
 11
6512.7140385205
 21
5125.7732652223
 31
0.0
  0
ARC
  5
130
330
1F
100
AcDbEntity
  8
0
  6
Continuous
 62
     7
370
    25
100
AcDbCircle
 10
6511.8908152158
 20
5127.0271804469
 30
0.0
 40
1.50000000000021
100
AcDbArc
 50
303.2857917168
 51
326.7142082851
  0
ARC
  5
131
330
1F
100
AcDbEntity
  8
0
  6
Continuous
 62
     7
370
    25
100
AcDbCircle
 10
6628.5372618253
 20
5127.0271804469
 30
0.0
 40
1.500000000000243
100
AcDbArc
 50
213.2857917139
 51
236.7142082832
  0
LINE
  5
132
330
1F
100
AcDbEntity
  8
0
  6
Continuous
 62
     7
370
    25
100
AcDbLine
 10
6627.7140385205
 20
5125.7732652223
 30
0.0
 11
6627.7140385205
 21
4901.6346490621
 31
0.0
  0
ARC
  5
133
330
1F
100
AcDbEntity
  8
0
  6
Continuous
 62
     7
370
    25
100
AcDbCircle
 10
6628.5372618253
 20
4900.3807338375
 30
0.0
 40
1.499999999999291
100
AcDbArc
 50
123.2857917163
 51
146.7142082864
  0
LINE
  5
134
330
1F
100
AcDbEntity
  8
0
  6
Continuous
 62
     7
370
    25
100
AcDbLine
 10
6627.2833466006
 20
4901.2039571422
 30
0.0
 11
6513.1447304405
 21
4901.2039571422
 31
0.0
  0
ARC
  5
135
330
1F
100
AcDbEntity
  8
0
  6
Continuous
 62
     7
370
    25
100
AcDbCircle
 10
6628.1958922717
 20
4901.417831572
 30
0.0
 40
0.5290664712463458
100
AcDbArc
 50
348.3386695393
 51
50.4105906316
  0
LWPOLYLINE
  5
136
330
1F
100
AcDbEntity
  8
0
  6
Continuous
 62
     7
370
    25
100
AcDbPolyline
 90
       17
 70
   128
 43
0.0
 10
6627.7140385205
 20
4901.6346490621
 10
6627.9492482021
 20
4901.7057927424
 10
6628.1921141839
 20
4901.7650171433
 10
6628.4398750214
 20
4901.812322265
 10
6628.6892109627
 20
4901.8477081075
 10
6628.9316207291
 20
4901.870573222
 10
6629.1605871264
 20
4901.8804866603
 10
6629.3732682546
 20
4901.8774484224
 10
6629.5669698925
 20
4901.8614585081
 10
6629.735832448
 20
4901.8329608095
 10
6629.8773215162
 20
4901.7922238391
 10
6629.9920866048
 20
4901.7392475969
 10
6630.0812028481
 20
4901.6740320829
 10
6630.1449678689
 20
4901.597989278
 10
6630.1858075452
 20
4901.5121185445
 10
6630.2075816443
 20
4901.4164198822
 10
6630.2140385205
 20
4901.3108932913
  0
LINE
  5
137
330
1F
100
AcDbEntity
  8
0
  6
Continuous
 62
     7
370
    25
100
AcDbLine
 10
6630.2140385205
 20
4901.3108932913
 30
0.0
 11
6628.7140385205
 21
4901.3108932913
 31
0.0
  0
ARC
  5
138
330
1F
100
AcDbEntity
  8
0
  6
Continuous
 62
     7
370
    25
100
AcDbCircle
 10
6512.2321847692
 20
5125.9900827124
 30
0.0
 40
0.5290664712006606
100
AcDbArc
 50
168.3386695391
 51
230.4105906354
  0
LWPOLYLINE
  5
139
330
1F
100
AcDbEntity
  8
0
  6
Continuous
 62
     7
370
    25
100
AcDbPolyline
 90
       17
 70
   128
 43
0.0
 10
6512.7140385206
 20
5125.7732652223
 10
6512.478828839
 20
5125.7021215421
 10
6512.2359628572
 20
5125.6428971411
 10
6511.9882020197
 20
5125.5955920194
 10
6511.7388660783
 20
5125.560206177
 10
6511.496456312
 20
5125.5373410624
 10
6511.2674899147
 20
5125.5274276241
 10
6511.0548087864
 20
5125.530465862
 10
6510.8611071485
 20
5125.5464557763
 10
6510.692244593
 20
5125.5749534749
 10
6510.5507555248
 20
5125.6156904453
 10
6510.4359904362
 20
5125.6686666875
 10
6510.3468741929
 20
5125.7338822015
 10
6510.2831091721
 20
5125.8099250064
 10
6510.2422694958
 20
5125.8957957399
 10
6510.2204953967
 20
5125.9914944022
 10
6510.2140385205
 20
5126.0970209931
  0
LINE
  5
13A
330
1F
100
AcDbEntity
  8
0
  6
Continuous
 62
     7
370
    25
100
AcDbLine
 10
6510.2140385205
 20
5126.0970209931
 30
0.0
 11
6511.7140385205
 21
5126.0970209931
 31
0.0
  0
LWPOLYLINE
  5
13B
330
1F
100
AcDbEntity
  8
0
  6
Continuous
 62
     7
370
    25
100
AcDbPolyline
 90
       17
 70
   128
 43
0.0
 10
6513.1447304405
 20
4901.2039571422
 10
6513.2158741207
 20
4900.9687474607
 10
6513.2750985216
 20
4900.7258814788
 10
6513.3224036433
 20
4900.4781206413
 10
6513.3577894858
 20
4900.2287847
 10
6513.3806546003
 20
4899.9863749336
 10
6513.3905680386
 20
4899.7574085363
 10
6513.3875298007
 20
4899.544727408
 10
6513.3715398864
 20
4899.3510257702
 10
6513.3430421878
 20
4899.1821632146
 10
6513.3023052174
 20
4899.0406741465
 10
6513.2493289752
 20
4898.9259090579
 10
6513.1841134612
 20
4898.8367928146
 10
6513.1080706563
 20
4898.7730277938
 10
6513.0221999227
 20
4898.7321881175
 10
6512.9265012605
 20
4898.7104140183
 10
6512.8209746695
 20
4898.7039571422
  0
LWPOLYLINE
  5
13C
330
1F
100
AcDbEntity
  8
0
  6
Continuous
 62
     7
370
    25
100
AcDbPolyline
 90
       17
 70
   128
 43
0.0
 10
6627.6071023715
 20
4898.7039571422
 10
6627.5017432767
 20
4898.7103953606
 10
6627.4061004465
 20
4898.7321361997
 10
6627.3201738809
 20
4898.7729671236
 10
6627.2439635799
 20
4898.8367928146
 10
6627.1788903366
 20
4898.9255898189
 10
6627.1259615179
 20
4899.040156215
 10
6627.0851771239
 20
4899.1817073032
 10
6627.0565371546
 20
4899.3510257702
 10
6627.0405368028
 20
4899.5441112887
 10
6627.0374950856
 20
4899.7565128205
 10
6627.0474120031
 20
4899.9856555039
 10
6627.0702875553
 20
4900.2287847
 10
6627.1055562245
 20
4900.4777853074
 10
6627.1528222885
 20
4900.7254228621
 10
6627.2120857472
 20
4900.9683985814
 10
6627.2833466006
 20
4901.2039571422
  0
LINE
  5
13D
330
1F
100
AcDbEntity
  8
0
  6
Continuous
 62
     7
370
    25
100
AcDbLine
 10
6627.6071023715
 20
4898.7039571422
 30
0.0
 11
6512.8209746695
 21
4898.7039571422
 31
0.0
  0
LWPOLYLINE
  5
13E
330
1F
100
AcDbEntity
  8
0
  6
Continuous
 62
     7
370
    25
100
AcDbPolyline
 90
        6
 70
   128
 43
0.0
 10
6628.7140385205
 20
5126.0970209931
 10
6628.7027668975
 20
5125.8960190681
 10
6628.6609042516
 20
5125.7338822015
 10
6628.6253854498
 20
5125.6688089582
 10
6628.5795588914
 20
5125.6158801395
 10
6628.5329870511
 20
5125.5823338718
  0
LINE
  5
13F
330
1F
100
AcDbEntity
  8
0
  6
Continuous
 62
     7
370
    25
100
AcDbLine
 10
6630.2140385205
 20
5126.0970209931
 30
0.0
 11
6628.7140385205
 21
5126.0970209931
 31
0.0
  0
LWPOLYLINE
  5
140
330
1F
100
AcDbEntity
  8
0
  6
Continuous
 62
     7
370
    25
100
AcDbPolyline
 90
       17
 70
   128
 43
0.0
 10
6630.2140385205
 20
5126.0970209931
 10
6630.2076003021
 20
5125.9916618983
 10
6630.185859463
 20
5125.8960190681
 10
6630.1450285391
 20
5125.8100925025
 10
6630.0812028481
 20
5125.7338822015
 10
6629.9924058438
 20
5125.6688089582
 10
6629.8778394476
 20
5125.6158801395
 10
6629.7362883594
 20
5125.5750957456
 10
6629.5669698925
 20
5125.5464557763
 10
6629.373884374
 20
5125.5304554244
 10
6629.1614828422
 20
5125.5274137073
 10
6628.9323401588
 20
5125.5373306248
 10
6628.6892109627
 20
5125.5602061769
 10
6628.4402103553
 20
5125.5954748462
 10
6628.1925728006
 20
5125.6427409101
 10
6627.9495970813
 20
5125.7020043688
 10
6627.7140385205
 20
5125.7732652223
  0
LWPOLYLINE
  5
141
330
1F
100
AcDbEntity
  8
0
  6
Continuous
 62
     7
370
    25
100
AcDbPolyline
 90
       17
 70
   128
 43
0.0
 10
6510.2140385205
 20
4901.3108932913
 10
6510.2204767389
 20
4901.4162523861
 10
6510.242217578
 20
4901.5118952163
 10
6510.283048502
 20
4901.5978217819
 10
6510.3468741929
 20
4901.6740320829
 10
6510.4356711972
 20
4901.7391053262
 10
6510.5502375934
 20
4901.7920341449
 10
6510.6917886816
 20
4901.8328185389
 10
6510.8611071485
 20
4901.8614585081
 10
6511.054192667
 20
4901.87745886
 10
6511.2665941989
 20
4901.8805005771
 10
6511.4957368822
 20
4901.8705836596
 10
6511.7388660783
 20
4901.8477081075
 10
6511.9878666857
 20
4901.8124394383
 10
6512.2355042405
 20
4901.7651733743
 10
6512.4784799598
 20
4901.7059099156
 10
6512.7140385206
 20
4901.6346490621
  0
LINE
  5
142
330
1F
100
AcDbEntity
  8
0
  6
Continuous
 62
     7
370
    25
100
AcDbLine
 10
6510.2140385205
 20
4901.3108932913
 30
0.0
 11
6510.2140385205
 21
5126.0970209931
 31
0.0
  0
LWPOLYLINE
  5
143
330
1F
100
AcDbEntity
  8
0
  6
Continuous
 62
     7
370
    25
100
AcDbPolyline
 90
        6
 70
   128
 43
0.0
 10
6511.7140385205
 20
4901.3108932913
 10
6511.7253101435
 20
4901.5118952163
 10
6511.7671727894
 20
4901.6740320829
 10
6511.8026915912
 20
4901.7391053262
 10
6511.8485181496
 20
4901.7920341449
 10
6511.8950899899
 20
4901.8255804126
  0
LINE
  5
144
330
1F
100
AcDbEntity
  8
0
  6
Continuous
 62
     7
370
    25
100
AcDbLine
 10
6510.2140385205
 20
4901.3108932913
 30
0.0
 11
6511.7140385205
 21
4901.3108932913
 31
0.0
  0
LWPOLYLINE
  5
145
330
1F
100
AcDbEntity
  8
0
  6
Continuous
 62
     7
370
    25
100
AcDbPolyline
 90
        6
 70
   128
 43
0.0
 10
6627.6071023715
 20
4900.2039571422
 10
6627.4061004465
 20
4900.2152287652
 10
6627.2439635799
 20
4900.2570914111
 10
6627.1788903366
 20
4900.2926102129
 10
6627.1259615179
 20
4900.3384367713
 10
6627.0924152502
 20
4900.3850086116
  0
LINE
  5
146
330
1F
100
AcDbEntity
  8
0
  6
Continuous
 62
     7
370
    25
100
AcDbLine
 10
6627.6071023715
 20
4898.7039571422
 30
0.0
 11
6627.6071023715
 21
4900.2039571422
 31
0.0
  0
LINE
  5
147
330
1F
100
AcDbEntity
  8
0
  6
Continuous
 62
     7
370
    25
100
AcDbLine
 10
6630.2140385205
 20
5126.0970209931
 30
0.0
 11
6630.2140385205
 21
4901.3108932913
 31
0.0
  0
ARC
  5
148
330
1F
100
AcDbEntity
  8
0
  6
Continuous
 62
     7
370
    25
100
AcDbCircle
 10
6512.9279129502
 20
4900.722103391
 30
0.0
 40
0.5290664713274299
100
AcDbArc
 50
258.3386695407
 51
320.4105906341
  0
LINE
  5
149
330
1F
100
AcDbEntity
  8
0
  6
Continuous
 62
     7
370
    25
100
AcDbLine
 10
6512.8209746695
 20
4898.7039571422
 30
0.0
 11
6512.8209746695
 21
4900.2039571422
 31
0.0
  0
ARC
  5
14A
330
1F
100
AcDbEntity
  8
0
  6
Continuous
 62
     7
370
    25
100
AcDbCircle
 10
6627.5001640909
 20
5126.6858108934
 30
0.0
 40
0.5290664713007137
100
AcDbArc
 50
78.3386695402
 51
140.410590636
  0
LINE
  5
14B
330
1F
100
AcDbEntity
  8
0
  6
Continuous
 62
     7
370
    25
100
AcDbLine
 10
6627.6071023715
 20
5128.7039571422
 30
0.0
 11
6627.6071023715
 21
5127.2039571422
 31
0.0
  0
LINE
  5
14C
330
1F
100
AcDbEntity
  8
0
  6
Continuous
 62
     7
370
    25
100
AcDbLine
 10
6511.7140385205
 20
4901.3108932913
 30
0.0
 11
6511.7140385205
 21
4900.5039571422
 31
0.0
  0
LINE
  5
14D
330
1F
100
AcDbEntity
  8
0
  6
Continuous
 62
     7
370
    25
100
AcDbLine
 10
6511.7140385205
 20
4900.5039571422
 30
0.0
 11
6510.2140385205
 21
4900.5039571422
 31
0.0
  0
LINE
  5
14E
330
1F
100
AcDbEntity
  8
0
  6
Continuous
 62
     7
370
    25
100
AcDbLine
 10
6510.2140385205
 20
4901.3108932913
 30
0.0
 11
6510.2140385205
 21
4900.5039571422
 31
0.0
  0
LINE
  5
14F
330
1F
100
AcDbEntity
  8
0
  6
Continuous
 62
     7
370
    25
100
AcDbLine
 10
6511.8908152158
 20
5128.7039571422
 30
0.0
 11
6511.8908152158
 21
5127.2039571422
 31
0.0
  0
LINE
  5
150
330
1F
100
AcDbEntity
  8
0
  6
Continuous
 62
     7
370
    25
100
AcDbLine
 10
6512.8209746695
 20
5128.7039571422
 30
0.0
 11
6511.8908152158
 21
5128.7039571422
 31
0.0
  0
LINE
  5
151
330
1F
100
AcDbEntity
  8
0
  6
Continuous
 62
     7
370
    25
100
AcDbLine
 10
6512.8209746695
 20
5127.2039571422
 30
0.0
 11
6511.8908152158
 21
5127.2039571422
 31
0.0
  0
LINE
  5
152
330
1F
100
AcDbEntity
  8
0
  6
Continuous
 62
     7
370
    25
100
AcDbLine
 10
6628.7140385205
 20
5126.9039571422
 30
0.0
 11
6630.2140385205
 21
5126.9039571422
 31
0.0
  0
LINE
  5
153
330
1F
100
AcDbEntity
  8
0
  6
Continuous
 62
     7
370
    25
100
AcDbLine
 10
6630.2140385205
 20
5126.0970209931
 30
0.0
 11
6630.2140385205
 21
5126.9039571422
 31
0.0
  0
LINE
  5
154
330
1F
100
AcDbEntity
  8
0
  6
Continuous
 62
     7
370
    25
100
AcDbLine
 10
6628.7140385205
 20
5126.0970209931
 30
0.0
 11
6628.7140385205
 21
5126.9039571422
 31
0.0
  0
LINE
  5
155
330
1F
100
AcDbEntity
  8
0
  6
Continuous
 62
     7
370
    25
100
AcDbLine
 10
6510.2140385205
 20
5126.9039571422
 30
0.0
 11
6511.7140385205
 21
5126.9039571422
 31
0.0
  0
LINE
  5
156
330
1F
100
AcDbEntity
  8
0
  6
Continuous
 62
     7
370
    25
100
AcDbLine
 10
6511.7140385205
 20
5126.0970209931
 30
0.0
 11
6511.7140385205
 21
5126.9039571422
 31
0.0
  0
LINE
  5
157
330
1F
100
AcDbEntity
  8
0
  6
Continuous
 62
     7
370
    25
100
AcDbLine
 10
6510.2140385205
 20
5126.0970209931
 30
0.0
 11
6510.2140385205
 21
5126.9039571422
 31
0.0
  0
LINE
  5
158
330
1F
100
AcDbEntity
  8
0
  6
Continuous
 62
     7
370
    25
100
AcDbLine
 10
6628.5372618252
 20
4898.7039571422
 30
0.0
 11
6628.5372618252
 21
4900.2039571422
 31
0.0
  0
LINE
  5
159
330
1F
100
AcDbEntity
  8
0
  6
Continuous
 62
     7
370
    25
100
AcDbLine
 10
6627.6071023715
 20
4898.7039571422
 30
0.0
 11
6628.5372618252
 21
4898.7039571422
 31
0.0
  0
LINE
  5
15A
330
1F
100
AcDbEntity
  8
0
  6
Continuous
 62
     7
370
    25
100
AcDbLine
 10
6627.6071023715
 20
4900.2039571422
 30
0.0
 11
6628.5372618252
 21
4900.2039571422
 31
0.0
  0
LINE
  5
15B
330
1F
100
AcDbEntity
  8
0
  6
Continuous
 62
     7
370
    25
100
AcDbLine
 10
6512.8209746695
 20
4898.7039571422
 30
0.0
 11
6511.8908152158
 21
4898.7039571422
 31
0.0
  0
LINE
  5
15C
330
1F
100
AcDbEntity
  8
0
  6
Continuous
 62
     7
370
    25
100
AcDbLine
 10
6511.8908152158
 20
4898.7039571422
 30
0.0
 11
6511.8908152158
 21
4900.2039571422
 31
0.0
  0
LINE
  5
15D
330
1F
100
AcDbEntity
  8
0
  6
Continuous
 62
     7
370
    25
100
AcDbLine
 10
6512.8209746695
 20
4900.2039571422
 30
0.0
 11
6511.8908152158
 21
4900.2039571422
 31
0.0
  0
LINE
  5
15E
330
1F
100
AcDbEntity
  8
0
  6
Continuous
 62
     7
370
    25
100
AcDbLine
 10
6630.2140385205
 20
4901.3108932913
 30
0.0
 11
6630.2140385205
 21
4900.5039571422
 31
0.0
  0
LINE
  5
15F
330
1F
100
AcDbEntity
  8
0
  6
Continuous
 62
     7
370
    25
100
AcDbLine
 10
6630.2140385205
 20
4900.5039571422
 30
0.0
 11
6628.7140385205
 21
4900.5039571422
 31
0.0
  0
LINE
  5
160
330
1F
100
AcDbEntity
  8
0
  6
Continuous
 62
     7
370
    25
100
AcDbLine
 10
6628.7140385205
 20
4901.3108932913
 30
0.0
 11
6628.7140385205
 21
4900.5039571422
 31
0.0
  0
LINE
  5
161
330
1F
100
AcDbEntity
  8
0
  6
Continuous
 62
     7
370
    25
100
AcDbLine
 10
6628.5372618253
 20
5128.7039571422
 30
0.0
 11
6628.5372618253
 21
5127.2039571422
 31
0.0
  0
LINE
  5
162
330
1F
100
AcDbEntity
  8
0
  6
Continuous
 62
     7
370
    25
100
AcDbLine
 10
6627.6071023715
 20
5128.7039571422
 30
0.0
 11
6628.5372618253
 21
5128.7039571422
 31
0.0
  0
LINE
  5
163
330
1F
100
AcDbEntity
  8
0
  6
Continuous
 62
     7
370
    25
100
AcDbLine
 10
6627.6071023715
 20
5127.2039571422
 30
0.0
 11
6628.5372618253
 21
5127.2039571422
 31
0.0
  0
LINE
  5
164
330
1F
100
AcDbEntity
  8
0
  6
Continuous
 62
     7
370
    25
100
AcDbLine
 10
6510.8140385205
 20
4898.7039571422
 30
0.0
 11
6510.8140385205
 21
4900.2039571422
 31
0.0
  0
LINE
  5
165
330
1F
100
AcDbEntity
  8
0
  6
Continuous
 62
     7
370
    25
100
AcDbLine
 10
6510.8140385205
 20
4898.7039571422
 30
0.0
 11
6511.8908152158
 21
4898.7039571422
 31
0.0
  0
LINE
  5
166
330
1F
100
AcDbEntity
  8
0
  6
Continuous
 62
     7
370
    25
100
AcDbLine
 10
6510.8140385205
 20
4900.2039571422
 30
0.0
 11
6511.8908152158
 21
4900.2039571422
 31
0.0
  0
LINE
  5
167
330
1F
100
AcDbEntity
  8
0
  6
Continuous
 62
     7
370
    25
100
AcDbLine
 10
6629.6140385205
 20
4898.7039571422
 30
0.0
 11
6629.6140385205
 21
4900.2039571422
 31
0.0
  0
LINE
  5
168
330
1F
100
AcDbEntity
  8
0
  6
Continuous
 62
     7
370
    25
100
AcDbLine
 10
6629.6140385205
 20
4898.7039571422
 30
0.0
 11
6628.5372618252
 21
4898.7039571422
 31
0.0
  0
LINE
  5
169
330
1F
100
AcDbEntity
  8
0
  6
Continuous
 62
     7
370
    25
100
AcDbLine
 10
6629.6140385205
 20
4900.2039571422
 30
0.0
 11
6628.5372618252
 21
4900.2039571422
 31
0.0
  0
LINE
  5
16A
330
1F
100
AcDbEntity
  8
0
  6
Continuous
 62
     7
370
    25
100
AcDbLine
 10
6629.6140385205
 20
5128.7039571422
 30
0.0
 11
6629.6140385205
 21
5127.2039571422
 31
0.0
  0
LINE
  5
16B
330
1F
100
AcDbEntity
  8
0
  6
Continuous
 62
     7
370
    25
100
AcDbLine
 10
6629.6140385205
 20
5128.7039571422
 30
0.0
 11
6628.5372618253
 21
5128.7039571422
 31
0.0
  0
LINE
  5
16C
330
1F
100
AcDbEntity
  8
0
  6
Continuous
 62
     7
370
    25
100
AcDbLine
 10
6629.6140385205
 20
5127.2039571422
 30
0.0
 11
6628.5372618253
 21
5127.2039571422
 31
0.0
  0
LINE
  5
16D
330
1F
100
AcDbEntity
  8
0
  6
Continuous
 62
     7
370
    25
100
AcDbLine
 10
6510.8140385205
 20
5128.7039571422
 30
0.0
 11
6510.8140385205
 21
5127.2039571422
 31
0.0
  0
LINE
  5
16E
330
1F
100
AcDbEntity
  8
0
  6
Continuous
 62
     7
370
    25
100
AcDbLine
 10
6510.8140385205
 20
5128.7039571422
 30
0.0
 11
6511.8908152158
 21
5128.7039571422
 31
0.0
  0
LINE
  5
16F
330
1F
100
AcDbEntity
  8
0
  6
Continuous
 62
     7
370
    25
100
AcDbLine
 10
6510.8140385205
 20
5127.2039571422
 30
0.0
 11
6511.8908152158
 21
5127.2039571422
 31
0.0
  0
ARC
  5
170
330
1F
100
AcDbEntity
  8
0
  6
Continuous
 62
     7
370
    25
100
AcDbCircle
 10
6510.316805292
 20
4903.9847302379
 30
0.0
 40
3.813330051928945
100
AcDbArc
 50
277.4923283704
 51
313.1785927829
  0
ARC
  5
171
330
1F
100
AcDbEntity
  8
0
  6
Continuous
 62
     7
370
    25
100
AcDbCircle
 10
6630.111271749
 20
4903.9847302378
 30
0.0
 40
3.813330051847789
100
AcDbArc
 50
226.8214072167
 51
262.5076716295
  0
ARC
  5
172
330
1F
100
AcDbEntity
  8
0
  6
Continuous
 62
     7
370
    25
100
AcDbCircle
 10
6513.2577165714
 20
4899.8158049852
 30
0.0
 40
1.690116953361225
100
AcDbArc
 50
108.7645986453
 51
155.9732915471
  0
ARC
  5
173
330
1F
100
AcDbEntity
  8
0
  6
Continuous
 62
     7
370
    25
100
AcDbCircle
 10
6513.2577165714
 20
5127.5921092992
 30
0.0
 40
1.690116953364828
100
AcDbArc
 50
204.026708453
 51
251.2354013547
  0
ARC
  5
174
330
1F
100
AcDbEntity
  8
0
  6
Continuous
 62
     7
370
    25
100
AcDbCircle
 10
6630.111271749
 20
5123.4231840466
 30
0.0
 40
3.813330051819314
100
AcDbArc
 50
97.4923283704
 51
133.1785927835
  0
ARC
  5
175
330
1F
100
AcDbEntity
  8
0
  6
Continuous
 62
     7
370
    25
100
AcDbCircle
 10
6510.316805292
 20
5123.4231840466
 30
0.0
 40
3.813330051847789
100
AcDbArc
 50
46.8214072166
 51
82.5076716295
  0
ARC
  5
176
330
1F
100
AcDbEntity
  8
0
  6
Continuous
 62
     7
370
    25
100
AcDbCircle
 10
6627.1703604696
 20
5127.5921092992
 30
0.0
 40
1.690116953354019
100
AcDbArc
 50
288.7645986452
 51
335.9732915472
  0
ARC
  5
177
330
1F
100
AcDbEntity
  8
0
  6
Continuous
 62
     7
370
    25
100
AcDbCircle
 10
6627.1703604696
 20
4899.8158049852
 30
0.0
 40
1.690116953359361
100
AcDbArc
 50
24.0267084529
 51
71.2354013547
  0
ARC
  5
178
330
1F
100
AcDbEntity
  8
0
  6
Continuous
 62
     7
370
    25
100
AcDbCircle
 10
6544.1212328172
 20
4933.7039571422
 30
0.0
 40
20.00000000000005
100
AcDbArc
 50
270.0
 51
279.0687215461
  0
ARC
  5
179
330
1F
100
AcDbEntity
  8
0
  6
Continuous
 62
     7
370
    25
100
AcDbCircle
 10
6596.3068442239
 20
4933.7039571422
 30
0.0
 40
20.00000000000009
100
AcDbArc
 50
260.9312784539
 51
270.0
  0
LINE
  5
17A
330
1F
100
AcDbEntity
  8
0
  6
Continuous
 62
     7
370
    25
100
AcDbLine
 10
6512.9261705548
 20
4901.2039571422
 30
0.0
 11
6513.0522247789
 21
4901.3300113663
 31
0.0
  0
LINE
  5
17B
330
1F
100
AcDbEntity
  8
0
  6
Continuous
 62
     7
370
    25
100
AcDbLine
 10
6627.5019064862
 20
4901.2039571422
 30
0.0
 11
6627.3758522621
 21
4901.3300113662
 31
0.0
  0
LINE
  5
17C
330
1F
100
AcDbEntity
  8
0
  6
Continuous
 62
     7
370
    25
100
AcDbLine
 10
6615.2140385205
 20
4988.7039571422
 30
0.0
 11
6615.2140385205
 21
4988.4539571422
 31
0.0
  0
LINE
  5
17D
330
1F
100
AcDbEntity
  8
0
  6
Continuous
 62
     7
370
    25
100
AcDbLine
 10
6627.7140385205
 20
5125.9918251079
 30
0.0
 11
6627.5879842964
 21
5125.8657708838
 31
0.0
  0
LINE
  5
17E
330
1F
100
AcDbEntity
  8
0
  6
Continuous
 62
     7
370
    25
100
AcDbLine
 10
6627.7140385205
 20
4901.4160891765
 30
0.0
 11
6627.5879842964
 21
4901.5421434006
 31
0.0
  0
LINE
  5
17F
330
1F
100
AcDbEntity
  8
0
  6
Continuous
 62
     7
370
    25
100
AcDbLine
 10
6525.2140385205
 20
4988.4539571422
 30
0.0
 11
6525.2140385205
 21
4988.7039571422
 31
0.0
  0
LINE
  5
180
330
1F
100
AcDbEntity
  8
0
  6
Continuous
 62
     7
370
    25
100
AcDbLine
 10
6512.7140385205
 20
4901.4160891765
 30
0.0
 11
6512.8400927446
 21
4901.5421434006
 31
0.0
  0
LINE
  5
181
330
1F
100
AcDbEntity
  8
0
  6
Continuous
 62
     7
370
    25
100
AcDbLine
 10
6512.7140385205
 20
5125.9918251079
 30
0.0
 11
6512.8400927446
 21
5125.8657708838
 31
0.0
  0
LINE
  5
182
330
1F
100
AcDbEntity
  8
0
  6
Continuous
 62
     7
370
    25
100
AcDbLine
 10
6512.9261705548
 20
5126.2039571422
 30
0.0
 11
6513.0522247789
 21
5126.0779029182
 31
0.0
  0
LINE
  5
183
330
1F
100
AcDbEntity
  8
0
  6
Continuous
 62
     7
370
    25
100
AcDbLine
 10
6627.5019064862
 20
5126.2039571422
 30
0.0
 11
6627.3758522621
 21
5126.0779029182
 31
0.0
  0
LINE
  5
184
330
1F
100
AcDbEntity
  8
0
  6
Continuous
 62
     7
370
    25
100
AcDbLine
 10
6592.8315800868
 20
5005.6633903231
 30
0.0
 11
6592.2537629655
 21
5005.6633903231
 31
0.0
  0
ELLIPSE
  5
185
330
1F
100
AcDbEntity
  8
0
  6
Continuous
 62
     7
370
    25
100
AcDbEllipse
 10
6592.9537655413
 20
5005.6633903231
 30
0.0
 11
0.0
 21
7.000000000002728
 31
0.0
210
0.0
220
0.0
230
1.0
 40
0.0174550649
 41
1.570796327061508
 42
3.124139361071375
  0
LINE
  5
186
330
1F
100
AcDbEntity
  8
0
  6
Continuous
 62
     7
370
    25
100
AcDbLine
 10
6592.0993894796
 20
4998.664456457
 30
0.0
 11
6592.951633111
 21
4998.664456457
 31
0.0
  0
ARC
  5
187
330
1F
100
AcDbEntity
  8
0
  6
Continuous
 62
     7
370
    25
100
AcDbCircle
 10
6503.8539453314
 20
5004.1120304341
 30
0.0
 40
88.41342926984838
100
AcDbArc
 50
356.46749563
 51
1.0054008384
  0
LINE
  5
188
330
1F
100
AcDbEntity
  8
0
  6
Continuous
 62
     7
370
    25
100
AcDbLine
 10
6599.7211096235
 20
5005.6633903231
 30
0.0
 11
6599.1432925023
 21
5005.6633903231
 31
0.0
  0
LINE
  5
189
330
1F
100
AcDbEntity
  8
0
  6
Continuous
 62
     7
370
    25
100
AcDbLine
 10
6599.1432925023
 20
5005.829256211
 30
0.0
 11
6599.1432925023
 21
5005.6633903231
 31
0.0
  0
LINE
  5
18A
330
1F
100
AcDbEntity
  8
0
  6
Continuous
 62
     7
370
    25
100
AcDbLine
 10
6592.8315800868
 20
5005.829256211
 30
0.0
 11
6599.1432925023
 21
5005.829256211
 31
0.0
  0
LINE
  5
18B
330
1F
100
AcDbEntity
  8
0
  6
Continuous
 62
     7
370
    25
100
AcDbLine
 10
6592.8315800868
 20
5005.6633903213
 30
0.0
 11
6592.8315800868
 21
5005.829256211
 31
0.0
  0
LINE
  5
18C
330
1F
100
AcDbEntity
  8
0
  6
Continuous
 62
     7
370
    25
100
AcDbLine
 10
6592.2537629655
 20
5005.6633903231
 30
0.0
 11
6592.2537629655
 21
5008.681139687
 31
0.0
  0
LINE
  5
18D
330
1F
100
AcDbEntity
  8
0
  6
Continuous
 62
     7
370
    25
100
AcDbLine
 10
6592.2537629655
 20
5008.681139687
 30
0.0
 11
6599.7211096235
 21
5008.681139687
 31
0.0
  0
LINE
  5
18E
330
1F
100
AcDbEntity
  8
0
  6
Continuous
 62
     7
370
    25
100
AcDbLine
 10
6599.7211096235
 20
5008.681139687
 30
0.0
 11
6599.7211096235
 21
5005.6633903231
 31
0.0
  0
LINE
  5
18F
330
1F
100
AcDbEntity
  8
0
  6
Continuous
 62
     7
370
    25
100
AcDbLine
 10
6591.2541056406
 20
5005.6633903231
 30
0.0
 11
6592.2537629655
 21
5005.6633903231
 31
0.0
  0
LINE
  5
190
330
1F
100
AcDbEntity
  8
0
  6
Continuous
 62
     7
370
    25
100
AcDbLine
 10
6591.2541056406
 20
5008.7663381643
 30
0.0
 11
6591.2541056406
 21
5005.6633903231
 31
0.0
  0
ELLIPSE
  5
191
330
1F
100
AcDbEntity
  8
0
  6
Continuous
 62
     7
370
    25
100
AcDbEllipse
 10
6592.2537629655
 20
5008.7686283505
 30
0.0
 11
1.0
 21
0.0
 31
0.0
210
0.0
220
0.0
230
1.0
 40
0.0874886635
 41
3.167772592374174
 42
4.712388980384691
  0
LINE
  5
192
330
1F
100
AcDbEntity
  8
0
  6
Continuous
 62
     7
370
    25
100
AcDbLine
 10
6599.023239478
 20
4998.664456457
 30
0.0
 11
6599.8754831094
 21
4998.664456457
 31
0.0
  0
ELLIPSE
  5
193
330
1F
100
AcDbEntity
  8
0
  6
Continuous
 62
     7
370
    25
100
AcDbEllipse
 10
6599.0211070478
 20
5005.6633903231
 30
0.0
 11
0.0
 21
7.000000000004547
 31
0.0
210
0.0
220
0.0
230
1.0
 40
0.0174550649
 41
3.159045946116598
 42
4.712388980384819
  0
ARC
  5
194
330
1F
100
AcDbEntity
  8
0
  6
Continuous
 62
     7
370
    25
100
AcDbCircle
 10
6685.4155073568
 20
5004.05235776
 30
0.0
 40
85.70953989367966
100
AcDbArc
 50
178.9229810026
 51
183.604122529
  0
LINE
  5
195
330
1F
100
AcDbEntity
  8
0
  6
Continuous
 62
     7
370
    25
100
AcDbLine
 10
6600.7207669485
 20
5005.6633903231
 30
0.0
 11
6600.7207669485
 21
5008.7663381643
 31
0.0
  0
LINE
  5
196
330
1F
100
AcDbEntity
  8
0
  6
Continuous
 62
     7
370
    25
100
AcDbLine
 10
6599.7211096235
 20
5005.6633903231
 30
0.0
 11
6600.7207669485
 21
5005.6633903231
 31
0.0
  0
ELLIPSE
  5
197
330
1F
100
AcDbEntity
  8
0
  6
Continuous
 62
     7
370
    25
100
AcDbEllipse
 10
6599.7211096235
 20
5008.7686283505
 30
0.0
 11
0.9999999999990905
 21
-9.094947017729282E-13
 31
0.0
210
0.0
220
0.0
230
1.0
 40
0.0874886635
 41
4.71238898038477
 42
6.257005368405933
  0
ELLIPSE
  5
198
330
1F
100
AcDbEntity
  8
0
  6
Continuous
 62
     7
370
    25
100
AcDbEllipse
 10
6600.8778824779
 20
5005.6633903231
 30
0.0
 11
-1.818989403545856E-12
 21
6.0
 31
0.0
210
0.0
220
0.0
230
1.0
 40
0.0261859216
 41
1.570796326794889
 42
3.124139361054628
  0
ARC
  5
199
330
1F
100
AcDbEntity
  8
0
  6
Continuous
 62
     7
370
    25
100
AcDbCircle
 10
6599.8748527381
 20
4999.6647440509
 30
0.0
 40
1.000287792472589
100
AcDbArc
 50
270.0361072279
 51
359.9748029264
  0
ELLIPSE
  5
19A
330
1F
100
AcDbEntity
  8
0
  6
Continuous
 62
     7
370
    25
100
AcDbEllipse
 10
6591.0969901111
 20
5005.6633903231
 30
0.0
 11
-9.094947017729282E-13
 21
5.999999999996362
 31
0.0
210
0.0
220
0.0
230
1.0
 40
0.0261859216
 41
3.159045946102338
 42
4.712388980385141
  0
ARC
  5
19B
330
1F
100
AcDbEntity
  8
0
  6
Continuous
 62
     7
370
    25
100
AcDbCircle
 10
6592.100019851
 20
4999.6647440509
 30
0.0
 40
1.000287792473998
100
AcDbArc
 50
180.0251970738
 51
269.9638927721
  0
LINE
  5
19C
330
1F
100
AcDbEntity
  8
0
  6
Continuous
 62
     7
370
    25
100
AcDbLine
 10
6592.8315800868
 20
5005.829256211
 30
0.0
 11
6593.0177674435
 21
5005.2702399062
 31
0.0
  0
LINE
  5
19D
330
1F
100
AcDbEntity
  8
0
  6
Continuous
 62
     7
370
    25
100
AcDbLine
 10
6593.0177674435
 20
5005.2702399062
 30
0.0
 11
6593.3552320346
 21
5004.2570228325
 31
0.0
  0
LINE
  5
19E
330
1F
100
AcDbEntity
  8
0
  6
Continuous
 62
     7
370
    25
100
AcDbLine
 10
6593.3552320346
 20
5000.2514895894
 30
0.0
 11
6593.3552320346
 21
5004.2570228325
 31
0.0
  0
LINE
  5
19F
330
1F
100
AcDbEntity
  8
0
  6
Continuous
 62
     7
370
    25
100
AcDbLine
 10
6593.0059056277
 20
4999.5526238457
 30
0.0
 11
6593.3552320346
 21
5000.2514895894
 31
0.0
  0
LINE
  5
1A0
330
1F
100
AcDbEntity
  8
0
  6
Continuous
 62
     7
370
    25
100
AcDbLine
 10
6593.0059056277
 20
4999.5526238457
 30
0.0
 11
6593.0059056277
 21
4998.6101839404
 31
0.0
  0
LINE
  5
1A1
330
1F
100
AcDbEntity
  8
0
  6
Continuous
 62
     7
370
    25
100
AcDbLine
 10
6593.0059056277
 20
4998.6101839404
 30
0.0
 11
6592.951633111
 21
4998.664456457
 31
0.0
  0
LINE
  5
1A2
330
1F
100
AcDbEntity
  8
0
  6
Continuous
 62
     7
370
    25
100
AcDbLine
 10
6590.8082595064
 20
5010.2559356305
 30
0.0
 11
6591.2541056406
 21
5008.7663381643
 31
0.0
  0
LINE
  5
1A3
330
1F
100
AcDbEntity
  8
0
  6
Continuous
 62
     7
370
    25
100
AcDbLine
 10
6590.8082595064
 20
5010.2559356305
 30
0.0
 11
6592.8897636315
 21
5010.2559356305
 31
0.0
  0
LINE
  5
1A4
330
1F
100
AcDbEntity
  8
0
  6
Continuous
 62
     7
370
    25
100
AcDbLine
 10
6593.1634960258
 20
5008.883928053
 30
0.0
 11
6592.8897636315
 21
5010.2559356305
 31
0.0
  0
LINE
  5
1A5
330
1F
100
AcDbEntity
  8
0
  6
Continuous
 62
     7
370
    25
100
AcDbLine
 10
6593.1634960258
 20
5008.883928053
 30
0.0
 11
6598.8113765632
 21
5008.883928053
 31
0.0
  0
LINE
  5
1A6
330
1F
100
AcDbEntity
  8
0
  6
Continuous
 62
     7
370
    25
100
AcDbLine
 10
6599.0851089576
 20
5010.2559356305
 30
0.0
 11
6598.8113765632
 21
5008.883928053
 31
0.0
  0
LINE
  5
1A7
330
1F
100
AcDbEntity
  8
0
  6
Continuous
 62
     7
370
    25
100
AcDbLine
 10
6599.0851089576
 20
5010.2559356305
 30
0.0
 11
6601.1666130827
 21
5010.2559356305
 31
0.0
  0
LINE
  5
1A8
330
1F
100
AcDbEntity
  8
0
  6
Continuous
 62
     7
370
    25
100
AcDbLine
 10
6601.1666130827
 20
5010.2559356305
 30
0.0
 11
6600.7207669485
 21
5008.7663381643
 31
0.0
  0
LINE
  5
1A9
330
1F
100
AcDbEntity
  8
0
  6
Continuous
 62
     7
370
    25
100
AcDbLine
 10
6599.023239478
 20
4998.664456457
 30
0.0
 11
6598.9689669614
 21
4998.6101839404
 31
0.0
  0
LINE
  5
1AA
330
1F
100
AcDbEntity
  8
0
  6
Continuous
 62
     7
370
    25
100
AcDbLine
 10
6598.9689669614
 20
4999.5526238457
 30
0.0
 11
6598.9689669614
 21
4998.6101839404
 31
0.0
  0
LINE
  5
1AB
330
1F
100
AcDbEntity
  8
0
  6
Continuous
 62
     7
370
    25
100
AcDbLine
 10
6598.6196405545
 20
5000.2514895894
 30
0.0
 11
6598.9689669614
 21
4999.5526238457
 31
0.0
  0
LINE
  5
1AC
330
1F
100
AcDbEntity
  8
0
  6
Continuous
 62
     7
370
    25
100
AcDbLine
 10
6598.6196405545
 20
5000.2514895894
 30
0.0
 11
6598.6196405545
 21
5004.2570228325
 31
0.0
  0
LINE
  5
1AD
330
1F
100
AcDbEntity
  8
0
  6
Continuous
 62
     7
370
    25
100
AcDbLine
 10
6598.9571051456
 20
5005.2702399062
 30
0.0
 11
6598.6196405545
 21
5004.2570228325
 31
0.0
  0
LINE
  5
1AE
330
1F
100
AcDbEntity
  8
0
  6
Continuous
 62
     7
370
    25
100
AcDbLine
 10
6599.1432925023
 20
5005.829256211
 30
0.0
 11
6598.9571051456
 21
5005.2702399062
 31
0.0
  0
LINE
  5
1AF
330
1F
100
AcDbEntity
  8
0
  6
Continuous
 62
     7
370
    25
100
AcDbLine
 10
6598.8113765632
 20
5005.7077811821
 30
0.0
 11
6598.9571051456
 21
5005.2702399062
 31
0.0
  0
LINE
  5
1B0
330
1F
100
AcDbEntity
  8
0
  6
Continuous
 62
     7
370
    25
100
AcDbLine
 10
6593.1634960258
 20
5005.7077811821
 30
0.0
 11
6598.8113765632
 21
5005.7077811821
 31
0.0
  0
LINE
  5
1B1
330
1F
100
AcDbEntity
  8
0
  6
Continuous
 62
     7
370
    25
100
AcDbLine
 10
6593.0177674435
 20
5005.2702399062
 30
0.0
 11
6593.1634960258
 21
5005.7077811821
 31
0.0
  0
LINE
  5
1B2
330
1F
100
AcDbEntity
  8
0
  6
Continuous
 62
     7
370
    25
100
AcDbLine
 10
6601.2189849258
 20
5038.1148639175
 30
0.0
 11
6601.2765939533
 21
5038.2301610319
 31
0.0
  0
LINE
  5
1B3
330
1F
100
AcDbEntity
  8
0
  6
Continuous
 62
     7
370
    25
100
AcDbLine
 10
6601.2189849258
 20
5037.1454581463
 30
0.0
 11
6601.2189849258
 21
5038.1148639175
 31
0.0
  0
LINE
  5
1B4
330
1F
100
AcDbEntity
  8
0
  6
Continuous
 62
     7
370
    25
100
AcDbLine
 10
6601.2765939533
 20
5037.0301610319
 30
0.0
 11
6601.2189849258
 21
5037.1454581463
 31
0.0
  0
LINE
  5
1B5
330
1F
100
AcDbEntity
  8
0
  6
Continuous
 62
     7
370
    25
100
AcDbLine
 10
6601.2189849258
 20
5005.7148639175
 30
0.0
 11
6601.2765939533
 21
5005.8301610319
 31
0.0
  0
LINE
  5
1B6
330
1F
100
AcDbEntity
  8
0
  6
Continuous
 62
     7
370
    25
100
AcDbLine
 10
6601.2189849258
 20
5004.7454581463
 30
0.0
 11
6601.2189849258
 21
5005.7148639175
 31
0.0
  0
LINE
  5
1B7
330
1F
100
AcDbEntity
  8
0
  6
Continuous
 62
     7
370
    25
100
AcDbLine
 10
6601.2765939533
 20
5004.6301610319
 30
0.0
 11
6601.2189849258
 21
5004.7454581463
 31
0.0
  0
LINE
  5
1B8
330
1F
100
AcDbEntity
  8
0
  6
Continuous
 62
     7
370
    25
100
AcDbLine
 10
6601.2765939533
 20
4999.3967024476
 30
0.0
 11
6600.8751404338
 21
4999.6643041522
 31
0.0
  0
LINE
  5
1B9
330
1F
100
AcDbEntity
  8
0
  6
Continuous
 62
     7
370
    25
100
AcDbLine
 10
6601.1666130827
 20
5010.2559356305
 30
0.0
 11
6601.1666130827
 21
5038.6913113014
 31
0.0
  0
LINE
  5
1BA
330
1F
100
AcDbEntity
  8
0
  6
Continuous
 62
     7
370
    25
100
AcDbLine
 10
6601.1666130827
 20
5038.6913113014
 30
0.0
 11
6601.2765939533
 21
5038.801292172
 31
0.0
  0
LINE
  5
1BB
330
1F
100
AcDbEntity
  8
0
  6
Continuous
 62
     7
370
    25
100
AcDbLine
 10
6590.8082595064
 20
5038.6913113014
 30
0.0
 11
6590.8082595064
 21
5010.2559356305
 31
0.0
  0
LINE
  5
1BC
330
1F
100
AcDbEntity
  8
0
  6
Continuous
 62
     7
370
    25
100
AcDbLine
 10
6591.0997321552
 20
4999.6643041522
 30
0.0
 11
6590.6982786358
 21
4999.3967024476
 31
0.0
  0
LINE
  5
1BD
330
1F
100
AcDbEntity
  8
0
  6
Continuous
 62
     7
370
    25
100
AcDbLine
 10
6590.7558876632
 20
5004.7454581463
 30
0.0
 11
6590.6982786358
 21
5004.6301610319
 31
0.0
  0
LINE
  5
1BE
330
1F
100
AcDbEntity
  8
0
  6
Continuous
 62
     7
370
    25
100
AcDbLine
 10
6590.7558876632
 20
5005.7148639175
 30
0.0
 11
6590.7558876632
 21
5004.7454581463
 31
0.0
  0
LINE
  5
1BF
330
1F
100
AcDbEntity
  8
0
  6
Continuous
 62
     7
370
    25
100
AcDbLine
 10
6590.6982786358
 20
5005.8301610319
 30
0.0
 11
6590.7558876632
 21
5005.7148639175
 31
0.0
  0
LINE
  5
1C0
330
1F
100
AcDbEntity
  8
0
  6
Continuous
 62
     7
370
    25
100
AcDbLine
 10
6590.6982786358
 20
5038.801292172
 30
0.0
 11
6590.8082595064
 21
5038.6913113014
 31
0.0
  0
LINE
  5
1C1
330
1F
100
AcDbEntity
  8
0
  6
Continuous
 62
     7
370
    25
100
AcDbLine
 10
6599.8754831089
 20
4998.664456457
 30
0.0
 11
6600.2767081681
 21
4998.3970070399
 31
0.0
  0
LINE
  5
1C2
330
1F
100
AcDbEntity
  8
0
  6
Continuous
 62
     7
370
    25
100
AcDbLine
 10
6591.6981644209
 20
4998.3970070399
 30
0.0
 11
6592.0993894802
 21
4998.664456457
 31
0.0
  0
LINE
  5
1C3
330
1F
100
AcDbEntity
  8
0
  6
Continuous
 62
     7
370
    25
100
AcDbLine
 10
6598.9689669614
 20
4998.6101839404
 30
0.0
 11
6593.0059056277
 21
4998.6101839404
 31
0.0
  0
LINE
  5
1C4
330
1F
100
AcDbEntity
  8
0
  6
Continuous
 62
     7
370
    25
100
AcDbLine
 10
6593.0059056277
 20
4999.5526238457
 30
0.0
 11
6598.9689669614
 21
4999.5526238457
 31
0.0
  0
LINE
  5
1C5
330
1F
100
AcDbEntity
  8
0
  6
Continuous
 62
     7
370
    25
100
AcDbLine
 10
6593.3552320346
 20
5000.2514895894
 30
0.0
 11
6598.6196405545
 21
5000.2514895894
 31
0.0
  0
LINE
  5
1C6
330
1F
100
AcDbEntity
  8
0
  6
Continuous
 62
     7
370
    25
100
AcDbLine
 10
6606.7458749513
 20
5079.5940831002
 30
0.0
 11
6606.6236835712
 21
5079.471891173
 31
0.0
  0
ARC
  5
1C7
330
1F
100
AcDbEntity
  8
0
  6
Continuous
 62
     7
370
    25
100
AcDbCircle
 10
6606.7458825574
 20
5078.9941130067
 30
0.0
 40
0.5999700934662636
100
AcDbArc
 50
359.9992736378
 51
90.0007263622
  0
LINE
  5
1C8
330
1F
100
AcDbEntity
  8
0
  6
Continuous
 62
     7
370
    25
100
AcDbLine
 10
6607.2236607237
 20
5078.8719140205
 30
0.0
 11
6607.3458526508
 21
5078.9941054007
 31
0.0
  0
ARC
  5
1C9
330
1F
100
AcDbEntity
  8
0
  6
Continuous
 62
     7
370
    25
100
AcDbCircle
 10
6606.6236719814
 20
5078.8719024307
 30
0.0
 40
0.5999887424023452
100
AcDbArc
 50
0.0011067665
 51
89.9988932333
  0
LINE
  5
1CA
330
1F
100
AcDbEntity
  8
0
  6
Continuous
 62
     7
370
    25
100
AcDbLine
 10
6607.3458526508
 20
5063.4662166631
 30
0.0
 11
6607.2236607237
 21
5063.5884080432
 31
0.0
  0
ARC
  5
1CB
330
1F
100
AcDbEntity
  8
0
  6
Continuous
 62
     7
370
    25
100
AcDbCircle
 10
6606.7458825574
 20
5063.466209057
 30
0.0
 40
0.5999700934671731
100
AcDbArc
 50
269.9992736377
 51
0.0007263622
  0
LINE
  5
1CC
330
1F
100
AcDbEntity
  8
0
  6
Continuous
 62
     7
370
    25
100
AcDbLine
 10
6606.6236835712
 20
5062.9884308907
 30
0.0
 11
6606.7458749513
 21
5062.8662389636
 31
0.0
  0
ARC
  5
1CD
330
1F
100
AcDbEntity
  8
0
  6
Continuous
 62
     7
370
    25
100
AcDbCircle
 10
6606.6236719814
 20
5063.588419633
 30
0.0
 40
0.5999887424050738
100
AcDbArc
 50
270.0011067669
 51
359.9988932331
  0
LINE
  5
1CE
330
1F
100
AcDbEntity
  8
0
  6
Continuous
 62
     7
370
    25
100
AcDbLine
 10
6589.1180085143
 20
5078.9941054007
 30
0.0
 11
6589.2402004414
 21
5078.8719140205
 31
0.0
  0
ARC
  5
1CF
330
1F
100
AcDbEntity
  8
0
  6
Continuous
 62
     7
370
    25
100
AcDbCircle
 10
6589.7179786077
 20
5078.9941130067
 30
0.0
 40
0.5999700934653541
100
AcDbArc
 50
89.9992736378
 51
180.0007263622
  0
LINE
  5
1D0
330
1F
100
AcDbEntity
  8
0
  6
Continuous
 62
     7
370
    25
100
AcDbLine
 10
6589.8401775939
 20
5079.471891173
 30
0.0
 11
6589.7179862137
 21
5079.5940831002
 31
0.0
  0
ARC
  5
1D1
330
1F
100
AcDbEntity
  8
0
  6
Continuous
 62
     7
370
    25
100
AcDbCircle
 10
6589.8401891837
 20
5078.8719024307
 30
0.0
 40
0.5999887424023452
100
AcDbArc
 50
90.0011067665
 51
179.9988932335
  0
LINE
  5
1D2
330
1F
100
AcDbEntity
  8
0
  6
Continuous
 62
     7
370
    25
100
AcDbLine
 10
6589.7179862137
 20
5062.8662389636
 30
0.0
 11
6589.8401775939
 21
5062.9884308907
 31
0.0
  0
ARC
  5
1D3
330
1F
100
AcDbEntity
  8
0
  6
Continuous
 62
     7
370
    25
100
AcDbCircle
 10
6589.7179786077
 20
5063.466209057
 30
0.0
 40
0.5999700934671731
100
AcDbArc
 50
179.9992736378
 51
270.0007263623
  0
LINE
  5
1D4
330
1F
100
AcDbEntity
  8
0
  6
Continuous
 62
     7
370
    25
100
AcDbLine
 10
6589.2402004414
 20
5063.5884080432
 30
0.0
 11
6589.1180085143
 21
5063.4662166631
 31
0.0
  0
ARC
  5
1D5
330
1F
100
AcDbEntity
  8
0
  6
Continuous
 62
     7
370
    25
100
AcDbCircle
 10
6589.8401891837
 20
5063.588419633
 30
0.0
 40
0.5999887424041642
100
AcDbArc
 50
180.0011067668
 51
269.9988932333
  0
LINE
  5
1D6
330
1F
100
AcDbEntity
  8
0
  6
Continuous
 62
     7
370
    25
100
AcDbLine
 10
6607.3458526508
 20
5063.4662166631
 30
0.0
 11
6607.3458526508
 21
5078.9941054007
 31
0.0
  0
LINE
  5
1D7
330
1F
100
AcDbEntity
  8
0
  6
Continuous
 62
     7
370
    25
100
AcDbLine
 10
6607.2236607237
 20
5063.5884080432
 30
0.0
 11
6607.2236607237
 21
5078.8719140205
 31
0.0
  0
LINE
  5
1D8
330
1F
100
AcDbEntity
  8
0
  6
Continuous
 62
     7
370
    25
100
AcDbLine
 10
6587.6819305825
 20
5061.9215096634
 30
0.0
 11
6587.6819305825
 21
5080.5388124003
 31
0.0
  0
LINE
  5
1D9
330
1F
100
AcDbEntity
  8
0
  6
Continuous
 62
     7
370
    25
100
AcDbLine
 10
6587.6819305825
 20
5080.5388124003
 30
0.0
 11
6608.7819305825
 21
5080.5388124003
 31
0.0
  0
LINE
  5
1DA
330
1F
100
AcDbEntity
  8
0
  6
Continuous
 62
     7
370
    25
100
AcDbLine
 10
6608.7819305825
 20
5080.5388124003
 30
0.0
 11
6608.7819305825
 21
5061.9215096634
 31
0.0
  0
LINE
  5
1DB
330
1F
100
AcDbEntity
  8
0
  6
Continuous
 62
     7
370
    25
100
AcDbLine
 10
6608.7819305825
 20
5061.9215096634
 30
0.0
 11
6587.6819305825
 21
5061.9215096634
 31
0.0
  0
LINE
  5
1DC
330
1F
100
AcDbEntity
  8
0
  6
Continuous
 62
     7
370
    25
100
AcDbLine
 10
6589.7179862137
 20
5062.8662389636
 30
0.0
 11
6606.7458749513
 21
5062.8662389636
 31
0.0
  0
LINE
  5
1DD
330
1F
100
AcDbEntity
  8
0
  6
Continuous
 62
     7
370
    25
100
AcDbLine
 10
6606.7458749513
 20
5079.5940831002
 30
0.0
 11
6589.7179862137
 21
5079.5940831002
 31
0.0
  0
LINE
  5
1DE
330
1F
100
AcDbEntity
  8
0
  6
Continuous
 62
     7
370
    25
100
AcDbLine
 10
6589.1180085143
 20
5078.9941054007
 30
0.0
 11
6589.1180085143
 21
5063.4662166631
 31
0.0
  0
LINE
  5
1DF
330
1F
100
AcDbEntity
  8
0
  6
Continuous
 62
     7
370
    25
100
AcDbLine
 10
6589.8401775939
 20
5062.9884308907
 30
0.0
 11
6592.7597146636
 21
5062.9884308894
 31
0.0
  0
LINE
  5
1E0
330
1F
100
AcDbEntity
  8
0
  6
Continuous
 62
     7
370
    25
100
AcDbLine
 10
6592.8819305825
 20
5062.9273275838
 30
0.0
 11
6592.7597146636
 21
5062.9884308894
 31
0.0
  0
LINE
  5
1E1
330
1F
100
AcDbEntity
  8
0
  6
Continuous
 62
     7
370
    25
100
AcDbLine
 10
6598.4819305825
 20
5062.9273275838
 30
0.0
 11
6592.8819305825
 21
5062.9273275838
 31
0.0
  0
LINE
  5
1E2
330
1F
100
AcDbEntity
  8
0
  6
Continuous
 62
     7
370
    25
100
AcDbLine
 10
6598.6041465015
 20
5062.9884308894
 30
0.0
 11
6598.4819305825
 21
5062.9273275838
 31
0.0
  0
LINE
  5
1E3
330
1F
100
AcDbEntity
  8
0
  6
Continuous
 62
     7
370
    25
100
AcDbLine
 10
6598.6041465015
 20
5062.9884308894
 30
0.0
 11
6606.6236835712
 21
5062.9884308907
 31
0.0
  0
LINE
  5
1E4
330
1F
100
AcDbEntity
  8
0
  6
Continuous
 62
     7
370
    25
100
AcDbLine
 10
6589.2402004414
 20
5078.8719140205
 30
0.0
 11
6589.2402004414
 21
5063.5884080432
 31
0.0
  0
LINE
  5
1E5
330
1F
100
AcDbEntity
  8
0
  6
Continuous
 62
     7
370
    25
100
AcDbLine
 10
6606.4319305825
 20
5079.53299448
 30
0.0
 11
6606.5541465015
 21
5079.4718911744
 31
0.0
  0
LINE
  5
1E6
330
1F
100
AcDbEntity
  8
0
  6
Continuous
 62
     7
370
    25
100
AcDbLine
 10
6600.8319305825
 20
5079.53299448
 30
0.0
 11
6606.4319305825
 21
5079.53299448
 31
0.0
  0
LINE
  5
1E7
330
1F
100
AcDbEntity
  8
0
  6
Continuous
 62
     7
370
    25
100
AcDbLine
 10
6600.7097146636
 20
5079.4718911744
 30
0.0
 11
6600.8319305825
 21
5079.53299448
 31
0.0
  0
LINE
  5
1E8
330
1F
100
AcDbEntity
  8
0
  6
Continuous
 62
     7
370
    25
100
AcDbLine
 10
6600.7097146636
 20
5079.4718911744
 30
0.0
 11
6589.8401775939
 21
5079.471891173
 31
0.0
  0
LINE
  5
1E9
330
1F
100
AcDbEntity
  8
0
  6
Continuous
 62
     7
370
    25
100
AcDbLine
 10
6606.6236835712
 20
5079.471891173
 30
0.0
 11
6606.5541465015
 21
5079.4718911744
 31
0.0
  0
ELLIPSE
  5
1EA
330
1F
100
AcDbEntity
  8
0
  6
Continuous
 62
     7
370
    25
100
AcDbEllipse
 10
6608.790658115
 20
5080.5388124003
 30
0.0
 11
0.0
 21
0.4999999999990905
 31
0.0
210
0.0
220
0.0
230
1.0
 40
0.0174550649
 41
0.0174532926246398
 42
1.570796326794897
  0
LINE
  5
1EB
330
1F
100
AcDbEntity
  8
0
  6
Continuous
 62
     7
370
    25
100
AcDbLine
 10
6608.898879518
 20
5081.1471099673
 30
0.0
 11
6608.7905057986
 21
5081.0387362479
 31
0.0
  0
LINE
  5
1EC
330
1F
100
AcDbEntity
  8
0
  6
Continuous
 62
     7
370
    25
100
AcDbLine
 10
6608.898879518
 20
5061.3132120964
 30
0.0
 11
6608.7905057986
 21
5061.4215858159
 31
0.0
  0
ELLIPSE
  5
1ED
330
1F
100
AcDbEntity
  8
0
  6
Continuous
 62
     7
370
    25
100
AcDbEllipse
 10
6608.790658115
 20
5061.9215096634
 30
0.0
 11
0.0
 21
0.4999999999990905
 31
0.0
210
0.0
220
0.0
230
1.0
 40
0.0174550649
 41
1.570796326794897
 42
3.124139360965182
  0
ELLIPSE
  5
1EE
330
1F
100
AcDbEntity
  8
0
  6
Continuous
 62
     7
370
    25
100
AcDbEllipse
 10
6587.6732030501
 20
5080.5388124003
 30
0.0
 11
0.0
 21
0.5000000000009095
 31
0.0
210
0.0
220
0.0
230
1.0
 40
0.0174550649
 41
4.71238898038469
 42
6.265732014661689
  0
LINE
  5
1EF
330
1F
100
AcDbEntity
  8
0
  6
Continuous
 62
     7
370
    25
100
AcDbLine
 10
6608.7905057986
 20
5081.0387362479
 30
0.0
 11
6587.6733553665
 21
5081.0387362479
 31
0.0
  0
LINE
  5
1F0
330
1F
100
AcDbEntity
  8
0
  6
Continuous
 62
     7
370
    25
100
AcDbLine
 10
6587.5422900631
 20
5061.2905205125
 30
0.0
 11
6587.6733553665
 21
5061.4215858159
 31
0.0
  0
LINE
  5
1F1
330
1F
100
AcDbEntity
  8
0
  6
Continuous
 62
     7
370
    25
100
AcDbLine
 10
6587.5649816475
 20
5066.9301610319
 30
0.0
 11
6587.5422900631
 21
5066.9074694475
 31
0.0
  0
LINE
  5
1F2
330
1F
100
AcDbEntity
  8
0
  6
Continuous
 62
     7
370
    25
100
AcDbLine
 10
6587.5649816475
 20
5075.5301610319
 30
0.0
 11
6587.5649816475
 21
5066.9301610319
 31
0.0
  0
LINE
  5
1F3
330
1F
100
AcDbEntity
  8
0
  6
Continuous
 62
     7
370
    25
100
AcDbLine
 10
6587.5422900631
 20
5075.5528526163
 30
0.0
 11
6587.5649816475
 21
5075.5301610319
 31
0.0
  0
LINE
  5
1F4
330
1F
100
AcDbEntity
  8
0
  6
Continuous
 62
     7
370
    25
100
AcDbLine
 10
6587.5422900631
 20
5081.1698015513
 30
0.0
 11
6587.6733553665
 21
5081.0387362479
 31
0.0
  0
ELLIPSE
  5
1F5
330
1F
100
AcDbEntity
  8
0
  6
Continuous
 62
     7
370
    25
100
AcDbEllipse
 10
6587.6732030501
 20
5061.9215096634
 30
0.0
 11
0.0
 21
0.4999999999990905
 31
0.0
210
0.0
220
0.0
230
1.0
 40
0.0174550649
 41
3.159045946109233
 42
4.71238898038469
  0
LINE
  5
1F6
330
1F
100
AcDbEntity
  8
0
  6
Continuous
 62
     7
370
    25
100
AcDbLine
 10
6587.6733553665
 20
5061.4215858159
 30
0.0
 11
6608.7905057986
 21
5061.4215858159
 31
0.0
  0
LINE
  5
1F7
330
1F
100
AcDbEntity
  8
0
  6
Continuous
 62
     7
370
    25
100
AcDbLine
 10
6598.4819305825
 20
5061.3079755774
 30
0.0
 11
6598.4993856475
 21
5061.2905205125
 31
0.0
  0
LINE
  5
1F8
330
1F
100
AcDbEntity
  8
0
  6
Continuous
 62
     7
370
    25
100
AcDbLine
 10
6592.8819305825
 20
5061.3079755774
 30
0.0
 11
6598.4819305825
 21
5061.3079755774
 31
0.0
  0
LINE
  5
1F9
330
1F
100
AcDbEntity
  8
0
  6
Continuous
 62
     7
370
    25
100
AcDbLine
 10
6592.8644755176
 20
5061.2905205125
 30
0.0
 11
6592.8819305825
 21
5061.3079755774
 31
0.0
  0
LINE
  5
1FA
330
1F
100
AcDbEntity
  8
0
  6
Continuous
 62
     7
370
    25
100
AcDbLine
 10
6602.5666334681
 20
5061.3289216553
 30
0.0
 11
6602.6819305825
 21
5061.2905205125
 31
0.0
  0
LINE
  5
1FB
330
1F
100
AcDbEntity
  8
0
  6
Continuous
 62
     7
370
    25
100
AcDbLine
 10
6601.597227697
 20
5061.3289216553
 30
0.0
 11
6602.5666334681
 21
5061.3289216553
 31
0.0
  0
LINE
  5
1FC
330
1F
100
AcDbEntity
  8
0
  6
Continuous
 62
     7
370
    25
100
AcDbLine
 10
6601.4819305825
 20
5061.2905205125
 30
0.0
 11
6601.597227697
 21
5061.3289216553
 31
0.0
  0
LINE
  5
1FD
330
1F
100
AcDbEntity
  8
0
  6
Continuous
 62
     7
370
    25
100
AcDbLine
 10
6591.3382862973
 20
5081.1698015513
 30
0.0
 11
6591.41159757
 21
5081.0964902786
 31
0.0
  0
LINE
  5
1FE
330
1F
100
AcDbEntity
  8
0
  6
Continuous
 62
     7
370
    25
100
AcDbLine
 10
6591.41159757
 20
5081.0964902786
 30
0.0
 11
6599.3895035123
 21
5081.0964902786
 31
0.0
  0
LINE
  5
1FF
330
1F
100
AcDbEntity
  8
0
  6
Continuous
 62
     7
370
    25
100
AcDbLine
 10
6599.3895035123
 20
5081.0964902786
 30
0.0
 11
6599.462814785
 21
5081.1698015513
 31
0.0
  0
LINE
  5
200
330
1F
100
AcDbEntity
  8
0
  6
Continuous
 62
     7
370
    25
100
AcDbLine
 10
6600.8319305825
 20
5081.1523464864
 30
0.0
 11
6600.8144755176
 21
5081.1698015513
 31
0.0
  0
LINE
  5
201
330
1F
100
AcDbEntity
  8
0
  6
Continuous
 62
     7
370
    25
100
AcDbLine
 10
6606.4319305825
 20
5081.1523464864
 30
0.0
 11
6600.8319305825
 21
5081.1523464864
 31
0.0
  0
LINE
  5
202
330
1F
100
AcDbEntity
  8
0
  6
Continuous
 62
     7
370
    25
100
AcDbLine
 10
6606.4493856475
 20
5081.1698015513
 30
0.0
 11
6606.4319305825
 21
5081.1523464864
 31
0.0
  0
LINE
  5
203
330
1F
100
AcDbEntity
  8
0
  6
Continuous
 62
     7
370
    25
100
AcDbLine
 10
6593.182705905
 20
5010.2559356305
 30
0.0
 11
6593.182705905
 21
5037.1898428082
 31
0.0
  0
LINE
  5
204
330
1F
100
AcDbEntity
  8
0
  6
Continuous
 62
     7
370
    25
100
AcDbLine
 10
6593.182705905
 20
5037.1898428082
 30
0.0
 11
6593.3921666841
 21
5036.9803820291
 31
0.0
  0
LINE
  5
205
330
1F
100
AcDbEntity
  8
0
  6
Continuous
 62
     7
370
    25
100
AcDbLine
 10
6593.3921666841
 20
5036.9803820291
 30
0.0
 11
6593.3921666841
 21
5011.3057995928
 31
0.0
  0
LINE
  5
206
330
1F
100
AcDbEntity
  8
0
  6
Continuous
 62
     7
370
    25
100
AcDbLine
 10
6593.3921666841
 20
5011.3057995928
 30
0.0
 11
6593.182705905
 21
5010.2559356305
 31
0.0
  0
LINE
  5
207
330
1F
100
AcDbEntity
  8
0
  6
Continuous
 62
     7
370
    25
100
AcDbLine
 10
6599.0851089576
 20
5010.2559356305
 30
0.0
 11
6598.7921666841
 21
5010.2559356305
 31
0.0
  0
LINE
  5
208
330
1F
100
AcDbEntity
  8
0
  6
Continuous
 62
     7
370
    25
100
AcDbLine
 10
6598.7921666841
 20
5010.2559356305
 30
0.0
 11
6598.7921666841
 21
5037.1898428082
 31
0.0
  0
LINE
  5
209
330
1F
100
AcDbEntity
  8
0
  6
Continuous
 62
     7
370
    25
100
AcDbLine
 10
6593.182705905
 20
5037.1898428082
 30
0.0
 11
6598.7921666841
 21
5037.1898428082
 31
0.0
  0
LINE
  5
20A
330
1F
100
AcDbEntity
  8
0
  6
Continuous
 62
     7
370
    25
100
AcDbLine
 10
6592.8897636315
 20
5010.2559356305
 30
0.0
 11
6593.182705905
 21
5010.2559356305
 31
0.0
  0
ELLIPSE
  5
20B
330
1F
100
AcDbEntity
  8
0
  6
Continuous
 62
     7
370
    25
100
AcDbEllipse
 10
6591.8086022989
 20
5038.6906258339
 30
0.0
 11
-0.7075914799743259
 21
0.7075914799115709
 31
0.0
210
0.0
220
0.0
230
1.0
 40
0.999315002
 41
5.49812976007644
 42
7.068240854195877
  0
LINE
  5
20C
330
1F
100
AcDbEntity
  8
0
  6
Continuous
 62
     7
370
    25
100
AcDbLine
 10
6600.1669557577
 20
5039.6909686264
 30
0.0
 11
6591.8079168313
 21
5039.6909686264
 31
0.0
  0
ELLIPSE
  5
20D
330
1F
100
AcDbEntity
  8
0
  6
Continuous
 62
     7
370
    25
100
AcDbEllipse
 10
6600.1662702902
 20
5038.6906258339
 30
0.0
 11
0.7075914799515886
 21
0.7075914799352176
 31
0.0
210
0.0
220
0.0
230
1.0
 40
0.999315002
 41
5.498129760131442
 42
7.06824085424997
  0
LINE
  5
20E
330
1F
100
AcDbEntity
  8
0
  6
Continuous
 62
     7
370
    25
100
AcDbLine
 10
6598.582705905
 20
5011.3057995928
 30
0.0
 11
6598.582705905
 21
5036.9803820291
 31
0.0
  0
LINE
  5
20F
330
1F
100
AcDbEntity
  8
0
  6
Continuous
 62
     7
370
    25
100
AcDbLine
 10
6598.582705905
 20
5036.9803820291
 30
0.0
 11
6598.7921666841
 21
5037.1898428082
 31
0.0
  0
LINE
  5
210
330
1F
100
AcDbEntity
  8
0
  6
Continuous
 62
     7
370
    25
100
AcDbLine
 10
6598.582705905
 20
5011.3057995928
 30
0.0
 11
6598.7921666841
 21
5010.2559356305
 31
0.0
  0
LINE
  5
211
330
1F
100
AcDbEntity
  8
0
  6
Continuous
 62
     7
370
    25
100
AcDbLine
 10
6598.582705905
 20
5036.9803820291
 30
0.0
 11
6593.3921666841
 21
5036.9803820291
 31
0.0
  0
LINE
  5
212
330
1F
100
AcDbEntity
  8
0
  6
Continuous
 62
     7
370
    25
100
AcDbLine
 10
6600.2769366283
 20
5039.800949497
 30
0.0
 11
6600.1669557577
 21
5039.6909686264
 31
0.0
  0
LINE
  5
213
330
1F
100
AcDbEntity
  8
0
  6
Continuous
 62
     7
370
    25
100
AcDbLine
 10
6591.8079168313
 20
5039.6909686264
 30
0.0
 11
6591.6979359607
 21
5039.800949497
 31
0.0
  0
LINE
  5
214
330
1F
100
AcDbEntity
  8
0
  6
Continuous
 62
     7
370
    25
100
AcDbLine
 10
6592.297227697
 20
5039.7433404695
 30
0.0
 11
6592.1819305825
 21
5039.800949497
 31
0.0
  0
LINE
  5
215
330
1F
100
AcDbEntity
  8
0
  6
Continuous
 62
     7
370
    25
100
AcDbLine
 10
6593.2666334681
 20
5039.7433404695
 30
0.0
 11
6592.297227697
 21
5039.7433404695
 31
0.0
  0
LINE
  5
216
330
1F
100
AcDbEntity
  8
0
  6
Continuous
 62
     7
370
    25
100
AcDbLine
 10
6593.3819305825
 20
5039.800949497
 30
0.0
 11
6593.2666334681
 21
5039.7433404695
 31
0.0
  0
LINE
  5
217
330
1F
100
AcDbEntity
  8
0
  6
Continuous
 62
     7
370
    25
100
AcDbLine
 10
6593.2584221447
 20
5083.6480309133
 30
0.0
 11
6593.2584221447
 21
5090.3885701341
 31
0.0
  0
LINE
  5
218
330
1F
100
AcDbEntity
  8
0
  6
Continuous
 62
     7
370
    25
100
AcDbLine
 10
6593.1536997312
 20
5083.4385701341
 30
0.0
 11
6593.2584221447
 21
5083.6480309133
 31
0.0
  0
LINE
  5
219
330
1F
100
AcDbEntity
  8
0
  6
Continuous
 62
     7
370
    25
100
AcDbLine
 10
6593.1536997312
 20
5112.9412911492
 30
0.0
 11
6593.1536997312
 21
5083.4385701341
 31
0.0
  0
LINE
  5
21A
330
1F
100
AcDbEntity
  8
0
  6
Continuous
 62
     7
370
    25
100
AcDbLine
 10
6593.1877414266
 20
5112.8732025729
 30
0.0
 11
6593.1536997312
 21
5112.9412911492
 31
0.0
  0
LINE
  5
21B
330
1F
100
AcDbEntity
  8
0
  6
Continuous
 62
     7
370
    25
100
AcDbLine
 10
6593.4298553229
 20
5111.9043780456
 30
0.0
 11
6593.1877414266
 21
5112.8732025729
 31
0.0
  0
ELLIPSE
  5
21C
330
1F
100
AcDbEntity
  8
0
  6
Continuous
 62
     7
370
    25
100
AcDbEllipse
 10
6593.4277233798
 20
5104.9086422564
 30
0.0
 11
-9.094947017729282E-13
 21
7.000000000011823
 31
0.0
210
0.0
220
0.0
230
1.0
 40
0.0087268678
 41
4.712388980384948
 42
6.248278722136092
  0
LINE
  5
21D
330
1F
100
AcDbEntity
  8
0
  6
Continuous
 62
     7
370
    25
100
AcDbLine
 10
6593.4888114544
 20
5102.6520693465
 30
0.0
 11
6593.4888114544
 21
5104.9086422564
 31
0.0
  0
LINE
  5
21E
330
1F
100
AcDbEntity
  8
0
  6
Continuous
 62
     7
370
    25
100
AcDbLine
 10
6593.2584221447
 20
5101.7301610319
 30
0.0
 11
6593.4888114544
 21
5102.6520693465
 31
0.0
  0
LINE
  5
21F
330
1F
100
AcDbEntity
  8
0
  6
Continuous
 62
     7
370
    25
100
AcDbLine
 10
6593.2584221447
 20
5090.3885701341
 30
0.0
 11
6593.2584221447
 21
5101.7301610319
 31
0.0
  0
LINE
  5
220
330
1F
100
AcDbEntity
  8
0
  6
Continuous
 62
     7
370
    25
100
AcDbLine
 10
6597.5425875408
 20
5101.7301610319
 30
0.0
 11
6597.5425875408
 21
5090.3885701341
 31
0.0
  0
LINE
  5
221
330
1F
100
AcDbEntity
  8
0
  6
Continuous
 62
     7
370
    25
100
AcDbLine
 10
6597.3121982311
 20
5102.6520693465
 30
0.0
 11
6597.5425875408
 21
5101.7301610319
 31
0.0
  0
LINE
  5
222
330
1F
100
AcDbEntity
  8
0
  6
Continuous
 62
     7
370
    25
100
AcDbLine
 10
6597.3121982311
 20
5104.9086422564
 30
0.0
 11
6597.3121982311
 21
5102.6520693465
 31
0.0
  0
ELLIPSE
  5
223
330
1F
100
AcDbEntity
  8
0
  6
Continuous
 62
     7
370
    25
100
AcDbEllipse
 10
6597.3732863056
 20
5104.9086422564
 30
0.0
 11
-9.094947017729282E-13
 21
7.0
 31
0.0
210
0.0
220
0.0
230
1.0
 40
0.0087268678
 41
0.0349065850302087
 42
1.570796326794636
  0
LINE
  5
224
330
1F
100
AcDbEntity
  8
0
  6
Continuous
 62
     7
370
    25
100
AcDbLine
 10
6597.6132682588
 20
5112.8732025729
 30
0.0
 11
6597.3711543626
 21
5111.9043780456
 31
0.0
  0
LINE
  5
225
330
1F
100
AcDbEntity
  8
0
  6
Continuous
 62
     7
370
    25
100
AcDbLine
 10
6597.6132682588
 20
5112.8732025729
 30
0.0
 11
6597.6473099543
 21
5112.9412911492
 31
0.0
  0
LINE
  5
226
330
1F
100
AcDbEntity
  8
0
  6
Continuous
 62
     7
370
    25
100
AcDbLine
 10
6597.6473099543
 20
5083.4385701341
 30
0.0
 11
6597.6473099543
 21
5112.9412911492
 31
0.0
  0
LINE
  5
227
330
1F
100
AcDbEntity
  8
0
  6
Continuous
 62
     7
370
    25
100
AcDbLine
 10
6597.5425875408
 20
5083.6480309133
 30
0.0
 11
6597.6473099543
 21
5083.4385701341
 31
0.0
  0
LINE
  5
228
330
1F
100
AcDbEntity
  8
0
  6
Continuous
 62
     7
370
    25
100
AcDbLine
 10
6597.5425875408
 20
5090.3885701341
 30
0.0
 11
6597.5425875408
 21
5083.6480309133
 31
0.0
  0
LINE
  5
229
330
1F
100
AcDbEntity
  8
0
  6
Continuous
 62
     7
370
    25
100
AcDbLine
 10
6599.3895035123
 20
5081.0964902786
 30
0.0
 11
6599.3895035123
 21
5112.9833867651
 31
0.0
  0
LINE
  5
22A
330
1F
100
AcDbEntity
  8
0
  6
Continuous
 62
     7
370
    25
100
AcDbLine
 10
6591.41159757
 20
5112.9833867651
 30
0.0
 11
6591.41159757
 21
5081.0964902786
 31
0.0
  0
ELLIPSE
  5
22B
330
1F
100
AcDbEntity
  8
0
  6
Continuous
 62
     7
370
    25
100
AcDbEllipse
 10
6592.411749898
 20
5112.9824721233
 30
0.0
 11
-0.3164782047242625
 21
0.9502067146440822
 31
0.0
210
0.0
220
0.0
230
1.0
 40
0.9984778551
 41
5.962134956623849
 42
7.532017894912784
  0
LINE
  5
22C
330
1F
100
AcDbEntity
  8
0
  6
Continuous
 62
     7
370
    25
100
AcDbLine
 10
6598.3902647118
 20
5113.9838444692
 30
0.0
 11
6592.4108363705
 21
5113.9838444692
 31
0.0
  0
ELLIPSE
  5
22D
330
1F
100
AcDbEntity
  8
0
  6
Continuous
 62
     7
370
    25
100
AcDbEllipse
 10
6598.3893511843
 20
5112.9824721233
 30
0.0
 11
0.3164782046915207
 21
0.9502067146549962
 31
0.0
210
0.0
220
0.0
230
1.0
 40
0.9984778551
 41
5.034352719412071
 42
6.604235657700748
  0
LINE
  5
22E
330
1F
100
AcDbEntity
  8
0
  6
Continuous
 62
     7
370
    25
100
AcDbLine
 10
6597.6473099543
 20
5081.4385701341
 30
0.0
 11
6593.1536997312
 21
5081.4385701341
 31
0.0
  0
LINE
  5
22F
330
1F
100
AcDbEntity
  8
0
  6
Continuous
 62
     7
370
    25
100
AcDbLine
 10
6597.6473099543
 20
5112.9412911492
 30
0.0
 11
6593.1536997312
 21
5112.9412911492
 31
0.0
  0
LINE
  5
230
330
1F
100
AcDbEntity
  8
0
  6
Continuous
 62
     7
370
    25
100
AcDbLine
 10
6597.6473099543
 20
5083.4385701341
 30
0.0
 11
6597.6473099543
 21
5081.4385701341
 31
0.0
  0
LINE
  5
231
330
1F
100
AcDbEntity
  8
0
  6
Continuous
 62
     7
370
    25
100
AcDbLine
 10
6593.1536997312
 20
5083.4385701341
 30
0.0
 11
6593.1536997312
 21
5081.4385701341
 31
0.0
  0
LINE
  5
232
330
1F
100
AcDbEntity
  8
0
  6
Continuous
 62
     7
370
    25
100
AcDbLine
 10
6591.3766874401
 20
5087.3454581463
 30
0.0
 11
6591.3382862973
 21
5087.2301610319
 31
0.0
  0
LINE
  5
233
330
1F
100
AcDbEntity
  8
0
  6
Continuous
 62
     7
370
    25
100
AcDbLine
 10
6591.3766874401
 20
5088.3148639175
 30
0.0
 11
6591.3766874401
 21
5087.3454581463
 31
0.0
  0
LINE
  5
234
330
1F
100
AcDbEntity
  8
0
  6
Continuous
 62
     7
370
    25
100
AcDbLine
 10
6591.3382862973
 20
5088.4301610319
 30
0.0
 11
6591.3766874401
 21
5088.3148639175
 31
0.0
  0
LINE
  5
235
330
1F
100
AcDbEntity
  8
0
  6
Continuous
 62
     7
370
    25
100
AcDbLine
 10
6591.3766874401
 20
5104.7454581463
 30
0.0
 11
6591.3382862973
 21
5104.6301610319
 31
0.0
  0
LINE
  5
236
330
1F
100
AcDbEntity
  8
0
  6
Continuous
 62
     7
370
    25
100
AcDbLine
 10
6591.3766874401
 20
5105.7148639175
 30
0.0
 11
6591.3766874401
 21
5104.7454581463
 31
0.0
  0
LINE
  5
237
330
1F
100
AcDbEntity
  8
0
  6
Continuous
 62
     7
370
    25
100
AcDbLine
 10
6591.3382862973
 20
5105.8301610319
 30
0.0
 11
6591.3766874401
 21
5105.7148639175
 31
0.0
  0
LINE
  5
238
330
1F
100
AcDbEntity
  8
0
  6
Continuous
 62
     7
370
    25
100
AcDbLine
 10
6591.3382862973
 20
5113.2034994381
 30
0.0
 11
6591.41159757
 21
5112.9833867651
 31
0.0
  0
LINE
  5
239
330
1F
100
AcDbEntity
  8
0
  6
Continuous
 62
     7
370
    25
100
AcDbLine
 10
6599.4244136422
 20
5105.7148639175
 30
0.0
 11
6599.462814785
 21
5105.8301610319
 31
0.0
  0
LINE
  5
23A
330
1F
100
AcDbEntity
  8
0
  6
Continuous
 62
     7
370
    25
100
AcDbLine
 10
6599.4244136422
 20
5104.7454581463
 30
0.0
 11
6599.4244136422
 21
5105.7148639175
 31
0.0
  0
LINE
  5
23B
330
1F
100
AcDbEntity
  8
0
  6
Continuous
 62
     7
370
    25
100
AcDbLine
 10
6599.462814785
 20
5104.6301610319
 30
0.0
 11
6599.4244136422
 21
5104.7454581463
 31
0.0
  0
LINE
  5
23C
330
1F
100
AcDbEntity
  8
0
  6
Continuous
 62
     7
370
    25
100
AcDbLine
 10
6599.4244136422
 20
5088.3148639175
 30
0.0
 11
6599.462814785
 21
5088.4301610319
 31
0.0
  0
LINE
  5
23D
330
1F
100
AcDbEntity
  8
0
  6
Continuous
 62
     7
370
    25
100
AcDbLine
 10
6599.4244136422
 20
5087.3454581463
 30
0.0
 11
6599.4244136422
 21
5088.3148639175
 31
0.0
  0
LINE
  5
23E
330
1F
100
AcDbEntity
  8
0
  6
Continuous
 62
     7
370
    25
100
AcDbLine
 10
6599.462814785
 20
5087.2301610319
 30
0.0
 11
6599.4244136422
 21
5087.3454581463
 31
0.0
  0
LINE
  5
23F
330
1F
100
AcDbEntity
  8
0
  6
Continuous
 62
     7
370
    25
100
AcDbLine
 10
6599.3895035123
 20
5112.9833867651
 30
0.0
 11
6599.462814785
 21
5113.2034994381
 31
0.0
  0
LINE
  5
240
330
1F
100
AcDbEntity
  8
0
  6
Continuous
 62
     7
370
    25
100
AcDbLine
 10
6592.4108363705
 20
5113.9838444692
 30
0.0
 11
6592.3375250978
 21
5114.2039571422
 31
0.0
  0
LINE
  5
241
330
1F
100
AcDbEntity
  8
0
  6
Continuous
 62
     7
370
    25
100
AcDbLine
 10
6598.4635759845
 20
5114.2039571422
 30
0.0
 11
6598.3902647118
 21
5113.9838444692
 31
0.0
  0
LINE
  5
242
330
1F
100
AcDbEntity
  8
0
  6
Continuous
 62
     7
370
    25
100
AcDbLine
 10
6593.1877414266
 20
5112.8732025729
 30
0.0
 11
6597.6132682588
 21
5112.8732025729
 31
0.0
  0
LINE
  5
243
330
1F
100
AcDbEntity
  8
0
  6
Continuous
 62
     7
370
    25
100
AcDbLine
 10
6599.4244136422
 20
5105.7148639175
 30
0.0
 11
6599.4628147854
 21
5105.7148639175
 31
0.0
  0
LINE
  5
244
330
1F
100
AcDbEntity
  8
0
  6
Continuous
 62
     7
370
    25
100
AcDbLine
 10
6591.3382862977
 20
5105.7148639175
 30
0.0
 11
6591.3766874401
 21
5105.7148639175
 31
0.0
  0
LINE
  5
245
330
1F
100
AcDbEntity
  8
0
  6
Continuous
 62
     7
370
    25
100
AcDbLine
 10
6591.3766874401
 20
5104.7454581463
 30
0.0
 11
6591.3382862977
 21
5104.7454581463
 31
0.0
  0
LINE
  5
246
330
1F
100
AcDbEntity
  8
0
  6
Continuous
 62
     7
370
    25
100
AcDbLine
 10
6591.3382862977
 20
5088.3148639175
 30
0.0
 11
6591.3766874401
 21
5088.3148639175
 31
0.0
  0
LINE
  5
247
330
1F
100
AcDbEntity
  8
0
  6
Continuous
 62
     7
370
    25
100
AcDbLine
 10
6591.3766874401
 20
5087.3454581463
 30
0.0
 11
6591.3382862977
 21
5087.3454581463
 31
0.0
  0
LINE
  5
248
330
1F
100
AcDbEntity
  8
0
  6
Continuous
 62
     7
370
    25
100
AcDbLine
 10
6601.597227697
 20
5061.3289216553
 30
0.0
 11
6601.597227697
 21
5061.2905205124
 31
0.0
  0
LINE
  5
249
330
1F
100
AcDbEntity
  8
0
  6
Continuous
 62
     7
370
    25
100
AcDbLine
 10
6602.5666334681
 20
5061.2905205124
 30
0.0
 11
6602.5666334681
 21
5061.3289216553
 31
0.0
  0
LINE
  5
24A
330
1F
100
AcDbEntity
  8
0
  6
Continuous
 62
     7
370
    25
100
AcDbLine
 10
6601.2765939537
 20
5004.7454581463
 30
0.0
 11
6601.2189849258
 21
5004.7454581463
 31
0.0
  0
LINE
  5
24B
330
1F
100
AcDbEntity
  8
0
  6
Continuous
 62
     7
370
    25
100
AcDbLine
 10
6601.2189849258
 20
5005.7148639175
 30
0.0
 11
6601.2765939537
 21
5005.7148639175
 31
0.0
  0
LINE
  5
24C
330
1F
100
AcDbEntity
  8
0
  6
Continuous
 62
     7
370
    25
100
AcDbLine
 10
6601.2189849258
 20
5037.1454581463
 30
0.0
 11
6601.2765939537
 21
5037.1454581463
 31
0.0
  0
LINE
  5
24D
330
1F
100
AcDbEntity
  8
0
  6
Continuous
 62
     7
370
    25
100
AcDbLine
 10
6601.2765939537
 20
5038.1148639175
 30
0.0
 11
6601.2189849258
 21
5038.1148639175
 31
0.0
  0
LINE
  5
24E
330
1F
100
AcDbEntity
  8
0
  6
Continuous
 62
     7
370
    25
100
AcDbLine
 10
6593.2666334681
 20
5039.8009494969
 30
0.0
 11
6593.2666334681
 21
5039.7433404695
 31
0.0
  0
LINE
  5
24F
330
1F
100
AcDbEntity
  8
0
  6
Continuous
 62
     7
370
    25
100
AcDbLine
 10
6592.297227697
 20
5039.7433404695
 30
0.0
 11
6592.297227697
 21
5039.8009494969
 31
0.0
  0
LINE
  5
250
330
1F
100
AcDbEntity
  8
0
  6
Continuous
 62
     7
370
    25
100
AcDbLine
 10
6590.6982786362
 20
5005.7148639175
 30
0.0
 11
6590.7558876632
 21
5005.7148639175
 31
0.0
  0
LINE
  5
251
330
1F
100
AcDbEntity
  8
0
  6
Continuous
 62
     7
370
    25
100
AcDbLine
 10
6590.7558876632
 20
5004.7454581463
 30
0.0
 11
6590.6982786362
 21
5004.7454581463
 31
0.0
  0
LINE
  5
252
330
1F
100
AcDbEntity
  8
0
  6
Continuous
 62
     7
370
    25
100
AcDbLine
 10
6599.4628147854
 20
5087.3454581463
 30
0.0
 11
6599.4244136422
 21
5087.3454581463
 31
0.0
  0
LINE
  5
253
330
1F
100
AcDbEntity
  8
0
  6
Continuous
 62
     7
370
    25
100
AcDbLine
 10
6599.4244136422
 20
5088.3148639175
 30
0.0
 11
6599.4628147854
 21
5088.3148639175
 31
0.0
  0
LINE
  5
254
330
1F
100
AcDbEntity
  8
0
  6
Continuous
 62
     7
370
    25
100
AcDbLine
 10
6599.4628147854
 20
5104.7454581463
 30
0.0
 11
6599.4244136422
 21
5104.7454581463
 31
0.0
  0
LINE
  5
255
330
1F
100
AcDbEntity
  8
0
  6
Continuous
 62
     7
370
    25
100
AcDbLine
 10
6597.3711543626
 20
5111.9043780456
 30
0.0
 11
6593.4298553229
 21
5111.9043780456
 31
0.0
  0
ARC
  5
256
330
1F
100
AcDbEntity
  8
0
  6
Continuous
 62
     7
370
    25
100
AcDbCircle
 10
6589.8401709009
 20
5078.8719207135
 30
0.0
 40
0.3999780726758858
100
AcDbArc
 50
89.9990412496
 51
180.0009587502
  0
LINE
  5
257
330
1F
100
AcDbEntity
  8
0
  6
Continuous
 62
     7
370
    25
100
AcDbLine
 10
6589.4401928283
 20
5078.8719140205
 30
0.0
 11
6589.2402004414
 21
5078.8719140205
 31
0.0
  0
LINE
  5
258
330
1F
100
AcDbEntity
  8
0
  6
Continuous
 62
     7
370
    25
100
AcDbLine
 10
6589.8401775939
 20
5079.2718987861
 30
0.0
 11
6589.8401775939
 21
5079.471891173
 31
0.0
  0
LINE
  5
259
330
1F
100
AcDbEntity
  8
0
  6
Continuous
 62
     7
370
    25
100
AcDbLine
 10
6606.6236835712
 20
5062.9884308907
 30
0.0
 11
6606.6236835712
 21
5063.1884232776
 31
0.0
  0
ARC
  5
25A
330
1F
100
AcDbEntity
  8
0
  6
Continuous
 62
     7
370
    25
100
AcDbCircle
 10
6606.6236902642
 20
5063.5884013503
 30
0.0
 40
0.3999780726749763
100
AcDbArc
 50
269.9990412496
 51
0.0009587504
  0
LINE
  5
25B
330
1F
100
AcDbEntity
  8
0
  6
Continuous
 62
     7
370
    25
100
AcDbLine
 10
6607.2236607237
 20
5063.5884080432
 30
0.0
 11
6607.0236683368
 21
5063.5884080432
 31
0.0
  0
LINE
  5
25C
330
1F
100
AcDbEntity
  8
0
  6
Continuous
 62
     7
370
    25
100
AcDbLine
 10
6607.2236607237
 20
5078.8719140205
 30
0.0
 11
6607.0236683368
 21
5078.8719140205
 31
0.0
  0
ARC
  5
25D
330
1F
100
AcDbEntity
  8
0
  6
Continuous
 62
     7
370
    25
100
AcDbCircle
 10
6606.6236902642
 20
5078.8719207135
 30
0.0
 40
0.3999780726758858
100
AcDbArc
 50
359.9990412498
 51
90.0009587502
  0
LINE
  5
25E
330
1F
100
AcDbEntity
  8
0
  6
Continuous
 62
     7
370
    25
100
AcDbLine
 10
6606.6236835712
 20
5079.471891173
 30
0.0
 11
6606.6236835712
 21
5079.2718987861
 31
0.0
  0
ARC
  5
25F
330
1F
100
AcDbEntity
  8
0
  6
Continuous
 62
     7
370
    25
100
AcDbCircle
 10
6589.8401709009
 20
5063.5884013503
 30
0.0
 40
0.3999780726758858
100
AcDbArc
 50
179.9990412496
 51
270.0009587504
  0
LINE
  5
260
330
1F
100
AcDbEntity
  8
0
  6
Continuous
 62
     7
370
    25
100
AcDbLine
 10
6589.8401775939
 20
5063.1884232776
 30
0.0
 11
6589.8401775939
 21
5062.9884308907
 31
0.0
  0
LINE
  5
261
330
1F
100
AcDbEntity
  8
0
  6
Continuous
 62
     7
370
    25
100
AcDbLine
 10
6589.4401928283
 20
5063.5884080432
 30
0.0
 11
6589.2402004414
 21
5063.5884080432
 31
0.0
  0
LINE
  5
262
330
1F
100
AcDbEntity
  8
0
  6
Continuous
 62
     7
370
    25
100
AcDbLine
 10
6606.55760705
 20
5079.2718987898
 30
0.0
 11
6606.6236835712
 21
5079.2718987861
 31
0.0
  0
ELLIPSE
  5
263
330
1F
100
AcDbEntity
  8
0
  6
Continuous
 62
     7
370
    25
100
AcDbEllipse
 10
6606.554116037
 20
5079.2718987898
 30
0.0
 11
0.0
 21
0.1999999999998181
 31
0.0
210
0.0
220
0.0
230
1.0
 40
0.0174550649
 41
4.71238898038469
 42
6.274458660822597
  0
LINE
  5
264
330
1F
100
AcDbEntity
  8
0
  6
Continuous
 62
     7
370
    25
100
AcDbLine
 10
6589.8401775939
 20
5079.2718987861
 30
0.0
 11
6600.7062541151
 21
5079.2718987898
 31
0.0
  0
ELLIPSE
  5
265
330
1F
100
AcDbEntity
  8
0
  6
Continuous
 62
     7
370
    25
100
AcDbEllipse
 10
6600.709745128
 20
5079.2718987898
 30
0.0
 11
-9.094947017729282E-13
 21
0.1999999999998181
 31
0.0
210
0.0
220
0.0
230
1.0
 40
0.0174550649
 41
0.0087266463577901
 42
1.570796326794817
  0
LINE
  5
266
330
1F
100
AcDbEntity
  8
0
  6
Continuous
 62
     7
370
    25
100
AcDbLine
 10
6592.7562541151
 20
5063.188423274
 30
0.0
 11
6589.8401775939
 21
5063.1884232776
 31
0.0
  0
ELLIPSE
  5
267
330
1F
100
AcDbEntity
  8
0
  6
Continuous
 62
     7
370
    25
100
AcDbEllipse
 10
6592.759745128
 20
5063.188423274
 30
0.0
 11
0.0
 21
0.1999999999998181
 31
0.0
210
0.0
220
0.0
230
1.0
 40
0.0174550649
 41
1.570796326794897
 42
3.132866007492527
  0
LINE
  5
268
330
1F
100
AcDbEntity
  8
0
  6
Continuous
 62
     7
370
    25
100
AcDbLine
 10
6606.6236835712
 20
5063.1884232776
 30
0.0
 11
6598.60760705
 21
5063.188423274
 31
0.0
  0
ELLIPSE
  5
269
330
1F
100
AcDbEntity
  8
0
  6
Continuous
 62
     7
370
    25
100
AcDbEllipse
 10
6598.604116037
 20
5063.188423274
 30
0.0
 11
0.0
 21
0.1999999999989086
 31
0.0
210
0.0
220
0.0
230
1.0
 40
0.0174550649
 41
3.150319299687768
 42
4.71238898038469
  0
LINE
  5
26A
330
1F
100
AcDbEntity
  8
0
  6
Continuous
 62
     7
370
    25
100
AcDbLine
 10
6607.0236683368
 20
5078.8719140205
 30
0.0
 11
6607.0236683368
 21
5063.5884080432
 31
0.0
  0
LINE
  5
26B
330
1F
100
AcDbEntity
  8
0
  6
Continuous
 62
     7
370
    25
100
AcDbLine
 10
6589.4401928283
 20
5063.5884080432
 30
0.0
 11
6589.4401928283
 21
5078.8719140205
 31
0.0
  0
LINE
  5
26C
330
1F
100
AcDbEntity
  8
0
  6
Continuous
 62
     7
370
    25
100
AcDbLine
 10
6592.7562541151
 20
5063.188423274
 30
0.0
 11
6592.7562541151
 21
5063.3009744886
 31
0.0
  0
LINE
  5
26D
330
1F
100
AcDbEntity
  8
0
  6
Continuous
 62
     7
370
    25
100
AcDbLine
 10
6598.60760705
 20
5063.3009744886
 30
0.0
 11
6598.60760705
 21
5063.188423274
 31
0.0
  0
LINE
  5
26E
330
1F
100
AcDbEntity
  8
0
  6
Continuous
 62
     7
370
    25
100
AcDbLine
 10
6600.7062541151
 20
5079.2137058107
 30
0.0
 11
6600.7062541151
 21
5079.2718987898
 31
0.0
  0
LINE
  5
26F
330
1F
100
AcDbEntity
  8
0
  6
Continuous
 62
     7
370
    25
100
AcDbLine
 10
6606.55760705
 20
5079.2718987898
 30
0.0
 11
6606.55760705
 21
5079.1917731567
 31
0.0
  0
LINE
  5
270
330
1F
100
AcDbEntity
  8
0
  6
Continuous
 62
     7
370
    25
100
AcDbLine
 10
6593.4888114544
 20
5104.9086422564
 30
0.0
 11
6597.3121982311
 21
5104.9086422564
 31
0.0
  0
LINE
  5
271
330
1F
100
AcDbEntity
  8
0
  6
Continuous
 62
     7
370
    25
100
AcDbLine
 10
6593.4888114544
 20
5102.6520693465
 30
0.0
 11
6597.3121982311
 21
5102.6520693465
 31
0.0
  0
LINE
  5
272
330
1F
100
AcDbEntity
  8
0
  6
Continuous
 62
     7
370
    25
100
AcDbLine
 10
6589.555148522
 20
5076.1786841044
 30
0.0
 11
6589.555148522
 21
5066.3359961942
 31
0.0
  0
LINE
  5
273
330
1F
100
AcDbEntity
  8
0
  6
Continuous
 62
     7
370
    25
100
AcDbLine
 10
6589.555148522
 20
5076.1786841044
 30
0.0
 11
6590.0551294829
 21
5076.1786841044
 31
0.0
  0
LINE
  5
274
330
1F
100
AcDbEntity
  8
0
  6
Continuous
 62
     7
370
    25
100
AcDbLine
 10
6590.0551294836
 20
5066.3359961949
 30
0.0
 11
6590.0551294836
 21
5076.178684105
 31
0.0
  0
LINE
  5
275
330
1F
100
AcDbEntity
  8
0
  6
Continuous
 62
     7
370
    25
100
AcDbLine
 10
6589.555148522
 20
5066.3359961942
 30
0.0
 11
6590.0551294836
 21
5066.3359961942
 31
0.0
  0
LINE
  5
276
330
1F
100
AcDbEntity
  8
0
  6
Continuous
 62
     7
370
    25
100
AcDbLine
 10
6606.354373446
 20
5066.3359961949
 30
0.0
 11
6590.0551294836
 21
5066.3359961949
 31
0.0
  0
LINE
  5
277
330
1F
100
AcDbEntity
  8
0
  6
Continuous
 62
     7
370
    25
100
AcDbLine
 10
6590.0551294829
 20
5076.1786841044
 30
0.0
 11
6606.3543734466
 21
5076.1786841044
 31
0.0
  0
LINE
  5
278
330
1F
100
AcDbEntity
  8
0
  6
Continuous
 62
     7
370
    25
100
AcDbLine
 10
6606.354373446
 20
5076.1786841044
 30
0.0
 11
6606.354373446
 21
5066.3359961941
 31
0.0
  0
ARC
  5
279
330
1F
100
AcDbEntity
  8
0
  6
Continuous
 62
     7
370
    25
100
AcDbCircle
 10
6476.0170687963
 20
5076.85658158
 30
0.0
 40
114.0400755449708
100
AcDbArc
 50
359.6594101431
 51
1.1666891919
  0
LINE
  5
27A
330
1F
100
AcDbEntity
  8
0
  6
Continuous
 62
     7
370
    25
100
AcDbLine
 10
6606.3760002272
 20
5079.1785698736
 30
0.0
 11
6590.0335027024
 21
5079.1785698736
 31
0.0
  0
ARC
  5
27B
330
1F
100
AcDbEntity
  8
0
  6
Continuous
 62
     7
370
    25
100
AcDbCircle
 10
6720.3924341305
 20
5076.8565815797
 30
0.0
 40
114.0400755422006
100
AcDbArc
 50
178.833310808
 51
180.340589857
  0
LINE
  5
27C
330
1F
100
AcDbEntity
  8
0
  6
Continuous
 62
     7
370
    25
100
AcDbLine
 10
6606.3543734466
 20
5076.1786841044
 30
0.0
 11
6606.8543544075
 21
5076.1786841044
 31
0.0
  0
LINE
  5
27D
330
1F
100
AcDbEntity
  8
0
  6
Continuous
 62
     7
370
    25
100
AcDbLine
 10
6606.8543544075
 20
5066.3359961949
 30
0.0
 11
6606.8543544075
 21
5076.1786841044
 31
0.0
  0
LINE
  5
27E
330
1F
100
AcDbEntity
  8
0
  6
Continuous
 62
     7
370
    25
100
AcDbLine
 10
6606.354373446
 20
5066.3359961949
 30
0.0
 11
6606.8543544075
 21
5066.3359961949
 31
0.0
  0
LINE
  5
27F
330
1F
100
AcDbEntity
  8
0
  6
Continuous
 62
     7
370
    25
100
AcDbLine
 10
6590.0335027015
 20
5063.3361104257
 30
0.0
 11
6606.3760002276
 21
5063.3361104257
 31
0.0
  0
ARC
  5
280
330
1F
100
AcDbEntity
  8
0
  6
Continuous
 62
     7
370
    25
100
AcDbCircle
 10
6476.0170688288
 20
5065.6580987195
 30
0.0
 40
114.0400755124605
100
AcDbArc
 50
358.8333108077
 51
0.3405898572
  0
ARC
  5
281
330
1F
100
AcDbEntity
  8
0
  6
Continuous
 62
     7
370
    25
100
AcDbCircle
 10
6720.3924341124
 20
5065.6580987192
 30
0.0
 40
114.0400755241106
100
AcDbArc
 50
179.6594101431
 51
181.166689192
  0
ELLIPSE
  5
282
330
1F
100
AcDbEntity
  8
0
  6
Continuous
 62
     7
370
    25
100
AcDbEllipse
 10
6606.876171577
 20
5066.3359961949
 30
0.0
 11
7.275957614183426E-12
 21
2.499999999996362
 31
0.0
210
0.0
220
0.0
230
1.0
 40
0.0087268678
 41
1.570796326794922
 42
3.132866007702171
  0
ARC
  5
283
330
1F
100
AcDbEntity
  8
0
  6
Continuous
 62
     7
370
    25
100
AcDbCircle
 10
6606.3759556306
 20
5063.8361359839
 30
0.0
 40
0.500025560122323
100
AcDbArc
 50
270.0051101821
 51
359.9948898855
  0
ELLIPSE
  5
284
330
1F
100
AcDbEntity
  8
0
  6
Continuous
 62
     7
370
    25
100
AcDbEllipse
 10
6589.5333313525
 20
5066.3359961949
 30
0.0
 11
-9.094947017729282E-13
 21
2.500000000002728
 31
0.0
210
0.0
220
0.0
230
1.0
 40
0.0087268678
 41
3.150319299812842
 42
4.712388980086372
  0
ARC
  5
285
330
1F
100
AcDbEntity
  8
0
  6
Continuous
 62
     7
370
    25
100
AcDbCircle
 10
6590.033547299
 20
5063.8361359839
 30
0.0
 40
0.5000255601205422
100
AcDbArc
 50
180.0051101143
 51
269.9948897688
  0
ELLIPSE
  5
286
330
1F
100
AcDbEntity
  8
0
  6
Continuous
 62
     7
370
    25
100
AcDbEllipse
 10
6589.5333313525
 20
5076.1786841044
 30
0.0
 11
6.366462912410498E-12
 21
2.499999999997272
 31
0.0
210
0.0
220
0.0
230
1.0
 40
0.0087268678
 41
4.712388980384712
 42
6.274458661252461
  0
ARC
  5
287
330
1F
100
AcDbEntity
  8
0
  6
Continuous
 62
     7
370
    25
100
AcDbCircle
 10
6590.033547299
 20
5078.6785443154
 30
0.0
 40
0.5000255601213752
100
AcDbArc
 50
90.0051101329
 51
179.9948898672
  0
ARC
  5
288
330
1F
100
AcDbEntity
  8
0
  6
Continuous
 62
     7
370
    25
100
AcDbCircle
 10
6606.3759556306
 20
5078.6785443154
 30
0.0
 40
0.5000255601213751
100
AcDbArc
 50
0.0051101328
 51
89.9948898673
  0
ELLIPSE
  5
289
330
1F
100
AcDbEntity
  8
0
  6
Continuous
 62
     7
370
    25
100
AcDbEllipse
 10
6606.876171577
 20
5076.1786841044
 30
0.0
 11
0.0
 21
2.499999999996362
 31
0.0
210
0.0
220
0.0
230
1.0
 40
0.0087268678
 41
0.0087266462205185
 42
1.57079632679526
  0
LINE
  5
28A
330
1F
100
AcDbEntity
  8
0
  6
Continuous
 62
     7
370
    25
100
AcDbLine
 10
6589.5335217408
 20
5063.8360913873
 30
0.0
 11
6589.4547514648
 21
5063.7573211112
 31
0.0
  0
LINE
  5
28B
330
1F
100
AcDbEntity
  8
0
  6
Continuous
 62
     7
370
    25
100
AcDbLine
 10
6589.4547514648
 20
5078.7573591881
 30
0.0
 11
6589.4547514648
 21
5063.7573211112
 31
0.0
  0
LINE
  5
28C
330
1F
100
AcDbEntity
  8
0
  6
Continuous
 62
     7
370
    25
100
AcDbLine
 10
6589.4547514648
 20
5078.7573591881
 30
0.0
 11
6589.5335217408
 21
5078.678588912
 31
0.0
  0
LINE
  5
28D
330
1F
100
AcDbEntity
  8
0
  6
Continuous
 62
     7
370
    25
100
AcDbLine
 10
6606.8759811887
 20
5078.678588912
 30
0.0
 11
6606.9111171259
 21
5078.7137248492
 31
0.0
  0
LINE
  5
28E
330
1F
100
AcDbEntity
  8
0
  6
Continuous
 62
     7
370
    25
100
AcDbLine
 10
6606.9111171258
 20
5075.9521493286
 30
0.0
 11
6606.9111175805
 21
5078.7137248492
 31
0.0
  0
ELLIPSE
  5
28F
330
1F
100
AcDbEntity
  8
0
  6
Continuous
 62
     7
370
    25
100
AcDbEllipse
 10
6606.9137351861
 20
5075.9521493286
 30
0.0
 11
0.0
 21
0.2999999999992724
 31
0.0
210
0.0
220
0.0
230
1.0
 40
0.0087268678
 41
1.570796326794897
 42
3.124139361054013
  0
LINE
  5
290
330
1F
100
AcDbEntity
  8
0
  6
Continuous
 62
     7
370
    25
100
AcDbLine
 10
6606.9547514648
 20
5075.570064825
 30
0.0
 11
6606.9136894947
 21
5075.65219502
 31
0.0
  0
LINE
  5
291
330
1F
100
AcDbEntity
  8
0
  6
Continuous
 62
     7
370
    25
100
AcDbLine
 10
6606.9547514648
 20
5063.7573211112
 30
0.0
 11
6606.9547514648
 21
5075.570064825
 31
0.0
  0
LINE
  5
292
330
1F
100
AcDbEntity
  8
0
  6
Continuous
 62
     7
370
    25
100
AcDbLine
 10
6606.9547514648
 20
5063.7573211112
 30
0.0
 11
6606.8759811887
 21
5063.8360913873
 31
0.0
  0
LINE
  5
293
330
1F
100
AcDbEntity
  8
0
  6
Continuous
 62
     7
370
    25
100
AcDbLine
 10
6606.9547514626
 20
5063.7572639994
 30
0.0
 11
6606.9547514648
 21
5063.7573211112
 31
0.0
  0
ELLIPSE
  5
294
330
1F
100
AcDbEntity
  8
0
  6
Continuous
 62
     7
370
    25
100
AcDbEllipse
 10
6606.4547133849
 20
5063.7573782295
 30
0.0
 11
0.3536072405386221
 21
-0.3536072405377126
 31
0.0
210
0.0
220
0.0
230
1.0
 40
0.9998477125
 41
5.497939439796137
 42
7.06843117732827
  0
LINE
  5
295
330
1F
100
AcDbEntity
  8
0
  6
Continuous
 62
     7
370
    25
100
AcDbLine
 10
6606.4547705032
 20
5063.2573401497
 30
0.0
 11
6606.4548276164
 21
5063.2573401507
 31
0.0
  0
LINE
  5
296
330
1F
100
AcDbEntity
  8
0
  6
Continuous
 62
     7
370
    25
100
AcDbLine
 10
6606.3760002271
 20
5063.3361104257
 30
0.0
 11
6606.4547705032
 21
5063.2573401497
 31
0.0
  0
LINE
  5
297
330
1F
100
AcDbEntity
  8
0
  6
Continuous
 62
     7
370
    25
100
AcDbLine
 10
6589.9547324263
 20
5063.2573401497
 30
0.0
 11
6590.0335027024
 21
5063.3361104257
 31
0.0
  0
LINE
  5
298
330
1F
100
AcDbEntity
  8
0
  6
Continuous
 62
     7
370
    25
100
AcDbLine
 10
6589.9546753145
 20
5063.2573401518
 30
0.0
 11
6589.9547324263
 21
5063.2573401497
 31
0.0
  0
ELLIPSE
  5
299
330
1F
100
AcDbEntity
  8
0
  6
Continuous
 62
     7
370
    25
100
AcDbEllipse
 10
6589.9547895446
 20
5063.7573782295
 30
0.0
 11
0.3536072405377126
 21
0.3536072405377126
 31
0.0
210
0.0
220
0.0
230
1.0
 40
0.9998477126
 41
2.356346786208902
 42
3.92683852373849
  0
LINE
  5
29A
330
1F
100
AcDbEntity
  8
0
  6
Continuous
 62
     7
370
    25
100
AcDbLine
 10
6589.4547514648
 20
5063.7573211112
 30
0.0
 11
6589.4547514658
 21
5063.757263998
 31
0.0
  0
LINE
  5
29B
330
1F
100
AcDbEntity
  8
0
  6
Continuous
 62
     7
370
    25
100
AcDbLine
 10
6599.7420267894
 20
5063.2573401497
 30
0.0
 11
6606.4547705032
 21
5063.2573401497
 31
0.0
  0
LINE
  5
29C
330
1F
100
AcDbEntity
  8
0
  6
Continuous
 62
     7
370
    25
100
AcDbLine
 10
6599.6598965944
 20
5063.2984021197
 30
0.0
 11
6599.7420267894
 21
5063.2573401497
 31
0.0
  0
ELLIPSE
  5
29D
330
1F
100
AcDbEntity
  8
0
  6
Continuous
 62
     7
370
    25
100
AcDbEllipse
 10
6599.3599422858
 20
5063.2983564283
 30
0.0
 11
0.3000000000001819
 21
0.0
 31
0.0
210
0.0
220
0.0
230
1.0
 40
0.0087268678
 41
0.017453292535814
 42
1.570796326794897
  0
LINE
  5
29E
330
1F
100
AcDbEntity
  8
0
  6
Continuous
 62
     7
370
    25
100
AcDbLine
 10
6598.4495606437
 20
5063.3009744886
 30
0.0
 11
6599.3599422858
 21
5063.3009744886
 31
0.0
  0
ELLIPSE
  5
29F
330
1F
100
AcDbEntity
  8
0
  6
Continuous
 62
     7
370
    25
100
AcDbEllipse
 10
6598.4495606437
 20
5063.2983564283
 30
0.0
 11
0.3000000000001819
 21
0.0
 31
0.0
210
0.0
220
0.0
230
1.0
 40
0.0087268678
 41
1.570796326794897
 42
3.124139361053961
  0
LINE
  5
2A0
330
1F
100
AcDbEntity
  8
0
  6
Continuous
 62
     7
370
    25
100
AcDbLine
 10
6598.0674761401
 20
5063.2573401497
 30
0.0
 11
6598.1496063352
 21
5063.2984021197
 31
0.0
  0
LINE
  5
2A1
330
1F
100
AcDbEntity
  8
0
  6
Continuous
 62
     7
370
    25
100
AcDbLine
 10
6593.2420267894
 20
5063.2573401497
 30
0.0
 11
6598.0674761401
 21
5063.2573401497
 31
0.0
  0
LINE
  5
2A2
330
1F
100
AcDbEntity
  8
0
  6
Continuous
 62
     7
370
    25
100
AcDbLine
 10
6593.1598965944
 20
5063.2984021197
 30
0.0
 11
6593.2420267894
 21
5063.2573401497
 31
0.0
  0
ELLIPSE
  5
2A3
330
1F
100
AcDbEntity
  8
0
  6
Continuous
 62
     7
370
    25
100
AcDbEllipse
 10
6592.8599422858
 20
5063.2983564283
 30
0.0
 11
0.3000000000001819
 21
0.0
 31
0.0
210
0.0
220
0.0
230
1.0
 40
0.0087268678
 41
0.0174532921945362
 42
1.570796326794897
  0
LINE
  5
2A4
330
1F
100
AcDbEntity
  8
0
  6
Continuous
 62
     7
370
    25
100
AcDbLine
 10
6591.9495606437
 20
5063.3009744886
 30
0.0
 11
6592.8599422858
 21
5063.3009744886
 31
0.0
  0
ELLIPSE
  5
2A5
330
1F
100
AcDbEntity
  8
0
  6
Continuous
 62
     7
370
    25
100
AcDbEllipse
 10
6591.9495606437
 20
5063.2983564283
 30
0.0
 11
0.3000000000001819
 21
0.0
 31
0.0
210
0.0
220
0.0
230
1.0
 40
0.0087268678
 41
1.570796326794897
 42
3.124139361395253
  0
LINE
  5
2A6
330
1F
100
AcDbEntity
  8
0
  6
Continuous
 62
     7
370
    25
100
AcDbLine
 10
6591.5674761401
 20
5063.2573401497
 30
0.0
 11
6591.6496063352
 21
5063.2984021197
 31
0.0
  0
LINE
  5
2A7
330
1F
100
AcDbEntity
  8
0
  6
Continuous
 62
     7
370
    25
100
AcDbLine
 10
6589.9547324263
 20
5063.2573401497
 30
0.0
 11
6591.5674761401
 21
5063.2573401497
 31
0.0
  0
LINE
  5
2A8
330
1F
100
AcDbEntity
  8
0
  6
Continuous
 62
     7
370
    25
100
AcDbLine
 10
6590.0335027024
 20
5079.1785698736
 30
0.0
 11
6589.9547324263
 21
5079.2573401497
 31
0.0
  0
LINE
  5
2A9
330
1F
100
AcDbEntity
  8
0
  6
Continuous
 62
     7
370
    25
100
AcDbLine
 10
6599.0174761401
 20
5079.2573401497
 30
0.0
 11
6589.9547324263
 21
5079.2573401497
 31
0.0
  0
LINE
  5
2AA
330
1F
100
AcDbEntity
  8
0
  6
Continuous
 62
     7
370
    25
100
AcDbLine
 10
6599.0996063352
 20
5079.2162781796
 30
0.0
 11
6599.0174761401
 21
5079.2573401497
 31
0.0
  0
ELLIPSE
  5
2AB
330
1F
100
AcDbEntity
  8
0
  6
Continuous
 62
     7
370
    25
100
AcDbEllipse
 10
6599.3995606437
 20
5079.216323871
 30
0.0
 11
0.3000000000001819
 21
0.0
 31
0.0
210
0.0
220
0.0
230
1.0
 40
0.0087268678
 41
3.159045946127226
 42
4.71238898038469
  0
LINE
  5
2AC
330
1F
100
AcDbEntity
  8
0
  6
Continuous
 62
     7
370
    25
100
AcDbLine
 10
6600.8099422858
 20
5079.2137058107
 30
0.0
 11
6599.3995606437
 21
5079.2137058107
 31
0.0
  0
ELLIPSE
  5
2AD
330
1F
100
AcDbEntity
  8
0
  6
Continuous
 62
     7
370
    25
100
AcDbEllipse
 10
6600.8099422858
 20
5079.216323871
 30
0.0
 11
0.3000000000001819
 21
0.0
 31
0.0
210
0.0
220
0.0
230
1.0
 40
0.0087268678
 41
4.71238898038469
 42
6.265732014992671
  0
LINE
  5
2AE
330
1F
100
AcDbEntity
  8
0
  6
Continuous
 62
     7
370
    25
100
AcDbLine
 10
6601.1920267894
 20
5079.2573401497
 30
0.0
 11
6601.1098965944
 21
5079.2162781796
 31
0.0
  0
LINE
  5
2AF
330
1F
100
AcDbEntity
  8
0
  6
Continuous
 62
     7
370
    25
100
AcDbLine
 10
6606.0174761401
 20
5079.2573401497
 30
0.0
 11
6601.1920267894
 21
5079.2573401497
 31
0.0
  0
LINE
  5
2B0
330
1F
100
AcDbEntity
  8
0
  6
Continuous
 62
     7
370
    25
100
AcDbLine
 10
6606.0996063352
 20
5079.2162781796
 30
0.0
 11
6606.0174761401
 21
5079.2573401497
 31
0.0
  0
ELLIPSE
  5
2B1
330
1F
100
AcDbEntity
  8
0
  6
Continuous
 62
     7
370
    25
100
AcDbEllipse
 10
6606.3995606437
 20
5079.216323871
 30
0.0
 11
0.2999999999992724
 21
0.0
 31
0.0
210
0.0
220
0.0
230
1.0
 40
0.0087268678
 41
3.159045946133235
 42
4.71238898038469
  0
LINE
  5
2B2
330
1F
100
AcDbEntity
  8
0
  6
Continuous
 62
     7
370
    25
100
AcDbLine
 10
6606.4111361643
 20
5079.2137062654
 30
0.0
 11
6606.3995606437
 21
5079.2137058107
 31
0.0
  0
LINE
  5
2B3
330
1F
100
AcDbEntity
  8
0
  6
Continuous
 62
     7
370
    25
100
AcDbLine
 10
6606.4111361643
 20
5079.2137058107
 30
0.0
 11
6606.3760002272
 21
5079.1785698736
 31
0.0
  0
ARC
  5
2B4
330
1F
100
AcDbEntity
  8
0
  6
Continuous
 62
     7
370
    25
100
AcDbCircle
 10
6606.4111425027
 20
5078.7137311876
 30
0.0
 40
0.4999750778890077
100
AcDbArc
 50
359.9992736378
 51
90.0007263622
  0
LINE
  5
2B5
330
1F
100
AcDbEntity
  8
0
  6
Continuous
 62
     7
370
    25
100
AcDbLine
 10
6589.4547514669
 20
5078.7574162999
 30
0.0
 11
6589.4547514648
 21
5078.7573591881
 31
0.0
  0
ELLIPSE
  5
2B6
330
1F
100
AcDbEntity
  8
0
  6
Continuous
 62
     7
370
    25
100
AcDbEllipse
 10
6589.9547895446
 20
5078.7573020698
 30
0.0
 11
0.3536072405377127
 21
-0.3536072405368031
 31
0.0
210
0.0
220
0.0
230
1.0
 40
0.9998477126
 41
2.356346786210078
 42
3.926838523736561
  0
LINE
  5
2B7
330
1F
100
AcDbEntity
  8
0
  6
Continuous
 62
     7
370
    25
100
AcDbLine
 10
6589.9547324263
 20
5079.2573401497
 30
0.0
 11
6589.9546753131
 21
5079.2573401486
 31
0.0
  0
LINE
  5
2B8
330
1F
100
AcDbEntity
  8
0
  6
Continuous
 62
     7
370
    25
100
AcDbLine
 10
6601.1920267894
 20
5079.2573401497
 30
0.0
 11
6601.1920267894
 21
5079.53299448
 31
0.0
  0
LINE
  5
2B9
330
1F
100
AcDbEntity
  8
0
  6
Continuous
 62
     7
370
    25
100
AcDbLine
 10
6606.0174761401
 20
5079.53299448
 30
0.0
 11
6606.0174761401
 21
5079.2573401497
 31
0.0
  0
LINE
  5
2BA
330
1F
100
AcDbEntity
  8
0
  6
Continuous
 62
     7
370
    25
100
AcDbLine
 10
6593.2420267894
 20
5063.2573401497
 30
0.0
 11
6593.2420267894
 21
5062.9273275838
 31
0.0
  0
LINE
  5
2BB
330
1F
100
AcDbEntity
  8
0
  6
Continuous
 62
     7
370
    25
100
AcDbLine
 10
6598.0674761401
 20
5062.9273275838
 30
0.0
 11
6598.0674761401
 21
5063.2573401497
 31
0.0
  0
LINE
  5
2BC
330
1F
100
AcDbEntity
  8
0
  6
Continuous
 62
     7
370
    25
100
AcDbLine
 10
6520.4640385205
 20
4966.4539571422
 30
0.0
 11
6520.2140385205
 21
4966.4539571422
 31
0.0
  0
ARC
  5
2BD
330
1F
100
AcDbEntity
  8
0
  6
Continuous
 62
     7
370
    25
100
AcDbCircle
 10
6545.2140385205
 20
5010.7039571422
 30
0.0
 40
5.599999999999883
100
AcDbArc
 50
94.4980126048
 51
84.2523695851
  0
LINE
  5
2BE
330
1F
100
AcDbEntity
  8
0
  6
Continuous
 62
     7
370
    25
100
AcDbLine
 10
6544.7748612308
 20
5016.286709448
 30
0.0
 11
6544.7748612308
 21
5016.0860685595
 31
0.0
  0
ARC
  5
2BF
330
1F
100
AcDbEntity
  8
0
  6
Continuous
 62
     7
370
    25
100
AcDbCircle
 10
6545.2140385205
 20
5010.7039571422
 30
0.0
 40
5.400000000000104
100
AcDbArc
 50
94.6649681226
 51
84.0387368535
  0
LINE
  5
2C0
330
1F
100
AcDbEntity
  8
0
  6
Continuous
 62
     7
370
    25
100
AcDbLine
 10
6545.7748612308
 20
5016.0747557688
 30
0.0
 11
6545.7748612308
 21
5016.2758040431
 31
0.0
  0
ARC
  5
2C1
330
1F
100
AcDbEntity
  8
0
  6
Continuous
 62
     7
370
    25
100
AcDbCircle
 10
6544.7748612308
 20
5012.4892854937
 30
0.0
 40
0.5331629282964059
100
AcDbArc
 50
310.7111856769
 51
90.0
  0
LINE
  5
2C2
330
1F
100
AcDbEntity
  8
0
  6
Continuous
 62
     7
370
    25
100
AcDbLine
 10
6544.7748612308
 20
5011.3271372395
 30
0.0
 11
6544.7748612308
 21
5010.7571918452
 31
0.0
  0
ARC
  5
2C3
330
1F
100
AcDbEntity
  8
0
  6
Continuous
 62
     7
370
    25
100
AcDbCircle
 10
6545.7748612308
 20
5011.3271372395
 30
0.0
 40
0.999999999999748
100
AcDbArc
 50
130.7111856769
 51
180.0
  0
LINE
  5
2C4
330
1F
100
AcDbEntity
  8
0
  6
Continuous
 62
     7
370
    25
100
AcDbLine
 10
6545.9610878925
 20
5010.9955880204
 30
0.0
 11
6545.7748612308
 21
5011.1778010179
 31
0.0
  0
LINE
  5
2C5
330
1F
100
AcDbEntity
  8
0
  6
Continuous
 62
     7
370
    25
100
AcDbLine
 10
6544.7748612308
 20
5010.7571918452
 30
0.0
 11
6544.9610878925
 21
5010.5749788476
 31
0.0
  0
LINE
  5
2C6
330
1F
100
AcDbEntity
  8
0
  6
Continuous
 62
     7
370
    25
100
AcDbLine
 10
6545.7748612308
 20
5011.1778010179
 30
0.0
 11
6545.7748612308
 21
5011.3271372395
 31
0.0
  0
LINE
  5
2C7
330
1F
100
AcDbEntity
  8
0
  6
Continuous
 62
     7
370
    25
100
AcDbLine
 10
6545.9610878925
 20
5008.0805620301
 30
0.0
 11
6545.9610878925
 21
5010.9955880204
 31
0.0
  0
ARC
  5
2C8
330
1F
100
AcDbEntity
  8
0
  6
Continuous
 62
     7
370
    25
100
AcDbCircle
 10
6545.4610878925
 20
5008.0805620301
 30
0.0
 40
0.5000000000009095
100
AcDbArc
 50
180.0
 51
0.0
  0
LINE
  5
2C9
330
1F
100
AcDbEntity
  8
0
  6
Continuous
 62
     7
370
    25
100
AcDbLine
 10
6544.9610878925
 20
5010.5749788476
 30
0.0
 11
6544.9610878925
 21
5008.0805620301
 31
0.0
  0
ARC
  5
2CA
330
1F
100
AcDbEntity
  8
0
  6
Continuous
 62
     7
370
    25
100
AcDbCircle
 10
6544.7748612308
 20
5012.4892854937
 30
0.0
 40
1.533162928296057
100
AcDbArc
 50
310.7111856769
 51
49.2888143231
  0
LINE
  5
2CB
330
1F
100
AcDbEntity
  8
0
  6
Continuous
 62
     7
370
    25
100
AcDbLine
 10
6544.7748612308
 20
5016.0860685595
 30
0.0
 11
6544.7748612308
 21
5013.022448422
 31
0.0
  0
LINE
  5
2CC
330
1F
100
AcDbEntity
  8
0
  6
Continuous
 62
     7
370
    25
100
AcDbLine
 10
6545.7748612308
 20
5013.6514337479
 30
0.0
 11
6545.7748612308
 21
5016.0747557688
 31
0.0
  0
CIRCLE
  5
2CD
330
1F
100
AcDbEntity
  8
0
  6
Continuous
 62
     7
370
    25
100
AcDbCircle
 10
6545.2140385205
 20
5006.7039571422
 30
0.0
 40
11.00000000000091
  0
ARC
  5
2CE
330
1F
100
AcDbEntity
  8
0
  6
Continuous
 62
     7
370
    25
100
AcDbCircle
 10
6545.2140385205
 20
5010.7039571422
 30
0.0
 40
5.599999999999883
100
AcDbArc
 50
84.2523695851
 51
94.4980126048
  0
CIRCLE
  5
2CF
330
1F
100
AcDbEntity
  8
0
  6
Continuous
 62
     7
370
    25
100
AcDbCircle
 10
6545.2140385205
 20
5006.7039571422
 30
0.0
 40
12.0
  0
ARC
  5
2D0
330
1F
100
AcDbEntity
  8
0
  6
Continuous
 62
     7
370
    25
100
AcDbCircle
 10
6617.2140385205
 20
4985.7039571422
 30
0.0
 40
2.749999999999091
100
AcDbArc
 50
0.0
 51
90.0
  0
ARC
  5
2D1
330
1F
100
AcDbEntity
  8
0
  6
Continuous
 62
     7
370
    25
100
AcDbCircle
 10
6617.2140385205
 20
4916.7039571422
 30
0.0
 40
2.750000000000909
100
AcDbArc
 50
270.0
 51
0.0
  0
LINE
  5
2D2
330
1F
100
AcDbEntity
  8
0
  6
Continuous
 62
     7
370
    25
100
AcDbLine
 10
6523.2140385205
 20
4913.9539571422
 30
0.0
 11
6617.2140385205
 21
4913.9539571422
 31
0.0
  0
ARC
  5
2D3
330
1F
100
AcDbEntity
  8
0
  6
Continuous
 62
     7
370
    25
100
AcDbCircle
 10
6523.2140385205
 20
4985.7039571422
 30
0.0
 40
2.749999999999091
100
AcDbArc
 50
90.0
 51
180.0
  0
LINE
  5
2D4
330
1F
100
AcDbEntity
  8
0
  6
Continuous
 62
     7
370
    25
100
AcDbLine
 10
6619.9640385205
 20
4916.7039571422
 30
0.0
 11
6619.9640385205
 21
4985.7039571422
 31
0.0
  0
ARC
  5
2D5
330
1F
100
AcDbEntity
  8
0
  6
Continuous
 62
     7
370
    25
100
AcDbCircle
 10
6523.2140385205
 20
4916.7039571422
 30
0.0
 40
2.750000000000909
100
AcDbArc
 50
180.0
 51
270.0
  0
LINE
  5
2D6
330
1F
100
AcDbEntity
  8
0
  6
Continuous
 62
     7
370
    25
100
AcDbLine
 10
6617.2140385205
 20
4988.4539571422
 30
0.0
 11
6523.2140385205
 21
4988.4539571422
 31
0.0
  0
LINE
  5
2D7
330
1F
100
AcDbEntity
  8
0
  6
Continuous
 62
     7
370
    25
100
AcDbLine
 10
6520.4640385205
 20
4985.7039571422
 30
0.0
 11
6520.4640385205
 21
4916.7039571422
 31
0.0
  0
LWPOLYLINE
  5
2D8
330
1F
100
AcDbEntity
  8
0
  6
Continuous
 62
     7
370
    25
100
AcDbPolyline
 90
        3
 70
   128
 43
0.0
 10
6520.4640385205
 20
4932.7643493367
 10
6520.3666877064
 20
4932.7907080257
 10
6520.2140385205
 20
4932.8424526176
  0
LWPOLYLINE
  5
2D9
330
1F
100
AcDbEntity
  8
0
  6
Continuous
 62
     7
370
    25
100
AcDbPolyline
 90
        3
 70
   128
 43
0.0
 10
6520.2140385205
 20
4936.7654616668
 10
6520.2986074074
 20
4936.7957406228
 10
6520.4640385205
 20
4936.8435649476
  0
LWPOLYLINE
  5
2DA
330
1F
100
AcDbEntity
  8
0
  6
Continuous
 62
     7
370
    25
100
AcDbPolyline
 90
        3
 70
   128
 43
0.0
 10
6520.4640385205
 20
4932.3544673994
 10
6520.2900553756
 20
4932.3965214275
 10
6520.2140385205
 20
4932.4191091386
  0
LWPOLYLINE
  5
2DB
330
1F
100
AcDbEntity
  8
0
  6
Continuous
 62
     7
370
    25
100
AcDbPolyline
 90
        3
 70
   128
 43
0.0
 10
6520.2140385205
 20
4937.1888051457
 10
6520.3600725844
 20
4937.2299054409
 10
6520.4640385205
 20
4937.253446885
  0
LWPOLYLINE
  5
2DC
330
1F
100
AcDbEntity
  8
0
  6
Continuous
 62
     7
370
    25
100
AcDbPolyline
 90
        3
 70
   128
 43
0.0
 10
6619.9640385205
 20
4936.8435649476
 10
6620.1249905992
 20
4936.7972314208
 10
6620.2140385205
 20
4936.7654616668
  0
LWPOLYLINE
  5
2DD
330
1F
100
AcDbEntity
  8
0
  6
Continuous
 62
     7
370
    25
100
AcDbPolyline
 90
        3
 70
   128
 43
0.0
 10
6620.2140385205
 20
4932.8424526176
 10
6620.0659134315
 20
4932.7920559042
 10
6619.9640385205
 20
4932.7643493367
  0
LWPOLYLINE
  5
2DE
330
1F
100
AcDbEntity
  8
0
  6
Continuous
 62
     7
370
    25
100
AcDbPolyline
 90
        3
 70
   128
 43
0.0
 10
6619.9640385205
 20
4937.253446885
 10
6620.139986637
 20
4937.2108418805
 10
6620.2140385205
 20
4937.1888051457
  0
LWPOLYLINE
  5
2DF
330
1F
100
AcDbEntity
  8
0
  6
Continuous
 62
     7
370
    25
100
AcDbPolyline
 90
        3
 70
   128
 43
0.0
 10
6620.2140385205
 20
4932.4191091386
 10
6620.0660239474
 20
4932.3775166327
 10
6619.9640385205
 20
4932.3544673994
  0
LWPOLYLINE
  5
2E0
330
1F
100
AcDbEntity
  8
0
  6
Continuous
 62
     7
370
    25
100
AcDbPolyline
 90
        3
 70
   128
 43
0.0
 10
6620.2140385205
 20
4944.4864155077
 10
6620.1071951634
 20
4944.5133753164
 10
6619.9640385205
 20
4944.5475447771
  0
LINE
  5
2E1
330
1F
100
AcDbEntity
  8
0
  6
Continuous
 62
     7
370
    25
100
AcDbLine
 10
6520.4640385205
 20
4944.5475447771
 30
0.0
 11
6520.3868734436
 21
4944.5294032864
 31
0.0
  0
LINE
  5
2E2
330
1F
100
AcDbEntity
  8
0
  6
Continuous
 62
     7
370
    25
100
AcDbLine
 10
6520.2140385205
 20
4930.8746601825
 30
0.0
 11
6520.4640385205
 21
4930.8241312888
 31
0.0
  0
LWPOLYLINE
  5
2E3
330
1F
100
AcDbEntity
  8
0
  6
Continuous
 62
     7
370
    25
100
AcDbPolyline
 90
        3
 70
   128
 43
0.0
 10
6520.4640385205
 20
4930.8353301756
 10
6520.4297240421
 20
4930.8398042644
 10
6520.2140385205
 20
4930.8748987308
  0
LWPOLYLINE
  5
2E4
330
1F
100
AcDbEntity
  8
0
  6
Continuous
 62
     7
370
    25
100
AcDbPolyline
 90
        3
 70
   128
 43
0.0
 10
6520.4640385205
 20
4938.7725841088
 10
6520.454148412
 20
4938.7713255492
 10
6520.2140385205
 20
4938.7330155536
  0
LINE
  5
2E5
330
1F
100
AcDbEntity
  8
0
  6
Continuous
 62
     7
370
    25
100
AcDbLine
 10
6520.4640385205
 20
4938.9858985706
 30
0.0
 11
6520.2140385205
 21
4939.0364274644
 31
0.0
  0
LWPOLYLINE
  5
2E6
330
1F
100
AcDbEntity
  8
0
  6
Continuous
 62
     7
370
    25
100
AcDbPolyline
 90
        3
 70
   128
 43
0.0
 10
6520.2140385205
 20
4937.2934349991
 10
6520.3980369067
 20
4937.3416021475
 10
6520.4640385205
 20
4937.3554273066
  0
LWPOLYLINE
  5
2E7
330
1F
100
AcDbEntity
  8
0
  6
Continuous
 62
     7
370
    25
100
AcDbPolyline
 90
        3
 70
   128
 43
0.0
 10
6520.4640385205
 20
4932.2524869777
 10
6520.316282927
 20
4932.2859395308
 10
6520.2140385205
 20
4932.3144792853
  0
LWPOLYLINE
  5
2E8
330
1F
100
AcDbEntity
  8
0
  6
Continuous
 62
     7
370
    25
100
AcDbPolyline
 90
        3
 70
   128
 43
0.0
 10
6619.9640385205
 20
4930.8353301756
 10
6620.0869545049
 20
4930.8527578715
 10
6620.2140385205
 20
4930.8748987308
  0
LINE
  5
2E9
330
1F
100
AcDbEntity
  8
0
  6
Continuous
 62
     7
370
    25
100
AcDbLine
 10
6619.9640385205
 20
4930.8153953976
 30
0.0
 11
6620.2140385205
 21
4930.8217632032
 31
0.0
  0
LWPOLYLINE
  5
2EA
330
1F
100
AcDbEntity
  8
0
  6
Continuous
 62
     7
370
    25
100
AcDbPolyline
 90
        3
 70
   128
 43
0.0
 10
6620.2140385205
 20
4938.7330155536
 10
6620.1442519875
 20
4938.7456965602
 10
6619.9640385205
 20
4938.7725841088
  0
LINE
  5
2EB
330
1F
100
AcDbEntity
  8
0
  6
Continuous
 62
     7
370
    25
100
AcDbLine
 10
6620.2140385205
 20
4938.8243579152
 30
0.0
 11
6619.9640385205
 21
4938.8179901095
 31
0.0
  0
ARC
  5
2EC
330
1F
100
AcDbEntity
  8
0
  6
Continuous
 62
     7
370
    25
100
AcDbCircle
 10
6619.4640385205
 20
4934.8039571422
 30
0.0
 40
2.600000000000248
100
AcDbArc
 50
281.0874892113
 51
286.7658729731
  0
LWPOLYLINE
  5
2ED
330
1F
100
AcDbEntity
  8
0
  6
Continuous
 62
     7
370
    25
100
AcDbPolyline
 90
        3
 70
   128
 43
0.0
 10
6619.9640385205
 20
4937.3554273066
 10
6620.1387615691
 20
4937.3148830287
 10
6620.2140385205
 20
4937.2934349991
  0
LINE
  5
2EE
330
1F
100
AcDbEntity
  8
0
  6
Continuous
 62
     7
370
    25
100
AcDbLine
 10
6619.9640385205
 20
4925.2039571422
 30
0.0
 11
6620.2140385205
 21
4925.2039571422
 31
0.0
  0
LINE
  5
2EF
330
1F
100
AcDbEntity
  8
0
  6
Continuous
 62
     7
370
    25
100
AcDbLine
 10
6619.9640385205
 20
4921.2039571422
 30
0.0
 11
6620.2140385205
 21
4921.2039571422
 31
0.0
  0
LWPOLYLINE
  5
2F0
330
1F
100
AcDbEntity
  8
0
  6
Continuous
 62
     7
370
    25
100
AcDbPolyline
 90
        3
 70
   128
 43
0.0
 10
6620.2140385205
 20
4920.6012143924
 10
6619.9935811056
 20
4920.5839109295
 10
6619.9640385205
 20
4920.5818040804
  0
LINE
  5
2F1
330
1F
100
AcDbEntity
  8
0
  6
Continuous
 62
     7
370
    25
100
AcDbLine
 10
6620.2140385205
 20
4919.9010797747
 30
0.0
 11
6619.9640385205
 21
4919.8817630721
 31
0.0
  0
LWPOLYLINE
  5
2F2
330
1F
100
AcDbEntity
  8
0
  6
Continuous
 62
     7
370
    25
100
AcDbPolyline
 90
        3
 70
   128
 43
0.0
 10
6620.2140385205
 20
4919.2012088239
 10
6620.1751458232
 20
4919.1979387854
 10
6619.9640385205
 20
4919.1818786711
  0
LWPOLYLINE
  5
2F3
330
1F
100
AcDbEntity
  8
0
  6
Continuous
 62
     7
370
    25
100
AcDbPolyline
 90
        3
 70
   128
 43
0.0
 10
6620.2140385205
 20
4918.5012996783
 10
6620.1330201979
 20
4918.4946001549
 10
6619.9640385205
 20
4918.481941279
  0
LWPOLYLINE
  5
2F4
330
1F
100
AcDbEntity
  8
0
  6
Continuous
 62
     7
370
    25
100
AcDbPolyline
 90
        3
 70
   128
 43
0.0
 10
6620.2140385205
 20
4920.3712679926
 10
6620.0549019475
 20
4920.3614102413
 10
6619.9640385205
 20
4920.3562416153
  0
LWPOLYLINE
  5
2F5
330
1F
100
AcDbEntity
  8
0
  6
Continuous
 62
     7
370
    25
100
AcDbPolyline
 90
        3
 70
   128
 43
0.0
 10
6620.2140385205
 20
4919.6712679926
 10
6620.0549019475
 20
4919.6614102413
 10
6619.9640385205
 20
4919.6562416153
  0
LWPOLYLINE
  5
2F6
330
1F
100
AcDbEntity
  8
0
  6
Continuous
 62
     7
370
    25
100
AcDbPolyline
 90
        3
 70
   128
 43
0.0
 10
6620.2140385205
 20
4918.9712679926
 10
6620.0549019475
 20
4918.9614102413
 10
6619.9640385205
 20
4918.9562416153
  0
LWPOLYLINE
  5
2F7
330
1F
100
AcDbEntity
  8
0
  6
Continuous
 62
     7
370
    25
100
AcDbPolyline
 90
        3
 70
   128
 43
0.0
 10
6620.2140385205
 20
4918.2712679926
 10
6620.0549019475
 20
4918.2614102413
 10
6619.9640385205
 20
4918.2562416153
  0
LWPOLYLINE
  5
2F8
330
1F
100
AcDbEntity
  8
0
  6
Continuous
 62
     7
370
    25
100
AcDbPolyline
 90
        3
 70
   128
 43
0.0
 10
6620.2140385205
 20
4920.8962679947
 10
6620.0549019592
 20
4920.8864102442
 10
6619.9640385205
 20
4920.8812416174
  0
LWPOLYLINE
  5
2F9
330
1F
100
AcDbEntity
  8
0
  6
Continuous
 62
     7
370
    25
100
AcDbPolyline
 90
        3
 70
   128
 43
0.0
 10
6620.2140385205
 20
4920.1962679947
 10
6620.0549019592
 20
4920.1864102442
 10
6619.9640385205
 20
4920.1812416174
  0
LWPOLYLINE
  5
2FA
330
1F
100
AcDbEntity
  8
0
  6
Continuous
 62
     7
370
    25
100
AcDbPolyline
 90
        3
 70
   128
 43
0.0
 10
6620.2140385205
 20
4919.4962679947
 10
6620.0549019592
 20
4919.4864102442
 10
6619.9640385205
 20
4919.4812416174
  0
LWPOLYLINE
  5
2FB
330
1F
100
AcDbEntity
  8
0
  6
Continuous
 62
     7
370
    25
100
AcDbPolyline
 90
        3
 70
   128
 43
0.0
 10
6620.2140385205
 20
4918.7962679947
 10
6620.0549019592
 20
4918.7864102442
 10
6619.9640385205
 20
4918.7812416174
  0
LWPOLYLINE
  5
2FC
330
1F
100
AcDbEntity
  8
0
  6
Continuous
 62
     7
370
    25
100
AcDbPolyline
 90
        3
 70
   128
 43
0.0
 10
6620.2140385205
 20
4920.6885963033
 10
6620.2075297425
 20
4920.6880421381
 10
6619.9640385205
 20
4920.6692835928
  0
LWPOLYLINE
  5
2FD
330
1F
100
AcDbEntity
  8
0
  6
Continuous
 62
     7
370
    25
100
AcDbPolyline
 90
        3
 70
   128
 43
0.0
 10
6620.2140385205
 20
4919.9885963033
 10
6620.2075297425
 20
4919.9880421381
 10
6619.9640385205
 20
4919.9692835928
  0
LWPOLYLINE
  5
2FE
330
1F
100
AcDbEntity
  8
0
  6
Continuous
 62
     7
370
    25
100
AcDbPolyline
 90
        3
 70
   128
 43
0.0
 10
6620.2140385205
 20
4919.2885963033
 10
6620.2075297425
 20
4919.2880421381
 10
6619.9640385205
 20
4919.2692835928
  0
LWPOLYLINE
  5
2FF
330
1F
100
AcDbEntity
  8
0
  6
Continuous
 62
     7
370
    25
100
AcDbPolyline
 90
        3
 70
   128
 43
0.0
 10
6620.2140385205
 20
4918.5885963033
 10
6620.2075297425
 20
4918.5880421381
 10
6619.9640385205
 20
4918.5692835928
  0
LINE
  5
300
330
1F
100
AcDbEntity
  8
0
  6
Continuous
 62
     7
370
    25
100
AcDbLine
 10
6520.2140385205
 20
4925.2039571422
 30
0.0
 11
6520.4640385205
 21
4925.2039571422
 31
0.0
  0
LINE
  5
301
330
1F
100
AcDbEntity
  8
0
  6
Continuous
 62
     7
370
    25
100
AcDbLine
 10
6520.2140385205
 20
4921.2039571422
 30
0.0
 11
6520.4640385205
 21
4921.2039571422
 31
0.0
  0
LWPOLYLINE
  5
302
330
1F
100
AcDbEntity
  8
0
  6
Continuous
 62
     7
370
    25
100
AcDbPolyline
 90
        3
 70
   128
 43
0.0
 10
6520.4640385205
 20
4920.513514491
 10
6520.3909803711
 20
4920.5082249165
 10
6520.2140385205
 20
4920.4941147436
  0
LWPOLYLINE
  5
303
330
1F
100
AcDbEntity
  8
0
  6
Continuous
 62
     7
370
    25
100
AcDbPolyline
 90
        3
 70
   128
 43
0.0
 10
6520.4640385205
 20
4919.8134657827
 10
6520.3478321436
 20
4919.8049234409
 10
6520.2140385205
 20
4919.7940811846
  0
LWPOLYLINE
  5
304
330
1F
100
AcDbEntity
  8
0
  6
Continuous
 62
     7
370
    25
100
AcDbPolyline
 90
        3
 70
   128
 43
0.0
 10
6520.4640385205
 20
4919.1134657051
 10
6520.30510702
 20
4919.1016028666
 10
6520.2140385205
 20
4919.0941015859
  0
LWPOLYLINE
  5
305
330
1F
100
AcDbEntity
  8
0
  6
Continuous
 62
     7
370
    25
100
AcDbPolyline
 90
        3
 70
   128
 43
0.0
 10
6520.4640385205
 20
4918.4135160768
 10
6520.2628601472
 20
4918.3982672119
 10
6520.2140385205
 20
4918.3941786075
  0
LWPOLYLINE
  5
306
330
1F
100
AcDbEntity
  8
0
  6
Continuous
 62
     7
370
    25
100
AcDbPolyline
 90
        3
 70
   128
 43
0.0
 10
6520.4640385205
 20
4920.3016594695
 10
6520.2334845306
 20
4920.2880200061
 10
6520.2140385205
 20
4920.2867652335
  0
LWPOLYLINE
  5
307
330
1F
100
AcDbEntity
  8
0
  6
Continuous
 62
     7
370
    25
100
AcDbPolyline
 90
        3
 70
   128
 43
0.0
 10
6520.4640385205
 20
4919.6016594695
 10
6520.2334845306
 20
4919.5880200061
 10
6520.2140385205
 20
4919.5867652335
  0
LWPOLYLINE
  5
308
330
1F
100
AcDbEntity
  8
0
  6
Continuous
 62
     7
370
    25
100
AcDbPolyline
 90
        3
 70
   128
 43
0.0
 10
6520.4640385205
 20
4918.9016594695
 10
6520.2334845306
 20
4918.8880200061
 10
6520.2140385205
 20
4918.8867652335
  0
LWPOLYLINE
  5
309
330
1F
100
AcDbEntity
  8
0
  6
Continuous
 62
     7
370
    25
100
AcDbPolyline
 90
        3
 70
   128
 43
0.0
 10
6520.4640385205
 20
4920.8266594716
 10
6520.2334845448
 20
4920.8130200092
 10
6520.2140385205
 20
4920.8117652356
  0
LWPOLYLINE
  5
30A
330
1F
100
AcDbEntity
  8
0
  6
Continuous
 62
     7
370
    25
100
AcDbPolyline
 90
        3
 70
   128
 43
0.0
 10
6520.4640385205
 20
4920.1266594716
 10
6520.2334845448
 20
4920.1130200092
 10
6520.2140385205
 20
4920.1117652356
  0
LWPOLYLINE
  5
30B
330
1F
100
AcDbEntity
  8
0
  6
Continuous
 62
     7
370
    25
100
AcDbPolyline
 90
        3
 70
   128
 43
0.0
 10
6520.4640385205
 20
4919.4266594716
 10
6520.2334845448
 20
4919.4130200092
 10
6520.2140385205
 20
4919.4117652356
  0
LWPOLYLINE
  5
30C
330
1F
100
AcDbEntity
  8
0
  6
Continuous
 62
     7
370
    25
100
AcDbPolyline
 90
        3
 70
   128
 43
0.0
 10
6520.4640385205
 20
4918.7266594716
 10
6520.2334845448
 20
4918.7130200092
 10
6520.2140385205
 20
4918.7117652356
  0
LWPOLYLINE
  5
30D
330
1F
100
AcDbEntity
  8
0
  6
Continuous
 62
     7
370
    25
100
AcDbPolyline
 90
        3
 70
   128
 43
0.0
 10
6520.4640385205
 20
4920.6009961004
 10
6520.371882924
 20
4920.5942700081
 10
6520.2140385205
 20
4920.5816003783
  0
LWPOLYLINE
  5
30E
330
1F
100
AcDbEntity
  8
0
  6
Continuous
 62
     7
370
    25
100
AcDbPolyline
 90
        3
 70
   128
 43
0.0
 10
6520.4640385205
 20
4919.9009961004
 10
6520.371882924
 20
4919.8942700081
 10
6520.2140385205
 20
4919.8816003783
  0
LWPOLYLINE
  5
30F
330
1F
100
AcDbEntity
  8
0
  6
Continuous
 62
     7
370
    25
100
AcDbPolyline
 90
        3
 70
   128
 43
0.0
 10
6520.4640385205
 20
4919.2009961004
 10
6520.371882924
 20
4919.1942700081
 10
6520.2140385205
 20
4919.1816003783
  0
LWPOLYLINE
  5
310
330
1F
100
AcDbEntity
  8
0
  6
Continuous
 62
     7
370
    25
100
AcDbPolyline
 90
        3
 70
   128
 43
0.0
 10
6520.4640385205
 20
4918.5009961004
 10
6520.371882924
 20
4918.4942700081
 10
6520.2140385205
 20
4918.4816003783
  0
LINE
  5
311
330
1F
100
AcDbEntity
  8
0
  6
Continuous
 62
     7
370
    25
100
AcDbLine
 10
6520.9640385205
 20
4914.9039571422
 30
0.0
 11
6521.1349762319
 21
4914.9039571422
 31
0.0
  0
LINE
  5
312
330
1F
100
AcDbEntity
  8
0
  6
Continuous
 62
     7
370
    25
100
AcDbLine
 10
6526.9640385205
 20
4913.7039571422
 30
0.0
 11
6526.9640385205
 21
4913.9539571422
 31
0.0
  0
LINE
  5
313
330
1F
100
AcDbEntity
  8
0
  6
Continuous
 62
     7
370
    25
100
AcDbLine
 10
6520.2140385205
 20
4918.2039571422
 30
0.0
 11
6520.4640385205
 21
4918.2039571422
 31
0.0
  0
LINE
  5
314
330
1F
100
AcDbEntity
  8
0
  6
Continuous
 62
     7
370
    25
100
AcDbLine
 10
6528.9640385205
 20
4913.9539571422
 30
0.0
 11
6528.9640385205
 21
4913.7039571422
 31
0.0
  0
LINE
  5
315
330
1F
100
AcDbEntity
  8
0
  6
Continuous
 62
     7
370
    25
100
AcDbLine
 10
6613.4640385205
 20
4913.9539571422
 30
0.0
 11
6613.4640385205
 21
4913.7039571422
 31
0.0
  0
LINE
  5
316
330
1F
100
AcDbEntity
  8
0
  6
Continuous
 62
     7
370
    25
100
AcDbLine
 10
6611.4640385205
 20
4913.7039571422
 30
0.0
 11
6611.4640385205
 21
4913.9539571422
 31
0.0
  0
LINE
  5
317
330
1F
100
AcDbEntity
  8
0
  6
Continuous
 62
     7
370
    25
100
AcDbLine
 10
6619.9640385205
 20
4918.2039571422
 30
0.0
 11
6620.2140385205
 21
4918.2039571422
 31
0.0
  0
LINE
  5
318
330
1F
100
AcDbEntity
  8
0
  6
Continuous
 62
     7
370
    25
100
AcDbLine
 10
6619.2931008091
 20
4914.9039571422
 30
0.0
 11
6619.4640385205
 21
4914.9039571422
 31
0.0
  0
LINE
  5
319
330
1F
100
AcDbEntity
  8
0
  6
Continuous
 62
     8
370
    25
100
AcDbLine
 10
6520.4640385205
 20
4959.0039594982
 30
0.0
 11
6520.2140385205
 21
4959.0039594982
 31
0.0
  0
LINE
  5
31A
330
1F
100
AcDbEntity
  8
0
  6
Continuous
 62
     8
370
    25
100
AcDbLine
 10
6520.4640385205
 20
4953.5039594982
 30
0.0
 11
6520.2140385205
 21
4953.5039594982
 31
0.0
  0
LINE
  5
31B
330
1F
100
AcDbEntity
  8
0
  6
Continuous
 62
     8
370
    25
100
AcDbLine
 10
6520.4640385205
 20
4952.2539594982
 30
0.0
 11
6520.2140385205
 21
4952.2539594982
 31
0.0
  0
LINE
  5
31C
330
1F
100
AcDbEntity
  8
0
  6
Continuous
 62
     8
370
    25
100
AcDbLine
 10
6520.4640385205
 20
4965.3539579723
 30
0.0
 11
6520.2140385205
 21
4965.3539579723
 31
0.0
  0
LINE
  5
31D
330
1F
100
AcDbEntity
  8
0
  6
Continuous
 62
     8
370
    25
100
AcDbLine
 10
6520.4640385205
 20
4959.8539579723
 30
0.0
 11
6520.2140385205
 21
4959.8539579723
 31
0.0
  0
LINE
  5
31E
330
1F
100
AcDbEntity
  8
0
  6
Continuous
 62
     8
370
    25
100
AcDbLine
 10
6520.3030396605
 20
4959.2539595668
 30
0.0
 11
6520.3030396605
 21
4959.6039579753
 31
0.0
  0
LINE
  5
31F
330
1F
100
AcDbEntity
  8
0
  6
Continuous
 62
     8
370
    25
100
AcDbLine
 10
6627.5019064862
 20
4901.2039571422
 30
0.0
 11
6627.2833466006
 21
4901.2039571422
 31
0.0
  0
LINE
  5
320
330
1F
100
AcDbEntity
  8
0
  6
Continuous
 62
     8
370
    25
100
AcDbLine
 10
6513.1447304405
 20
4901.2039571422
 30
0.0
 11
6512.9261705548
 21
4901.2039571422
 31
0.0
  0
LINE
  5
321
330
1F
100
AcDbEntity
  8
0
  6
Continuous
 62
     8
370
    25
100
AcDbLine
 10
6512.7140385205
 20
4901.4160891765
 30
0.0
 11
6512.7140385205
 21
4901.6346490622
 31
0.0
  0
LINE
  5
322
330
1F
100
AcDbEntity
  8
0
  6
Continuous
 62
     8
370
    25
100
AcDbLine
 10
6512.7140385205
 20
5125.7732652223
 30
0.0
 11
6512.7140385205
 21
5125.9918251079
 31
0.0
  0
LINE
  5
323
330
1F
100
AcDbEntity
  8
0
  6
Continuous
 62
     8
370
    25
100
AcDbLine
 10
6512.9261705548
 20
5126.2039571422
 30
0.0
 11
6513.1447304404
 21
5126.2039571422
 31
0.0
  0
LINE
  5
324
330
1F
100
AcDbEntity
  8
0
  6
Continuous
 62
     8
370
    25
100
AcDbLine
 10
6627.2833466006
 20
5126.2039571422
 30
0.0
 11
6627.5019064862
 21
5126.2039571422
 31
0.0
  0
LINE
  5
325
330
1F
100
AcDbEntity
  8
0
  6
Continuous
 62
     8
370
    25
100
AcDbLine
 10
6627.7140385205
 20
5125.9918251079
 30
0.0
 11
6627.7140385205
 21
5125.7732652223
 31
0.0
  0
LINE
  5
326
330
1F
100
AcDbEntity
  8
0
  6
Continuous
 62
     8
370
    25
100
AcDbLine
 10
6627.7140385205
 20
4901.6346490621
 30
0.0
 11
6627.7140385205
 21
4901.4160891765
 31
0.0
  0
LINE
  5
327
330
1F
100
AcDbEntity
  8
0
  6
Continuous
 62
     8
370
    25
100
AcDbLine
 10
6620.2140385205
 20
4924.7039571422
 30
0.0
 11
6619.9640385205
 21
4924.7039571422
 31
0.0
  0
LINE
  5
328
330
1F
100
AcDbEntity
  8
0
  6
Continuous
 62
     8
370
    25
100
AcDbLine
 10
6520.4640385205
 20
4924.7039571422
 30
0.0
 11
6520.2140385205
 21
4924.7039571422
 31
0.0
  0
LINE
  5
329
330
1F
100
AcDbEntity
  8
0
  6
Continuous
 62
     8
370
    25
100
AcDbLine
 10
6520.9640385205
 20
4914.9039571422
 30
0.0
 11
6520.9640385205
 21
4915.1228183121
 31
0.0
  0
LINE
  5
32A
330
1F
100
AcDbEntity
  8
0
  6
Continuous
 62
     8
370
    25
100
AcDbLine
 10
6619.4640385205
 20
4914.9039571422
 30
0.0
 11
6619.4640385205
 21
4915.1228183121
 31
0.0
  0
LINE
  5
32B
330
1F
100
AcDbEntity
  8
0
  6
Continuous
 62
     7
370
    25
100
AcDbLine
 10
6862.9452626612
 20
4900.2039571422
 30
0.0
 11
6862.9452626612
 21
4900.5039571422
 31
0.0
  0
LINE
  5
32C
330
1F
100
AcDbEntity
  8
0
  6
Continuous
 62
     7
370
    25
100
AcDbLine
 10
6849.7452626612
 20
4900.5039571422
 30
0.0
 11
6849.7452626612
 21
4900.2039571422
 31
0.0
  0
LINE
  5
32D
330
1F
100
AcDbEntity
  8
0
  6
Continuous
 62
     7
370
    25
100
AcDbLine
 10
6841.0952626612
 20
4900.2039571422
 30
0.0
 11
6841.0952626612
 21
4900.5039571422
 31
0.0
  0
LINE
  5
32E
330
1F
100
AcDbEntity
  8
0
  6
Continuous
 62
     7
370
    25
100
AcDbLine
 10
6831.5952626612
 20
4900.5039571422
 30
0.0
 11
6831.5952626612
 21
4900.2039571422
 31
0.0
  0
LINE
  5
32F
330
1F
100
AcDbEntity
  8
0
  6
Continuous
 62
     7
370
    25
100
AcDbLine
 10
6941.5952626612
 20
4900.2039571422
 30
0.0
 11
6941.5952626612
 21
4900.5039571422
 31
0.0
  0
LINE
  5
330
330
1F
100
AcDbEntity
  8
0
  6
Continuous
 62
     7
370
    25
100
AcDbLine
 10
6932.0952626612
 20
4900.5039571422
 30
0.0
 11
6932.0952626612
 21
4900.4039571422
 31
0.0
  0
LINE
  5
331
330
1F
100
AcDbEntity
  8
0
  6
Continuous
 62
     7
370
    25
100
AcDbLine
 10
6946.5952626612
 20
4860.2039571422
 30
0.0
 11
6948.0952626612
 21
4860.2039571422
 31
0.0
  0
LINE
  5
332
330
1F
100
AcDbEntity
  8
0
  6
Continuous
 62
     7
370
    25
100
AcDbLine
 10
6948.0952626612
 20
4890.2039571422
 30
0.0
 11
6946.5952626612
 21
4890.2039571422
 31
0.0
  0
LINE
  5
333
330
1F
100
AcDbEntity
  8
0
  6
Continuous
 62
     7
370
    25
100
AcDbLine
 10
6948.0952626612
 20
4860.2039571422
 30
0.0
 11
6949.0952626612
 21
4861.2039571422
 31
0.0
  0
LINE
  5
334
330
1F
100
AcDbEntity
  8
0
  6
Continuous
 62
     7
370
    25
100
AcDbLine
 10
6949.0952626612
 20
4889.2039571422
 30
0.0
 11
6948.0952626612
 21
4890.2039571422
 31
0.0
  0
LINE
  5
335
330
1F
100
AcDbEntity
  8
0
  6
Continuous
 62
     7
370
    25
100
AcDbLine
 10
6945.0952626612
 20
4888.2039571422
 30
0.0
 11
6944.7952626612
 21
4888.2039571422
 31
0.0
  0
LINE
  5
336
330
1F
100
AcDbEntity
  8
0
  6
Continuous
 62
     7
370
    25
100
AcDbLine
 10
6944.7952626612
 20
4862.2039571422
 30
0.0
 11
6945.0952626612
 21
4862.2039571422
 31
0.0
  0
ARC
  5
337
330
1F
100
AcDbEntity
  8
0
  6
Continuous
 62
     7
370
    25
100
AcDbCircle
 10
6949.0952626612
 20
4876.6039571422
 30
0.0
 40
0.1999999999998181
100
AcDbArc
 50
0.0
 51
90.0
  0
ARC
  5
338
330
1F
100
AcDbEntity
  8
0
  6
Continuous
 62
     7
370
    25
100
AcDbCircle
 10
6949.0952626612
 20
4865.8039571422
 30
0.0
 40
0.1999999999998181
100
AcDbArc
 50
270.0
 51
0.0
  0
LINE
  5
339
330
1F
100
AcDbEntity
  8
0
  6
Continuous
 62
     7
370
    25
100
AcDbLine
 10
6887.0952626612
 20
4900.2039571422
 30
0.0
 11
6887.0952626612
 21
4900.5039571422
 31
0.0
  0
LINE
  5
33A
330
1F
100
AcDbEntity
  8
0
  6
Continuous
 62
     7
370
    25
100
AcDbLine
 10
6883.0952626612
 20
4900.5039571422
 30
0.0
 11
6883.0952626612
 21
4900.2039571422
 31
0.0
  0
LINE
  5
33B
330
1F
100
AcDbEntity
  8
0
  6
Continuous
 62
     7
370
    25
100
AcDbLine
 10
6922.0952626612
 20
4900.2039571422
 30
0.0
 11
6922.0952626612
 21
4900.5039571422
 31
0.0
  0
LINE
  5
33C
330
1F
100
AcDbEntity
  8
0
  6
Continuous
 62
     7
370
    25
100
AcDbLine
 10
6918.0952626612
 20
4900.5039571422
 30
0.0
 11
6918.0952626612
 21
4900.2039571422
 31
0.0
  0
LINE
  5
33D
330
1F
100
AcDbEntity
  8
0
  6
Continuous
 62
     7
370
    25
100
AcDbLine
 10
6946.5952626612
 20
4994.7039571422
 30
0.0
 11
6947.6952626612
 21
4994.7039571422
 31
0.0
  0
LINE
  5
33E
330
1F
100
AcDbEntity
  8
0
  6
Continuous
 62
     7
370
    25
100
AcDbLine
 10
6947.6952626612
 20
5018.7039571422
 30
0.0
 11
6946.5952626612
 21
5018.7039571422
 31
0.0
  0
LINE
  5
33F
330
1F
100
AcDbEntity
  8
0
  6
Continuous
 62
     7
370
    25
100
AcDbLine
 10
6947.6952626612
 20
4994.7039571422
 30
0.0
 11
6948.6952626612
 21
4995.7039571422
 31
0.0
  0
LINE
  5
340
330
1F
100
AcDbEntity
  8
0
  6
Continuous
 62
     7
370
    25
100
AcDbLine
 10
6948.6952626612
 20
5017.7039571422
 30
0.0
 11
6947.6952626612
 21
5018.7039571422
 31
0.0
  0
ARC
  5
341
330
1F
100
AcDbEntity
  8
0
  6
Continuous
 62
     7
370
    25
100
AcDbCircle
 10
6948.6952626612
 20
5005.3039571422
 30
0.0
 40
0.2000000000007276
100
AcDbArc
 50
270.0
 51
0.0
  0
LINE
  5
342
330
1F
100
AcDbEntity
  8
0
  6
Continuous
 62
     7
370
    25
100
AcDbLine
 10
6857.5952626612
 20
4851.6039571422
 30
0.0
 11
6857.5952626612
 21
4851.7039571422
 31
0.0
  0
LINE
  5
343
330
1F
100
AcDbEntity
  8
0
  6
Continuous
 62
     7
370
    25
100
AcDbLine
 10
6833.5952626612
 20
4851.6039571422
 30
0.0
 11
6833.5952626612
 21
4851.7039571422
 31
0.0
  0
LINE
  5
344
330
1F
100
AcDbEntity
  8
0
  6
Continuous
 62
     7
370
    25
100
AcDbLine
 10
6857.5952626612
 20
4851.6039571422
 30
0.0
 11
6833.5952626612
 21
4851.6039571422
 31
0.0
  0
LINE
  5
345
330
1F
100
AcDbEntity
  8
0
  6
Continuous
 62
     7
370
    25
100
AcDbLine
 10
6948.0952626612
 20
4875.2039571422
 30
0.0
 11
6948.0952626612
 21
4890.2039571422
 31
0.0
  0
LINE
  5
346
330
1F
100
AcDbEntity
  8
0
  6
Continuous
 62
     7
370
    25
100
AcDbLine
 10
6948.0952626612
 20
4860.2039571422
 30
0.0
 11
6948.0952626612
 21
4875.2039571422
 31
0.0
  0
LINE
  5
347
330
1F
100
AcDbEntity
  8
0
  6
Continuous
 62
     7
370
    25
100
AcDbLine
 10
6949.0952626612
 20
4875.2039571422
 30
0.0
 11
6949.0952626612
 21
4861.2039571422
 31
0.0
  0
LINE
  5
348
330
1F
100
AcDbEntity
  8
0
  6
Continuous
 62
     7
370
    25
100
AcDbLine
 10
6949.0952626612
 20
4889.2039571422
 30
0.0
 11
6949.0952626612
 21
4875.2039571422
 31
0.0
  0
LINE
  5
349
330
1F
100
AcDbEntity
  8
0
  6
Continuous
 62
     7
370
    25
100
AcDbLine
 10
6944.7952626612
 20
4882.1321603725
 30
0.0
 11
6945.0952626612
 21
4882.1321603725
 31
0.0
  0
LINE
  5
34A
330
1F
100
AcDbEntity
  8
0
  6
Continuous
 62
     7
370
    25
100
AcDbLine
 10
6944.7952626612
 20
4868.2757539119
 30
0.0
 11
6945.0952626612
 21
4868.2757539119
 31
0.0
  0
LINE
  5
34B
330
1F
100
AcDbEntity
  8
0
  6
Continuous
 62
     7
370
    25
100
AcDbLine
 10
6949.2952626612
 20
4876.6039571422
 30
0.0
 11
6949.2952626612
 21
4865.8039571422
 31
0.0
  0
LWPOLYLINE
  5
34C
330
1F
100
AcDbEntity
  8
0
  6
Continuous
 62
     7
370
    25
100
AcDbPolyline
 90
        3
 70
   128
 43
0.0
 10
6829.6192031735
 20
4853.2136157467
 10
6829.5972154346
 20
4853.2084060655
 10
6829.5259545811
 20
4853.2039571422
  0
LWPOLYLINE
  5
34D
330
1F
100
AcDbEntity
  8
0
  6
Continuous
 62
     7
370
    25
100
AcDbPolyline
 90
       17
 70
   128
 43
0.0
 10
6829.2021988102
 20
4854.2039571422
 10
6829.307557905
 20
4854.0246539316
 10
6829.4032007352
 20
4853.8296561558
 10
6829.4891273008
 20
4853.6206154501
 10
6829.5653376018
 20
4853.3998843556
 10
6829.6304108452
 20
4853.1748593138
 10
6829.6833396638
 20
4852.9517728316
 10
6829.7241240578
 20
4852.7340913018
 10
6829.7527640271
 20
4852.5256707153
 10
6829.7687643789
 20
4852.3344888374
 10
6829.7718060961
 20
4852.1655987498
 10
6829.7618891786
 20
4852.0208993972
 10
6829.7390136265
 20
4851.9019930443
 10
6829.7037449572
 20
4851.8117459336
 10
6829.6564788933
 20
4851.7501835294
 10
6829.5972154346
 20
4851.7150794504
 10
6829.5259545811
 20
4851.7039571422
  0
LINE
  5
34E
330
1F
100
AcDbEntity
  8
0
  6
Continuous
 62
     7
370
    25
100
AcDbLine
 10
6829.5259545811
 20
4851.7039571422
 30
0.0
 11
6829.5259545811
 21
4853.2039571422
 31
0.0
  0
LWPOLYLINE
  5
34F
330
1F
100
AcDbEntity
  8
0
  6
Continuous
 62
     7
370
    25
100
AcDbPolyline
 90
       17
 70
   128
 43
0.0
 10
6943.6645707413
 20
4851.7039571422
 10
6943.593427061
 20
4851.7150464556
 10
6943.5342026601
 20
4851.7500941346
 10
6943.4868975383
 20
4851.8116441664
 10
6943.4515116959
 20
4851.9019930443
 10
6943.4286465813
 20
4852.0204980596
 10
6943.418733143
 20
4852.1649629953
 10
6943.421771381
 20
4852.3339419846
 10
6943.4377612952
 20
4852.5256707153
 10
6943.4662589938
 20
4852.7334642606
 10
6943.5069959643
 20
4852.9508782618
 10
6943.5599722065
 20
4853.174152828
 10
6943.6251877204
 20
4853.3998843556
 10
6943.7012305253
 20
4853.6203626741
 10
6943.7871012589
 20
4853.8293134597
 10
6943.8827999212
 20
4854.0243946472
 10
6943.9883265121
 20
4854.2039571422
  0
LINE
  5
350
330
1F
100
AcDbEntity
  8
0
  6
Continuous
 62
     7
370
    25
100
AcDbLine
 10
6943.6645707413
 20
4851.7039571422
 30
0.0
 11
6829.5259545811
 21
4851.7039571422
 31
0.0
  0
LINE
  5
351
330
1F
100
AcDbEntity
  8
0
  6
Continuous
 62
     7
370
    25
100
AcDbLine
 10
6943.9883265121
 20
4854.2039571422
 30
0.0
 11
6829.2021988102
 21
4854.2039571422
 31
0.0
  0
LINE
  5
352
330
1F
100
AcDbEntity
  8
0
  6
Continuous
 62
     7
370
    25
100
AcDbLine
 10
6944.7952626612
 20
4896.2039571422
 30
0.0
 11
6828.3952626611
 21
4896.2039571422
 31
0.0
  0
LINE
  5
353
330
1F
100
AcDbEntity
  8
0
  6
Continuous
 62
     7
370
    25
100
AcDbLine
 10
6944.7952626612
 20
4854.5221105514
 30
0.0
 11
6944.7952626612
 21
4896.2039571422
 31
0.0
  0
ARC
  5
354
330
1F
100
AcDbEntity
  8
0
  6
Continuous
 62
     7
370
    25
100
AcDbCircle
 10
6944.9184859659
 20
4853.0271804469
 30
0.0
 40
1.500000000000909
100
AcDbArc
 50
94.7120935771
 51
128.3238976628
  0
LINE
  5
355
330
1F
100
AcDbEntity
  8
0
  6
Continuous
 62
     7
370
    25
100
AcDbLine
 10
6828.3952626612
 20
4854.5221105513
 30
0.0
 11
6828.3952626611
 21
4896.2039571422
 31
0.0
  0
ARC
  5
356
330
1F
100
AcDbEntity
  8
0
  6
Continuous
 62
     7
370
    25
100
AcDbCircle
 10
6828.2720393565
 20
4853.0271804469
 30
0.0
 40
1.500000000000327
100
AcDbArc
 50
51.6761023408
 51
85.2879064222
  0
LWPOLYLINE
  5
357
330
1F
100
AcDbEntity
  8
0
  6
Continuous
 62
     7
370
    25
100
AcDbPolyline
 90
        3
 70
   128
 43
0.0
 10
6943.6645707413
 20
4853.2039571422
 10
6943.593427061
 20
4853.2083928676
 10
6943.5713726556
 20
4853.2136133896
  0
LINE
  5
358
330
1F
100
AcDbEntity
  8
0
  6
Continuous
 62
     7
370
    25
100
AcDbLine
 10
6943.6645707413
 20
4851.7039571422
 30
0.0
 11
6943.6645707413
 21
4853.2039571422
 31
0.0
  0
ARC
  5
359
330
1F
100
AcDbEntity
  8
0
  6
Continuous
 62
     7
370
    25
100
AcDbCircle
 10
6940.1397252464
 20
4895.9217681865
 30
0.0
 40
4.664081820425753
100
AcDbArc
 50
3.4686605486
 51
36.6206195835
  0
ARC
  5
35A
330
1F
100
AcDbEntity
  8
0
  6
Continuous
 62
     7
370
    25
100
AcDbCircle
 10
6833.0508000759
 20
4895.9217681865
 30
0.0
 40
4.664081820328415
100
AcDbArc
 50
143.3793804154
 51
176.5313394511
  0
LINE
  5
35B
330
1F
100
AcDbEntity
  8
0
  6
Continuous
 62
     7
370
    25
100
AcDbLine
 10
6826.5952626612
 20
4854.5271804469
 30
0.0
 11
6828.0952626612
 21
4854.5271804469
 31
0.0
  0
LINE
  5
35C
330
1F
100
AcDbEntity
  8
0
  6
Continuous
 62
     7
370
    25
100
AcDbLine
 10
6826.5952626612
 20
4896.2039571422
 30
0.0
 11
6826.5952626612
 21
4854.5271804469
 31
0.0
  0
LINE
  5
35D
330
1F
100
AcDbEntity
  8
0
  6
Continuous
 62
     7
370
    25
100
AcDbLine
 10
6826.5952626612
 20
4896.2039571422
 30
0.0
 11
6828.0952626612
 21
4896.2039571422
 31
0.0
  0
LINE
  5
35E
330
1F
100
AcDbEntity
  8
0
  6
Continuous
 62
     7
370
    25
100
AcDbLine
 10
6828.0952626612
 20
4896.2039571422
 30
0.0
 11
6828.0952626612
 21
4854.5271804469
 31
0.0
  0
ARC
  5
35F
330
1F
100
AcDbEntity
  8
0
  6
Continuous
 62
     7
370
    25
100
AcDbCircle
 10
6829.0952626612
 20
4896.2039571422
 30
0.0
 40
2.500000000001819
100
AcDbArc
 50
90.0
 51
180.0
  0
LINE
  5
360
330
1F
100
AcDbEntity
  8
0
  6
Continuous
 62
     7
370
    25
100
AcDbLine
 10
6829.0952626612
 20
4898.7039571422
 30
0.0
 11
6829.0952626612
 21
4898.5356454555
 31
0.0
  0
ARC
  5
361
330
1F
100
AcDbEntity
  8
0
  6
Continuous
 62
     7
370
    25
100
AcDbCircle
 10
6829.0521672505
 20
4896.2240876427
 30
0.0
 40
0.9571163096595345
100
AcDbArc
 50
118.1554718682
 51
181.2051594551
  0
ARC
  5
362
330
1F
100
AcDbEntity
  8
0
  6
Continuous
 62
     7
370
    25
100
AcDbCircle
 10
6944.0952626612
 20
4896.2039571422
 30
0.0
 40
2.5
100
AcDbArc
 50
360.0
 51
90.0
  0
LINE
  5
363
330
1F
100
AcDbEntity
  8
0
  6
Continuous
 62
     7
370
    25
100
AcDbLine
 10
6946.5952626612
 20
4896.2039571422
 30
0.0
 11
6945.0952626612
 21
4896.2039571422
 31
0.0
  0
ARC
  5
364
330
1F
100
AcDbEntity
  8
0
  6
Continuous
 62
     7
370
    25
100
AcDbCircle
 10
6944.1383580718
 20
4896.2240876427
 30
0.0
 40
0.9571163096591687
100
AcDbArc
 50
358.7948405449
 51
61.8445281325
  0
LINE
  5
365
330
1F
100
AcDbEntity
  8
0
  6
Continuous
 62
     7
370
    25
100
AcDbLine
 10
6944.0952626612
 20
4898.7039571422
 30
0.0
 11
6944.0952626612
 21
4898.5356454555
 31
0.0
  0
LINE
  5
366
330
1F
100
AcDbEntity
  8
0
  6
Continuous
 62
     7
370
    25
100
AcDbLine
 10
6946.5952626612
 20
4896.2039571422
 30
0.0
 11
6946.5952626612
 21
4854.5271804469
 31
0.0
  0
LINE
  5
367
330
1F
100
AcDbEntity
  8
0
  6
Continuous
 62
     7
370
    25
100
AcDbLine
 10
6946.5952626612
 20
4854.5271804469
 30
0.0
 11
6945.0952626612
 21
4854.5271804469
 31
0.0
  0
LINE
  5
368
330
1F
100
AcDbEntity
  8
0
  6
Continuous
 62
     7
370
    25
100
AcDbLine
 10
6945.0952626612
 20
4896.2039571422
 30
0.0
 11
6945.0952626612
 21
4854.5271804469
 31
0.0
  0
LINE
  5
369
330
1F
100
AcDbEntity
  8
0
  6
Continuous
 62
     7
370
    25
100
AcDbLine
 10
6946.5952626612
 20
4854.2039571422
 30
0.0
 11
6945.0952626612
 21
4854.2039571422
 31
0.0
  0
LINE
  5
36A
330
1F
100
AcDbEntity
  8
0
  6
Continuous
 62
     7
370
    25
100
AcDbLine
 10
6946.5952626612
 20
4854.2039571422
 30
0.0
 11
6946.5952626612
 21
4854.5271804469
 31
0.0
  0
LINE
  5
36B
330
1F
100
AcDbEntity
  8
0
  6
Continuous
 62
     7
370
    25
100
AcDbLine
 10
6945.0952626612
 20
4854.2039571422
 30
0.0
 11
6945.0952626612
 21
4854.5271804469
 31
0.0
  0
LINE
  5
36C
330
1F
100
AcDbEntity
  8
0
  6
Continuous
 62
     7
370
    25
100
AcDbLine
 10
6826.5952626612
 20
4854.2039571422
 30
0.0
 11
6828.0952626612
 21
4854.2039571422
 31
0.0
  0
LINE
  5
36D
330
1F
100
AcDbEntity
  8
0
  6
Continuous
 62
     7
370
    25
100
AcDbLine
 10
6828.0952626612
 20
4854.2039571422
 30
0.0
 11
6828.0952626612
 21
4854.5271804469
 31
0.0
  0
LINE
  5
36E
330
1F
100
AcDbEntity
  8
0
  6
Continuous
 62
     7
370
    25
100
AcDbLine
 10
6826.5952626612
 20
4854.2039571422
 30
0.0
 11
6826.5952626612
 21
4854.5271804469
 31
0.0
  0
LINE
  5
36F
330
1F
100
AcDbEntity
  8
0
  6
Continuous
 62
     7
370
    25
100
AcDbLine
 10
6829.0952626612
 20
4851.7039571422
 30
0.0
 11
6829.5259545811
 21
4851.7039571422
 31
0.0
  0
LINE
  5
370
330
1F
100
AcDbEntity
  8
0
  6
Continuous
 62
     7
370
    25
100
AcDbLine
 10
6829.0952626612
 20
4851.7039571422
 30
0.0
 11
6829.0952626612
 21
4853.2039571422
 31
0.0
  0
LINE
  5
371
330
1F
100
AcDbEntity
  8
0
  6
Continuous
 62
     7
370
    25
100
AcDbLine
 10
6829.0952626612
 20
4853.2039571422
 30
0.0
 11
6829.5259545811
 21
4853.2039571422
 31
0.0
  0
LINE
  5
372
330
1F
100
AcDbEntity
  8
0
  6
Continuous
 62
     7
370
    25
100
AcDbLine
 10
6944.0952626612
 20
4851.7039571422
 30
0.0
 11
6944.0952626612
 21
4853.2039571422
 31
0.0
  0
LINE
  5
373
330
1F
100
AcDbEntity
  8
0
  6
Continuous
 62
     7
370
    25
100
AcDbLine
 10
6943.6645707413
 20
4851.7039571422
 30
0.0
 11
6944.0952626612
 21
4851.7039571422
 31
0.0
  0
LINE
  5
374
330
1F
100
AcDbEntity
  8
0
  6
Continuous
 62
     7
370
    25
100
AcDbLine
 10
6943.6645707413
 20
4853.2039571422
 30
0.0
 11
6944.0952626612
 21
4853.2039571422
 31
0.0
  0
ARC
  5
375
330
1F
100
AcDbEntity
  8
0
  6
Continuous
 62
     7
370
    25
100
AcDbCircle
 10
6944.0952626612
 20
4854.2039571422
 30
0.0
 40
2.5
100
AcDbArc
 50
269.9999999984
 51
0.0
  0
ARC
  5
376
330
1F
100
AcDbEntity
  8
0
  6
Continuous
 62
     7
370
    25
100
AcDbCircle
 10
6944.0952626612
 20
4854.2039571422
 30
0.0
 40
1.000000000000909
100
AcDbArc
 50
269.9999999984
 51
0.0
  0
ARC
  5
377
330
1F
100
AcDbEntity
  8
0
  6
Continuous
 62
     7
370
    25
100
AcDbCircle
 10
6829.0952626612
 20
4854.2039571422
 30
0.0
 40
1.0
100
AcDbArc
 50
179.9999999999
 51
270.0000000003
  0
ARC
  5
378
330
1F
100
AcDbEntity
  8
0
  6
Continuous
 62
     7
370
    25
100
AcDbCircle
 10
6829.0952626612
 20
4854.2039571422
 30
0.0
 40
2.5
100
AcDbArc
 50
180.0
 51
270.0000000003
  0
LINE
  5
379
330
1F
100
AcDbEntity
  8
0
  6
Continuous
 62
     7
370
    25
100
AcDbLine
 10
6940.0952626612
 20
4900.3039571422
 30
0.0
 11
6940.0952626612
 21
4900.2039571422
 31
0.0
  0
LINE
  5
37A
330
1F
100
AcDbEntity
  8
0
  6
Continuous
 62
     7
370
    25
100
AcDbLine
 10
6938.0952626612
 20
4900.2039571422
 30
0.0
 11
6938.0952626612
 21
4900.3039571422
 31
0.0
  0
LINE
  5
37B
330
1F
100
AcDbEntity
  8
0
  6
Continuous
 62
     7
370
    25
100
AcDbLine
 10
6938.0952626612
 20
4900.3039571422
 30
0.0
 11
6940.0952626612
 21
4900.3039571422
 31
0.0
  0
LINE
  5
37C
330
1F
100
AcDbEntity
  8
0
  6
Continuous
 62
     7
370
    25
100
AcDbLine
 10
6877.0952626612
 20
4900.3039571422
 30
0.0
 11
6877.0952626612
 21
4900.2039571422
 31
0.0
  0
LINE
  5
37D
330
1F
100
AcDbEntity
  8
0
  6
Continuous
 62
     7
370
    25
100
AcDbLine
 10
6877.0952626612
 20
4900.3039571422
 30
0.0
 11
6883.0952626612
 21
4900.3039571422
 31
0.0
  0
LINE
  5
37E
330
1F
100
AcDbEntity
  8
0
  6
Continuous
 62
     7
370
    25
100
AcDbLine
 10
6887.0952626612
 20
4900.3039571422
 30
0.0
 11
6918.0952626612
 21
4900.3039571422
 31
0.0
  0
LINE
  5
37F
330
1F
100
AcDbEntity
  8
0
  6
Continuous
 62
     7
370
    25
100
AcDbLine
 10
6922.0952626612
 20
4900.3039571422
 30
0.0
 11
6938.0952626612
 21
4900.3039571422
 31
0.0
  0
LINE
  5
380
330
1F
100
AcDbEntity
  8
0
  6
Continuous
 62
     7
370
    25
100
AcDbLine
 10
6875.0952626612
 20
4900.2039571422
 30
0.0
 11
6875.0952626612
 21
4900.3039571422
 31
0.0
  0
LINE
  5
381
330
1F
100
AcDbEntity
  8
0
  6
Continuous
 62
     7
370
    25
100
AcDbLine
 10
6875.0952626612
 20
4900.3039571422
 30
0.0
 11
6877.0952626612
 21
4900.3039571422
 31
0.0
  0
LINE
  5
382
330
1F
100
AcDbEntity
  8
0
  6
Continuous
 62
     7
370
    25
100
AcDbLine
 10
6903.0962314548
 20
4900.4039571422
 30
0.0
 11
6903.0962314548
 21
4900.3039571422
 31
0.0
  0
LINE
  5
383
330
1F
100
AcDbEntity
  8
0
  6
Continuous
 62
     7
370
    25
100
AcDbLine
 10
6905.0962314548
 20
4900.4039571422
 30
0.0
 11
6903.0962314548
 21
4900.4039571422
 31
0.0
  0
LINE
  5
384
330
1F
100
AcDbEntity
  8
0
  6
Continuous
 62
     7
370
    25
100
AcDbLine
 10
6905.0962314548
 20
4900.4039571422
 30
0.0
 11
6905.0962314548
 21
4900.3039571422
 31
0.0
  0
LINE
  5
385
330
1F
100
AcDbEntity
  8
0
  6
Continuous
 62
     7
370
    25
100
AcDbLine
 10
6911.2500776086
 20
4900.4039571422
 30
0.0
 11
6911.2500776086
 21
4900.3039571422
 31
0.0
  0
LINE
  5
386
330
1F
100
AcDbEntity
  8
0
  6
Continuous
 62
     7
370
    25
100
AcDbLine
 10
6913.2500776086
 20
4900.4039571422
 30
0.0
 11
6913.2500776086
 21
4900.3039571422
 31
0.0
  0
LINE
  5
387
330
1F
100
AcDbEntity
  8
0
  6
Continuous
 62
     7
370
    25
100
AcDbLine
 10
6913.2500776086
 20
4900.4039571422
 30
0.0
 11
6911.2500776086
 21
4900.4039571422
 31
0.0
  0
LINE
  5
388
330
1F
100
AcDbEntity
  8
0
  6
Continuous
 62
     7
370
    25
100
AcDbLine
 10
6894.9423853009
 20
4900.4039571422
 30
0.0
 11
6894.9423853009
 21
4900.3039571422
 31
0.0
  0
LINE
  5
389
330
1F
100
AcDbEntity
  8
0
  6
Continuous
 62
     7
370
    25
100
AcDbLine
 10
6896.9423853009
 20
4900.4039571422
 30
0.0
 11
6894.9423853009
 21
4900.4039571422
 31
0.0
  0
LINE
  5
38A
330
1F
100
AcDbEntity
  8
0
  6
Continuous
 62
     7
370
    25
100
AcDbLine
 10
6896.9423853009
 20
4900.4039571422
 30
0.0
 11
6896.9423853009
 21
4900.3039571422
 31
0.0
  0
LINE
  5
38B
330
1F
100
AcDbEntity
  8
0
  6
Continuous
 62
     7
370
    25
100
AcDbLine
 10
6932.6611353009
 20
4900.4039571422
 30
0.0
 11
6932.6611353009
 21
4900.3039571422
 31
0.0
  0
LINE
  5
38C
330
1F
100
AcDbEntity
  8
0
  6
Continuous
 62
     7
370
    25
100
AcDbLine
 10
6933.6603340189
 20
4900.4039571422
 30
0.0
 11
6932.6611353009
 21
4900.4039571422
 31
0.0
  0
LINE
  5
38D
330
1F
100
AcDbEntity
  8
0
  6
Continuous
 62
     7
370
    25
100
AcDbLine
 10
6933.6603340189
 20
4900.4039571422
 30
0.0
 11
6933.6603340189
 21
4900.3039571422
 31
0.0
  0
LINE
  5
38E
330
1F
100
AcDbEntity
  8
0
  6
Continuous
 62
     7
370
    25
100
AcDbLine
 10
6931.6090519676
 20
4900.4039571422
 30
0.0
 11
6931.6090519676
 21
4900.3039571422
 31
0.0
  0
LINE
  5
38F
330
1F
100
AcDbEntity
  8
0
  6
Continuous
 62
     7
370
    25
100
AcDbLine
 10
6932.6611353009
 20
4900.4039571422
 30
0.0
 11
6931.6090519676
 21
4900.4039571422
 31
0.0
  0
LINE
  5
390
330
1F
100
AcDbEntity
  8
0
  6
Continuous
 62
     7
370
    25
100
AcDbLine
 10
6887.7737154291
 20
4900.4039571422
 30
0.0
 11
6887.7737154291
 21
4900.3039571422
 31
0.0
  0
LINE
  5
391
330
1F
100
AcDbEntity
  8
0
  6
Continuous
 62
     7
370
    25
100
AcDbLine
 10
6888.8141801727
 20
4900.4039571422
 30
0.0
 11
6887.7737154291
 21
4900.4039571422
 31
0.0
  0
LINE
  5
392
330
1F
100
AcDbEntity
  8
0
  6
Continuous
 62
     7
370
    25
100
AcDbLine
 10
6888.8141801727
 20
4900.4039571422
 30
0.0
 11
6888.8141801727
 21
4900.3039571422
 31
0.0
  0
LINE
  5
393
330
1F
100
AcDbEntity
  8
0
  6
Continuous
 62
     7
370
    25
100
AcDbLine
 10
6887.7737154291
 20
4900.4039571422
 30
0.0
 11
6887.0952626612
 21
4900.4039571422
 31
0.0
  0
LINE
  5
394
330
1F
100
AcDbEntity
  8
0
  6
Continuous
 62
     7
370
    25
100
AcDbLine
 10
6927.5577699163
 20
4900.4039571422
 30
0.0
 11
6927.5577699163
 21
4900.3039571422
 31
0.0
  0
LINE
  5
395
330
1F
100
AcDbEntity
  8
0
  6
Continuous
 62
     7
370
    25
100
AcDbLine
 10
6929.5577699163
 20
4900.4039571422
 30
0.0
 11
6927.5577699163
 21
4900.4039571422
 31
0.0
  0
LINE
  5
396
330
1F
100
AcDbEntity
  8
0
  6
Continuous
 62
     7
370
    25
100
AcDbLine
 10
6929.5577699163
 20
4900.4039571422
 30
0.0
 11
6929.5577699163
 21
4900.3039571422
 31
0.0
  0
LINE
  5
397
330
1F
100
AcDbEntity
  8
0
  6
Continuous
 62
     7
370
    25
100
AcDbLine
 10
6923.4808468394
 20
4900.4039571422
 30
0.0
 11
6923.4808468394
 21
4900.3039571422
 31
0.0
  0
LINE
  5
398
330
1F
100
AcDbEntity
  8
0
  6
Continuous
 62
     7
370
    25
100
AcDbLine
 10
6925.4808468394
 20
4900.4039571422
 30
0.0
 11
6925.4808468394
 21
4900.3039571422
 31
0.0
  0
LINE
  5
399
330
1F
100
AcDbEntity
  8
0
  6
Continuous
 62
     7
370
    25
100
AcDbLine
 10
6925.4808468394
 20
4900.4039571422
 30
0.0
 11
6923.4808468394
 21
4900.4039571422
 31
0.0
  0
LINE
  5
39A
330
1F
100
AcDbEntity
  8
0
  6
Continuous
 62
     7
370
    25
100
AcDbLine
 10
6915.3270006856
 20
4900.4039571422
 30
0.0
 11
6915.3270006856
 21
4900.3039571422
 31
0.0
  0
LINE
  5
39B
330
1F
100
AcDbEntity
  8
0
  6
Continuous
 62
     7
370
    25
100
AcDbLine
 10
6917.3270006856
 20
4900.4039571422
 30
0.0
 11
6917.3270006856
 21
4900.3039571422
 31
0.0
  0
LINE
  5
39C
330
1F
100
AcDbEntity
  8
0
  6
Continuous
 62
     7
370
    25
100
AcDbLine
 10
6917.3270006856
 20
4900.4039571422
 30
0.0
 11
6915.3270006856
 21
4900.4039571422
 31
0.0
  0
LINE
  5
39D
330
1F
100
AcDbEntity
  8
0
  6
Continuous
 62
     7
370
    25
100
AcDbLine
 10
6907.1731545317
 20
4900.4039571422
 30
0.0
 11
6907.1731545317
 21
4900.3039571422
 31
0.0
  0
LINE
  5
39E
330
1F
100
AcDbEntity
  8
0
  6
Continuous
 62
     7
370
    25
100
AcDbLine
 10
6909.1731545317
 20
4900.4039571422
 30
0.0
 11
6909.1731545317
 21
4900.3039571422
 31
0.0
  0
LINE
  5
39F
330
1F
100
AcDbEntity
  8
0
  6
Continuous
 62
     7
370
    25
100
AcDbLine
 10
6909.1731545317
 20
4900.4039571422
 30
0.0
 11
6907.1731545317
 21
4900.4039571422
 31
0.0
  0
LINE
  5
3A0
330
1F
100
AcDbEntity
  8
0
  6
Continuous
 62
     7
370
    25
100
AcDbLine
 10
6890.865462224
 20
4900.4039571422
 30
0.0
 11
6890.865462224
 21
4900.3039571422
 31
0.0
  0
LINE
  5
3A1
330
1F
100
AcDbEntity
  8
0
  6
Continuous
 62
     7
370
    25
100
AcDbLine
 10
6892.865462224
 20
4900.4039571422
 30
0.0
 11
6890.865462224
 21
4900.4039571422
 31
0.0
  0
LINE
  5
3A2
330
1F
100
AcDbEntity
  8
0
  6
Continuous
 62
     7
370
    25
100
AcDbLine
 10
6892.865462224
 20
4900.4039571422
 30
0.0
 11
6892.865462224
 21
4900.3039571422
 31
0.0
  0
LINE
  5
3A3
330
1F
100
AcDbEntity
  8
0
  6
Continuous
 62
     7
370
    25
100
AcDbLine
 10
6899.0193083779
 20
4900.4039571422
 30
0.0
 11
6899.0193083779
 21
4900.3039571422
 31
0.0
  0
LINE
  5
3A4
330
1F
100
AcDbEntity
  8
0
  6
Continuous
 62
     7
370
    25
100
AcDbLine
 10
6901.0193083779
 20
4900.4039571422
 30
0.0
 11
6899.0193083779
 21
4900.4039571422
 31
0.0
  0
LINE
  5
3A5
330
1F
100
AcDbEntity
  8
0
  6
Continuous
 62
     7
370
    25
100
AcDbLine
 10
6901.0193083779
 20
4900.4039571422
 30
0.0
 11
6901.0193083779
 21
4900.3039571422
 31
0.0
  0
LINE
  5
3A6
330
1F
100
AcDbEntity
  8
0
  6
Continuous
 62
     7
370
    25
100
AcDbLine
 10
6925.506487865
 20
4900.4039571422
 30
0.0
 11
6925.4887474371
 21
4900.4039571422
 31
0.0
  0
LINE
  5
3A7
330
1F
100
AcDbEntity
  8
0
  6
Continuous
 62
     7
370
    25
100
AcDbLine
 10
6925.506487865
 20
4900.4039571422
 30
0.0
 11
6925.506487865
 21
4900.3039571422
 31
0.0
  0
LINE
  5
3A8
330
1F
100
AcDbEntity
  8
0
  6
Continuous
 62
     7
370
    25
100
AcDbLine
 10
6913.2757186343
 20
4900.4039571422
 30
0.0
 11
6913.2757186343
 21
4900.3039571422
 31
0.0
  0
LINE
  5
3A9
330
1F
100
AcDbEntity
  8
0
  6
Continuous
 62
     7
370
    25
100
AcDbLine
 10
6913.2757186343
 20
4900.4039571422
 30
0.0
 11
6913.2579782063
 21
4900.4039571422
 31
0.0
  0
LINE
  5
3AA
330
1F
100
AcDbEntity
  8
0
  6
Continuous
 62
     7
370
    25
100
AcDbLine
 10
6909.1987955573
 20
4900.4039571422
 30
0.0
 11
6909.1810551294
 21
4900.4039571422
 31
0.0
  0
LINE
  5
3AB
330
1F
100
AcDbEntity
  8
0
  6
Continuous
 62
     7
370
    25
100
AcDbLine
 10
6909.1987955573
 20
4900.4039571422
 30
0.0
 11
6909.1987955573
 21
4900.3039571422
 31
0.0
  0
LINE
  5
3AC
330
1F
100
AcDbEntity
  8
0
  6
Continuous
 62
     7
370
    25
100
AcDbLine
 10
6905.1218724804
 20
4900.4039571422
 30
0.0
 11
6905.1218724804
 21
4900.3039571422
 31
0.0
  0
LINE
  5
3AD
330
1F
100
AcDbEntity
  8
0
  6
Continuous
 62
     7
370
    25
100
AcDbLine
 10
6905.1218724804
 20
4900.4039571422
 30
0.0
 11
6905.1041320525
 21
4900.4039571422
 31
0.0
  0
LINE
  5
3AE
330
1F
100
AcDbEntity
  8
0
  6
Continuous
 62
     7
370
    25
100
AcDbLine
 10
6896.9680263266
 20
4900.4039571422
 30
0.0
 11
6896.9680263266
 21
4900.3039571422
 31
0.0
  0
LINE
  5
3AF
330
1F
100
AcDbEntity
  8
0
  6
Continuous
 62
     7
370
    25
100
AcDbLine
 10
6896.9680263266
 20
4900.4039571422
 30
0.0
 11
6896.9502858986
 21
4900.4039571422
 31
0.0
  0
LINE
  5
3B0
330
1F
100
AcDbEntity
  8
0
  6
Continuous
 62
     7
370
    25
100
AcDbLine
 10
6892.8911032497
 20
4900.4039571422
 30
0.0
 11
6892.8733628217
 21
4900.4039571422
 31
0.0
  0
LINE
  5
3B1
330
1F
100
AcDbEntity
  8
0
  6
Continuous
 62
     7
370
    25
100
AcDbLine
 10
6892.8911032497
 20
4900.4039571422
 30
0.0
 11
6892.8911032497
 21
4900.3039571422
 31
0.0
  0
LINE
  5
3B2
330
1F
100
AcDbEntity
  8
0
  6
Continuous
 62
     7
370
    25
100
AcDbLine
 10
6917.3526417112
 20
4900.4039571422
 30
0.0
 11
6917.3526417112
 21
4900.3039571422
 31
0.0
  0
LINE
  5
3B3
330
1F
100
AcDbEntity
  8
0
  6
Continuous
 62
     7
370
    25
100
AcDbLine
 10
6917.3526417112
 20
4900.4039571422
 30
0.0
 11
6917.3349012833
 21
4900.4039571422
 31
0.0
  0
LINE
  5
3B4
330
1F
100
AcDbEntity
  8
0
  6
Continuous
 62
     7
370
    25
100
AcDbLine
 10
6901.0449494035
 20
4900.4039571422
 30
0.0
 11
6901.0449494035
 21
4900.3039571422
 31
0.0
  0
LINE
  5
3B5
330
1F
100
AcDbEntity
  8
0
  6
Continuous
 62
     7
370
    25
100
AcDbLine
 10
6901.0449494035
 20
4900.4039571422
 30
0.0
 11
6901.0272089756
 21
4900.4039571422
 31
0.0
  0
LINE
  5
3B6
330
1F
100
AcDbEntity
  8
0
  6
Continuous
 62
     7
370
    25
100
AcDbLine
 10
6879.3009333455
 20
4900.4039571422
 30
0.0
 11
6879.3009333455
 21
4900.3039571422
 31
0.0
  0
LINE
  5
3B7
330
1F
100
AcDbEntity
  8
0
  6
Continuous
 62
     7
370
    25
100
AcDbLine
 10
6882.8009333455
 20
4900.4039571422
 30
0.0
 11
6882.8009333455
 21
4900.3039571422
 31
0.0
  0
LINE
  5
3B8
330
1F
100
AcDbEntity
  8
0
  6
Continuous
 62
     7
370
    25
100
AcDbLine
 10
6882.8009333455
 20
4900.4039571422
 30
0.0
 11
6879.3009333455
 21
4900.4039571422
 31
0.0
  0
LINE
  5
3B9
330
1F
100
AcDbEntity
  8
0
  6
Continuous
 62
     7
370
    25
100
AcDbLine
 10
6923.4552058138
 20
4900.4039571422
 30
0.0
 11
6923.4552058138
 21
4900.3039571422
 31
0.0
  0
LINE
  5
3BA
330
1F
100
AcDbEntity
  8
0
  6
Continuous
 62
     7
370
    25
100
AcDbLine
 10
6923.4729462417
 20
4900.4039571422
 30
0.0
 11
6923.4552058138
 21
4900.4039571422
 31
0.0
  0
LINE
  5
3BB
330
1F
100
AcDbEntity
  8
0
  6
Continuous
 62
     7
370
    25
100
AcDbLine
 10
6929.583410942
 20
4900.4039571422
 30
0.0
 11
6929.565670514
 21
4900.4039571422
 31
0.0
  0
LINE
  5
3BC
330
1F
100
AcDbEntity
  8
0
  6
Continuous
 62
     7
370
    25
100
AcDbLine
 10
6929.583410942
 20
4900.4039571422
 30
0.0
 11
6929.583410942
 21
4900.3039571422
 31
0.0
  0
LINE
  5
3BD
330
1F
100
AcDbEntity
  8
0
  6
Continuous
 62
     7
370
    25
100
AcDbLine
 10
6889.3249974804
 20
4900.4039571422
 30
0.0
 11
6889.3249974804
 21
4900.3039571422
 31
0.0
  0
LINE
  5
3BE
330
1F
100
AcDbEntity
  8
0
  6
Continuous
 62
     7
370
    25
100
AcDbLine
 10
6889.3526417112
 20
4900.4039571422
 30
0.0
 11
6889.3249974804
 21
4900.4039571422
 31
0.0
  0
LINE
  5
3BF
330
1F
100
AcDbEntity
  8
0
  6
Continuous
 62
     7
370
    25
100
AcDbLine
 10
6889.3526417112
 20
4900.4039571422
 30
0.0
 11
6889.3526417112
 21
4900.3039571422
 31
0.0
  0
LINE
  5
3C0
330
1F
100
AcDbEntity
  8
0
  6
Continuous
 62
     7
370
    25
100
AcDbLine
 10
6889.1034429932
 20
4900.4039571422
 30
0.0
 11
6889.1034429932
 21
4900.3039571422
 31
0.0
  0
LINE
  5
3C1
330
1F
100
AcDbEntity
  8
0
  6
Continuous
 62
     7
370
    25
100
AcDbLine
 10
6889.3249974804
 20
4900.4039571422
 30
0.0
 11
6889.1034429932
 21
4900.4039571422
 31
0.0
  0
LINE
  5
3C2
330
1F
100
AcDbEntity
  8
0
  6
Continuous
 62
     7
370
    25
100
AcDbLine
 10
6888.8274013266
 20
4900.4039571422
 30
0.0
 11
6888.8274013266
 21
4900.3039571422
 31
0.0
  0
LINE
  5
3C3
330
1F
100
AcDbEntity
  8
0
  6
Continuous
 62
     7
370
    25
100
AcDbLine
 10
6889.100237865
 20
4900.4039571422
 30
0.0
 11
6888.8274013266
 21
4900.4039571422
 31
0.0
  0
LINE
  5
3C4
330
1F
100
AcDbEntity
  8
0
  6
Continuous
 62
     7
370
    25
100
AcDbLine
 10
6888.8274013266
 20
4900.4039571422
 30
0.0
 11
6888.8220807704
 21
4900.4039571422
 31
0.0
  0
LINE
  5
3C5
330
1F
100
AcDbEntity
  8
0
  6
Continuous
 62
     7
370
    25
100
AcDbLine
 10
6882.8836657172
 20
4900.4039571422
 30
0.0
 11
6882.8836657172
 21
4900.3039571422
 31
0.0
  0
LINE
  5
3C6
330
1F
100
AcDbEntity
  8
0
  6
Continuous
 62
     7
370
    25
100
AcDbLine
 10
6883.0952626612
 20
4900.4039571422
 30
0.0
 11
6882.8836657172
 21
4900.4039571422
 31
0.0
  0
LINE
  5
3C7
330
1F
100
AcDbEntity
  8
0
  6
Continuous
 62
     7
370
    25
100
AcDbLine
 10
6882.8836657172
 20
4900.4039571422
 30
0.0
 11
6882.8016981475
 21
4900.4039571422
 31
0.0
  0
LINE
  5
3C8
330
1F
100
AcDbEntity
  8
0
  6
Continuous
 62
     7
370
    25
100
AcDbLine
 10
6930.0930263266
 20
4900.4039571422
 30
0.0
 11
6930.0930263266
 21
4900.3039571422
 31
0.0
  0
LINE
  5
3C9
330
1F
100
AcDbEntity
  8
0
  6
Continuous
 62
     7
370
    25
100
AcDbLine
 10
6929.8694686343
 20
4900.4039571422
 30
0.0
 11
6929.8694686343
 21
4900.3039571422
 31
0.0
  0
LINE
  5
3CA
330
1F
100
AcDbEntity
  8
0
  6
Continuous
 62
     7
370
    25
100
AcDbLine
 10
6930.0930263266
 20
4900.4039571422
 30
0.0
 11
6929.8694686343
 21
4900.4039571422
 31
0.0
  0
LINE
  5
3CB
330
1F
100
AcDbEntity
  8
0
  6
Continuous
 62
     7
370
    25
100
AcDbLine
 10
6930.1218724804
 20
4900.4039571422
 30
0.0
 11
6930.1218724804
 21
4900.3039571422
 31
0.0
  0
LINE
  5
3CC
330
1F
100
AcDbEntity
  8
0
  6
Continuous
 62
     7
370
    25
100
AcDbLine
 10
6930.1218724804
 20
4900.4039571422
 30
0.0
 11
6930.0930263266
 21
4900.4039571422
 31
0.0
  0
LINE
  5
3CD
330
1F
100
AcDbEntity
  8
0
  6
Continuous
 62
     7
370
    25
100
AcDbLine
 10
6929.787737865
 20
4900.4039571422
 30
0.0
 11
6929.787737865
 21
4900.3039571422
 31
0.0
  0
LINE
  5
3CE
330
1F
100
AcDbEntity
  8
0
  6
Continuous
 62
     7
370
    25
100
AcDbLine
 10
6929.8694686343
 20
4900.4039571422
 30
0.0
 11
6929.787737865
 21
4900.4039571422
 31
0.0
  0
LINE
  5
3CF
330
1F
100
AcDbEntity
  8
0
  6
Continuous
 62
     7
370
    25
100
AcDbLine
 10
6929.6050455573
 20
4900.4039571422
 30
0.0
 11
6929.6050455573
 21
4900.3039571422
 31
0.0
  0
LINE
  5
3D0
330
1F
100
AcDbEntity
  8
0
  6
Continuous
 62
     7
370
    25
100
AcDbLine
 10
6929.787737865
 20
4900.4039571422
 30
0.0
 11
6929.6050455573
 21
4900.4039571422
 31
0.0
  0
LINE
  5
3D1
330
1F
100
AcDbEntity
  8
0
  6
Continuous
 62
     7
370
    25
100
AcDbLine
 10
6929.6050455573
 20
4900.4039571422
 30
0.0
 11
6929.5918721163
 21
4900.4039571422
 31
0.0
  0
LINE
  5
3D2
330
1F
100
AcDbEntity
  8
0
  6
Continuous
 62
     7
370
    25
100
AcDbLine
 10
6909.7116160702
 20
4900.4039571422
 30
0.0
 11
6909.7116160702
 21
4900.3039571422
 31
0.0
  0
LINE
  5
3D3
330
1F
100
AcDbEntity
  8
0
  6
Continuous
 62
     7
370
    25
100
AcDbLine
 10
6909.7116160702
 20
4900.4039571422
 30
0.0
 11
6909.2066961551
 21
4900.4039571422
 31
0.0
  0
LINE
  5
3D4
330
1F
100
AcDbEntity
  8
0
  6
Continuous
 62
     7
370
    25
100
AcDbLine
 10
6926.0193083779
 20
4900.4039571422
 30
0.0
 11
6925.5143884627
 21
4900.4039571422
 31
0.0
  0
LINE
  5
3D5
330
1F
100
AcDbEntity
  8
0
  6
Continuous
 62
     7
370
    25
100
AcDbLine
 10
6926.0193083779
 20
4900.4039571422
 30
0.0
 11
6926.0193083779
 21
4900.3039571422
 31
0.0
  0
LINE
  5
3D6
330
1F
100
AcDbEntity
  8
0
  6
Continuous
 62
     7
370
    25
100
AcDbLine
 10
6930.0962314548
 20
4900.4039571422
 30
0.0
 11
6930.0930263266
 21
4900.4039571422
 31
0.0
  0
LINE
  5
3D7
330
1F
100
AcDbEntity
  8
0
  6
Continuous
 62
     7
370
    25
100
AcDbLine
 10
6913.7885391471
 20
4900.4039571422
 30
0.0
 11
6913.7885391471
 21
4900.3039571422
 31
0.0
  0
LINE
  5
3D8
330
1F
100
AcDbEntity
  8
0
  6
Continuous
 62
     7
370
    25
100
AcDbLine
 10
6913.7885391471
 20
4900.4039571422
 30
0.0
 11
6913.283619232
 21
4900.4039571422
 31
0.0
  0
LINE
  5
3D9
330
1F
100
AcDbEntity
  8
0
  6
Continuous
 62
     7
370
    25
100
AcDbLine
 10
6923.3782827368
 20
4900.4039571422
 30
0.0
 11
6923.3782827368
 21
4900.3039571422
 31
0.0
  0
LINE
  5
3DA
330
1F
100
AcDbEntity
  8
0
  6
Continuous
 62
     7
370
    25
100
AcDbLine
 10
6923.4394146183
 20
4900.4039571422
 30
0.0
 11
6923.3782827368
 21
4900.4039571422
 31
0.0
  0
LINE
  5
3DB
330
1F
100
AcDbEntity
  8
0
  6
Continuous
 62
     7
370
    25
100
AcDbLine
 10
6889.1034429932
 20
4900.4039571422
 30
0.0
 11
6889.100237865
 21
4900.4039571422
 31
0.0
  0
LINE
  5
3DC
330
1F
100
AcDbEntity
  8
0
  6
Continuous
 62
     7
370
    25
100
AcDbLine
 10
6888.8358147881
 20
4900.4039571422
 30
0.0
 11
6888.8279819033
 21
4900.4039571422
 31
0.0
  0
LINE
  5
3DD
330
1F
100
AcDbEntity
  8
0
  6
Continuous
 62
     7
370
    25
100
AcDbLine
 10
6901.5577699163
 20
4900.4039571422
 30
0.0
 11
6901.5577699163
 21
4900.3039571422
 31
0.0
  0
LINE
  5
3DE
330
1F
100
AcDbEntity
  8
0
  6
Continuous
 62
     7
370
    25
100
AcDbLine
 10
6901.5577699163
 20
4900.4039571422
 30
0.0
 11
6901.0528500012
 21
4900.4039571422
 31
0.0
  0
LINE
  5
3DF
330
1F
100
AcDbEntity
  8
0
  6
Continuous
 62
     7
370
    25
100
AcDbLine
 10
6905.4079301727
 20
4900.4039571422
 30
0.0
 11
6905.4079301727
 21
4900.3039571422
 31
0.0
  0
LINE
  5
3E0
330
1F
100
AcDbEntity
  8
0
  6
Continuous
 62
     7
370
    25
100
AcDbLine
 10
6905.631487865
 20
4900.4039571422
 30
0.0
 11
6905.631487865
 21
4900.3039571422
 31
0.0
  0
LINE
  5
3E1
330
1F
100
AcDbEntity
  8
0
  6
Continuous
 62
     7
370
    25
100
AcDbLine
 10
6905.631487865
 20
4900.4039571422
 30
0.0
 11
6905.4079301727
 21
4900.4039571422
 31
0.0
  0
LINE
  5
3E2
330
1F
100
AcDbEntity
  8
0
  6
Continuous
 62
     7
370
    25
100
AcDbLine
 10
6905.6603340189
 20
4900.4039571422
 30
0.0
 11
6905.6603340189
 21
4900.3039571422
 31
0.0
  0
LINE
  5
3E3
330
1F
100
AcDbEntity
  8
0
  6
Continuous
 62
     7
370
    25
100
AcDbLine
 10
6905.6603340189
 20
4900.4039571422
 30
0.0
 11
6905.631487865
 21
4900.4039571422
 31
0.0
  0
LINE
  5
3E4
330
1F
100
AcDbEntity
  8
0
  6
Continuous
 62
     7
370
    25
100
AcDbLine
 10
6905.3261994035
 20
4900.4039571422
 30
0.0
 11
6905.3261994035
 21
4900.3039571422
 31
0.0
  0
LINE
  5
3E5
330
1F
100
AcDbEntity
  8
0
  6
Continuous
 62
     7
370
    25
100
AcDbLine
 10
6905.4079301727
 20
4900.4039571422
 30
0.0
 11
6905.3261994035
 21
4900.4039571422
 31
0.0
  0
LINE
  5
3E6
330
1F
100
AcDbEntity
  8
0
  6
Continuous
 62
     7
370
    25
100
AcDbLine
 10
6905.1435070958
 20
4900.4039571422
 30
0.0
 11
6905.1435070958
 21
4900.3039571422
 31
0.0
  0
LINE
  5
3E7
330
1F
100
AcDbEntity
  8
0
  6
Continuous
 62
     7
370
    25
100
AcDbLine
 10
6905.3261994035
 20
4900.4039571422
 30
0.0
 11
6905.1435070958
 21
4900.4039571422
 31
0.0
  0
LINE
  5
3E8
330
1F
100
AcDbEntity
  8
0
  6
Continuous
 62
     7
370
    25
100
AcDbLine
 10
6905.1435070958
 20
4900.4039571422
 30
0.0
 11
6905.1303336548
 21
4900.4039571422
 31
0.0
  0
LINE
  5
3E9
330
1F
100
AcDbEntity
  8
0
  6
Continuous
 62
     7
370
    25
100
AcDbLine
 10
6913.8141801727
 20
4900.4039571422
 30
0.0
 11
6913.8141801727
 21
4900.3039571422
 31
0.0
  0
LINE
  5
3EA
330
1F
100
AcDbEntity
  8
0
  6
Continuous
 62
     7
370
    25
100
AcDbLine
 10
6913.8141801727
 20
4900.4039571422
 30
0.0
 11
6913.7853340189
 21
4900.4039571422
 31
0.0
  0
LINE
  5
3EB
330
1F
100
AcDbEntity
  8
0
  6
Continuous
 62
     7
370
    25
100
AcDbLine
 10
6865.0952626612
 20
4900.3039571422
 30
0.0
 11
6865.0952626612
 21
4900.2039571422
 31
0.0
  0
LINE
  5
3EC
330
1F
100
AcDbEntity
  8
0
  6
Continuous
 62
     7
370
    25
100
AcDbLine
 10
6863.0952626612
 20
4900.2039571422
 30
0.0
 11
6863.0952626612
 21
4900.3039571422
 31
0.0
  0
LINE
  5
3ED
330
1F
100
AcDbEntity
  8
0
  6
Continuous
 62
     7
370
    25
100
AcDbLine
 10
6863.0952626612
 20
4900.3039571422
 30
0.0
 11
6865.0952626612
 21
4900.3039571422
 31
0.0
  0
LINE
  5
3EE
330
1F
100
AcDbEntity
  8
0
  6
Continuous
 62
     7
370
    25
100
AcDbLine
 10
6841.0952626612
 20
4900.3039571422
 30
0.0
 11
6849.7452626612
 21
4900.3039571422
 31
0.0
  0
LINE
  5
3EF
330
1F
100
AcDbEntity
  8
0
  6
Continuous
 62
     7
370
    25
100
AcDbLine
 10
6862.9452626612
 20
4900.3039571422
 30
0.0
 11
6863.0952626612
 21
4900.3039571422
 31
0.0
  0
LINE
  5
3F0
330
1F
100
AcDbEntity
  8
0
  6
Continuous
 62
     7
370
    25
100
AcDbLine
 10
6863.0952626612
 20
4900.4039571422
 30
0.0
 11
6863.0952626612
 21
4900.3039571422
 31
0.0
  0
LINE
  5
3F1
330
1F
100
AcDbEntity
  8
0
  6
Continuous
 62
     7
370
    25
100
AcDbLine
 10
6864.9952626612
 20
4900.4039571422
 30
0.0
 11
6864.9952626612
 21
4900.3039571422
 31
0.0
  0
LINE
  5
3F2
330
1F
100
AcDbEntity
  8
0
  6
Continuous
 62
     7
370
    25
100
AcDbLine
 10
6863.0952626612
 20
4900.4039571422
 30
0.0
 11
6864.9952626612
 21
4900.4039571422
 31
0.0
  0
LINE
  5
3F3
330
1F
100
AcDbEntity
  8
0
  6
Continuous
 62
     7
370
    25
100
AcDbLine
 10
6841.0952626612
 20
4900.4039571422
 30
0.0
 11
6849.7452626612
 21
4900.4039571422
 31
0.0
  0
LINE
  5
3F4
330
1F
100
AcDbEntity
  8
0
  6
Continuous
 62
     7
370
    25
100
AcDbLine
 10
6862.9452626612
 20
4900.4039571422
 30
0.0
 11
6863.0952626612
 21
4900.4039571422
 31
0.0
  0
ARC
  5
3F5
330
1F
100
AcDbEntity
  8
0
  6
Continuous
 62
     7
370
    25
100
AcDbCircle
 10
6829.3774516169
 20
5122.2484197274
 30
0.0
 40
4.664081820417197
100
AcDbArc
 50
93.4686605486
 51
126.6206195835
  0
LINE
  5
3F6
330
1F
100
AcDbEntity
  8
0
  6
Continuous
 62
     7
370
    25
100
AcDbLine
 10
6829.0952626612
 20
4900.5039571422
 30
0.0
 11
6829.0952626612
 21
5126.9039571422
 31
0.0
  0
ARC
  5
3F7
330
1F
100
AcDbEntity
  8
0
  6
Continuous
 62
     7
370
    25
100
AcDbCircle
 10
6829.3774516169
 20
4905.159494557
 30
0.0
 40
4.66408182042264
100
AcDbArc
 50
233.3793804164
 51
266.5313394514
  0
LINE
  5
3F8
330
1F
100
AcDbEntity
  8
0
  6
Continuous
 62
     7
370
    25
100
AcDbLine
 10
6826.5952626612
 20
4901.4160891765
 30
0.0
 11
6826.5952626612
 21
5125.9918251079
 31
0.0
  0
LINE
  5
3F9
330
1F
100
AcDbEntity
  8
0
  6
Continuous
 62
     7
370
    25
100
AcDbLine
 10
6829.0952626612
 20
5126.9039571422
 30
0.0
 11
6943.777109252
 21
5126.9039571422
 31
0.0
  0
ARC
  5
3FA
330
1F
100
AcDbEntity
  8
0
  6
Continuous
 62
     7
370
    25
100
AcDbCircle
 10
6945.2720393564
 20
5127.0271804469
 30
0.0
 40
1.50000000000083
100
AcDbArc
 50
184.7120935769
 51
218.3238976641
  0
LINE
  5
3FB
330
1F
100
AcDbEntity
  8
0
  6
Continuous
 62
     7
370
    25
100
AcDbLine
 10
6944.0952626612
 20
4901.3108932913
 30
0.0
 11
6944.0952626612
 21
5126.0970209931
 31
0.0
  0
ARC
  5
3FC
330
1F
100
AcDbEntity
  8
0
  6
Continuous
 62
     7
370
    25
100
AcDbCircle
 10
6945.2720393565
 20
4900.3807338375
 30
0.0
 40
1.500000000000008
100
AcDbArc
 50
141.6761023377
 51
175.2879064235
  0
LINE
  5
3FD
330
1F
100
AcDbEntity
  8
0
  6
Continuous
 62
     7
370
    25
100
AcDbLine
 10
6829.0952626612
 20
4900.5039571422
 30
0.0
 11
6943.777109252
 21
4900.5039571422
 31
0.0
  0
LWPOLYLINE
  5
3FE
330
1F
100
AcDbEntity
  8
0
  6
Continuous
 62
     7
370
    25
100
AcDbPolyline
 90
        3
 70
   128
 43
0.0
 10
6945.0952626612
 20
5125.7732652223
 10
6945.0908269358
 20
5125.7021215421
 10
6945.0856064138
 20
5125.6800671367
  0
LINE
  5
3FF
330
1F
100
AcDbEntity
  8
0
  6
Continuous
 62
     7
370
    25
100
AcDbLine
 10
6946.5952626612
 20
5125.7732652223
 30
0.0
 11
6945.0952626612
 21
5125.7732652223
 31
0.0
  0
LWPOLYLINE
  5
400
330
1F
100
AcDbEntity
  8
0
  6
Continuous
 62
     7
370
    25
100
AcDbPolyline
 90
       17
 70
   128
 43
0.0
 10
6946.5952626612
 20
5125.7732652223
 10
6946.5841733478
 20
5125.7021215421
 10
6946.5491256688
 20
5125.6428971411
 10
6946.487575637
 20
5125.5955920194
 10
6946.3972267591
 20
5125.560206177
 10
6946.2787217438
 20
5125.5373410624
 10
6946.1342568081
 20
5125.5274276241
 10
6945.9652778188
 20
5125.530465862
 10
6945.7735490881
 20
5125.5464557763
 10
6945.5657555428
 20
5125.5749534749
 10
6945.3483415417
 20
5125.6156904453
 10
6945.1250669755
 20
5125.6686666875
 10
6944.8993354478
 20
5125.7338822015
 10
6944.6788571293
 20
5125.8099250064
 10
6944.4699063437
 20
5125.8957957399
 10
6944.2748251562
 20
5125.9914944022
 10
6944.0952626612
 20
5126.0970209931
  0
LINE
  5
401
330
1F
100
AcDbEntity
  8
0
  6
Continuous
 62
     7
370
    25
100
AcDbLine
 10
6946.5952626612
 20
4901.6346490622
 30
0.0
 11
6946.5952626612
 21
5125.7732652223
 31
0.0
  0
LWPOLYLINE
  5
402
330
1F
100
AcDbEntity
  8
0
  6
Continuous
 62
     7
370
    25
100
AcDbPolyline
 90
       17
 70
   128
 43
0.0
 10
6944.0952626612
 20
4901.3108932913
 10
6944.2745658717
 20
4901.4162523861
 10
6944.4695636476
 20
4901.5118952163
 10
6944.6786043533
 20
4901.5978217819
 10
6944.8993354478
 20
4901.6740320829
 10
6945.1243604896
 20
4901.7391053262
 10
6945.3474469718
 20
4901.7920341449
 10
6945.5651285017
 20
4901.8328185389
 10
6945.7735490881
 20
4901.8614585081
 10
6945.964730966
 20
4901.87745886
 10
6946.1336210536
 20
4901.8805005771
 10
6946.2783204063
 20
4901.8705836596
 10
6946.3972267591
 20
4901.8477081075
 10
6946.4874738698
 20
4901.8124394383
 10
6946.549036274
 20
4901.7651733743
 10
6946.5841403529
 20
4901.7059099156
 10
6946.5952626612
 20
4901.6346490621
  0
LWPOLYLINE
  5
403
330
1F
100
AcDbEntity
  8
0
  6
Continuous
 62
     7
370
    25
100
AcDbPolyline
 90
        3
 70
   128
 43
0.0
 10
6945.0856154078
 20
4901.7278497462
 10
6945.0908137379
 20
4901.7059099156
 10
6945.0952626612
 20
4901.6346490621
  0
LINE
  5
404
330
1F
100
AcDbEntity
  8
0
  6
Continuous
 62
     7
370
    25
100
AcDbLine
 10
6946.5952626612
 20
4901.6346490621
 30
0.0
 11
6945.0952626612
 21
4901.6346490622
 31
0.0
  0
ARC
  5
405
330
1F
100
AcDbEntity
  8
0
  6
Continuous
 62
     7
370
    25
100
AcDbCircle
 10
6829.0751321607
 20
4901.1608617316
 30
0.0
 40
0.9571163096676417
100
AcDbArc
 50
208.1554718684
 51
271.2051594549
  0
LINE
  5
406
330
1F
100
AcDbEntity
  8
0
  6
Continuous
 62
     7
370
    25
100
AcDbLine
 10
6829.0952626612
 20
4898.7039571422
 30
0.0
 11
6829.0952626612
 21
4900.2039571422
 31
0.0
  0
LINE
  5
407
330
1F
100
AcDbEntity
  8
0
  6
Continuous
 62
     7
370
    25
100
AcDbLine
 10
6826.7635743478
 20
4901.2039571422
 30
0.0
 11
6826.5952626612
 21
4901.2039571422
 31
0.0
  0
ARC
  5
408
330
1F
100
AcDbEntity
  8
0
  6
Continuous
 62
     7
370
    25
100
AcDbCircle
 10
6829.0952626612
 20
4901.2039571422
 30
0.0
 40
2.500000000000909
100
AcDbArc
 50
180.0
 51
270.0
  0
LINE
  5
409
330
1F
100
AcDbEntity
  8
0
  6
Continuous
 62
     7
370
    25
100
AcDbLine
 10
6943.7720393565
 20
4898.7039571422
 30
0.0
 11
6943.7720393565
 21
4900.2039571422
 31
0.0
  0
LINE
  5
40A
330
1F
100
AcDbEntity
  8
0
  6
Continuous
 62
     7
370
    25
100
AcDbLine
 10
6829.0952626612
 20
4898.7039571422
 30
0.0
 11
6943.7720393565
 21
4898.7039571422
 31
0.0
  0
LINE
  5
40B
330
1F
100
AcDbEntity
  8
0
  6
Continuous
 62
     7
370
    25
100
AcDbLine
 10
6829.0952626612
 20
4900.2039571422
 30
0.0
 11
6943.7720393565
 21
4900.2039571422
 31
0.0
  0
ARC
  5
40C
330
1F
100
AcDbEntity
  8
0
  6
Continuous
 62
     7
370
    25
100
AcDbCircle
 10
6829.0751321607
 20
5126.2470525529
 30
0.0
 40
0.9571163096703312
100
AcDbArc
 50
88.7948405452
 51
151.8445281312
  0
LINE
  5
40D
330
1F
100
AcDbEntity
  8
0
  6
Continuous
 62
     7
370
    25
100
AcDbLine
 10
6826.7635743478
 20
5126.2039571422
 30
0.0
 11
6826.5952626612
 21
5126.2039571422
 31
0.0
  0
ARC
  5
40E
330
1F
100
AcDbEntity
  8
0
  6
Continuous
 62
     7
370
    25
100
AcDbCircle
 10
6829.0952626612
 20
5126.2039571422
 30
0.0
 40
2.5
100
AcDbArc
 50
90.0
 51
180.0
  0
LINE
  5
40F
330
1F
100
AcDbEntity
  8
0
  6
Continuous
 62
     7
370
    25
100
AcDbLine
 10
6829.0952626612
 20
5128.7039571422
 30
0.0
 11
6829.0952626612
 21
5127.2039571422
 31
0.0
  0
LINE
  5
410
330
1F
100
AcDbEntity
  8
0
  6
Continuous
 62
     7
370
    25
100
AcDbLine
 10
6943.7720393565
 20
5128.7039571422
 30
0.0
 11
6943.7720393565
 21
5127.2039571422
 31
0.0
  0
LINE
  5
411
330
1F
100
AcDbEntity
  8
0
  6
Continuous
 62
     7
370
    25
100
AcDbLine
 10
6829.0952626612
 20
5127.2039571422
 30
0.0
 11
6943.7720393565
 21
5127.2039571422
 31
0.0
  0
LINE
  5
412
330
1F
100
AcDbEntity
  8
0
  6
Continuous
 62
     7
370
    25
100
AcDbLine
 10
6829.0952626612
 20
5128.7039571422
 30
0.0
 11
6943.7720393565
 21
5128.7039571422
 31
0.0
  0
LINE
  5
413
330
1F
100
AcDbEntity
  8
0
  6
Continuous
 62
     7
370
    25
100
AcDbLine
 10
6944.0952626612
 20
5128.7039571422
 30
0.0
 11
6944.0952626612
 21
5127.2039571422
 31
0.0
  0
LINE
  5
414
330
1F
100
AcDbEntity
  8
0
  6
Continuous
 62
     7
370
    25
100
AcDbLine
 10
6944.0952626612
 20
5127.2039571422
 30
0.0
 11
6943.7720393565
 21
5127.2039571422
 31
0.0
  0
LINE
  5
415
330
1F
100
AcDbEntity
  8
0
  6
Continuous
 62
     7
370
    25
100
AcDbLine
 10
6944.0952626612
 20
5128.7039571422
 30
0.0
 11
6943.7720393565
 21
5128.7039571422
 31
0.0
  0
LINE
  5
416
330
1F
100
AcDbEntity
  8
0
  6
Continuous
 62
     7
370
    25
100
AcDbLine
 10
6944.0952626612
 20
4898.7039571422
 30
0.0
 11
6944.0952626612
 21
4900.2039571422
 31
0.0
  0
LINE
  5
417
330
1F
100
AcDbEntity
  8
0
  6
Continuous
 62
     7
370
    25
100
AcDbLine
 10
6944.0952626612
 20
4900.2039571422
 30
0.0
 11
6943.7720393565
 21
4900.2039571422
 31
0.0
  0
LINE
  5
418
330
1F
100
AcDbEntity
  8
0
  6
Continuous
 62
     7
370
    25
100
AcDbLine
 10
6944.0952626612
 20
4898.7039571422
 30
0.0
 11
6943.7720393565
 21
4898.7039571422
 31
0.0
  0
LINE
  5
419
330
1F
100
AcDbEntity
  8
0
  6
Continuous
 62
     7
370
    25
100
AcDbLine
 10
6946.5952626612
 20
5126.2039571422
 30
0.0
 11
6945.0952626612
 21
5126.2039571422
 31
0.0
  0
LINE
  5
41A
330
1F
100
AcDbEntity
  8
0
  6
Continuous
 62
     7
370
    25
100
AcDbLine
 10
6946.5952626612
 20
5126.2039571422
 30
0.0
 11
6946.5952626612
 21
5125.7732652223
 31
0.0
  0
LINE
  5
41B
330
1F
100
AcDbEntity
  8
0
  6
Continuous
 62
     7
370
    25
100
AcDbLine
 10
6945.0952626612
 20
5126.2039571422
 30
0.0
 11
6945.0952626612
 21
5125.7732652223
 31
0.0
  0
LINE
  5
41C
330
1F
100
AcDbEntity
  8
0
  6
Continuous
 62
     7
370
    25
100
AcDbLine
 10
6946.5952626612
 20
4901.6346490621
 30
0.0
 11
6946.5952626612
 21
4901.2039571422
 31
0.0
  0
LINE
  5
41D
330
1F
100
AcDbEntity
  8
0
  6
Continuous
 62
     7
370
    25
100
AcDbLine
 10
6946.5952626612
 20
4901.2039571422
 30
0.0
 11
6945.0952626612
 21
4901.2039571422
 31
0.0
  0
LINE
  5
41E
330
1F
100
AcDbEntity
  8
0
  6
Continuous
 62
     7
370
    25
100
AcDbLine
 10
6945.0952626612
 20
4901.6346490622
 30
0.0
 11
6945.0952626612
 21
4901.2039571422
 31
0.0
  0
ARC
  5
41F
330
1F
100
AcDbEntity
  8
0
  6
Continuous
 62
     7
370
    25
100
AcDbCircle
 10
6944.0952626612
 20
4901.2039571422
 30
0.0
 40
0.9999999999990905
100
AcDbArc
 50
269.9999999999
 51
0.0000000009
  0
ARC
  5
420
330
1F
100
AcDbEntity
  8
0
  6
Continuous
 62
     7
370
    25
100
AcDbCircle
 10
6944.0952626612
 20
4901.2039571422
 30
0.0
 40
2.499999999999091
100
AcDbArc
 50
270.0
 51
0.0000000009
  0
ARC
  5
421
330
1F
100
AcDbEntity
  8
0
  6
Continuous
 62
     7
370
    25
100
AcDbCircle
 10
6944.0952626612
 20
5126.2039571422
 30
0.0
 40
1.000000000000909
100
AcDbArc
 50
359.9999999978
 51
89.9999999999
  0
ARC
  5
422
330
1F
100
AcDbEntity
  8
0
  6
Continuous
 62
     7
370
    25
100
AcDbCircle
 10
6944.0952626612
 20
5126.2039571422
 30
0.0
 40
2.499999999999091
100
AcDbArc
 50
359.9999999977
 51
90.0
  0
LINE
  5
423
330
1F
100
AcDbEntity
  8
0
  6
Continuous
 62
     7
370
    25
100
AcDbLine
 10
6826.5952626612
 20
5126.2039571422
 30
0.0
 11
6826.5952626612
 21
5125.9918251079
 31
0.0
  0
LINE
  5
424
330
1F
100
AcDbEntity
  8
0
  6
Continuous
 62
     7
370
    25
100
AcDbLine
 10
6826.5952626612
 20
4901.2039571422
 30
0.0
 11
6826.5952626612
 21
4901.4160891765
 31
0.0
  0
LINE
  5
425
330
1F
100
AcDbEntity
  8
0
  6
Continuous
 62
     7
370
    25
100
AcDbLine
 10
6946.5952626612
 20
5061.3551042527
 30
0.0
 11
6950.4039888644
 21
5061.4215858159
 31
0.0
  0
LINE
  5
426
330
1F
100
AcDbEntity
  8
0
  6
Continuous
 62
     7
370
    25
100
AcDbLine
 10
6946.5952626612
 20
5081.1052178111
 30
0.0
 11
6950.4039888644
 21
5081.0387362479
 31
0.0
  0
ARC
  5
427
330
1F
100
AcDbEntity
  8
0
  6
Continuous
 62
     7
370
    25
100
AcDbCircle
 10
6950.3952626612
 20
5080.5388124003
 30
0.0
 40
0.5000000000009095
100
AcDbArc
 50
0.0
 51
89.0
  0
LINE
  5
428
330
1F
100
AcDbEntity
  8
0
  6
Continuous
 62
     7
370
    25
100
AcDbLine
 10
6950.8952626612
 20
5061.9215096634
 30
0.0
 11
6950.8952626612
 21
5080.5388124003
 31
0.0
  0
ARC
  5
429
330
1F
100
AcDbEntity
  8
0
  6
Continuous
 62
     7
370
    25
100
AcDbCircle
 10
6950.3952626612
 20
5061.9215096634
 30
0.0
 40
0.5000000000009095
100
AcDbArc
 50
271.0
 51
0.0
  0
ARC
  5
42A
330
1F
100
AcDbEntity
  8
0
  6
Continuous
 62
     7
370
    25
100
AcDbCircle
 10
6948.6663506575
 20
4999.2477598498
 30
0.0
 40
9.568874020624316
100
AcDbArc
 50
356.5051733959
 51
2.4949408373
  0
LINE
  5
42B
330
1F
100
AcDbEntity
  8
0
  6
Continuous
 62
     7
370
    25
100
AcDbLine
 10
6948.6952626612
 20
4998.4982464165
 30
0.0
 11
6958.2174295062
 21
4998.664456457
 31
0.0
  0
LINE
  5
42C
330
1F
100
AcDbEntity
  8
0
  6
Continuous
 62
     7
370
    25
100
AcDbLine
 10
6947.0952626612
 20
5038.6913113014
 30
0.0
 11
6947.0952626612
 21
5018.7039571422
 31
0.0
  0
LINE
  5
42D
330
1F
100
AcDbEntity
  8
0
  6
Continuous
 62
     7
370
    25
100
AcDbLine
 10
6948.8952626612
 20
5010.0984560361
 30
0.0
 11
6964.1214396095
 21
5008.7663381643
 31
0.0
  0
LINE
  5
42E
330
1F
100
AcDbEntity
  8
0
  6
Continuous
 62
     7
370
    25
100
AcDbLine
 10
6964.1214396095
 20
5008.7663381643
 30
0.0
 11
6964.1214396095
 21
5005.6633903231
 31
0.0
  0
ARC
  5
42F
330
1F
100
AcDbEntity
  8
0
  6
Continuous
 62
     7
370
    25
100
AcDbCircle
 10
6958.1214396095
 20
5005.6633903231
 30
0.0
 40
5.999999999997272
100
AcDbArc
 50
271.0
 51
0.0
  0
LINE
  5
430
330
1F
100
AcDbEntity
  8
0
  6
Continuous
 62
     7
370
    25
100
AcDbLine
 10
6947.0952626612
 20
5039.6909686264
 30
0.0
 11
6946.5952626612
 21
5039.7040615872
 31
0.0
  0
LINE
  5
431
330
1F
100
AcDbEntity
  8
0
  6
Continuous
 62
     7
370
    25
100
AcDbLine
 10
6947.0952626612
 20
5038.6913113014
 30
0.0
 11
6947.0952626612
 21
5039.6909686264
 31
0.0
  0
LINE
  5
432
330
1F
100
AcDbEntity
  8
0
  6
Continuous
 62
     7
370
    25
100
AcDbLine
 10
6964.1214396095
 20
5005.6633903231
 30
0.0
 11
6965.0952626612
 21
5005.6633903231
 31
0.0
  0
ARC
  5
433
330
1F
100
AcDbEntity
  8
0
  6
Continuous
 62
     7
370
    25
100
AcDbCircle
 10
6958.0952626612
 20
5005.6633903231
 30
0.0
 40
7.000000000000909
100
AcDbArc
 50
270.9999999999
 51
360.0
  0
LINE
  5
434
330
1F
100
AcDbEntity
  8
0
  6
Continuous
 62
     7
370
    25
100
AcDbLine
 10
6965.0952626612
 20
5005.6633903231
 30
0.0
 11
6965.0952626612
 21
5008.681139687
 31
0.0
  0
LINE
  5
435
330
1F
100
AcDbEntity
  8
0
  6
Continuous
 62
     7
370
    25
100
AcDbLine
 10
6965.0952626612
 20
5008.681139687
 30
0.0
 11
6964.1214396095
 21
5008.7663381643
 31
0.0
  0
LINE
  5
436
330
1F
100
AcDbEntity
  8
0
  6
Continuous
 62
     7
370
    25
100
AcDbLine
 10
6947.0952626612
 20
5112.9833867651
 30
0.0
 11
6947.0952626612
 21
5081.0964902786
 31
0.0
  0
LINE
  5
437
330
1F
100
AcDbEntity
  8
0
  6
Continuous
 62
     7
370
    25
100
AcDbLine
 10
6947.0952626612
 20
5112.9833867651
 30
0.0
 11
6947.0952626612
 21
5113.9838444692
 31
0.0
  0
LINE
  5
438
330
1F
100
AcDbEntity
  8
0
  6
Continuous
 62
     7
370
    25
100
AcDbLine
 10
6947.0952626612
 20
5113.9838444692
 30
0.0
 11
6946.5952626612
 21
5114.0100483589
 31
0.0
  0
ARC
  5
439
330
1F
100
AcDbEntity
  8
0
  6
Continuous
 62
     7
370
    25
100
AcDbCircle
 10
6952.8996259289
 20
5076.1786841044
 30
0.0
 40
2.500000000001125
100
AcDbArc
 50
0.0
 51
89.5
  0
LINE
  5
43A
330
1F
100
AcDbEntity
  8
0
  6
Continuous
 62
     7
370
    25
100
AcDbLine
 10
6955.3996259289
 20
5076.1786841044
 30
0.0
 11
6955.3996259289
 21
5066.3359961942
 31
0.0
  0
ARC
  5
43B
330
1F
100
AcDbEntity
  8
0
  6
Continuous
 62
     7
370
    25
100
AcDbCircle
 10
6952.8996259289
 20
5066.3359961949
 30
0.0
 40
2.5
100
AcDbArc
 50
270.5000000023
 51
359.9999999829
  0
LINE
  5
43C
330
1F
100
AcDbEntity
  8
0
  6
Continuous
 62
     7
370
    25
100
AcDbLine
 10
6952.9214422683
 20
5079.1785698736
 30
0.0
 11
6950.8952626612
 21
5079.1962520751
 31
0.0
  0
ARC
  5
43D
330
1F
100
AcDbEntity
  8
0
  6
Continuous
 62
     7
370
    25
100
AcDbCircle
 10
6938.5965982666
 20
5078.9285793928
 30
0.0
 40
14.32702519349732
100
AcDbArc
 50
359.0002023311
 51
0.9997976689
  0
ARC
  5
43E
330
1F
100
AcDbEntity
  8
0
  6
Continuous
 62
     7
370
    25
100
AcDbCircle
 10
6938.5965981949
 20
5063.5861009063
 30
0.0
 40
14.32702526532785
100
AcDbArc
 50
359.0002023368
 51
0.9997976653
  0
LINE
  5
43F
330
1F
100
AcDbEntity
  8
0
  6
Continuous
 62
     7
370
    25
100
AcDbLine
 10
6950.8952626612
 20
5063.3184282242
 30
0.0
 11
6952.9214422672
 21
5063.3361104257
 31
0.0
  0
LINE
  5
440
330
1F
100
AcDbEntity
  8
0
  6
Continuous
 62
     7
370
    25
100
AcDbLine
 10
6955.3996259289
 20
5066.3359961942
 30
0.0
 11
6955.8952626612
 21
5066.3359961942
 31
0.0
  0
ARC
  5
441
330
1F
100
AcDbEntity
  8
0
  6
Continuous
 62
     7
370
    25
100
AcDbCircle
 10
6952.8952626612
 20
5066.3359961949
 30
0.0
 40
3.000000000001819
100
AcDbArc
 50
270.4999999916
 51
0.0
  0
ARC
  5
442
330
1F
100
AcDbEntity
  8
0
  6
Continuous
 62
     7
370
    25
100
AcDbCircle
 10
6952.8952626612
 20
5076.1786841044
 30
0.0
 40
3.000000000001819
100
AcDbArc
 50
0.0000000115
 51
89.4999999888
  0
LINE
  5
443
330
1F
100
AcDbEntity
  8
0
  6
Continuous
 62
     7
370
    25
100
AcDbLine
 10
6955.3996259288
 20
5076.1786841044
 30
0.0
 11
6955.8952626612
 21
5076.1786841044
 31
0.0
  0
LINE
  5
444
330
1F
100
AcDbEntity
  8
0
  6
Continuous
 62
     7
370
    25
100
AcDbLine
 10
6955.8952626612
 20
5066.3359961949
 30
0.0
 11
6955.8952626612
 21
5076.178684105
 31
0.0
  0
LINE
  5
445
330
1F
100
AcDbEntity
  8
0
  6
Continuous
 62
     7
370
    25
100
AcDbLine
 10
6947.6952626612
 20
4994.7039571422
 30
0.0
 11
6947.6952626612
 21
5018.7039571422
 31
0.0
  0
LINE
  5
446
330
1F
100
AcDbEntity
  8
0
  6
Continuous
 62
     7
370
    25
100
AcDbLine
 10
6948.6952626612
 20
5017.7039571422
 30
0.0
 11
6948.6952626612
 21
4995.7039571422
 31
0.0
  0
ARC
  5
447
330
1F
100
AcDbEntity
  8
0
  6
Continuous
 62
     7
370
    25
100
AcDbCircle
 10
6948.6949739569
 20
5016.0864206423
 30
0.0
 40
0.2002890137552797
100
AcDbArc
 50
359.8992811876
 51
89.9174116292
  0
LINE
  5
448
330
1F
100
AcDbEntity
  8
0
  6
Continuous
 62
     7
370
    25
100
AcDbLine
 10
6948.8952626612
 20
5016.0860685595
 30
0.0
 11
6948.8952626612
 21
5005.3039571422
 31
0.0
  0
LINE
  5
449
330
1F
100
AcDbEntity
  8
0
  6
Continuous
 62
     8
370
    25
100
AcDbLine
 10
6958.2261540481
 20
4999.6643041522
 30
0.0
 11
6948.6952626612
 21
4999.4979418242
 31
0.0
  0
LINE
  5
44A
330
1F
100
AcDbEntity
  8
0
  6
Continuous
 62
     8
370
    25
100
AcDbLine
 10
6946.5952626612
 20
5038.7044042622
 30
0.0
 11
6947.0952626612
 21
5038.6913113014
 31
0.0
  0
LINE
  5
44B
330
1F
100
AcDbEntity
  8
0
  6
Continuous
 62
     8
370
    25
100
AcDbLine
 10
6946.5952626612
 20
5113.0095906548
 30
0.0
 11
6947.0952626612
 21
5112.9833867651
 31
0.0
  0
LINE
  5
44C
330
1F
100
AcDbEntity
  8
0
  6
Continuous
 62
     8
370
    25
100
AcDbLine
 10
6952.9214422678
 20
5063.8360913873
 30
0.0
 11
6950.8952626612
 21
5063.8184091857
 31
0.0
  0
LINE
  5
44D
330
1F
100
AcDbEntity
  8
0
  6
Continuous
 62
     8
370
    25
100
AcDbLine
 10
6950.8952626612
 20
5078.6962711136
 30
0.0
 11
6952.9214422677
 21
5078.678588912
 31
0.0
  0
LINE
  5
44E
330
1F
100
AcDbEntity
  8
0
  6
Continuous
 62
     7
370
    25
100
AcDbLine
 10
6530.2140385205
 20
4534.7692473557
 30
0.0
 11
6530.2140385205
 21
4533.2692473557
 31
0.0
  0
LINE
  5
44F
330
1F
100
AcDbEntity
  8
0
  6
Continuous
 62
     7
370
    25
100
AcDbLine
 10
6560.2140385205
 20
4533.2692473557
 30
0.0
 11
6560.2140385205
 21
4534.7692473557
 31
0.0
  0
LINE
  5
450
330
1F
100
AcDbEntity
  8
0
  6
Continuous
 62
     7
370
    25
100
AcDbLine
 10
6530.2140385205
 20
4533.2692473557
 30
0.0
 11
6531.2140385205
 21
4532.2692473557
 31
0.0
  0
LINE
  5
451
330
1F
100
AcDbEntity
  8
0
  6
Continuous
 62
     7
370
    25
100
AcDbLine
 10
6559.2140385205
 20
4532.2692473557
 30
0.0
 11
6560.2140385205
 21
4533.2692473557
 31
0.0
  0
ARC
  5
452
330
1F
100
AcDbEntity
  8
0
  6
Continuous
 62
     7
370
    25
100
AcDbCircle
 10
6539.8140385205
 20
4532.2692473557
 30
0.0
 40
0.1999999999998181
100
AcDbArc
 50
180.0
 51
270.0
  0
LWPOLYLINE
  5
453
330
1F
100
AcDbEntity
  8
0
  6
Continuous
 62
     7
370
    25
100
AcDbPolyline
 90
       15
 70
   128
 43
0.0
 10
6589.5433921856
 20
4528.4423035999
 10
6589.5458461131
 20
4528.1597144164
 10
6589.5482349485
 20
4527.8846221656
 10
6589.5505326803
 20
4527.6200221493
 10
6589.5527168125
 20
4527.3685048444
 10
6589.5547679486
 20
4527.1323037246
 10
6589.5566684595
 20
4526.9134487783
 10
6589.5584027587
 20
4526.7137347628
 10
6589.5599624953
 20
4526.5341231829
 10
6589.5617601342
 20
4526.327116802
 10
6589.563225085
 20
4526.1584218758
 10
6589.5643490677
 20
4526.0289916937
 10
6589.5651319583
 20
4525.938840321
 10
6589.5655895351
 20
4525.8861507641
 10
6589.5657399488
 20
4525.8688328637
  0
LWPOLYLINE
  5
454
330
1F
100
AcDbEntity
  8
0
  6
Continuous
 62
     7
370
    25
100
AcDbPolyline
 90
       15
 70
   128
 43
0.0
 10
6606.8437629808
 20
4525.8688328633
 10
6606.8438978246
 20
4525.8843606724
 10
6606.8442880266
 20
4525.9292940604
 10
6606.8449205438
 20
4526.0021310893
 10
6606.8457823319
 20
4526.1013696945
 10
6606.846853797
 20
4526.2247536422
 10
6606.8481103888
 20
4526.369455941
 10
6606.8495288676
 20
4526.5328005485
 10
6606.8510874141
 20
4526.7122749445
 10
6606.8533482087
 20
4526.9726172964
 10
6606.8557727098
 20
4527.2518121233
 10
6606.8583070902
 20
4527.543661029
 10
6606.8609034977
 20
4527.84265365
 10
6606.8635182792
 20
4528.1437631113
 10
6606.8661107439
 20
4528.4423035999
  0
LINE
  5
455
330
1F
100
AcDbEntity
  8
0
  6
Continuous
 62
     7
370
    25
100
AcDbLine
 10
6533.2140385205
 20
4534.7692473557
 30
0.0
 11
6533.2140385205
 21
4533.6692473557
 31
0.0
  0
LINE
  5
456
330
1F
100
AcDbEntity
  8
0
  6
Continuous
 62
     7
370
    25
100
AcDbLine
 10
6557.2140385205
 20
4533.6692473557
 30
0.0
 11
6557.2140385205
 21
4534.7692473557
 31
0.0
  0
LINE
  5
457
330
1F
100
AcDbEntity
  8
0
  6
Continuous
 62
     7
370
    25
100
AcDbLine
 10
6533.2140385205
 20
4533.6692473557
 30
0.0
 11
6534.2140385205
 21
4532.6692473557
 31
0.0
  0
LINE
  5
458
330
1F
100
AcDbEntity
  8
0
  6
Continuous
 62
     7
370
    25
100
AcDbLine
 10
6556.2140385205
 20
4532.6692473557
 30
0.0
 11
6557.2140385205
 21
4533.6692473557
 31
0.0
  0
ARC
  5
459
330
1F
100
AcDbEntity
  8
0
  6
Continuous
 62
     7
370
    25
100
AcDbCircle
 10
6550.6140385205
 20
4532.6692473557
 30
0.0
 40
0.1999999999998181
100
AcDbArc
 50
270.0
 51
0.0
  0
ARC
  5
45A
330
1F
100
AcDbEntity
  8
0
  6
Continuous
 62
     7
370
    25
100
AcDbCircle
 10
6539.8140385205
 20
4532.6692473557
 30
0.0
 40
0.1999999999998181
100
AcDbArc
 50
180.0
 51
270.0
  0
LINE
  5
45B
330
1F
100
AcDbEntity
  8
0
  6
Continuous
 62
     7
370
    25
100
AcDbLine
 10
6545.3080241591
 20
4532.4692473557
 30
0.0
 11
6545.3080241591
 21
4532.6692473557
 31
0.0
  0
LINE
  5
45C
330
1F
100
AcDbEntity
  8
0
  6
Continuous
 62
     7
370
    25
100
AcDbLine
 10
6580.1326919922
 20
4534.6692473557
 30
0.0
 11
6580.1326919922
 21
4534.7692473557
 31
0.0
  0
LINE
  5
45D
330
1F
100
AcDbEntity
  8
0
  6
Continuous
 62
     7
370
    25
100
AcDbLine
 10
6587.6086193098
 20
4534.6692473557
 30
0.0
 11
6580.1326919922
 21
4534.6692473557
 31
0.0
  0
LINE
  5
45E
330
1F
100
AcDbEntity
  8
0
  6
Continuous
 62
     7
370
    25
100
AcDbLine
 10
6612.3311205112
 20
4534.6692473557
 30
0.0
 11
6612.3311205112
 21
4534.7692473557
 31
0.0
  0
LINE
  5
45F
330
1F
100
AcDbEntity
  8
0
  6
Continuous
 62
     7
370
    25
100
AcDbLine
 10
6612.3311205112
 20
4534.6692473557
 30
0.0
 11
6608.8552418552
 21
4534.6692473557
 31
0.0
  0
LINE
  5
460
330
1F
100
AcDbEntity
  8
0
  6
Continuous
 62
     7
370
    25
100
AcDbLine
 10
6615.2140385205
 20
4534.6692473557
 30
0.0
 11
6615.2140385205
 21
4534.7692473557
 31
0.0
  0
LINE
  5
461
330
1F
100
AcDbEntity
  8
0
  6
Continuous
 62
     7
370
    25
100
AcDbLine
 10
6613.5007555747
 20
4534.6692473557
 30
0.0
 11
6613.5007555747
 21
4534.7692473557
 31
0.0
  0
LINE
  5
462
330
1F
100
AcDbEntity
  8
0
  6
Continuous
 62
     7
370
    25
100
AcDbLine
 10
6615.2140385205
 20
4534.6692473557
 30
0.0
 11
6613.5007555747
 21
4534.6692473557
 31
0.0
  0
LINE
  5
463
330
1F
100
AcDbEntity
  8
0
  6
Continuous
 62
     7
370
    25
100
AcDbLine
 10
6613.5007555747
 20
4534.6692473557
 30
0.0
 11
6612.3311205112
 21
4534.6692473557
 31
0.0
  0
LINE
  5
464
330
1F
100
AcDbEntity
  8
0
  6
Continuous
 62
     7
370
    25
100
AcDbLine
 10
6530.2140385205
 20
4533.2692473557
 30
0.0
 11
6533.6140385205
 21
4533.2692473557
 31
0.0
  0
LINE
  5
465
330
1F
100
AcDbEntity
  8
0
  6
Continuous
 62
     7
370
    25
100
AcDbLine
 10
6556.8140385205
 20
4533.2692473557
 30
0.0
 11
6560.2140385205
 21
4533.2692473557
 31
0.0
  0
LINE
  5
466
330
1F
100
AcDbEntity
  8
0
  6
Continuous
 62
     7
370
    25
100
AcDbLine
 10
6559.2140385205
 20
4532.2692473557
 30
0.0
 11
6531.2140385205
 21
4532.2692473557
 31
0.0
  0
ARC
  5
467
330
1F
100
AcDbEntity
  8
0
  6
Continuous
 62
     7
370
    25
100
AcDbCircle
 10
6550.596508125
 20
4532.2695299361
 30
0.0
 40
0.200282900654792
100
AcDbArc
 50
269.8975318068
 51
359.919161009
  0
LINE
  5
468
330
1F
100
AcDbEntity
  8
0
  6
Continuous
 62
     7
370
    25
100
AcDbLine
 10
6550.5961499378
 20
4532.0692473557
 30
0.0
 11
6539.8140385205
 21
4532.0692473557
 31
0.0
  0
ARC
  5
469
330
1F
100
AcDbEntity
  8
0
  6
Continuous
 62
     7
370
    25
100
AcDbCircle
 10
6510.7494866834
 20
4653.7369372109
 30
0.0
 40
1.034326435325381
100
AcDbArc
 50
43.6564686076
 51
86.421871412
  0
LINE
  5
46A
330
1F
100
AcDbEntity
  8
0
  6
Continuous
 62
     7
370
    25
100
AcDbLine
 10
6510.8140385205
 20
4654.7692473558
 30
0.0
 11
6510.8140385205
 21
4653.886231417
 31
0.0
  0
LINE
  5
46B
330
1F
100
AcDbEntity
  8
0
  6
Continuous
 62
     7
370
    25
100
AcDbLine
 10
6510.8140385205
 20
4654.7692473558
 30
0.0
 11
6512.7140385205
 21
4654.7692473558
 31
0.0
  0
LINE
  5
46C
330
1F
100
AcDbEntity
  8
0
  6
Continuous
 62
     7
370
    25
100
AcDbLine
 10
6627.7140385205
 20
4654.7692473558
 30
0.0
 11
6629.6140385205
 21
4654.7692473558
 31
0.0
  0
ARC
  5
46D
330
1F
100
AcDbEntity
  8
0
  6
Continuous
 62
     7
370
    25
100
AcDbCircle
 10
6629.6785903576
 20
4653.7369372109
 30
0.0
 40
1.03432643535463
100
AcDbArc
 50
93.5781285883
 51
136.3435313931
  0
LINE
  5
46E
330
1F
100
AcDbEntity
  8
0
  6
Continuous
 62
     7
370
    25
100
AcDbLine
 10
6629.6140385205
 20
4654.7692473558
 30
0.0
 11
6629.6140385205
 21
4653.886231417
 31
0.0
  0
LWPOLYLINE
  5
46F
330
1F
100
AcDbEntity
  8
0
  6
Continuous
 62
     7
370
    25
100
AcDbPolyline
 90
        3
 70
   128
 43
0.0
 10
6630.2140385205
 20
4652.9692473558
 10
6630.192650674
 20
4652.8932363529
 10
6630.1447838034
 20
4652.8362058449
  0
LINE
  5
470
330
1F
100
AcDbEntity
  8
0
  6
Continuous
 62
     7
370
    25
100
AcDbLine
 10
6630.1108781729
 20
4652.9692473558
 30
0.0
 11
6630.2140385205
 21
4652.9692473558
 31
0.0
  0
LINE
  5
471
330
1F
100
AcDbEntity
  8
0
  6
Continuous
 62
     7
370
    25
100
AcDbLine
 10
6630.2140385205
 20
4652.9692473558
 30
0.0
 11
6630.2140385205
 21
4652.2692473557
 31
0.0
  0
LINE
  5
472
330
1F
100
AcDbEntity
  8
0
  6
Continuous
 62
     7
370
    25
100
AcDbLine
 10
6630.2140385205
 20
4537.2692473563
 30
0.0
 11
6630.2140385205
 21
4536.5692473557
 31
0.0
  0
ARC
  5
473
330
1F
100
AcDbEntity
  8
0
  6
Continuous
 62
     7
370
    25
100
AcDbCircle
 10
6619.6800579861
 20
4501.5073956348
 30
0.0
 40
36.85898433169192
100
AcDbArc
 50
75.8157184864
 51
77.1368582362
  0
LWPOLYLINE
  5
474
330
1F
100
AcDbEntity
  8
0
  6
Continuous
 62
     7
370
    25
100
AcDbPolyline
 90
        3
 70
   128
 43
0.0
 10
6630.1475782687
 20
4536.6989594286
 10
6630.192650674
 20
4536.6452583586
 10
6630.2140385205
 20
4536.5692473557
  0
LWPOLYLINE
  5
475
330
1F
100
AcDbEntity
  8
0
  6
Continuous
 62
     7
370
    25
100
AcDbPolyline
 90
        3
 70
   128
 43
0.0
 10
6510.2832932376
 20
4652.836205845
 10
6510.2354263671
 20
4652.8932363529
 10
6510.2140385205
 20
4652.9692473558
  0
LWPOLYLINE
  5
476
330
1F
100
AcDbEntity
  8
0
  6
Continuous
 62
     7
370
    25
100
AcDbPolyline
 90
        3
 70
   128
 43
0.0
 10
6510.2140385205
 20
4536.5692473557
 10
6510.2354263671
 20
4536.6452583586
 10
6510.2805065759
 20
4536.698968726
  0
ARC
  5
477
330
1F
100
AcDbEntity
  8
0
  6
Continuous
 62
     7
370
    25
100
AcDbCircle
 10
6520.7480347507
 20
4501.5073282769
 30
0.0
 40
36.85905349343667
100
AcDbArc
 50
102.86314224
 51
104.1842765902
  0
LINE
  5
478
330
1F
100
AcDbEntity
  8
0
  6
Continuous
 62
     7
370
    25
100
AcDbLine
 10
6510.2140385205
 20
4536.5692473557
 30
0.0
 11
6510.2140385205
 21
4537.2692473547
 31
0.0
  0
LINE
  5
479
330
1F
100
AcDbEntity
  8
0
  6
Continuous
 62
     7
370
    25
100
AcDbLine
 10
6510.2140385205
 20
4652.2692473557
 30
0.0
 11
6510.2140385205
 21
4652.9692473558
 31
0.0
  0
LINE
  5
47A
330
1F
100
AcDbEntity
  8
0
  6
Continuous
 62
     7
370
    25
100
AcDbLine
 10
6510.3171988681
 20
4652.9692473558
 30
0.0
 11
6510.2140385205
 21
4652.9692473558
 31
0.0
  0
LINE
  5
47B
330
1F
100
AcDbEntity
  8
0
  6
Continuous
 62
     7
370
    25
100
AcDbLine
 10
6630.1112961049
 20
4536.5692473557
 30
0.0
 11
6630.2140385205
 21
4536.5692473557
 31
0.0
  0
ARC
  5
47C
330
1F
100
AcDbEntity
  8
0
  6
Continuous
 62
     7
370
    25
100
AcDbCircle
 10
6626.5630034098
 20
4534.9014842621
 30
0.0
 40
2.81339205339295
100
AcDbArc
 50
43.277187601
 51
63.1843963716
  0
LINE
  5
47D
330
1F
100
AcDbEntity
  8
0
  6
Continuous
 62
     7
370
    25
100
AcDbLine
 10
6510.3167750727
 20
4536.5692473557
 30
0.0
 11
6510.2140385205
 21
4536.5692473557
 31
0.0
  0
ARC
  5
47E
330
1F
100
AcDbEntity
  8
0
  6
Continuous
 62
     7
370
    25
100
AcDbCircle
 10
6513.865069675
 20
4534.9014912982
 30
0.0
 40
2.81338398915054
100
AcDbArc
 50
116.8155963646
 51
136.7229602096
  0
ARC
  5
47F
330
1F
100
AcDbEntity
  8
0
  6
Continuous
 62
     7
370
    25
100
AcDbCircle
 10
6629.6779853687
 20
4535.799347801
 30
0.0
 40
1.032083391402798
100
AcDbArc
 50
223.7189895663
 51
266.4477358828
  0
ARC
  5
480
330
1F
100
AcDbEntity
  8
0
  6
Continuous
 62
     7
370
    25
100
AcDbCircle
 10
6654.4020968439
 20
4551.4690178168
 30
0.0
 40
30.4172174426436
100
AcDbArc
 50
208.0279381589
 51
209.870392104
  0
LINE
  5
481
330
1F
100
AcDbEntity
  8
0
  6
Continuous
 62
     7
370
    25
100
AcDbLine
 10
6629.6140385205
 20
4534.7692473557
 30
0.0
 11
6627.7140385205
 21
4534.7692473557
 31
0.0
  0
LINE
  5
482
330
1F
100
AcDbEntity
  8
0
  6
Continuous
 62
     7
370
    25
100
AcDbLine
 10
6512.7140385207
 20
4534.7692473557
 30
0.0
 11
6510.8140385205
 21
4534.7692473557
 31
0.0
  0
ARC
  5
483
330
1F
100
AcDbEntity
  8
0
  6
Continuous
 62
     7
370
    25
100
AcDbCircle
 10
6486.0258970889
 20
4551.4690662772
 30
0.0
 40
30.41731361896491
100
AcDbArc
 50
330.1296178795
 51
331.9720697705
  0
ARC
  5
484
330
1F
100
AcDbEntity
  8
0
  6
Continuous
 62
     7
370
    25
100
AcDbCircle
 10
6510.7500887198
 20
4535.7993585808
 30
0.0
 40
1.03209433340827
100
AcDbArc
 50
273.5523906314
 51
316.2813169279
  0
LINE
  5
485
330
1F
100
AcDbEntity
  8
0
  6
Continuous
 62
     7
370
    25
100
AcDbLine
 10
6510.8140385205
 20
4534.7692473557
 30
0.0
 11
6510.8140385205
 21
4535.6488811531
 31
0.0
  0
ARC
  5
486
330
1F
100
AcDbEntity
  8
0
  6
Continuous
 62
     7
370
    25
100
AcDbCircle
 10
6508.0265621097
 20
4543.417568238
 30
0.0
 40
7.859010547691395
100
AcDbArc
 50
300.0332395731
 51
307.886970039
  0
ARC
  5
487
330
1F
100
AcDbEntity
  8
0
  6
Continuous
 62
     7
370
    25
100
AcDbCircle
 10
6632.4015015612
 20
4543.4175469679
 30
0.0
 40
7.858985451604301
100
AcDbArc
 50
232.1130405347
 51
239.9667438647
  0
LINE
  5
488
330
1F
100
AcDbEntity
  8
0
  6
Continuous
 62
     7
370
    25
100
AcDbLine
 10
6629.6140385205
 20
4534.7692473557
 30
0.0
 11
6629.6140385205
 21
4535.648899506
 31
0.0
  0
LINE
  5
489
330
1F
100
AcDbEntity
  8
0
  6
Continuous
 62
     7
370
    25
100
AcDbLine
 10
6629.6140385205
 20
4537.5924706604
 30
0.0
 11
6628.5372618253
 21
4537.5924706604
 31
0.0
  0
ARC
  5
48A
330
1F
100
AcDbEntity
  8
0
  6
Continuous
 62
     7
370
    25
100
AcDbCircle
 10
6628.5372618253
 20
4536.0924706604
 30
0.0
 40
1.500000000000156
100
AcDbArc
 50
90.0
 51
128.3238976603
  0
LINE
  5
48B
330
1F
100
AcDbEntity
  8
0
  6
Continuous
 62
     7
370
    25
100
AcDbLine
 10
6512.8209746695
 20
4537.2692473557
 30
0.0
 11
6627.6071023715
 21
4537.2692473557
 31
0.0
  0
ARC
  5
48C
330
1F
100
AcDbEntity
  8
0
  6
Continuous
 62
     7
370
    25
100
AcDbCircle
 10
6511.8908152158
 20
4536.0924706604
 30
0.0
 40
1.500000000000665
100
AcDbArc
 50
51.6761023384
 51
89.9999999998
  0
LINE
  5
48D
330
1F
100
AcDbEntity
  8
0
  6
Continuous
 62
     7
370
    25
100
AcDbLine
 10
6510.8140385205
 20
4537.5924706604
 30
0.0
 11
6511.8908152158
 21
4537.5924706604
 31
0.0
  0
LINE
  5
48E
330
1F
100
AcDbEntity
  8
0
  6
Continuous
 62
     7
370
    25
100
AcDbLine
 10
6510.8140385205
 20
4652.2692473557
 30
0.0
 11
6510.8140385205
 21
4537.5924706604
 31
0.0
  0
LINE
  5
48F
330
1F
100
AcDbEntity
  8
0
  6
Continuous
 62
     7
370
    25
100
AcDbLine
 10
6510.8140385205
 20
4652.2692473557
 30
0.0
 11
6629.6140385205
 21
4652.2692473557
 31
0.0
  0
LINE
  5
490
330
1F
100
AcDbEntity
  8
0
  6
Continuous
 62
     7
370
    25
100
AcDbLine
 10
6629.6140385205
 20
4652.2692473557
 30
0.0
 11
6629.6140385205
 21
4537.5924706604
 31
0.0
  0
LWPOLYLINE
  5
491
330
1F
100
AcDbEntity
  8
0
  6
Continuous
 62
     7
370
    25
100
AcDbPolyline
 90
       13
 70
   128
 43
0.0
 10
6510.8140385205
 20
4652.2692473557
 10
6510.9900495233
 20
4652.5955628363
 10
6511.1660605262
 20
4652.9162949685
 10
6511.3420715291
 20
4653.2259559366
 10
6511.5180825319
 20
4653.5192473557
 10
6511.6940935348
 20
4653.7911509283
 10
6511.8701045377
 20
4654.0370143087
 10
6512.0461155405
 20
4654.2526307065
 10
6512.2221265434
 20
4654.4343108652
 10
6512.3981375462
 20
4654.578946187
 10
6512.5741485491
 20
4654.6840619215
 10
6512.750159552
 20
4654.7478595092
 10
6512.9261705548
 20
4654.7692473557
  0
LINE
  5
492
330
1F
100
AcDbEntity
  8
0
  6
Continuous
 62
     7
370
    25
100
AcDbLine
 10
6512.9261705548
 20
4654.7692473557
 30
0.0
 11
6627.5019064862
 21
4654.7692473557
 31
0.0
  0
LWPOLYLINE
  5
493
330
1F
100
AcDbEntity
  8
0
  6
Continuous
 62
     7
370
    25
100
AcDbPolyline
 90
       13
 70
   128
 43
0.0
 10
6627.5019064862
 20
4654.7692473557
 10
6627.677917489
 20
4654.7478595092
 10
6627.8539284919
 20
4654.6840619215
 10
6628.0299394947
 20
4654.578946187
 10
6628.2059504976
 20
4654.4343108652
 10
6628.3819615005
 20
4654.2526307065
 10
6628.5579725033
 20
4654.0370143087
 10
6628.7339835062
 20
4653.7911509282
 10
6628.9099945091
 20
4653.5192473557
 10
6629.0860055119
 20
4653.2259559366
 10
6629.2620165148
 20
4652.9162949685
 10
6629.4380275177
 20
4652.5955628363
 10
6629.6140385205
 20
4652.2692473557
  0
LWPOLYLINE
  5
494
330
1F
100
AcDbEntity
  8
0
  6
Continuous
 62
     7
370
    25
100
AcDbPolyline
 90
       17
 70
   128
 43
0.0
 10
6627.2833466006
 20
4534.7692473557
 10
6627.2122029204
 20
4534.7803366692
 10
6627.1529785194
 20
4534.8153843481
 10
6627.1056733977
 20
4534.87693438
 10
6627.0702875553
 20
4534.9672832578
 10
6627.0474224407
 20
4535.0857882731
 10
6627.0375090024
 20
4535.2302532088
 10
6627.0405472404
 20
4535.3992321982
 10
6627.0565371546
 20
4535.5909609288
 10
6627.0850348533
 20
4535.7987544742
 10
6627.1257718237
 20
4536.0161684753
 10
6627.1787480659
 20
4536.2394430415
 10
6627.2439635799
 20
4536.4651745692
 10
6627.3200063848
 20
4536.6856528877
 10
6627.4058771183
 20
4536.8946036733
 10
6627.5015757806
 20
4537.0896848608
 10
6627.6071023715
 20
4537.2692473557
  0
LINE
  5
495
330
1F
100
AcDbEntity
  8
0
  6
Continuous
 62
     7
370
    25
100
AcDbLine
 10
6513.1447304404
 20
4534.7692473557
 30
0.0
 11
6627.2833466006
 21
4534.7692473557
 31
0.0
  0
LWPOLYLINE
  5
496
330
1F
100
AcDbEntity
  8
0
  6
Continuous
 62
     7
370
    25
100
AcDbPolyline
 90
       17
 70
   128
 43
0.0
 10
6512.8209746695
 20
4537.2692473557
 10
6512.9263337643
 20
4537.0899441452
 10
6513.0219765946
 20
4536.8949463694
 10
6513.1079031602
 20
4536.6859056636
 10
6513.1841134612
 20
4536.4651745692
 10
6513.2491867045
 20
4536.2401495274
 10
6513.3021155231
 20
4536.0170630451
 10
6513.3428999171
 20
4535.7993815153
 10
6513.3715398864
 20
4535.5909609288
 10
6513.3875402382
 20
4535.3997790509
 10
6513.3905819554
 20
4535.2308889633
 10
6513.3806650379
 20
4535.0861896107
 10
6513.3577894857
 20
4534.9672832578
 10
6513.3225208165
 20
4534.8770361472
 10
6513.2752547525
 20
4534.8154737429
 10
6513.2159912938
 20
4534.780369664
 10
6513.1447304404
 20
4534.7692473557
  0
LWPOLYLINE
  5
497
330
1F
100
AcDbEntity
  8
0
  6
Continuous
 62
     7
370
    25
100
AcDbPolyline
 90
        3
 70
   128
 43
0.0
 10
6627.2833466006
 20
4536.2692473557
 10
6627.2122029204
 20
4536.2736830811
 10
6627.190148515
 20
4536.2789036031
  0
LINE
  5
498
330
1F
100
AcDbEntity
  8
0
  6
Continuous
 62
     7
370
    25
100
AcDbLine
 10
6627.2833466006
 20
4534.7692473557
 30
0.0
 11
6627.2833466006
 21
4536.2692473557
 31
0.0
  0
LWPOLYLINE
  5
499
330
1F
100
AcDbEntity
  8
0
  6
Continuous
 62
     7
370
    25
100
AcDbPolyline
 90
        3
 70
   128
 43
0.0
 10
6513.2379311245
 20
4536.2788946091
 10
6513.2159912938
 20
4536.273696279
 10
6513.1447304404
 20
4536.2692473557
  0
LINE
  5
49A
330
1F
100
AcDbEntity
  8
0
  6
Continuous
 62
     7
370
    25
100
AcDbLine
 10
6513.1447304404
 20
4534.7692473557
 30
0.0
 11
6513.1447304404
 21
4536.2692473557
 31
0.0
  0
LINE
  5
49B
330
1F
100
AcDbEntity
  8
0
  6
Continuous
 62
     7
370
    25
100
AcDbLine
 10
6627.7140385205
 20
4654.7347669488
 30
0.0
 11
6627.7140385205
 21
4654.7692473557
 31
0.0
  0
ARC
  5
49C
330
1F
100
AcDbEntity
  8
0
  6
Continuous
 62
     7
370
    25
100
AcDbCircle
 10
6627.7140385205
 20
4652.2692473557
 30
0.0
 40
2.500000000001819
100
AcDbArc
 50
0.0
 51
90.0
  0
LINE
  5
49D
330
1F
100
AcDbEntity
  8
0
  6
Continuous
 62
     7
370
    25
100
AcDbLine
 10
6630.2140385205
 20
4652.2692473557
 30
0.0
 11
6629.6140385205
 21
4652.2692473557
 31
0.0
  0
LINE
  5
49E
330
1F
100
AcDbEntity
  8
0
  6
Continuous
 62
     7
370
    25
100
AcDbLine
 10
6630.2140385205
 20
4652.2692473557
 30
0.0
 11
6630.2140385205
 21
4537.5874007649
 31
0.0
  0
LINE
  5
49F
330
1F
100
AcDbEntity
  8
0
  6
Continuous
 62
     7
370
    25
100
AcDbLine
 10
6628.7140385205
 20
4537.5874007649
 30
0.0
 11
6630.2140385205
 21
4537.5874007649
 31
0.0
  0
LINE
  5
4A0
330
1F
100
AcDbEntity
  8
0
  6
Continuous
 62
     7
370
    25
100
AcDbLine
 10
6628.7140385205
 20
4537.5924706604
 30
0.0
 11
6628.7140385205
 21
4537.5874007649
 31
0.0
  0
LINE
  5
4A1
330
1F
100
AcDbEntity
  8
0
  6
Continuous
 62
     7
370
    25
100
AcDbLine
 10
6510.2140385205
 20
4652.2692473557
 30
0.0
 11
6510.2140385205
 21
4537.5874007649
 31
0.0
  0
LINE
  5
4A2
330
1F
100
AcDbEntity
  8
0
  6
Continuous
 62
     7
370
    25
100
AcDbLine
 10
6510.2140385205
 20
4652.2692473557
 30
0.0
 11
6510.8140385205
 21
4652.2692473557
 31
0.0
  0
LINE
  5
4A3
330
1F
100
AcDbEntity
  8
0
  6
Continuous
 62
     7
370
    25
100
AcDbLine
 10
6511.7140385205
 20
4537.5924706604
 30
0.0
 11
6511.7140385205
 21
4537.5874007649
 31
0.0
  0
LINE
  5
4A4
330
1F
100
AcDbEntity
  8
0
  6
Continuous
 62
     7
370
    25
100
AcDbLine
 10
6510.2140385205
 20
4537.5874007649
 30
0.0
 11
6511.7140385205
 21
4537.5874007649
 31
0.0
  0
LINE
  5
4A5
330
1F
100
AcDbEntity
  8
0
  6
Continuous
 62
     7
370
    25
100
AcDbLine
 10
6512.7140385205
 20
4654.7347669488
 30
0.0
 11
6512.7140385205
 21
4654.7692473557
 31
0.0
  0
ARC
  5
4A6
330
1F
100
AcDbEntity
  8
0
  6
Continuous
 62
     7
370
    25
100
AcDbCircle
 10
6512.7140385205
 20
4652.2692473557
 30
0.0
 40
2.499999999999091
100
AcDbArc
 50
90.0
 51
180.0
  0
LINE
  5
4A7
330
1F
100
AcDbEntity
  8
0
  6
Continuous
 62
     7
370
    25
100
AcDbLine
 10
6630.2140385205
 20
4537.2692473557
 30
0.0
 11
6628.7140385205
 21
4537.2692473557
 31
0.0
  0
LINE
  5
4A8
330
1F
100
AcDbEntity
  8
0
  6
Continuous
 62
     7
370
    25
100
AcDbLine
 10
6630.2140385205
 20
4537.2692473557
 30
0.0
 11
6630.2140385205
 21
4537.5874007649
 31
0.0
  0
LINE
  5
4A9
330
1F
100
AcDbEntity
  8
0
  6
Continuous
 62
     7
370
    25
100
AcDbLine
 10
6628.7140385205
 20
4537.2692473557
 30
0.0
 11
6628.7140385205
 21
4537.5874007649
 31
0.0
  0
LINE
  5
4AA
330
1F
100
AcDbEntity
  8
0
  6
Continuous
 62
     7
370
    25
100
AcDbLine
 10
6510.2140385205
 20
4537.2692473557
 30
0.0
 11
6511.7140385205
 21
4537.2692473557
 31
0.0
  0
LINE
  5
4AB
330
1F
100
AcDbEntity
  8
0
  6
Continuous
 62
     7
370
    25
100
AcDbLine
 10
6511.7140385205
 20
4537.2692473557
 30
0.0
 11
6511.7140385205
 21
4537.5874007649
 31
0.0
  0
LINE
  5
4AC
330
1F
100
AcDbEntity
  8
0
  6
Continuous
 62
     7
370
    25
100
AcDbLine
 10
6510.2140385205
 20
4537.2692473557
 30
0.0
 11
6510.2140385205
 21
4537.5874007649
 31
0.0
  0
LINE
  5
4AD
330
1F
100
AcDbEntity
  8
0
  6
Continuous
 62
     7
370
    25
100
AcDbLine
 10
6627.7140385205
 20
4534.7692473557
 30
0.0
 11
6627.7140385205
 21
4536.2692473557
 31
0.0
  0
LINE
  5
4AE
330
1F
100
AcDbEntity
  8
0
  6
Continuous
 62
     7
370
    25
100
AcDbLine
 10
6627.7140385205
 20
4534.7692473557
 30
0.0
 11
6627.2833466006
 21
4534.7692473557
 31
0.0
  0
LINE
  5
4AF
330
1F
100
AcDbEntity
  8
0
  6
Continuous
 62
     7
370
    25
100
AcDbLine
 10
6627.7140385205
 20
4536.2692473557
 30
0.0
 11
6627.2833466006
 21
4536.2692473557
 31
0.0
  0
LINE
  5
4B0
330
1F
100
AcDbEntity
  8
0
  6
Continuous
 62
     7
370
    25
100
AcDbLine
 10
6513.1447304404
 20
4534.7692473557
 30
0.0
 11
6512.7140385205
 21
4534.7692473557
 31
0.0
  0
LINE
  5
4B1
330
1F
100
AcDbEntity
  8
0
  6
Continuous
 62
     7
370
    25
100
AcDbLine
 10
6512.7140385205
 20
4534.7692473557
 30
0.0
 11
6512.7140385205
 21
4536.2692473557
 31
0.0
  0
LINE
  5
4B2
330
1F
100
AcDbEntity
  8
0
  6
Continuous
 62
     7
370
    25
100
AcDbLine
 10
6513.1447304404
 20
4536.2692473557
 30
0.0
 11
6512.7140385205
 21
4536.2692473557
 31
0.0
  0
ARC
  5
4B3
330
1F
100
AcDbEntity
  8
0
  6
Continuous
 62
     7
370
    25
100
AcDbCircle
 10
6512.7140385205
 20
4537.2692473557
 30
0.0
 40
1.000000000000909
100
AcDbArc
 50
180.0
 51
270.000000002
  0
ARC
  5
4B4
330
1F
100
AcDbEntity
  8
0
  6
Continuous
 62
     7
370
    25
100
AcDbCircle
 10
6512.7140385205
 20
4537.2692473557
 30
0.0
 40
2.499999999998181
100
AcDbArc
 50
180.0
 51
270.0000000021
  0
ARC
  5
4B5
330
1F
100
AcDbEntity
  8
0
  6
Continuous
 62
     7
370
    25
100
AcDbCircle
 10
6627.7140385205
 20
4537.2692473557
 30
0.0
 40
0.9999999999972715
100
AcDbArc
 50
269.9999999999
 51
0.0000000002
  0
ARC
  5
4B6
330
1F
100
AcDbEntity
  8
0
  6
Continuous
 62
     7
370
    25
100
AcDbCircle
 10
6627.7140385205
 20
4537.2692473557
 30
0.0
 40
2.499999999999091
100
AcDbArc
 50
270.0
 51
0.0000000001
  0
LINE
  5
4B7
330
1F
100
AcDbEntity
  8
0
  6
Continuous
 62
     7
370
    25
100
AcDbLine
 10
6627.7140385205
 20
4654.7692473557
 30
0.0
 11
6627.5019064862
 21
4654.7692473557
 31
0.0
  0
LINE
  5
4B8
330
1F
100
AcDbEntity
  8
0
  6
Continuous
 62
     7
370
    25
100
AcDbLine
 10
6512.7140385205
 20
4654.7692473557
 30
0.0
 11
6512.9261705548
 21
4654.7692473557
 31
0.0
  0
LINE
  5
4B9
330
1F
100
AcDbEntity
  8
0
  6
Continuous
 62
     7
370
    25
100
AcDbLine
 10
6598.3902647118
 20
4534.2692473557
 30
0.0
 11
6592.4108363705
 21
4534.2692473557
 31
0.0
  0
LINE
  5
4BA
330
1F
100
AcDbEntity
  8
0
  6
Continuous
 62
     7
370
    25
100
AcDbLine
 10
6591.4028700375
 20
4534.7692473557
 30
0.0
 11
6591.41159757
 21
4534.2692473557
 31
0.0
  0
LINE
  5
4BB
330
1F
100
AcDbEntity
  8
0
  6
Continuous
 62
     7
370
    25
100
AcDbLine
 10
6591.41159757
 20
4534.2692473557
 30
0.0
 11
6592.4108363705
 21
4534.2692473557
 31
0.0
  0
LINE
  5
4BC
330
1F
100
AcDbEntity
  8
0
  6
Continuous
 62
     7
370
    25
100
AcDbLine
 10
6599.3895035123
 20
4534.2692473557
 30
0.0
 11
6599.3982310448
 21
4534.7692473557
 31
0.0
  0
LINE
  5
4BD
330
1F
100
AcDbEntity
  8
0
  6
Continuous
 62
     7
370
    25
100
AcDbLine
 10
6598.3902647118
 20
4534.2692473557
 30
0.0
 11
6599.3895035123
 21
4534.2692473557
 31
0.0
  0
LINE
  5
4BE
330
1F
100
AcDbEntity
  8
0
  6
Continuous
 62
     7
370
    25
100
AcDbLine
 10
6587.6068738033
 20
4534.7692473557
 30
0.0
 11
6587.6733553665
 21
4530.9605211525
 31
0.0
  0
LINE
  5
4BF
330
1F
100
AcDbEntity
  8
0
  6
Continuous
 62
     7
370
    25
100
AcDbLine
 10
6608.8569873617
 20
4534.7692473557
 30
0.0
 11
6608.7905057986
 21
4530.9605211525
 31
0.0
  0
LINE
  5
4C0
330
1F
100
AcDbEntity
  8
0
  6
Continuous
 62
     7
370
    25
100
AcDbLine
 10
6608.7905057986
 20
4530.9605211525
 30
0.0
 11
6587.6733553665
 21
4530.9605211525
 31
0.0
  0
LINE
  5
4C1
330
1F
100
AcDbEntity
  8
0
  6
Continuous
 62
     7
370
    25
100
AcDbLine
 10
6587.6819305825
 20
4530.4692473557
 30
0.0
 11
6608.7819305825
 21
4530.4692473557
 31
0.0
  0
LINE
  5
4C2
330
1F
100
AcDbEntity
  8
0
  6
Continuous
 62
     7
370
    25
100
AcDbLine
 10
6587.6733553665
 20
4530.9605211525
 30
0.0
 11
6587.6819305825
 21
4530.4692473557
 31
0.0
  0
LINE
  5
4C3
330
1F
100
AcDbEntity
  8
0
  6
Continuous
 62
     7
370
    25
100
AcDbLine
 10
6608.7819305825
 20
4530.4692473557
 30
0.0
 11
6608.7905057986
 21
4530.9605211525
 31
0.0
  0
LINE
  5
4C4
330
1F
100
AcDbEntity
  8
0
  6
Continuous
 62
     7
370
    25
100
AcDbLine
 10
6592.2537629655
 20
4516.2692473557
 30
0.0
 11
6599.7211096235
 21
4516.2692473557
 31
0.0
  0
ARC
  5
4C5
330
1F
100
AcDbEntity
  8
0
  6
Continuous
 62
     7
370
    25
100
AcDbCircle
 10
6592.2537629655
 20
4517.2692473557
 30
0.0
 40
1.0
100
AcDbArc
 50
181.5
 51
270.0
  0
LINE
  5
4C6
330
1F
100
AcDbEntity
  8
0
  6
Continuous
 62
     7
370
    25
100
AcDbLine
 10
6593.1634960258
 20
4518.5871289851
 30
0.0
 11
6598.8113765632
 21
4518.5871289851
 31
0.0
  0
ARC
  5
4C7
330
1F
100
AcDbEntity
  8
0
  6
Continuous
 62
     7
370
    25
100
AcDbCircle
 10
6599.7211096235
 20
4517.2692473557
 30
0.0
 40
1.0
100
AcDbArc
 50
270.0
 51
358.5
  0
LINE
  5
4C8
330
1F
100
AcDbEntity
  8
0
  6
Continuous
 62
     7
370
    25
100
AcDbLine
 10
6593.1634960258
 20
4518.5871289851
 30
0.0
 11
6593.0433682028
 21
4525.4692473557
 31
0.0
  0
LINE
  5
4C9
330
1F
100
AcDbEntity
  8
0
  6
Continuous
 62
     7
370
    25
100
AcDbLine
 10
6598.9315043862
 20
4525.4692473557
 30
0.0
 11
6598.8113765632
 21
4518.5871289851
 31
0.0
  0
LINE
  5
4CA
330
1F
100
AcDbEntity
  8
0
  6
Continuous
 62
     7
370
    25
100
AcDbLine
 10
6591.0386956162
 20
4525.4692473557
 30
0.0
 11
6591.2541056406
 21
4517.2430704074
 31
0.0
  0
LINE
  5
4CB
330
1F
100
AcDbEntity
  8
0
  6
Continuous
 62
     7
370
    25
100
AcDbLine
 10
6600.9361769729
 20
4525.4692473557
 30
0.0
 11
6600.7207669485
 21
4517.2430704074
 31
0.0
  0
LINE
  5
4CC
330
1F
100
AcDbEntity
  8
0
  6
Continuous
 62
     7
370
    25
100
AcDbLine
 10
6589.5158395393
 20
4530.4692473557
 30
0.0
 11
6589.5335217408
 21
4528.4430677492
 31
0.0
  0
LINE
  5
4CD
330
1F
100
AcDbEntity
  8
0
  6
Continuous
 62
     7
370
    25
100
AcDbLine
 10
6589.5335217408
 20
4528.4430677492
 30
0.0
 11
6589.543135234
 21
4528.4423004543
 31
0.0
  0
LINE
  5
4CE
330
1F
100
AcDbEntity
  8
0
  6
Continuous
 62
     7
370
    25
100
AcDbLine
 10
6606.3760002272
 20
4528.4430677492
 30
0.0
 11
6590.0335027024
 21
4528.4430677492
 31
0.0
  0
LINE
  5
4CF
330
1F
100
AcDbEntity
  8
0
  6
Continuous
 62
     7
370
    25
100
AcDbLine
 10
6606.8759811887
 20
4528.4430677492
 30
0.0
 11
6606.8936633902
 21
4530.4692473557
 31
0.0
  0
ARC
  5
4D0
330
1F
100
AcDbEntity
  8
0
  6
Continuous
 62
     7
370
    25
100
AcDbCircle
 10
6606.6259907079
 20
4542.7679117592
 30
0.0
 40
14.32702520241083
100
AcDbArc
 50
269.0002023317
 51
270.9997976683
  0
LINE
  5
4D1
330
1F
100
AcDbEntity
  8
0
  6
Continuous
 62
     7
370
    25
100
AcDbLine
 10
6590.0551294829
 20
4525.4692473557
 30
0.0
 11
6606.3543734466
 21
4525.4692473557
 31
0.0
  0
LWPOLYLINE
  5
4D2
330
1F
100
AcDbEntity
  8
0
  6
Continuous
 62
     7
370
    25
100
AcDbPolyline
 90
       15
 70
   128
 43
0.0
 10
6590.0551294836
 20
4525.4692473557
 10
6590.0549792976
 20
4525.4836556046
 10
6590.0545287396
 20
4525.5302063075
 10
6590.0537778097
 20
4525.6137732523
 10
6590.0527265079
 20
4525.7389010117
 10
6590.051374834
 20
4525.9095509246
 10
6590.0497227883
 20
4526.1288083957
 10
6590.0482866348
 20
4526.3263386083
 10
6590.0466815222
 20
4526.552542047
 10
6590.0449074503
 20
4526.8070844163
 10
6590.0429644191
 20
4527.0889743097
 10
6590.0408524288
 20
4527.3964848816
 10
6590.0385714792
 20
4527.7270839843
 10
6590.0361215704
 20
4528.0773770888
 10
6590.0335027024
 20
4528.4430677486
  0
LWPOLYLINE
  5
4D3
330
1F
100
AcDbEntity
  8
0
  6
Continuous
 62
     7
370
    25
100
AcDbPolyline
 90
       15
 70
   128
 43
0.0
 10
6606.3760002272
 20
4528.4430677492
 10
6606.3733813591
 20
4528.0773770893
 10
6606.3709314503
 20
4527.7270839847
 10
6606.3686505007
 20
4527.3964848819
 10
6606.3665385104
 20
4527.0889743099
 10
6606.3645954793
 20
4526.8070844165
 10
6606.3628214074
 20
4526.5525420471
 10
6606.3612162947
 20
4526.3263386083
 10
6606.3597801413
 20
4526.1288083957
 10
6606.3581280955
 20
4525.9095509246
 10
6606.3567764217
 20
4525.7389010116
 10
6606.3557251198
 20
4525.6137732522
 10
6606.3549741899
 20
4525.5302063074
 10
6606.354523632
 20
4525.4836556046
 10
6606.354373446
 20
4525.4692473557
  0
LINE
  5
4D4
330
1F
100
AcDbEntity
  8
0
  6
Continuous
 62
     7
370
    25
100
AcDbLine
 10
6589.5335217408
 20
4528.4430677492
 30
0.0
 11
6589.555148522
 21
4525.964884088
 31
0.0
  0
ARC
  5
4D5
330
1F
100
AcDbEntity
  8
0
  6
Continuous
 62
     7
370
    25
100
AcDbCircle
 10
6590.0551294836
 20
4525.9692473557
 30
0.0
 40
0.5000000000009095
100
AcDbArc
 50
180.4999999811
 51
269.9999999255
  0
LINE
  5
4D6
330
1F
100
AcDbEntity
  8
0
  6
Continuous
 62
     7
370
    25
100
AcDbLine
 10
6606.8543544075
 20
4525.964884088
 30
0.0
 11
6606.8759811887
 21
4528.4430677492
 31
0.0
  0
ARC
  5
4D7
330
1F
100
AcDbEntity
  8
0
  6
Continuous
 62
     7
370
    25
100
AcDbCircle
 10
6606.3545318074
 20
4525.9689509394
 30
0.0
 40
0.4997036087798395
100
AcDbArc
 50
269.9818424261
 51
348.4386618566
  0
LINE
  5
4D8
330
1F
100
AcDbEntity
  8
0
  6
Continuous
 62
     7
370
    25
100
AcDbLine
 10
6533.2140385205
 20
4533.6692473557
 30
0.0
 11
6557.2140385205
 21
4533.6692473557
 31
0.0
  0
LINE
  5
4D9
330
1F
100
AcDbEntity
  8
0
  6
Continuous
 62
     7
370
    25
100
AcDbLine
 10
6556.2140385205
 20
4532.6692473557
 30
0.0
 11
6534.2140385205
 21
4532.6692473557
 31
0.0
  0
LINE
  5
4DA
330
1F
100
AcDbEntity
  8
0
  6
Continuous
 62
     7
370
    25
100
AcDbLine
 10
6544.7748612308
 20
4532.4692473557
 30
0.0
 11
6539.8140385205
 21
4532.4692473557
 31
0.0
  0
LINE
  5
4DB
330
1F
100
AcDbEntity
  8
0
  6
Continuous
 62
     7
370
    25
100
AcDbLine
 10
6550.6140385205
 20
4532.4692473557
 30
0.0
 11
6545.7748612308
 21
4532.4692473557
 31
0.0
  0
LINE
  5
4DC
330
1F
100
AcDbEntity
  8
0
  6
Continuous
 62
     7
370
    25
100
AcDbLine
 10
6545.7748612308
 20
4532.4692473557
 30
0.0
 11
6545.7748612308
 21
4532.6692473557
 31
0.0
  0
LINE
  5
4DD
330
1F
100
AcDbEntity
  8
0
  6
Continuous
 62
     7
370
    25
100
AcDbLine
 10
6544.7748612308
 20
4532.6692473557
 30
0.0
 11
6544.7748612308
 21
4532.4692473557
 31
0.0
  0
LINE
  5
4DE
330
1F
100
AcDbEntity
  8
0
  6
Continuous
 62
     7
370
    25
100
AcDbLine
 10
6544.7748612308
 20
4532.4692473557
 30
0.0
 11
6545.3080241591
 21
4532.4692473557
 31
0.0
  0
LINE
  5
4DF
330
1F
100
AcDbEntity
  8
0
  6
Continuous
 62
     7
370
    25
100
AcDbLine
 10
6545.3080241591
 20
4532.4692473557
 30
0.0
 11
6545.7748612308
 21
4532.4692473557
 31
0.0
  0
LINE
  5
4E0
330
1F
100
AcDbEntity
  8
0
  6
Continuous
 62
     8
370
    25
100
AcDbLine
 10
6592.4108363705
 20
4534.2692473557
 30
0.0
 11
6592.402108838
 21
4534.7692473557
 31
0.0
  0
LINE
  5
4E1
330
1F
100
AcDbEntity
  8
0
  6
Continuous
 62
     8
370
    25
100
AcDbLine
 10
6598.3989922442
 20
4534.7692473557
 30
0.0
 11
6598.3902647118
 21
4534.2692473557
 31
0.0
  0
LINE
  5
4E2
330
1F
100
AcDbEntity
  8
0
  6
Continuous
 62
     8
370
    25
100
AcDbLine
 10
6590.0335027024
 20
4528.4430677486
 30
0.0
 11
6590.0158205008
 21
4530.4692473557
 31
0.0
  0
ARC
  5
4E3
330
1F
100
AcDbEntity
  8
0
  6
Continuous
 62
     8
370
    25
100
AcDbCircle
 10
6589.7519842312
 20
4551.6637079553
 30
0.0
 40
23.22234665637908
100
AcDbArc
 50
269.4847063656
 51
270.6945988532
  0
LINE
  5
4E4
330
1F
100
AcDbEntity
  8
0
  6
Continuous
 62
     8
370
    25
100
AcDbLine
 10
6606.3936824287
 20
4530.4692473557
 30
0.0
 11
6606.3760002272
 21
4528.4430677492
 31
0.0
  0
ENDSEC
  0
SECTION
  2
OBJECTS
  0
DICTIONARY
  5
C
330
0
100
AcDbDictionary
281
     1
  3
ACAD_DETAILVIEWSTYLE
350
4EC
  3
ACAD_GROUP
350
D
  3
ACAD_LAYOUT
350
1A
  3
ACAD_MATERIAL
350
43
  3
ACAD_MLEADERSTYLE
350
6B
  3
ACAD_MLINESTYLE
350
17
  3
ACAD_PLOTSETTINGS
350
19
  3
ACAD_PLOTSTYLENAME
350
E
  3
ACAD_SCALELIST
350
47
  3
ACAD_SECTIONVIEWSTYLE
350
4ED
  3
ACAD_TABLESTYLE
350
69
  3
ACAD_VISUALSTYLE
350
2A
  3
ACDB_RECOMPOSE_DATA
350
4E9
  3
AcDbVariableDictionary
350
4E5
  0
SUN
  5
6D
330
29
100
AcDbSun
 90
        1
290
     0
 63
     7
421
 16777215
 40
1.0
291
     1
 91
  2455826
 92
 54000000
292
     0
 70
     2
 71
   256
280
     1
  0
DICTIONARY
  5
4EC
102
{ACAD_REACTORS
330
C
102
}
330
C
100
AcDbDictionary
281
     1
  0
DICTIONARY
  5
D
102
{ACAD_REACTORS
330
C
102
}
330
C
100
AcDbDictionary
281
     1
  0
DICTIONARY
  5
1A
102
{ACAD_REACTORS
330
C
102
}
330
C
100
AcDbDictionary
281
     1
  3
Layout1
350
1E
  3
Layout2
350
26
  3
Model
350
22
  0
DICTIONARY
  5
43
102
{ACAD_REACTORS
330
C
102
}
330
C
100
AcDbDictionary
281
     1
  3
ByBlock
350
45
  3
ByLayer
350
44
  3
Global
350
46
  0
DICTIONARY
  5
6B
102
{ACAD_REACTORS
330
C
102
}
330
C
100
AcDbDictionary
281
     1
  3
Standard
350
6C
  0
DICTIONARY
  5
17
102
{ACAD_REACTORS
330
C
102
}
330
C
100
AcDbDictionary
281
     1
  3
Standard
350
18
  0
DICTIONARY
  5
19
102
{ACAD_REACTORS
330
C
102
}
330
C
100
AcDbDictionary
281
     1
  0
ACDBDICTIONARYWDFLT
  5
E
102
{ACAD_REACTORS
330
C
102
}
330
C
100
AcDbDictionary
281
     1
  3
Normal
350
F
100
AcDbDictionaryWithDefault
340
F
  0
DICTIONARY
  5
47
102
{ACAD_REACTORS
330
C
102
}
330
C
100
AcDbDictionary
281
     1
  3
A0
350
48
  3
A1
350
49
  3
A2
350
4A
  3
A3
350
4B
  3
A4
350
4C
  3
A5
350
4D
  3
A6
350
4E
  3
A7
350
4F
  3
A8
350
50
  3
A9
350
51
  3
B0
350
52
  3
B1
350
53
  3
B2
350
54
  3
B3
350
55
  3
B4
350
56
  3
B5
350
57
  3
B6
350
58
  3
B7
350
59
  3
B8
350
5A
  3
B9
350
5B
  3
C0
350
5C
  3
C1
350
5D
  3
C2
350
5E
  3
C3
350
5F
  3
C4
350
60
  3
C5
350
61
  3
C6
350
62
  3
C7
350
63
  3
C8
350
64
  3
C9
350
65
  3
D0
350
66
  3
D1
350
67
  3
D2
350
68
  0
DICTIONARY
  5
4ED
102
{ACAD_REACTORS
330
C
102
}
330
C
100
AcDbDictionary
281
     1
  0
DICTIONARY
  5
69
102
{ACAD_REACTORS
330
C
102
}
330
C
100
AcDbDictionary
281
     1
  3
Standard
350
6A
  0
DICTIONARY
  5
2A
102
{ACAD_REACTORS
330
C
102
}
330
C
100
AcDbDictionary
281
     1
  3
2dWireframe
350
2F
  3
Basic
350
32
  3
Brighten
350
36
  3
ColorChange
350
3A
  3
Conceptual
350
34
  3
Dim
350
35
  3
EdgeColorOff
350
3D
  3
Facepattern
350
39
  3
Flat
350
2B
  3
FlatWithEdges
350
2C
  3
Gouraud
350
2D
  3
GouraudWithEdges
350
2E
  3
Hidden
350
31
  3
JitterOff
350
3B
  3
Linepattern
350
38
  3
OverhangOff
350
3C
  3
Realistic
350
33
  3
Shaded
350
42
  3
Shaded with edges
350
41
  3
Shades of Gray
350
3E
  3
Sketchy
350
3F
  3
Thicken
350
37
  3
Wireframe
350
30
  3
X-Ray
350
40
  0
XRECORD
  5
4E9
102
{ACAD_REACTORS
330
C
102
}
330
C
100
AcDbXrecord
280
     1
 90
        1
330
6A
  0
DICTIONARY
  5
4E5
102
{ACAD_REACTORS
330
C
102
}
330
C
100
AcDbDictionary
281
     1
  3
CANNOSCALE
350
4E6
  3
CENTEREXE
350
4EE
  3
CENTERLTYPEFILE
350
4EF
  3
CMLEADERSTYLE
350
4EB
  3
CTABLESTYLE
350
4EA
  0
LAYOUT
  5
1E
102
{ACAD_REACTORS
330
1A
102
}
330
1A
100
AcDbPlotSettings
  1

  2
none_device
  4

  6

 40
0.0
 41
0.0
 42
0.0
 43
0.0
 44
0.0
 45
0.0
 46
0.0
 47
0.0
 48
0.0
 49
0.0
140
0.0
141
0.0
142
1.0
143
1.0
 70
   688
 72
     1
 73
     0
 74
     5
  7

 75
    16
 76
     0
 77
     2
 78
   300
147
1.0
148
0.0
149
0.0
100
AcDbLayout
  1
Layout1
 70
     1
 71
     1
 10
0.0
 20
0.0
 11
420.0
 21
297.0
 12
0.0
 22
0.0
 32
0.0
 14
1.0000000000E+20
 24
1.0000000000E+20
 34
1.0000000000E+20
 15
-1.0000000000E+20
 25
-1.0000000000E+20
 35
-1.0000000000E+20
146
0.0
 13
0.0
 23
0.0
 33
0.0
 16
1.0
 26
0.0
 36
0.0
 17
0.0
 27
1.0
 37
0.0
 76
     0
330
1B
  0
LAYOUT
  5
26
102
{ACAD_REACTORS
330
1A
102
}
330
1A
100
AcDbPlotSettings
  1

  2
none_device
  4

  6

 40
0.0
 41
0.0
 42
0.0
 43
0.0
 44
0.0
 45
0.0
 46
0.0
 47
0.0
 48
0.0
 49
0.0
140
0.0
141
0.0
142
1.0
143
1.0
 70
   688
 72
     1
 73
     0
 74
     5
  7

 75
    16
 76
     0
 77
     2
 78
   300
147
1.0
148
0.0
149
0.0
100
AcDbLayout
  1
Layout2
 70
     1
 71
     2
 10
0.0
 20
0.0
 11
0.0
 21
0.0
 12
0.0
 22
0.0
 32
0.0
 14
0.0
 24
0.0
 34
0.0
 15
0.0
 25
0.0
 35
0.0
146
0.0
 13
0.0
 23
0.0
 33
0.0
 16
1.0
 26
0.0
 36
0.0
 17
0.0
 27
1.0
 37
0.0
 76
     0
330
23
  0
LAYOUT
  5
22
102
{ACAD_REACTORS
330
1A
102
}
330
1A
100
AcDbPlotSettings
  1

  2
none_device
  4
Letter_(8.50_x_11.00_Inches)
  6

 40
6.35
 41
6.35
 42
6.35000508
 43
6.35000508
 44
215.9
 45
279.4
 46
0.0
 47
0.0
 48
0.0
 49
0.0
140
0.0
141
0.0
142
1.0
143
1.0
 70
  1712
 72
     1
 73
     0
 74
     0
  7

 75
     0
 76
     0
 77
     2
 78
   300
147
1.0
148
0.0
149
0.0
100
AcDbLayout
  1
Model
 70
     1
 71
     0
 10
0.0
 20
0.0
 11
20000.0
 21
10000.0
 12
0.0
 22
0.0
 32
0.0
 14
0.0
 24
0.0
 34
0.0
 15
20000.0
 25
10000.0
 35
0.0
146
0.0
 13
0.0
 23
0.0
 33
0.0
 16
1.0
 26
0.0
 36
0.0
 17
0.0
 27
1.0
 37
0.0
 76
     0
330
1F
331
29
  0
MATERIAL
  5
45
102
{ACAD_REACTORS
330
43
102
}
330
43
100
AcDbMaterial
  1
ByBlock
 72
     1
 94
      127
  0
MATERIAL
  5
44
102
{ACAD_REACTORS
330
43
102
}
330
43
100
AcDbMaterial
  1
ByLayer
 72
     1
 94
      127
  0
MATERIAL
  5
46
102
{ACAD_REACTORS
330
43
102
}
330
43
100
AcDbMaterial
  1
Global
 72
     1
 94
      127
  0
MLEADERSTYLE
  5
6C
102
{ACAD_REACTORS
330
6B
102
}
330
6B
100
AcDbMLeaderStyle
179
     2
170
     2
171
     1
172
     0
 90
        2
 40
0.0
 41
0.0
173
     1
 91
-1056964608
340
14
 92
       -2
290
     1
 42
2.0
291
     1
 43
8.0
  3
Standard
341
0
 44
4.0
300

342
11
174
     1
178
     6
175
     1
176
     0
 93
-1056964608
 45
4.0
292
     0
297
     0
 46
4.0
343
0
 94
-1056964608
 47
1.0
 49
1.0
140
1.0
293
     1
141
0.0
294
     1
177
     0
142
1.0
295
     0
296
     0
143
3.75
271
     0
272
     9
273
     9
298
     0
  0
MLINESTYLE
  5
18
102
{ACAD_REACTORS
330
17
102
}
330
17
100
AcDbMlineStyle
  2
Standard
 70
     0
  3

 62
   256
 51
90.0
 52
90.0
 71
     2
 49
0.5
 62
   256
  6
BYLAYER
 49
-0.5
 62
   256
  6
BYLAYER
  0
ACDBPLACEHOLDER
  5
F
102
{ACAD_REACTORS
330
E
102
}
330
E
  0
SCALE
  5
48
102
{ACAD_REACTORS
330
47
102
}
330
47
100
AcDbScale
 70
     0
300
1:1
140
1.0
141
1.0
290
     1
  0
SCALE
  5
49
102
{ACAD_REACTORS
330
47
102
}
330
47
100
AcDbScale
 70
     0
300
1:2
140
1.0
141
2.0
290
     0
  0
SCALE
  5
4A
102
{ACAD_REACTORS
330
47
102
}
330
47
100
AcDbScale
 70
     0
300
1:4
140
1.0
141
4.0
290
     0
  0
SCALE
  5
4B
102
{ACAD_REACTORS
330
47
102
}
330
47
100
AcDbScale
 70
     0
300
1:5
140
1.0
141
5.0
290
     0
  0
SCALE
  5
4C
102
{ACAD_REACTORS
330
47
102
}
330
47
100
AcDbScale
 70
     0
300
1:8
140
1.0
141
8.0
290
     0
  0
SCALE
  5
4D
102
{ACAD_REACTORS
330
47
102
}
330
47
100
AcDbScale
 70
     0
300
1:10
140
1.0
141
10.0
290
     0
  0
SCALE
  5
4E
102
{ACAD_REACTORS
330
47
102
}
330
47
100
AcDbScale
 70
     0
300
1:16
140
1.0
141
16.0
290
     0
  0
SCALE
  5
4F
102
{ACAD_REACTORS
330
47
102
}
330
47
100
AcDbScale
 70
     0
300
1:20
140
1.0
141
20.0
290
     0
  0
SCALE
  5
50
102
{ACAD_REACTORS
330
47
102
}
330
47
100
AcDbScale
 70
     0
300
1:30
140
1.0
141
30.0
290
     0
  0
SCALE
  5
51
102
{ACAD_REACTORS
330
47
102
}
330
47
100
AcDbScale
 70
     0
300
1:40
140
1.0
141
40.0
290
     0
  0
SCALE
  5
52
102
{ACAD_REACTORS
330
47
102
}
330
47
100
AcDbScale
 70
     0
300
1:50
140
1.0
141
50.0
290
     0
  0
SCALE
  5
53
102
{ACAD_REACTORS
330
47
102
}
330
47
100
AcDbScale
 70
     0
300
1:100
140
1.0
141
100.0
290
     0
  0
SCALE
  5
54
102
{ACAD_REACTORS
330
47
102
}
330
47
100
AcDbScale
 70
     0
300
2:1
140
2.0
141
1.0
290
     0
  0
SCALE
  5
55
102
{ACAD_REACTORS
330
47
102
}
330
47
100
AcDbScale
 70
     0
300
4:1
140
4.0
141
1.0
290
     0
  0
SCALE
  5
56
102
{ACAD_REACTORS
330
47
102
}
330
47
100
AcDbScale
 70
     0
300
8:1
140
8.0
141
1.0
290
     0
  0
SCALE
  5
57
102
{ACAD_REACTORS
330
47
102
}
330
47
100
AcDbScale
 70
     0
300
10:1
140
10.0
141
1.0
290
     0
  0
SCALE
  5
58
102
{ACAD_REACTORS
330
47
102
}
330
47
100
AcDbScale
 70
     0
300
100:1
140
100.0
141
1.0
290
     0
  0
SCALE
  5
59
102
{ACAD_REACTORS
330
47
102
}
330
47
100
AcDbScale
 70
     0
300
1/128" = 1'-0"
140
0.0078125
141
12.0
290
     0
  0
SCALE
  5
5A
102
{ACAD_REACTORS
330
47
102
}
330
47
100
AcDbScale
 70
     0
300
1/64" = 1'-0"
140
0.015625
141
12.0
290
     0
  0
SCALE
  5
5B
102
{ACAD_REACTORS
330
47
102
}
330
47
100
AcDbScale
 70
     0
300
1/32" = 1'-0"
140
0.03125
141
12.0
290
     0
  0
SCALE
  5
5C
102
{ACAD_REACTORS
330
47
102
}
330
47
100
AcDbScale
 70
     0
300
1/16" = 1'-0"
140
0.0625
141
12.0
290
     0
  0
SCALE
  5
5D
102
{ACAD_REACTORS
330
47
102
}
330
47
100
AcDbScale
 70
     0
300
3/32" = 1'-0"
140
0.09375
141
12.0
290
     0
  0
SCALE
  5
5E
102
{ACAD_REACTORS
330
47
102
}
330
47
100
AcDbScale
 70
     0
300
1/8" = 1'-0"
140
0.125
141
12.0
290
     0
  0
SCALE
  5
5F
102
{ACAD_REACTORS
330
47
102
}
330
47
100
AcDbScale
 70
     0
300
3/16" = 1'-0"
140
0.1875
141
12.0
290
     0
  0
SCALE
  5
60
102
{ACAD_REACTORS
330
47
102
}
330
47
100
AcDbScale
 70
     0
300
1/4" = 1'-0"
140
0.25
141
12.0
290
     0
  0
SCALE
  5
61
102
{ACAD_REACTORS
330
47
102
}
330
47
100
AcDbScale
 70
     0
300
3/8" = 1'-0"
140
0.375
141
12.0
290
     0
  0
SCALE
  5
62
102
{ACAD_REACTORS
330
47
102
}
330
47
100
AcDbScale
 70
     0
300
1/2" = 1'-0"
140
0.5
141
12.0
290
     0
  0
SCALE
  5
63
102
{ACAD_REACTORS
330
47
102
}
330
47
100
AcDbScale
 70
     0
300
3/4" = 1'-0"
140
0.75
141
12.0
290
     0
  0
SCALE
  5
64
102
{ACAD_REACTORS
330
47
102
}
330
47
100
AcDbScale
 70
     0
300
1" = 1'-0"
140
1.0
141
12.0
290
     0
  0
SCALE
  5
65
102
{ACAD_REACTORS
330
47
102
}
330
47
100
AcDbScale
 70
     0
300
1-1/2" = 1'-0"
140
1.5
141
12.0
290
     0
  0
SCALE
  5
66
102
{ACAD_REACTORS
330
47
102
}
330
47
100
AcDbScale
 70
     0
300
3" = 1'-0"
140
3.0
141
12.0
290
     0
  0
SCALE
  5
67
102
{ACAD_REACTORS
330
47
102
}
330
47
100
AcDbScale
 70
     0
300
6" = 1'-0"
140
6.0
141
12.0
290
     0
  0
SCALE
  5
68
102
{ACAD_REACTORS
330
47
102
}
330
47
100
AcDbScale
 70
     0
300
1'-0" = 1'-0"
140
12.0
141
12.0
290
     0
  0
TABLESTYLE
  5
6A
102
{ACAD_REACTORS
330
69
102
}
102
{ACAD_XDICTIONARY
360
4E7
102
}
330
69
100
AcDbTableStyle
  3
Standard
 70
     0
 71
     0
 40
0.06
 41
0.06
280
     0
281
     0
  7
Standard
140
4.5
170
     2
 62
     0
 63
   257
283
     0
 90
        4
 91
        0
  1

274
    -2
284
     1
 64
     0
275
    -2
285
     1
 65
     0
276
    -2
286
     1
 66
     0
277
    -2
287
     1
 67
     0
278
    -2
288
     1
 68
     0
279
    -2
289
     1
 69
     0
  7
Standard
140
6.0
170
     5
 62
     0
 63
   257
283
     0
 90
        4
 91
        0
  1

274
    -2
284
     1
 64
     0
275
    -2
285
     1
 65
     0
276
    -2
286
     1
 66
     0
277
    -2
287
     1
 67
     0
278
    -2
288
     1
 68
     0
279
    -2
289
     1
 69
     0
  7
Standard
140
4.5
170
     5
 62
     0
 63
   257
283
     0
 90
        4
 91
        0
  1

274
    -2
284
     1
 64
     0
275
    -2
285
     1
 65
     0
276
    -2
286
     1
 66
     0
277
    -2
287
     1
 67
     0
278
    -2
288
     1
 68
     0
279
    -2
289
     1
 69
     0
  0
VISUALSTYLE
  5
2F
102
{ACAD_REACTORS
330
2A
102
}
330
2A
100
AcDbVisualStyle
  2
2dWireframe
 70
     4
177
     3
291
     0
 70
    58
 90
        0
176
     1
 90
        2
176
     1
 90
        0
176
     1
 90
        0
176
     1
 40
0.6
176
     1
 40
30.0
176
     1
 62
     7
420
 16777215
176
     1
 90
        1
176
     1
 90
        4
176
     1
 62
     7
176
     1
 62
   257
176
     1
 90
        1
176
     1
 90
        1
176
     1
 40
1.0
176
     1
 90
        0
176
     1
 62
   257
176
     1
 40
1.0
176
     1
 90
        1
176
     1
 90
        6
176
     1
 90
        2
176
     1
 62
     7
176
     1
 90
        5
176
     1
 90
        0
176
     1
 90
        0
176
     1
290
     0
176
     1
 90
        1
176
     1
 40
0.0
176
     1
 90
        0
176
     1
290
     1
176
     1
290
     1
176
     1
290
     0
176
     1
290
     0
176
     1
290
     0
176
     1
290
     0
176
     1
290
     0
176
     1
290
     0
176
     1
290
     0
176
     1
 90
       50
176
     1
 40
0.0
176
     1
 40
1.0
176
     1
 90
        0
176
     1
 62
    18
420
        0
176
     1
 90
       50
176
     1
 90
        3
176
     1
 62
     5
420
      255
176
     1
290
     0
176
     1
 90
       50
176
     1
 90
       50
176
     1
 90
       50
176
     1
290
     0
176
     1
 90
       50
176
     1
 62
   256
176
     0
 40
1.0
176
     0
 90
        2
176
     1
  1
strokes_ogs.tif
176
     1
290
     0
176
     1
 40
1.0
176
     1
 40
1.0
176
     1
  0
VISUALSTYLE
  5
32
102
{ACAD_REACTORS
330
2A
102
}
330
2A
100
AcDbVisualStyle
  2
Basic
 70
     7
177
     3
291
     1
 70
    58
 90
        1
176
     1
 90
        0
176
     1
 90
        1
176
     1
 90
        0
176
     1
 40
0.6
176
     1
 40
30.0
176
     1
 62
     7
420
 16777215
176
     1
 90
        0
176
     1
 90
        4
176
     1
 62
     7
176
     1
 62
   257
176
     1
 90
        1
176
     1
 90
        1
176
     1
 40
1.0
176
     1
 90
        8
176
     1
 62
     7
176
     1
 40
1.0
176
     1
 90
        1
176
     1
 90
        6
176
     1
 90
        2
176
     1
 62
     7
176
     1
 90
        5
176
     1
 90
        0
176
     1
 90
        0
176
     1
290
     0
176
     1
 90
        1
176
     1
 40
0.0
176
     1
 90
        0
176
     1
290
     0
176
     1
290
     1
176
     1
290
     1
176
     1
290
     0
176
     1
290
     0
176
     1
290
     0
176
     1
290
     0
176
     1
290
     0
176
     1
290
     0
176
     1
 90
       50
176
     1
 40
0.0
176
     1
 40
1.0
176
     1
 90
        0
176
     1
 62
    18
420
        0
176
     1
 90
       50
176
     1
 90
        3
176
     1
 62
     5
420
      255
176
     1
290
     0
176
     1
 90
       50
176
     1
 90
       50
176
     1
 90
       50
176
     1
290
     0
176
     1
 90
       50
176
     1
 62
   256
176
     0
 40
1.0
176
     0
 90
        2
176
     1
  1
strokes_ogs.tif
176
     1
290
     0
176
     1
 40
1.0
176
     1
 40
1.0
176
     1
  0
VISUALSTYLE
  5
36
102
{ACAD_REACTORS
330
2A
102
}
330
2A
100
AcDbVisualStyle
  2
Brighten
 70
    12
177
     3
291
     1
 70
    58
 90
        2
176
     1
 90
        2
176
     1
 90
        0
176
     1
 90
        0
176
     1
 40
0.6
176
     1
 40
30.0
176
     1
 62
     7
420
 16777215
176
     1
 90
        1
176
     1
 90
        4
176
     1
 62
     7
176
     1
 62
   257
176
     1
 90
        1
176
     1
 90
        1
176
     1
 40
1.0
176
     1
 90
        8
176
     1
 62
     7
176
     1
 40
1.0
176
     1
 90
        1
176
     1
 90
        6
176
     1
 90
        2
176
     1
 62
     7
176
     1
 90
        5
176
     1
 90
        0
176
     1
 90
        0
176
     1
290
     0
176
     1
 90
        1
176
     1
 40
50.0
176
     1
 90
        0
176
     1
290
     0
176
     1
290
     1
176
     1
290
     1
176
     1
290
     0
176
     1
290
     0
176
     1
290
     0
176
     1
290
     0
176
     1
290
     0
176
     1
290
     0
176
     1
 90
       50
176
     1
 40
0.0
176
     1
 40
1.0
176
     1
 90
        0
176
     1
 62
    18
420
        0
176
     1
 90
       50
176
     1
 90
        3
176
     1
 62
     5
420
      255
176
     1
290
     0
176
     1
 90
       50
176
     1
 90
       50
176
     1
 90
       50
176
     1
290
     0
176
     1
 90
       50
176
     1
 62
   256
176
     0
 40
1.0
176
     0
 90
        2
176
     1
  1
strokes_ogs.tif
176
     1
290
     0
176
     1
 40
1.0
176
     1
 40
1.0
176
     1
  0
VISUALSTYLE
  5
3A
102
{ACAD_REACTORS
330
2A
102
}
330
2A
100
AcDbVisualStyle
  2
ColorChange
 70
    16
177
     3
291
     1
 70
    58
 90
        2
176
     1
 90
        2
176
     1
 90
        3
176
     1
 90
        0
176
     1
 40
0.6
176
     1
 40
30.0
176
     1
 62
     8
420
  8421504
176
     1
 90
        1
176
     1
 90
        4
176
     1
 62
     7
176
     1
 62
   257
176
     1
 90
        1
176
     1
 90
        1
176
     1
 40
1.0
176
     1
 90
        8
176
     1
 62
     8
420
  8421504
176
     1
 40
1.0
176
     1
 90
        1
176
     1
 90
        6
176
     1
 90
        2
176
     1
 62
     7
176
     1
 90
        5
176
     1
 90
        0
176
     1
 90
        0
176
     1
290
     0
176
     1
 90
        1
176
     1
 40
0.0
176
     1
 90
        0
176
     1
290
     0
176
     1
290
     1
176
     1
290
     1
176
     1
290
     0
176
     1
290
     0
176
     1
290
     0
176
     1
290
     0
176
     1
290
     0
176
     1
290
     0
176
     1
 90
       50
176
     1
 40
0.0
176
     1
 40
1.0
176
     1
 90
        0
176
     1
 62
    18
420
        0
176
     1
 90
       50
176
     1
 90
        3
176
     1
 62
     5
420
      255
176
     1
290
     0
176
     1
 90
       50
176
     1
 90
       50
176
     1
 90
       50
176
     1
290
     0
176
     1
 90
       50
176
     1
 62
   256
176
     0
 40
1.0
176
     0
 90
        2
176
     1
  1
strokes_ogs.tif
176
     1
290
     0
176
     1
 40
1.0
176
     1
 40
1.0
176
     1
  0
VISUALSTYLE
  5
34
102
{ACAD_REACTORS
330
2A
102
}
330
2A
100
AcDbVisualStyle
  2
Conceptual
 70
     9
177
     3
291
     0
 70
    58
 90
        3
176
     1
 90
        2
176
     1
 90
        0
176
     1
 90
        0
176
     1
 40
0.6
176
     1
 40
30.0
176
     1
 62
     7
420
 16777215
176
     1
 90
        2
176
     1
 90
        2
176
     1
 62
     7
176
     1
 62
   257
176
     1
 90
        1
176
     1
 90
        1
176
     1
 40
179.0
176
     1
 90
        8
176
     1
 62
     7
176
     1
 40
1.0
176
     1
 90
        1
176
     1
 90
        6
176
     1
 90
        2
176
     1
 62
     7
176
     1
 90
        3
176
     1
 90
        0
176
     1
 90
        0
176
     1
290
     0
176
     1
 90
        1
176
     1
 40
0.0
176
     1
 90
        0
176
     1
290
     0
176
     1
290
     1
176
     1
290
     1
176
     1
290
     0
176
     1
290
     0
176
     1
290
     0
176
     1
290
     0
176
     1
290
     0
176
     1
290
     0
176
     1
 90
       50
176
     1
 40
0.0
176
     1
 40
1.0
176
     1
 90
        0
176
     1
 62
    18
420
        0
176
     1
 90
       50
176
     1
 90
        3
176
     1
 62
     5
420
      255
176
     1
290
     0
176
     1
 90
       50
176
     1
 90
       50
176
     1
 90
       50
176
     1
290
     0
176
     1
 90
       50
176
     1
 62
   256
176
     0
 40
1.0
176
     0
 90
        2
176
     1
  1
strokes_ogs.tif
176
     1
290
     0
176
     1
 40
1.0
176
     1
 40
1.0
176
     1
  0
VISUALSTYLE
  5
35
102
{ACAD_REACTORS
330
2A
102
}
330
2A
100
AcDbVisualStyle
  2
Dim
 70
    11
177
     3
291
     1
 70
    58
 90
        2
176
     1
 90
        2
176
     1
 90
        0
176
     1
 90
        0
176
     1
 40
0.6
176
     1
 40
30.0
176
     1
 62
     7
420
 16777215
176
     1
 90
        1
176
     1
 90
        4
176
     1
 62
     7
176
     1
 62
   257
176
     1
 90
        1
176
     1
 90
        1
176
     1
 40
1.0
176
     1
 90
        8
176
     1
 62
     7
176
     1
 40
1.0
176
     1
 90
        1
176
     1
 90
        6
176
     1
 90
        2
176
     1
 62
     7
176
     1
 90
        5
176
     1
 90
        0
176
     1
 90
        0
176
     1
290
     0
176
     1
 90
        1
176
     1
 40
-50.0
176
     1
 90
        0
176
     1
290
     0
176
     1
290
     1
176
     1
290
     1
176
     1
290
     0
176
     1
290
     0
176
     1
290
     0
176
     1
290
     0
176
     1
290
     0
176
     1
290
     0
176
     1
 90
       50
176
     1
 40
0.0
176
     1
 40
1.0
176
     1
 90
        0
176
     1
 62
    18
420
        0
176
     1
 90
       50
176
     1
 90
        3
176
     1
 62
     5
420
      255
176
     1
290
     0
176
     1
 90
       50
176
     1
 90
       50
176
     1
 90
       50
176
     1
290
     0
176
     1
 90
       50
176
     1
 62
   256
176
     0
 40
1.0
176
     0
 90
        2
176
     1
  1
strokes_ogs.tif
176
     1
290
     0
176
     1
 40
1.0
176
     1
 40
1.0
176
     1
  0
VISUALSTYLE
  5
3D
102
{ACAD_REACTORS
330
2A
102
}
330
2A
100
AcDbVisualStyle
  2
EdgeColorOff
 70
    22
177
     3
291
     1
 70
    58
 90
        2
176
     0
 90
        2
176
     0
 90
        0
176
     0
 90
        0
176
     0
 40
0.6
176
     0
 40
30.0
176
     0
 62
     7
420
 16777215
176
     0
 90
        1
176
     0
 90
        4
176
     0
 62
     7
176
     0
 62
   257
176
     0
 90
        1
176
     0
 90
        1
176
     0
 40
1.0
176
     0
 90
        8
176
     2
 62
     7
176
     0
 40
1.0
176
     0
 90
        1
176
     0
 90
        6
176
     0
 90
        2
176
     0
 62
     7
176
     0
 90
        5
176
     0
 90
        0
176
     0
 90
        0
176
     0
290
     0
176
     0
 90
        1
176
     0
 40
0.0
176
     0
 90
        0
176
     0
290
     0
176
     0
290
     1
176
     0
290
     1
176
     0
290
     0
176
     0
290
     0
176
     0
290
     0
176
     0
290
     0
176
     0
290
     0
176
     0
290
     0
176
     0
 90
       50
176
     0
 40
0.0
176
     0
 40
1.0
176
     0
 90
        0
176
     0
 62
    18
420
        0
176
     0
 90
       50
176
     0
 90
        3
176
     0
 62
     5
420
      255
176
     0
290
     0
176
     0
 90
       50
176
     0
 90
       50
176
     0
 90
       50
176
     0
290
     0
176
     0
 90
       50
176
     0
 62
   256
176
     0
 40
1.0
176
     0
 90
        2
176
     0
  1
strokes_ogs.tif
176
     0
290
     0
176
     0
 40
1.0
176
     0
 40
1.0
176
     0
  0
VISUALSTYLE
  5
39
102
{ACAD_REACTORS
330
2A
102
}
330
2A
100
AcDbVisualStyle
  2
Facepattern
 70
    15
177
     3
291
     1
 70
    58
 90
        2
176
     1
 90
        2
176
     1
 90
        0
176
     1
 90
        0
176
     1
 40
0.6
176
     1
 40
30.0
176
     1
 62
     7
420
 16777215
176
     1
 90
        1
176
     1
 90
        4
176
     1
 62
     7
176
     1
 62
   257
176
     1
 90
        1
176
     1
 90
        1
176
     1
 40
1.0
176
     1
 90
        8
176
     1
 62
     7
176
     1
 40
1.0
176
     1
 90
        1
176
     1
 90
        6
176
     1
 90
        2
176
     1
 62
     7
176
     1
 90
        5
176
     1
 90
        0
176
     1
 90
        0
176
     1
290
     0
176
     1
 90
        1
176
     1
 40
0.0
176
     1
 90
        0
176
     1
290
     0
176
     1
290
     1
176
     1
290
     1
176
     1
290
     0
176
     1
290
     0
176
     1
290
     0
176
     1
290
     0
176
     1
290
     0
176
     1
290
     0
176
     1
 90
       50
176
     1
 40
0.0
176
     1
 40
1.0
176
     1
 90
        0
176
     1
 62
    18
420
        0
176
     1
 90
       50
176
     1
 90
        3
176
     1
 62
     5
420
      255
176
     1
290
     0
176
     1
 90
       50
176
     1
 90
       50
176
     1
 90
       50
176
     1
290
     0
176
     1
 90
       50
176
     1
 62
   256
176
     0
 40
1.0
176
     0
 90
        2
176
     1
  1
strokes_ogs.tif
176
     1
290
     0
176
     1
 40
1.0
176
     1
 40
1.0
176
     1
  0
VISUALSTYLE
  5
2B
102
{ACAD_REACTORS
330
2A
102
}
330
2A
100
AcDbVisualStyle
  2
Flat
 70
     0
177
     3
291
     1
 70
    58
 90
        2
176
     1
 90
        1
176
     1
 90
        1
176
     1
 90
        2
176
     1
 40
0.6
176
     1
 40
30.0
176
     1
 62
     7
420
 16777215
176
     1
 90
        0
176
     1
 90
        0
176
     1
 62
     7
176
     1
 62
   257
176
     1
 90
        1
176
     1
 90
        1
176
     1
 40
1.0
176
     1
 90
        8
176
     1
 62
     7
176
     1
 40
1.0
176
     1
 90
        1
176
     1
 90
        6
176
     1
 90
        2
176
     1
 62
     7
176
     1
 90
        5
176
     1
 90
        0
176
     1
 90
        0
176
     1
290
     0
176
     1
 90
       13
176
     1
 40
0.0
176
     1
 90
        0
176
     1
290
     0
176
     1
290
     1
176
     1
290
     1
176
     1
290
     0
176
     1
290
     0
176
     1
290
     0
176
     1
290
     0
176
     1
290
     0
176
     1
290
     0
176
     1
 90
       50
176
     1
 40
0.0
176
     1
 40
1.0
176
     1
 90
        0
176
     1
 62
    18
420
        0
176
     1
 90
       50
176
     1
 90
        3
176
     1
 62
     5
420
      255
176
     1
290
     0
176
     1
 90
       50
176
     1
 90
       50
176
     1
 90
       50
176
     1
290
     0
176
     1
 90
       50
176
     1
 62
   256
176
     0
 40
1.0
176
     0
 90
        2
176
     1
  1
strokes_ogs.tif
176
     1
290
     0
176
     1
 40
1.0
176
     1
 40
1.0
176
     1
  0
VISUALSTYLE
  5
2C
102
{ACAD_REACTORS
330
2A
102
}
330
2A
100
AcDbVisualStyle
  2
FlatWithEdges
 70
     1
177
     3
291
     1
 70
    58
 90
        2
176
     1
 90
        1
176
     1
 90
        1
176
     1
 90
        2
176
     1
 40
0.6
176
     1
 40
30.0
176
     1
 62
     7
420
 16777215
176
     1
 90
        1
176
     1
 90
        0
176
     1
 62
     7
176
     1
 62
   257
176
     1
 90
        1
176
     1
 90
        1
176
     1
 40
1.0
176
     1
 90
        0
176
     1
 62
   257
176
     1
 40
1.0
176
     1
 90
        1
176
     1
 90
        6
176
     1
 90
        2
176
     1
 62
     7
176
     1
 90
        5
176
     1
 90
        0
176
     1
 90
        0
176
     1
290
     0
176
     1
 90
       13
176
     1
 40
0.0
176
     1
 90
        0
176
     1
290
     0
176
     1
290
     1
176
     1
290
     1
176
     1
290
     0
176
     1
290
     0
176
     1
290
     0
176
     1
290
     0
176
     1
290
     0
176
     1
290
     0
176
     1
 90
       50
176
     1
 40
0.0
176
     1
 40
1.0
176
     1
 90
        0
176
     1
 62
    18
420
        0
176
     1
 90
       50
176
     1
 90
        3
176
     1
 62
     5
420
      255
176
     1
290
     0
176
     1
 90
       50
176
     1
 90
       50
176
     1
 90
       50
176
     1
290
     0
176
     1
 90
       50
176
     1
 62
   256
176
     0
 40
1.0
176
     0
 90
        2
176
     1
  1
strokes_ogs.tif
176
     1
290
     0
176
     1
 40
1.0
176
     1
 40
1.0
176
     1
  0
VISUALSTYLE
  5
2D
102
{ACAD_REACTORS
330
2A
102
}
330
2A
100
AcDbVisualStyle
  2
Gouraud
 70
     2
177
     3
291
     1
 70
    58
 90
        2
176
     1
 90
        2
176
     1
 90
        1
176
     1
 90
        2
176
     1
 40
0.6
176
     1
 40
30.0
176
     1
 62
     7
420
 16777215
176
     1
 90
        0
176
     1
 90
        0
176
     1
 62
     7
176
     1
 62
   257
176
     1
 90
        1
176
     1
 90
        1
176
     1
 40
1.0
176
     1
 90
        0
176
     1
 62
     7
176
     1
 40
1.0
176
     1
 90
        1
176
     1
 90
        6
176
     1
 90
        2
176
     1
 62
     7
176
     1
 90
        5
176
     1
 90
        0
176
     1
 90
        0
176
     1
290
     0
176
     1
 90
       13
176
     1
 40
0.0
176
     1
 90
        0
176
     1
290
     0
176
     1
290
     1
176
     1
290
     1
176
     1
290
     0
176
     1
290
     0
176
     1
290
     0
176
     1
290
     0
176
     1
290
     0
176
     1
290
     0
176
     1
 90
       50
176
     1
 40
0.0
176
     1
 40
1.0
176
     1
 90
        0
176
     1
 62
    18
420
        0
176
     1
 90
       50
176
     1
 90
        3
176
     1
 62
     5
420
      255
176
     1
290
     0
176
     1
 90
       50
176
     1
 90
       50
176
     1
 90
       50
176
     1
290
     0
176
     1
 90
       50
176
     1
 62
   256
176
     0
 40
1.0
176
     0
 90
        2
176
     1
  1
strokes_ogs.tif
176
     1
290
     0
176
     1
 40
1.0
176
     1
 40
1.0
176
     1
  0
VISUALSTYLE
  5
2E
102
{ACAD_REACTORS
330
2A
102
}
330
2A
100
AcDbVisualStyle
  2
GouraudWithEdges
 70
     3
177
     3
291
     1
 70
    58
 90
        2
176
     1
 90
        2
176
     1
 90
        1
176
     1
 90
        2
176
     1
 40
0.6
176
     1
 40
30.0
176
     1
 62
     7
420
 16777215
176
     1
 90
        1
176
     1
 90
        0
176
     1
 62
     7
176
     1
 62
   257
176
     1
 90
        1
176
     1
 90
        1
176
     1
 40
1.0
176
     1
 90
        0
176
     1
 62
   257
176
     1
 40
1.0
176
     1
 90
        1
176
     1
 90
        6
176
     1
 90
        2
176
     1
 62
     7
176
     1
 90
        5
176
     1
 90
        0
176
     1
 90
        0
176
     1
290
     0
176
     1
 90
       13
176
     1
 40
0.0
176
     1
 90
        0
176
     1
290
     0
176
     1
290
     1
176
     1
290
     1
176
     1
290
     0
176
     1
290
     0
176
     1
290
     0
176
     1
290
     0
176
     1
290
     0
176
     1
290
     0
176
     1
 90
       50
176
     1
 40
0.0
176
     1
 40
1.0
176
     1
 90
        0
176
     1
 62
    18
420
        0
176
     1
 90
       50
176
     1
 90
        3
176
     1
 62
     5
420
      255
176
     1
290
     0
176
     1
 90
       50
176
     1
 90
       50
176
     1
 90
       50
176
     1
290
     0
176
     1
 90
       50
176
     1
 62
   256
176
     0
 40
1.0
176
     0
 90
        2
176
     1
  1
strokes_ogs.tif
176
     1
290
     0
176
     1
 40
1.0
176
     1
 40
1.0
176
     1
  0
VISUALSTYLE
  5
31
102
{ACAD_REACTORS
330
2A
102
}
330
2A
100
AcDbVisualStyle
  2
Hidden
 70
     6
177
     3
291
     0
 70
    58
 90
        1
176
     1
 90
        2
176
     1
 90
        2
176
     1
 90
        0
176
     1
 40
0.6
176
     1
 40
30.0
176
     1
 62
     7
420
 16777215
176
     1
 90
        2
176
     1
 90
        2
176
     1
 62
     7
176
     1
 62
   257
176
     1
 90
        2
176
     1
 90
        1
176
     1
 40
40.0
176
     1
 90
        0
176
     1
 62
   257
176
     1
 40
1.0
176
     1
 90
        1
176
     1
 90
        6
176
     1
 90
        2
176
     1
 62
     7
176
     1
 90
        3
176
     1
 90
        0
176
     1
 90
        0
176
     1
290
     0
176
     1
 90
        1
176
     1
 40
0.0
176
     1
 90
        0
176
     1
290
     0
176
     1
290
     1
176
     1
290
     1
176
     1
290
     0
176
     1
290
     0
176
     1
290
     0
176
     1
290
     0
176
     1
290
     0
176
     1
290
     0
176
     1
 90
       50
176
     1
 40
0.0
176
     1
 40
1.0
176
     1
 90
        0
176
     1
 62
    18
420
        0
176
     1
 90
       50
176
     1
 90
        3
176
     1
 62
     5
420
      255
176
     1
290
     0
176
     1
 90
       50
176
     1
 90
       50
176
     1
 90
       50
176
     1
290
     0
176
     1
 90
       50
176
     1
 62
   256
176
     0
 40
1.0
176
     0
 90
        2
176
     1
  1
strokes_ogs.tif
176
     1
290
     0
176
     1
 40
1.0
176
     1
 40
1.0
176
     1
  0
VISUALSTYLE
  5
3B
102
{ACAD_REACTORS
330
2A
102
}
330
2A
100
AcDbVisualStyle
  2
JitterOff
 70
    20
177
     3
291
     1
 70
    58
 90
        2
176
     0
 90
        2
176
     0
 90
        0
176
     0
 90
        0
176
     0
 40
0.6
176
     0
 40
30.0
176
     0
 62
     7
420
 16777215
176
     0
 90
        1
176
     0
 90
        4
176
     0
 62
     7
176
     0
 62
   257
176
     0
 90
        1
176
     0
 90
        1
176
     0
 40
1.0
176
     0
 90
       10
176
     2
 62
     7
176
     0
 40
1.0
176
     0
 90
        1
176
     0
 90
        6
176
     0
 90
        2
176
     0
 62
     7
176
     0
 90
        5
176
     0
 90
        0
176
     0
 90
        0
176
     0
290
     0
176
     0
 90
        1
176
     0
 40
0.0
176
     0
 90
        0
176
     0
290
     0
176
     0
290
     1
176
     0
290
     1
176
     0
290
     0
176
     0
290
     0
176
     0
290
     0
176
     0
290
     0
176
     0
290
     0
176
     0
290
     0
176
     0
 90
       50
176
     0
 40
0.0
176
     0
 40
1.0
176
     0
 90
        0
176
     0
 62
    18
420
        0
176
     0
 90
       50
176
     0
 90
        3
176
     0
 62
     5
420
      255
176
     0
290
     0
176
     0
 90
       50
176
     0
 90
       50
176
     0
 90
       50
176
     0
290
     0
176
     0
 90
       50
176
     0
 62
   256
176
     0
 40
1.0
176
     0
 90
        2
176
     0
  1
strokes_ogs.tif
176
     0
290
     0
176
     0
 40
1.0
176
     0
 40
1.0
176
     0
  0
VISUALSTYLE
  5
38
102
{ACAD_REACTORS
330
2A
102
}
330
2A
100
AcDbVisualStyle
  2
Linepattern
 70
    14
177
     3
291
     1
 70
    58
 90
        2
176
     1
 90
        2
176
     1
 90
        0
176
     1
 90
        0
176
     1
 40
0.6
176
     1
 40
30.0
176
     1
 62
     7
420
 16777215
176
     1
 90
        1
176
     1
 90
        4
176
     1
 62
     7
176
     1
 62
   257
176
     1
 90
        7
176
     1
 90
        7
176
     1
 40
1.0
176
     1
 90
        8
176
     1
 62
     7
176
     1
 40
1.0
176
     1
 90
        1
176
     1
 90
        6
176
     1
 90
        2
176
     1
 62
     7
176
     1
 90
        5
176
     1
 90
        0
176
     1
 90
        0
176
     1
290
     0
176
     1
 90
        1
176
     1
 40
0.0
176
     1
 90
        0
176
     1
290
     0
176
     1
290
     1
176
     1
290
     1
176
     1
290
     0
176
     1
290
     0
176
     1
290
     0
176
     1
290
     0
176
     1
290
     0
176
     1
290
     0
176
     1
 90
       50
176
     1
 40
0.0
176
     1
 40
1.0
176
     1
 90
        0
176
     1
 62
    18
420
        0
176
     1
 90
       50
176
     1
 90
        3
176
     1
 62
     5
420
      255
176
     1
290
     0
176
     1
 90
       50
176
     1
 90
       50
176
     1
 90
       50
176
     1
290
     0
176
     1
 90
       50
176
     1
 62
   256
176
     0
 40
1.0
176
     0
 90
        2
176
     1
  1
strokes_ogs.tif
176
     1
290
     0
176
     1
 40
1.0
176
     1
 40
1.0
176
     1
  0
VISUALSTYLE
  5
3C
102
{ACAD_REACTORS
330
2A
102
}
330
2A
100
AcDbVisualStyle
  2
OverhangOff
 70
    21
177
     3
291
     1
 70
    58
 90
        2
176
     0
 90
        2
176
     0
 90
        0
176
     0
 90
        0
176
     0
 40
0.6
176
     0
 40
30.0
176
     0
 62
     7
420
 16777215
176
     0
 90
        1
176
     0
 90
        4
176
     0
 62
     7
176
     0
 62
   257
176
     0
 90
        1
176
     0
 90
        1
176
     0
 40
1.0
176
     0
 90
        9
176
     2
 62
     7
176
     0
 40
1.0
176
     0
 90
        1
176
     0
 90
        6
176
     0
 90
        2
176
     0
 62
     7
176
     0
 90
        5
176
     0
 90
        0
176
     0
 90
        0
176
     0
290
     0
176
     0
 90
        1
176
     0
 40
0.0
176
     0
 90
        0
176
     0
290
     0
176
     0
290
     1
176
     0
290
     1
176
     0
290
     0
176
     0
290
     0
176
     0
290
     0
176
     0
290
     0
176
     0
290
     0
176
     0
290
     0
176
     0
 90
       50
176
     0
 40
0.0
176
     0
 40
1.0
176
     0
 90
        0
176
     0
 62
    18
420
        0
176
     0
 90
       50
176
     0
 90
        3
176
     0
 62
     5
420
      255
176
     0
290
     0
176
     0
 90
       50
176
     0
 90
       50
176
     0
 90
       50
176
     0
290
     0
176
     0
 90
       50
176
     0
 62
   256
176
     0
 40
1.0
176
     0
 90
        2
176
     0
  1
strokes_ogs.tif
176
     0
290
     0
176
     0
 40
1.0
176
     0
 40
1.0
176
     0
  0
VISUALSTYLE
  5
33
102
{ACAD_REACTORS
330
2A
102
}
330
2A
100
AcDbVisualStyle
  2
Realistic
 70
     8
177
     3
291
     0
 70
    58
 90
        2
176
     1
 90
        3
176
     1
 90
        0
176
     1
 90
        2
176
     1
 40
0.6
176
     1
 40
30.0
176
     1
 62
     7
420
 16777215
176
     1
 90
        0
176
     1
 90
        0
176
     1
 62
     7
176
     1
 62
   257
176
     1
 90
        1
176
     1
 90
        1
176
     1
 40
1.0
176
     1
 90
        8
176
     1
 62
   257
176
     1
 40
1.0
176
     1
 90
        1
176
     1
 90
        6
176
     1
 90
        2
176
     1
 62
     7
176
     1
 90
        3
176
     1
 90
        0
176
     1
 90
        0
176
     1
290
     0
176
     1
 90
       13
176
     1
 40
0.0
176
     1
 90
        0
176
     1
290
     0
176
     1
290
     1
176
     1
290
     1
176
     1
290
     0
176
     1
290
     0
176
     1
290
     0
176
     1
290
     0
176
     1
290
     0
176
     1
290
     0
176
     1
 90
       50
176
     1
 40
0.0
176
     1
 40
1.0
176
     1
 90
        0
176
     1
 62
    18
420
        0
176
     1
 90
       50
176
     1
 90
        3
176
     1
 62
     5
420
      255
176
     1
290
     0
176
     1
 90
       50
176
     1
 90
       50
176
     1
 90
       50
176
     1
290
     0
176
     1
 90
       50
176
     1
 62
   256
176
     0
 40
1.0
176
     0
 90
        2
176
     1
  1
strokes_ogs.tif
176
     1
290
     0
176
     1
 40
1.0
176
     1
 40
1.0
176
     1
  0
VISUALSTYLE
  5
42
102
{ACAD_REACTORS
330
2A
102
}
330
2A
100
AcDbVisualStyle
  2
Shaded
 70
    27
177
     3
291
     0
 70
    58
 90
        2
176
     1
 90
        2
176
     1
 90
        1
176
     1
 90
        2
176
     1
 40
0.6
176
     1
 40
30.0
176
     1
 62
     7
420
 16777215
176
     1
 90
        0
176
     1
 90
        4
176
     1
 62
     7
176
     1
 62
   257
176
     1
 90
        1
176
     1
 90
        1
176
     1
 40
1.0
176
     1
 90
        8
176
     1
 62
   257
176
     1
 40
1.0
176
     1
 90
        1
176
     1
 90
        6
176
     1
 90
        2
176
     1
 62
     8
420
  7895160
176
     1
 90
        3
176
     1
 90
        0
176
     1
 90
        0
176
     1
290
     0
176
     1
 90
        5
176
     1
 40
0.0
176
     1
 90
        0
176
     1
290
     0
176
     1
290
     1
176
     1
290
     1
176
     1
290
     0
176
     1
290
     0
176
     1
290
     0
176
     1
290
     0
176
     1
290
     0
176
     1
290
     0
176
     1
 90
       50
176
     1
 40
0.0
176
     1
 40
1.0
176
     1
 90
        0
176
     1
 62
    18
420
        0
176
     1
 90
       50
176
     1
 90
        3
176
     1
 62
     5
420
      255
176
     1
290
     0
176
     1
 90
       50
176
     1
 90
       50
176
     1
 90
       50
176
     1
290
     0
176
     1
 90
       50
176
     1
 62
   256
176
     0
 40
1.0
176
     0
 90
        2
176
     1
  1
strokes_ogs.tif
176
     1
290
     0
176
     1
 40
1.0
176
     1
 40
1.0
176
     1
  0
VISUALSTYLE
  5
41
102
{ACAD_REACTORS
330
2A
102
}
330
2A
100
AcDbVisualStyle
  2
Shaded with edges
 70
    26
177
     3
291
     0
 70
    58
 90
        2
176
     1
 90
        2
176
     1
 90
        1
176
     1
 90
        2
176
     1
 40
0.6
176
     1
 40
30.0
176
     1
 62
     7
420
 16777215
176
     1
 90
        1
176
     1
 90
       10
176
     1
 62
     7
176
     1
 62
   257
176
     1
 90
        2
176
     1
 90
        1
176
     1
 40
1.0
176
     1
 90
        8
176
     1
 62
   257
176
     1
 40
1.0
176
     1
 90
        1
176
     1
 90
        6
176
     1
 90
        2
176
     1
 62
     7
176
     1
 90
        3
176
     1
 90
        0
176
     1
 90
        0
176
     1
290
     0
176
     1
 90
        5
176
     1
 40
0.0
176
     1
 90
        0
176
     1
290
     0
176
     1
290
     1
176
     1
290
     1
176
     1
290
     0
176
     1
290
     0
176
     1
290
     0
176
     1
290
     0
176
     1
290
     0
176
     1
290
     0
176
     1
 90
       50
176
     1
 40
0.0
176
     1
 40
1.0
176
     1
 90
        0
176
     1
 62
    18
420
        0
176
     1
 90
       50
176
     1
 90
        3
176
     1
 62
     5
420
      255
176
     1
290
     0
176
     1
 90
       50
176
     1
 90
       50
176
     1
 90
       50
176
     1
290
     0
176
     1
 90
       50
176
     1
 62
   256
176
     0
 40
1.0
176
     0
 90
        2
176
     1
  1
strokes_ogs.tif
176
     1
290
     0
176
     1
 40
1.0
176
     1
 40
1.0
176
     1
  0
VISUALSTYLE
  5
3E
102
{ACAD_REACTORS
330
2A
102
}
330
2A
100
AcDbVisualStyle
  2
Shades of Gray
 70
    23
177
     3
291
     0
 70
    58
 90
        2
176
     1
 90
        2
176
     1
 90
        3
176
     1
 90
        0
176
     1
 40
0.6
176
     1
 40
30.0
176
     1
 62
     7
420
 16777215
176
     1
 90
        2
176
     1
 90
        2
176
     1
 62
     7
176
     1
 62
     7
176
     1
 90
        1
176
     1
 90
        1
176
     1
 40
40.0
176
     1
 90
        8
176
     1
 62
     7
176
     1
 40
1.0
176
     1
 90
        1
176
     1
 90
        6
176
     1
 90
        2
176
     1
 62
     7
176
     1
 90
        3
176
     1
 90
        0
176
     1
 90
        0
176
     1
290
     0
176
     1
 90
        1
176
     1
 40
0.0
176
     1
 90
        0
176
     1
290
     0
176
     1
290
     1
176
     1
290
     1
176
     1
290
     0
176
     1
290
     0
176
     1
290
     0
176
     1
290
     0
176
     1
290
     0
176
     1
290
     0
176
     1
 90
       50
176
     1
 40
0.0
176
     1
 40
1.0
176
     1
 90
        0
176
     1
 62
    18
420
        0
176
     1
 90
       50
176
     1
 90
        3
176
     1
 62
     5
420
      255
176
     1
290
     0
176
     1
 90
       50
176
     1
 90
       50
176
     1
 90
       50
176
     1
290
     0
176
     1
 90
       50
176
     1
 62
   256
176
     0
 40
1.0
176
     0
 90
        2
176
     1
  1
strokes_ogs.tif
176
     1
290
     0
176
     1
 40
1.0
176
     1
 40
1.0
176
     1
  0
VISUALSTYLE
  5
3F
102
{ACAD_REACTORS
330
2A
102
}
330
2A
100
AcDbVisualStyle
  2
Sketchy
 70
    24
177
     3
291
     0
 70
    58
 90
        1
176
     1
 90
        2
176
     1
 90
        2
176
     1
 90
        0
176
     1
 40
0.6
176
     1
 40
30.0
176
     1
 62
     7
420
 16777215
176
     1
 90
        2
176
     1
 90
        2
176
     1
 62
     7
176
     1
 62
     7
176
     1
 90
        1
176
     1
 90
        1
176
     1
 40
40.0
176
     1
 90
       11
176
     1
 62
     7
176
     1
 40
1.0
176
     1
 90
        1
176
     1
 90
        6
176
     1
 90
        2
176
     1
 62
     7
176
     1
 90
        6
176
     1
 90
        0
176
     1
 90
        0
176
     1
290
     0
176
     1
 90
        1
176
     1
 40
0.0
176
     1
 90
        0
176
     1
290
     0
176
     1
290
     1
176
     1
290
     1
176
     1
290
     0
176
     1
290
     0
176
     1
290
     0
176
     1
290
     0
176
     1
290
     0
176
     1
290
     0
176
     1
 90
       50
176
     1
 40
0.0
176
     1
 40
1.0
176
     1
 90
        0
176
     1
 62
    18
420
        0
176
     1
 90
       50
176
     1
 90
        3
176
     1
 62
     5
420
      255
176
     1
290
     0
176
     1
 90
       50
176
     1
 90
       50
176
     1
 90
       50
176
     1
290
     0
176
     1
 90
       50
176
     1
 62
   256
176
     0
 40
1.0
176
     0
 90
        2
176
     1
  1
strokes_ogs.tif
176
     1
290
     0
176
     1
 40
1.0
176
     1
 40
1.0
176
     1
  0
VISUALSTYLE
  5
37
102
{ACAD_REACTORS
330
2A
102
}
330
2A
100
AcDbVisualStyle
  2
Thicken
 70
    13
177
     3
291
     1
 70
    58
 90
        2
176
     1
 90
        2
176
     1
 90
        0
176
     1
 90
        0
176
     1
 40
0.6
176
     1
 40
30.0
176
     1
 62
     7
420
 16777215
176
     1
 90
        1
176
     1
 90
        4
176
     1
 62
     7
176
     1
 62
   257
176
     1
 90
        1
176
     1
 90
        1
176
     1
 40
1.0
176
     1
 90
       12
176
     1
 62
     7
176
     1
 40
1.0
176
     1
 90
        1
176
     1
 90
        6
176
     1
 90
        2
176
     1
 62
     7
176
     1
 90
        5
176
     1
 90
        0
176
     1
 90
        0
176
     1
290
     0
176
     1
 90
        1
176
     1
 40
0.0
176
     1
 90
        0
176
     1
290
     0
176
     1
290
     1
176
     1
290
     1
176
     1
290
     0
176
     1
290
     0
176
     1
290
     0
176
     1
290
     0
176
     1
290
     0
176
     1
290
     0
176
     1
 90
       50
176
     1
 40
0.0
176
     1
 40
1.0
176
     1
 90
        0
176
     1
 62
    18
420
        0
176
     1
 90
       50
176
     1
 90
        3
176
     1
 62
     5
420
      255
176
     1
290
     0
176
     1
 90
       50
176
     1
 90
       50
176
     1
 90
       50
176
     1
290
     0
176
     1
 90
       50
176
     1
 62
   256
176
     0
 40
1.0
176
     0
 90
        2
176
     1
  1
strokes_ogs.tif
176
     1
290
     0
176
     1
 40
1.0
176
     1
 40
1.0
176
     1
  0
VISUALSTYLE
  5
30
102
{ACAD_REACTORS
330
2A
102
}
330
2A
100
AcDbVisualStyle
  2
Wireframe
 70
     5
177
     3
291
     0
 70
    58
 90
        0
176
     1
 90
        2
176
     1
 90
        0
176
     1
 90
        0
176
     1
 40
0.6
176
     1
 40
30.0
176
     1
 62
     7
420
 16777215
176
     1
 90
        1
176
     1
 90
        4
176
     1
 62
     7
176
     1
 62
   257
176
     1
 90
        1
176
     1
 90
        1
176
     1
 40
1.0
176
     1
 90
        0
176
     1
 62
   257
176
     1
 40
1.0
176
     1
 90
        1
176
     1
 90
        6
176
     1
 90
        2
176
     1
 62
     7
176
     1
 90
        3
176
     1
 90
        0
176
     1
 90
        0
176
     1
290
     0
176
     1
 90
        1
176
     1
 40
0.0
176
     1
 90
        0
176
     1
290
     0
176
     1
290
     1
176
     1
290
     1
176
     1
290
     0
176
     1
290
     0
176
     1
290
     0
176
     1
290
     0
176
     1
290
     0
176
     1
290
     0
176
     1
 90
       50
176
     1
 40
0.0
176
     1
 40
1.0
176
     1
 90
        0
176
     1
 62
    18
420
        0
176
     1
 90
       50
176
     1
 90
        3
176
     1
 62
     5
420
      255
176
     1
290
     0
176
     1
 90
       50
176
     1
 90
       50
176
     1
 90
       50
176
     1
290
     0
176
     1
 90
       50
176
     1
 62
   256
176
     0
 40
1.0
176
     0
 90
        2
176
     1
  1
strokes_ogs.tif
176
     1
290
     0
176
     1
 40
1.0
176
     1
 40
1.0
176
     1
  0
VISUALSTYLE
  5
40
102
{ACAD_REACTORS
330
2A
102
}
330
2A
100
AcDbVisualStyle
  2
X-Ray
 70
    25
177
     3
291
     0
 70
    58
 90
        2
176
     1
 90
        2
176
     1
 90
        1
176
     1
 90
        1
176
     1
 40
0.5
176
     1
 40
30.0
176
     1
 62
     7
420
 16777215
176
     1
 90
        1
176
     1
 90
        0
176
     1
 62
     7
176
     1
 62
   257
176
     1
 90
        1
176
     1
 90
        1
176
     1
 40
1.0
176
     1
 90
        8
176
     1
 62
     7
176
     1
 40
1.0
176
     1
 90
        1
176
     1
 90
        6
176
     1
 90
        2
176
     1
 62
     7
176
     1
 90
        3
176
     1
 90
        0
176
     1
 90
        0
176
     1
290
     0
176
     1
 90
       13
176
     1
 40
0.0
176
     1
 90
        0
176
     1
290
     0
176
     1
290
     1
176
     1
290
     1
176
     1
290
     0
176
     1
290
     0
176
     1
290
     0
176
     1
290
     0
176
     1
290
     0
176
     1
290
     0
176
     1
 90
       50
176
     1
 40
0.0
176
     1
 40
1.0
176
     1
 90
        0
176
     1
 62
    18
420
        0
176
     1
 90
       50
176
     1
 90
        3
176
     1
 62
     5
420
      255
176
     1
290
     0
176
     1
 90
       50
176
     1
 90
       50
176
     1
 90
       50
176
     1
290
     0
176
     1
 90
       50
176
     1
 62
   256
176
     0
 40
1.0
176
     0
 90
        2
176
     1
  1
strokes_ogs.tif
176
     1
290
     0
176
     1
 40
1.0
176
     1
 40
1.0
176
     1
  0
DICTIONARYVAR
  5
4E6
102
{ACAD_REACTORS
330
4E5
102
}
330
4E5
100
DictionaryVariables
280
     0
  1
1:1
  0
DICTIONARYVAR
  5
4EE
102
{ACAD_REACTORS
330
4E5
102
}
330
4E5
100
DictionaryVariables
280
     0
  1
3.500000
  0
DICTIONARYVAR
  5
4EF
102
{ACAD_REACTORS
330
4E5
102
}
330
4E5
100
DictionaryVariables
280
     0
  1
acadiso.lin
  0
DICTIONARYVAR
  5
4EB
102
{ACAD_REACTORS
330
4E5
102
}
330
4E5
100
DictionaryVariables
280
     0
  1
Standard
  0
DICTIONARYVAR
  5
4EA
102
{ACAD_REACTORS
330
4E5
102
}
330
4E5
100
DictionaryVariables
280
     0
  1
Standard
  0
DICTIONARY
  5
4E7
330
6A
100
AcDbDictionary
280
     1
281
     1
  3
ACAD_ROUNDTRIP_2008_TABLESTYLE_CELLSTYLEMAP
360
4E8
  0
CELLSTYLEMAP
  5
4E8
102
{ACAD_REACTORS
330
4E7
102
}
330
4E7
100
AcDbCellStyleMap
 90
        3
300
CELLSTYLE
  1
TABLEFORMAT_BEGIN
 90
        5
170
     1
 91
        0
 92
    32768
 62
   257
 93
        1
300
CONTENTFORMAT
  1
CONTENTFORMAT_BEGIN
 90
        0
 91
        0
 92
        4
 93
        0
300

 40
0.0
140
1.0
 94
        5
 62
     0
340
11
144
6.0
309
CONTENTFORMAT_END
171
     1
301
MARGIN
  1
CELLMARGIN_BEGIN
 40
1.5
 40
1.5
 40
1.5
 40
1.5
 40
1.5
 40
1.5
309
CELLMARGIN_END
 94
        6
 95
        1
302
GRIDFORMAT
  1
GRIDFORMAT_BEGIN
 90
        0
 91
        1
 62
     0
 92
       -2
340
14
 93
        0
 40
0.045
309
GRIDFORMAT_END
 95
        2
302
GRIDFORMAT
  1
GRIDFORMAT_BEGIN
 90
        0
 91
        1
 62
     0
 92
       -2
340
14
 93
        0
 40
0.045
309
GRIDFORMAT_END
 95
        4
302
GRIDFORMAT
  1
GRIDFORMAT_BEGIN
 90
        0
 91
        1
 62
     0
 92
       -2
340
14
 93
        0
 40
0.045
309
GRIDFORMAT_END
 95
        8
302
GRIDFORMAT
  1
GRIDFORMAT_BEGIN
 90
        0
 91
        1
 62
     0
 92
       -2
340
14
 93
        0
 40
0.045
309
GRIDFORMAT_END
 95
       16
302
GRIDFORMAT
  1
GRIDFORMAT_BEGIN
 90
        0
 91
        1
 62
     0
 92
       -2
340
14
 93
        0
 40
0.045
309
GRIDFORMAT_END
 95
       32
302
GRIDFORMAT
  1
GRIDFORMAT_BEGIN
 90
        0
 91
        1
 62
     0
 92
       -2
340
14
 93
        0
 40
0.045
309
GRIDFORMAT_END
309
TABLEFORMAT_END
  1
CELLSTYLE_BEGIN
 90
        1
 91
        1
300
_TITLE
309
CELLSTYLE_END
300
CELLSTYLE
  1
TABLEFORMAT_BEGIN
 90
        5
170
     1
 91
        0
 92
        0
 62
   257
 93
        1
300
CONTENTFORMAT
  1
CONTENTFORMAT_BEGIN
 90
        0
 91
        0
 92
        4
 93
        0
300

 40
0.0
140
1.0
 94
        5
 62
     0
340
11
144
4.5
309
CONTENTFORMAT_END
171
     1
301
MARGIN
  1
CELLMARGIN_BEGIN
 40
1.5
 40
1.5
 40
1.5
 40
1.5
 40
1.5
 40
1.5
309
CELLMARGIN_END
 94
        6
 95
        1
302
GRIDFORMAT
  1
GRIDFORMAT_BEGIN
 90
        0
 91
        1
 62
     0
 92
       -2
340
14
 93
        0
 40
0.045
309
GRIDFORMAT_END
 95
        2
302
GRIDFORMAT
  1
GRIDFORMAT_BEGIN
 90
        0
 91
        1
 62
     0
 92
       -2
340
14
 93
        0
 40
0.045
309
GRIDFORMAT_END
 95
        4
302
GRIDFORMAT
  1
GRIDFORMAT_BEGIN
 90
        0
 91
        1
 62
     0
 92
       -2
340
14
 93
        0
 40
0.045
309
GRIDFORMAT_END
 95
        8
302
GRIDFORMAT
  1
GRIDFORMAT_BEGIN
 90
        0
 91
        1
 62
     0
 92
       -2
340
14
 93
        0
 40
0.045
309
GRIDFORMAT_END
 95
       16
302
GRIDFORMAT
  1
GRIDFORMAT_BEGIN
 90
        0
 91
        1
 62
     0
 92
       -2
340
14
 93
        0
 40
0.045
309
GRIDFORMAT_END
 95
       32
302
GRIDFORMAT
  1
GRIDFORMAT_BEGIN
 90
        0
 91
        1
 62
     0
 92
       -2
340
14
 93
        0
 40
0.045
309
GRIDFORMAT_END
309
TABLEFORMAT_END
  1
CELLSTYLE_BEGIN
 90
        2
 91
        1
300
_HEADER
309
CELLSTYLE_END
300
CELLSTYLE
  1
TABLEFORMAT_BEGIN
 90
        5
170
     1
 91
        0
 92
        0
 62
   257
 93
        1
300
CONTENTFORMAT
  1
CONTENTFORMAT_BEGIN
 90
        0
 91
        0
 92
        4
 93
        0
300

 40
0.0
140
1.0
 94
        2
 62
     0
340
11
144
4.5
309
CONTENTFORMAT_END
171
     1
301
MARGIN
  1
CELLMARGIN_BEGIN
 40
1.5
 40
1.5
 40
1.5
 40
1.5
 40
1.5
 40
1.5
309
CELLMARGIN_END
 94
        6
 95
        1
302
GRIDFORMAT
  1
GRIDFORMAT_BEGIN
 90
        0
 91
        1
 62
     0
 92
       -2
340
14
 93
        0
 40
0.045
309
GRIDFORMAT_END
 95
        2
302
GRIDFORMAT
  1
GRIDFORMAT_BEGIN
 90
        0
 91
        1
 62
     0
 92
       -2
340
14
 93
        0
 40
0.045
309
GRIDFORMAT_END
 95
        4
302
GRIDFORMAT
  1
GRIDFORMAT_BEGIN
 90
        0
 91
        1
 62
     0
 92
       -2
340
14
 93
        0
 40
0.045
309
GRIDFORMAT_END
 95
        8
302
GRIDFORMAT
  1
GRIDFORMAT_BEGIN
 90
        0
 91
        1
 62
     0
 92
       -2
340
14
 93
        0
 40
0.045
309
GRIDFORMAT_END
 95
       16
302
GRIDFORMAT
  1
GRIDFORMAT_BEGIN
 90
        0
 91
        1
 62
     0
 92
       -2
340
14
 93
        0
 40
0.045
309
GRIDFORMAT_END
 95
       32
302
GRIDFORMAT
  1
GRIDFORMAT_BEGIN
 90
        0
 91
        1
 62
     0
 92
       -2
340
14
 93
        0
 40
0.045
309
GRIDFORMAT_END
309
TABLEFORMAT_END
  1
CELLSTYLE_BEGIN
 90
        3
 91
        2
300
_DATA
309
CELLSTYLE_END
  0
ENDSEC
  0
EOF
