  0
SECTION
  2
HEADER
  9
$ACADVER
  1
AC1015
  9
$ACADMAINTVER
 70
     6
  9
$DWGCODEPAGE
  3
ANSI_1250
  9
$INSBASE
 10
0.0
 20
0.0
 30
0.0
  9
$EXTMIN
 10
0.0
 20
0.0
 30
0.0
  9
$EXTMAX
 10
20000.0
 20
10000.0
 30
0.0
  9
$LIMMIN
 10
0.0
 20
0.0
  9
$LIMMAX
 10
20000.0
 20
10000.0
  9
$ORTHOMODE
 70
     0
  9
$REGENMODE
 70
     1
  9
$FILLMODE
 70
     1
  9
$QTEXTMODE
 70
     0
  9
$MIRRTEXT
 70
     1
  9
$LTSCALE
 40
1.0
  9
$ATTMODE
 70
     1
  9
$TEXTSIZE
 40
2.0
  9
$TRACEWID
 40
1.0
  9
$TEXTSTYLE
  7
Standard
  9
$CLAYER
  8
0
  9
$CELTYPE
  6
ByLayer
  9
$CECOLOR
 62
   256
  9
$CELTSCALE
 40
1.0
  9
$DISPSILH
 70
     0
  9
$DIMSCALE
 40
1.0
  9
$DIMASZ
 40
2.0
  9
$DIMEXO
 40
1.0
  9
$DIMDLI
 40
3.75
  9
$DIMRND
 40
0.0
  9
$DIMDLE
 40
0.0
  9
$DIMEXE
 40
1.0
  9
$DIMTP
 40
0.0
  9
$DIMTM
 40
0.0
  9
$DIMTXT
 40
2.0
  9
$DIMCEN
 40
2.5
  9
$DIMTSZ
 40
0.0
  9
$DIMTOL
 70
     0
  9
$DIMLIM
 70
     0
  9
$DIMTIH
 70
     1
  9
$DIMTOH
 70
     1
  9
$DIMSE1
 70
     0
  9
$DIMSE2
 70
     0
  9
$DIMTAD
 70
     1
  9
$DIMZIN
 70
     0
  9
$DIMBLK
  1

  9
$DIMASO
 70
     1
  9
$DIMSHO
 70
     1
  9
$DIMPOST
  1

  9
$DIMAPOST
  1

  9
$DIMALT
 70
     0
  9
$DIMALTD
 70
     3
  9
$DIMALTF
 40
0.0393700787
  9
$DIMLFAC
 40
1.0
  9
$DIMTOFL
 70
     1
  9
$DIMTVP
 40
0.0
  9
$DIMTIX
 70
     0
  9
$DIMSOXD
 70
     0
  9
$DIMSAH
 70
     0
  9
$DIMBLK1
  1

  9
$DIMBLK2
  1

  9
$DIMSTYLE
  2
ISO-25
  9
$DIMCLRD
 70
     0
  9
$DIMCLRE
 70
     0
  9
$DIMCLRT
 70
     0
  9
$DIMTFAC
 40
1.0
  9
$DIMGAP
 40
1.524
  9
$DIMJUST
 70
     0
  9
$DIMSD1
 70
     0
  9
$DIMSD2
 70
     0
  9
$DIMTOLJ
 70
     0
  9
$DIMTZIN
 70
     0
  9
$DIMALTZ
 70
     0
  9
$DIMALTTZ
 70
     0
  9
$DIMUPT
 70
     0
  9
$DIMDEC
 70
     2
  9
$DIMTDEC
 70
     0
  9
$DIMALTU
 70
     2
  9
$DIMALTTD
 70
     3
  9
$DIMTXSTY
  7
Standard
  9
$DIMAUNIT
 70
     0
  9
$DIMADEC
 70
     2
  9
$DIMALTRND
 40
0.0
  9
$DIMAZIN
 70
     0
  9
$DIMDSEP
 70
    44
  9
$DIMATFIT
 70
     3
  9
$DIMFRAC
 70
     0
  9
$DIMLDRBLK
  1

  9
$DIMLUNIT
 70
     2
  9
$DIMLWD
 70
    -2
  9
$DIMLWE
 70
    -2
  9
$DIMTMOVE
 70
     0
  9
$LUNITS
 70
     2
  9
$LUPREC
 70
     3
  9
$SKETCHINC
 40
1.0
  9
$FILLETRAD
 40
10.0
  9
$AUNITS
 70
     0
  9
$AUPREC
 70
     2
  9
$MENU
  1
.
  9
$ELEVATION
 40
0.0
  9
$PELEVATION
 40
0.0
  9
$THICKNESS
 40
0.0
  9
$LIMCHECK
 70
     0
  9
$CHAMFERA
 40
0.0
  9
$CHAMFERB
 40
0.0
  9
$CHAMFERC
 40
0.0
  9
$CHAMFERD
 40
0.0
  9
$SKPOLY
 70
     0
  9
$TDCREATE
 40
2458673.504198426
  9
$TDUCREATE
 40
2458673.420865092
  9
$TDUPDATE
 40
2458673.504198993
  9
$TDUUPDATE
 40
2458673.42086566
  9
$TDINDWG
 40
0.0000000116
  9
$TDUSRTIMER
 40
0.0000000116
  9
$USRTIMER
 70
     1
  9
$ANGBASE
 50
0.0
  9
$ANGDIR
 70
     0
  9
$PDMODE
 70
     0
  9
$PDSIZE
 40
-1.0
  9
$PLINEWID
 40
0.0
  9
$SPLFRAME
 70
     0
  9
$SPLINETYPE
 70
     6
  9
$SPLINESEGS
 70
     8
  9
$HANDSEED
  5
21A
  9
$SURFTAB1
 70
     6
  9
$SURFTAB2
 70
     6
  9
$SURFTYPE
 70
     6
  9
$SURFU
 70
     6
  9
$SURFV
 70
     6
  9
$UCSBASE
  2

  9
$UCSNAME
  2

  9
$UCSORG
 10
0.0
 20
0.0
 30
0.0
  9
$UCSXDIR
 10
1.0
 20
0.0
 30
0.0
  9
$UCSYDIR
 10
0.0
 20
1.0
 30
0.0
  9
$UCSORTHOREF
  2

  9
$UCSORTHOVIEW
 70
     0
  9
$UCSORGTOP
 10
0.0
 20
0.0
 30
0.0
  9
$UCSORGBOTTOM
 10
0.0
 20
0.0
 30
0.0
  9
$UCSORGLEFT
 10
0.0
 20
0.0
 30
0.0
  9
$UCSORGRIGHT
 10
0.0
 20
0.0
 30
0.0
  9
$UCSORGFRONT
 10
0.0
 20
0.0
 30
0.0
  9
$UCSORGBACK
 10
0.0
 20
0.0
 30
0.0
  9
$PUCSBASE
  2

  9
$PUCSNAME
  2

  9
$PUCSORG
 10
0.0
 20
0.0
 30
0.0
  9
$PUCSXDIR
 10
1.0
 20
0.0
 30
0.0
  9
$PUCSYDIR
 10
0.0
 20
1.0
 30
0.0
  9
$PUCSORTHOREF
  2

  9
$PUCSORTHOVIEW
 70
     0
  9
$PUCSORGTOP
 10
0.0
 20
0.0
 30
0.0
  9
$PUCSORGBOTTOM
 10
0.0
 20
0.0
 30
0.0
  9
$PUCSORGLEFT
 10
0.0
 20
0.0
 30
0.0
  9
$PUCSORGRIGHT
 10
0.0
 20
0.0
 30
0.0
  9
$PUCSORGFRONT
 10
0.0
 20
0.0
 30
0.0
  9
$PUCSORGBACK
 10
0.0
 20
0.0
 30
0.0
  9
$USERI1
 70
     0
  9
$USERI2
 70
     0
  9
$USERI3
 70
     0
  9
$USERI4
 70
     0
  9
$USERI5
 70
     0
  9
$USERR1
 40
0.0
  9
$USERR2
 40
0.0
  9
$USERR3
 40
0.0
  9
$USERR4
 40
0.0
  9
$USERR5
 40
0.0
  9
$WORLDVIEW
 70
     1
  9
$SHADEDGE
 70
     3
  9
$SHADEDIF
 70
    70
  9
$TILEMODE
 70
     1
  9
$MAXACTVP
 70
    64
  9
$PINSBASE
 10
0.0
 20
0.0
 30
0.0
  9
$PLIMCHECK
 70
     0
  9
$PEXTMIN
 10
1.0000000000E+20
 20
1.0000000000E+20
 30
1.0000000000E+20
  9
$PEXTMAX
 10
-1.0000000000E+20
 20
-1.0000000000E+20
 30
-1.0000000000E+20
  9
$PLIMMIN
 10
0.0
 20
0.0
  9
$PLIMMAX
 10
420.0
 20
297.0
  9
$UNITMODE
 70
     0
  9
$VISRETAIN
 70
     1
  9
$PLINEGEN
 70
     0
  9
$PSLTSCALE
 70
     1
  9
$TREEDEPTH
 70
  3020
  9
$CMLSTYLE
  2
Standard
  9
$CMLJUST
 70
     0
  9
$CMLSCALE
 40
20.0
  9
$PROXYGRAPHICS
 70
     1
  9
$MEASUREMENT
 70
     1
  9
$CELWEIGHT
370
    -1
  9
$ENDCAPS
280
     0
  9
$JOINSTYLE
280
     0
  9
$LWDISPLAY
290
     1
  9
$INSUNITS
 70
     4
  9
$HYPERLINKBASE
  1

  9
$STYLESHEET
  1

  9
$XEDIT
290
     1
  9
$CEPSNTYPE
380
     0
  9
$PSTYLEMODE
290
     1
  9
$FINGERPRINTGUID
  2
{DF82F2EC-5533-40AD-B08B-87F8BFED7DC3}
  9
$VERSIONGUID
  2
{FAEB1C32-E019-11D5-929B-00C0DF256EC4}
  9
$EXTNAMES
290
     1
  9
$PSVPSCALE
 40
0.0
  9
$OLESTARTUP
290
     0
  0
ENDSEC
  0
SECTION
  2
CLASSES
  0
CLASS
  1
ACDBDICTIONARYWDFLT
  2
AcDbDictionaryWithDefault
  3
ObjectDBX Classes
 90
        0
280
     0
281
     0
  0
CLASS
  1
VISUALSTYLE
  2
AcDbVisualStyle
  3
ObjectDBX Classes
 90
     4095
280
     0
281
     0
  0
CLASS
  1
MATERIAL
  2
AcDbMaterial
  3
ObjectDBX Classes
 90
     1153
280
     0
281
     0
  0
CLASS
  1
SCALE
  2
AcDbScale
  3
ObjectDBX Classes
 90
     1153
280
     0
281
     0
  0
CLASS
  1
TABLESTYLE
  2
AcDbTableStyle
  3
ObjectDBX Classes
 90
     4095
280
     0
281
     0
  0
CLASS
  1
MLEADERSTYLE
  2
AcDbMLeaderStyle
  3
ACDB_MLEADERSTYLE_CLASS
 90
     4095
280
     0
281
     0
  0
CLASS
  1
SUN
  2
AcDbSun
  3
SCENEOE
 90
     1153
280
     0
281
     0
  0
CLASS
  1
ACDBPLACEHOLDER
  2
AcDbPlaceHolder
  3
ObjectDBX Classes
 90
        0
280
     0
281
     0
  0
CLASS
  1
LAYOUT
  2
AcDbLayout
  3
ObjectDBX Classes
 90
        0
280
     0
281
     0
  0
ENDSEC
  0
SECTION
  2
TABLES
  0
TABLE
  2
VPORT
  5
8
330
0
100
AcDbSymbolTable
 70
     1
  0
VPORT
  5
29
330
8
100
AcDbSymbolTableRecord
100
AcDbViewportTableRecord
  2
*Active
 70
     0
 10
0.0
 20
0.0
 11
1.0
 21
1.0
 12
10000.0
 22
5000.0
 13
0.0
 23
0.0
 14
10.0
 24
10.0
 15
10.0
 25
10.0
 16
0.0
 26
0.0
 36
1.0
 17
0.0
 27
0.0
 37
0.0
 40
10000.0
 41
2.0
 42
50.0
 43
0.0
 44
0.0
 50
0.0
 51
0.0
 71
     0
 72
  2000
 73
     1
 74
     3
 75
     0
 76
     0
 77
     0
 78
     0
281
     0
 65
     1
110
0.0
120
0.0
130
0.0
111
1.0
121
0.0
131
0.0
112
0.0
122
1.0
132
0.0
 79
     0
146
0.0
  0
ENDTAB
  0
TABLE
  2
LTYPE
  5
5
330
0
100
AcDbSymbolTable
 70
     6
  0
LTYPE
  5
14
330
5
100
AcDbSymbolTableRecord
100
AcDbLinetypeTableRecord
  2
ByBlock
 70
     0
  3

 72
    65
 73
     0
 40
0.0
  0
LTYPE
  5
15
330
5
100
AcDbSymbolTableRecord
100
AcDbLinetypeTableRecord
  2
ByLayer
 70
     0
  3

 72
    65
 73
     0
 40
0.0
  0
LTYPE
  5
16
330
5
100
AcDbSymbolTableRecord
100
AcDbLinetypeTableRecord
  2
Continuous
 70
     0
  3
Solid line
 72
    65
 73
     0
 40
0.0
  0
LTYPE
  5
6E
330
5
100
AcDbSymbolTableRecord
100
AcDbLinetypeTableRecord
  2
HIDDEN
 70
     0
  3
Hidden __ __ __ __ __ __ __ __ __ __ __ __ __ __
 72
    65
 73
     2
 40
1.905
 49
1.27
 74
     0
 49
-0.635
 74
     0
  0
LTYPE
  5
6F
330
5
100
AcDbSymbolTableRecord
100
AcDbLinetypeTableRecord
  2
PHANTOM
 70
     0
  3
Phantom ______  __  __  ______  __  __  ______
 72
    65
 73
     6
 40
12.7
 49
6.35
 74
     0
 49
-1.27
 74
     0
 49
1.27
 74
     0
 49
-1.27
 74
     0
 49
1.27
 74
     0
 49
-1.27
 74
     0
  0
LTYPE
  5
70
330
5
100
AcDbSymbolTableRecord
100
AcDbLinetypeTableRecord
  2
CENTER
 70
     0
  3
Center ____ _ ____ _ ____ _ ____ _ ____ _ ____
 72
    65
 73
     4
 40
10.16
 49
6.35
 74
     0
 49
-1.27
 74
     0
 49
1.27
 74
     0
 49
-1.27
 74
     0
  0
LTYPE
  5
71
330
5
100
AcDbSymbolTableRecord
100
AcDbLinetypeTableRecord
  2
CENTERX2
 70
     0
  3
Center (2x) ________  __  ________  __  _____
 72
    65
 73
     4
 40
20.32
 49
12.7
 74
     0
 49
-2.54
 74
     0
 49
2.54
 74
     0
 49
-2.54
 74
     0
  0
LTYPE
  5
72
330
5
100
AcDbSymbolTableRecord
100
AcDbLinetypeTableRecord
  2
DOT2
 70
     0
  3
Dot (.5x) ........................................
 72
    65
 73
     2
 40
0.635
 49
0.0
 74
     0
 49
-0.635
 74
     0
  0
ENDTAB
  0
TABLE
  2
LAYER
  5
2
330
0
100
AcDbSymbolTable
 70
    13
  0
LAYER
  5
10
330
2
100
AcDbSymbolTableRecord
100
AcDbLayerTableRecord
  2
0
 70
     0
 62
     7
  6
Continuous
370
    -3
390
F
  0
LAYER
  5
73
330
2
100
AcDbSymbolTableRecord
100
AcDbLayerTableRecord
  2
FORMAT
 70
     0
 62
     7
  6
Continuous
370
    -3
390
F
  0
LAYER
  5
74
330
2
100
AcDbSymbolTableRecord
100
AcDbLayerTableRecord
  2
OSA
 70
     0
 62
     7
  6
CENTER
370
    -3
390
F
  0
LAYER
  5
75
330
2
100
AcDbSymbolTableRecord
100
AcDbLayerTableRecord
  2
0_35
 70
     0
 62
     7
  6
Continuous
370
    35
390
F
  0
LAYER
  5
76
330
2
100
AcDbSymbolTableRecord
100
AcDbLayerTableRecord
  2
0_5
 70
     0
 62
     7
  6
Continuous
370
    50
390
F
  0
LAYER
  5
77
330
2
100
AcDbSymbolTableRecord
100
AcDbLayerTableRecord
  2
0_25
 70
     0
 62
     7
  6
Continuous
370
    25
390
F
  0
LAYER
  5
78
330
2
100
AcDbSymbolTableRecord
100
AcDbLayerTableRecord
  2
0_18
 70
     0
 62
     7
  6
Continuous
370
    -3
390
F
  0
LAYER
  5
79
330
2
100
AcDbSymbolTableRecord
100
AcDbLayerTableRecord
  2
SLD-0
 70
     0
 62
   179
  6
Continuous
370
    -3
390
F
  0
LAYER
  5
7A
330
2
100
AcDbSymbolTableRecord
100
AcDbLayerTableRecord
  2
KOTY
 70
     0
 62
     7
  6
Continuous
370
    -3
390
F
  0
LAYER
  5
7B
330
2
100
AcDbSymbolTableRecord
100
AcDbLayerTableRecord
  2
SILNA
 70
     0
 62
   179
  6
Continuous
370
    -3
390
F
  0
LAYER
  5
7C
330
2
100
AcDbSymbolTableRecord
100
AcDbLayerTableRecord
  2
0_18_1
 70
     0
 62
   179
  6
Continuous
370
    -3
390
F
  0
LAYER
  5
7D
330
2
100
AcDbSymbolTableRecord
100
AcDbLayerTableRecord
  2
0_35_1
 70
     0
 62
   179
  6
Continuous
370
    35
390
F
  0
LAYER
  5
7E
330
2
100
AcDbSymbolTableRecord
100
AcDbLayerTableRecord
  2
0_5_1
 70
     0
 62
   179
  6
Continuous
370
    50
390
F
  0
ENDTAB
  0
TABLE
  2
STYLE
  5
3
330
0
100
AcDbSymbolTable
 70
     1
  0
STYLE
  5
11
330
3
100
AcDbSymbolTableRecord
100
AcDbTextStyleTableRecord
  2
Standard
 70
     0
 40
0.0
 41
1.0
 50
0.0
 71
     0
 42
2.0
  3
txt
  4

  0
ENDTAB
  0
TABLE
  2
VIEW
  5
6
330
0
100
AcDbSymbolTable
 70
     0
  0
ENDTAB
  0
TABLE
  2
UCS
  5
7
330
0
100
AcDbSymbolTable
 70
     0
  0
ENDTAB
  0
TABLE
  2
APPID
  5
9
330
0
100
AcDbSymbolTable
 70
     1
  0
APPID
  5
12
330
9
100
AcDbSymbolTableRecord
100
AcDbRegAppTableRecord
  2
ACAD
 70
     0
  0
ENDTAB
  0
TABLE
  2
DIMSTYLE
  5
A
330
0
100
AcDbSymbolTable
 70
     1
100
AcDbDimStyleTable
  0
DIMSTYLE
105
27
330
A
100
AcDbSymbolTableRecord
100
AcDbDimStyleTableRecord
  2
ISO-25
 70
     0
 41
2.5
 42
0.625
 43
3.75
 44
1.25
 73
     0
 74
     0
 77
     1
 78
     8
140
2.5
141
2.5
143
0.0393700787
147
0.625
171
     3
172
     1
178
     0
271
     2
272
     2
274
     3
278
    44
283
     0
284
     8
340
11
  0
ENDTAB
  0
TABLE
  2
BLOCK_RECORD
  5
1
330
0
100
AcDbSymbolTable
 70
     1
  0
BLOCK_RECORD
  5
1F
330
1
100
AcDbSymbolTableRecord
100
AcDbBlockTableRecord
  2
*Model_Space
340
22
  0
BLOCK_RECORD
  5
1B
330
1
100
AcDbSymbolTableRecord
100
AcDbBlockTableRecord
  2
*Paper_Space
340
1E
  0
BLOCK_RECORD
  5
23
330
1
100
AcDbSymbolTableRecord
100
AcDbBlockTableRecord
  2
*Paper_Space0
340
26
  0
ENDTAB
  0
ENDSEC
  0
SECTION
  2
BLOCKS
  0
BLOCK
  5
20
330
1F
100
AcDbEntity
  8
0
100
AcDbBlockBegin
  2
*Model_Space
 70
     0
 10
0.0
 20
0.0
 30
0.0
  3
*Model_Space
  1

  0
ENDBLK
  5
21
330
1F
100
AcDbEntity
  8
0
100
AcDbBlockEnd
  0
BLOCK
  5
1C
330
1B
100
AcDbEntity
 67
     1
  8
0
100
AcDbBlockBegin
  2
*Paper_Space
 70
     0
 10
0.0
 20
0.0
 30
0.0
  3
*Paper_Space
  1

  0
ENDBLK
  5
1D
330
1B
100
AcDbEntity
 67
     1
  8
0
100
AcDbBlockEnd
  0
BLOCK
  5
24
330
23
100
AcDbEntity
  8
0
100
AcDbBlockBegin
  2
*Paper_Space0
 70
     0
 10
0.0
 20
0.0
 30
0.0
  3
*Paper_Space0
  1

  0
ENDBLK
  5
25
330
23
100
AcDbEntity
  8
0
100
AcDbBlockEnd
  0
ENDSEC
  0
SECTION
  2
ENTITIES
  0
LINE
  5
7F
330
1F
100
AcDbEntity
  8
0
  6
Continuous
 62
     7
370
    25
100
AcDbLine
 10
6293.6643969266
 20
5282.0320648369
 30
0.0
 11
6293.6642982064
 21
5282.0278329072
 31
0.0
  0
LINE
  5
80
330
1F
100
AcDbEntity
  8
0
  6
Continuous
 62
     7
370
    25
100
AcDbLine
 10
6293.6642721294
 20
5169.0622658697
 30
0.0
 11
6293.6642721294
 21
5247.0300046024
 31
0.0
  0
LINE
  5
81
330
1F
100
AcDbEntity
  8
0
  6
Continuous
 62
     7
370
    25
100
AcDbLine
 10
6293.6642721294
 20
5127.0303686378
 30
0.0
 11
6293.6642721294
 21
5154.0074150306
 31
0.0
  0
LINE
  5
82
330
1F
100
AcDbEntity
  8
0
  6
Continuous
 62
     7
370
    25
100
AcDbLine
 10
6240.6642727552
 20
5246.9377813158
 30
0.0
 11
6240.6642727552
 21
5127.0303686378
 31
0.0
  0
SPLINE
  5
83
330
1F
100
AcDbEntity
  8
0
  6
Continuous
 62
     7
370
    25
100
AcDbSpline
210
0.0
220
0.0
230
1.0
 70
     8
 71
     3
 72
    10
 73
     6
 74
     0
 42
0.000000001
 43
0.00000001
 40
0.0
 40
0.0
 40
0.0
 40
0.0
 40
0.2632964961880748
 40
0.887449727743853
 40
1.0
 40
1.0
 40
1.0
 40
1.0
 10
6274.68186751925
 20
5264.289237302268
 30
0.0
 10
6274.767894489763
 20
5264.423353056615
 30
0.0
 10
6275.057851297644
 20
5264.875394733603
 30
0.0
 10
6275.309612165622
 20
5265.433109542385
 30
0.0
 10
6275.434426474911
 20
5265.861126733979
 30
0.0
 10
6275.453495047843
 20
5265.926517289603
 30
0.0
  0
SPLINE
  5
84
330
1F
100
AcDbEntity
  8
0
  6
Continuous
 62
     7
370
    25
100
AcDbSpline
210
0.0
220
0.0
230
1.0
 70
     8
 71
     3
 72
    10
 73
     6
 74
     0
 42
0.000000001
 43
0.00000001
 40
0.0
 40
0.0
 40
0.0
 40
0.0
 40
0.212431832974862
 40
0.7447596979393434
 40
1.0
 40
1.0
 40
1.0
 40
1.0
 10
6258.873562514638
 20
5265.932768326724
 30
0.0
 10
6258.912994572921
 20
5265.810592537114
 30
0.0
 10
6259.051238485828
 20
5265.382259349516
 30
0.0
 10
6259.302928318396
 20
5264.828460079305
 30
0.0
 10
6259.555203145966
 20
5264.424735611634
 30
0.0
 10
6259.636962041115
 20
5264.293893915141
 30
0.0
  0
SPLINE
  5
85
330
1F
100
AcDbEntity
  8
0
  6
Continuous
 62
     7
370
    25
100
AcDbSpline
210
0.0
220
0.0
230
1.0
 70
     8
 71
     3
 72
    10
 73
     6
 74
     0
 42
0.000000001
 43
0.00000001
 40
0.0
 40
0.0
 40
0.0
 40
0.0
 40
0.180809982021002
 40
0.6685164509850873
 40
0.9999999999999999
 40
0.9999999999999999
 40
0.9999999999999999
 40
0.9999999999999999
 10
6276.126020948725
 20
5265.912547450984
 30
0.0
 10
6276.175676447656
 20
5266.053763475228
 30
0.0
 10
6276.359269839712
 20
5266.575887498997
 30
0.0
 10
6276.515662602842
 20
5267.395592230215
 30
0.0
 10
6276.5484889645
 20
5268.072900937367
 30
0.0
 10
6276.561772083953
 20
5268.346972506964
 30
0.0
  0
SPLINE
  5
86
330
1F
100
AcDbEntity
  8
0
  6
Continuous
 62
     7
370
    25
100
AcDbSpline
210
0.0
220
0.0
230
1.0
 70
     8
 71
     3
 72
    10
 73
     6
 74
     0
 42
0.000000001
 43
0.00000001
 40
0.0
 40
0.0
 40
0.0
 40
0.0
 40
0.3202305520060302
 40
0.8368330533797005
 40
0.9999999999999999
 40
0.9999999999999999
 40
0.9999999999999999
 40
0.9999999999999999
 10
6257.769025117015
 20
5268.331698816741
 30
0.0
 10
6257.78123335876
 20
5268.068861280562
 30
0.0
 10
6257.813136186743
 20
5267.382008834519
 30
0.0
 10
6257.966889637034
 20
5266.566666626144
 30
0.0
 10
6258.157421625431
 20
5266.041412236573
 30
0.0
 10
6258.203155547237
 20
5265.915333968127
 30
0.0
  0
LINE
  5
87
330
1F
100
AcDbEntity
  8
0
  6
Continuous
 62
     7
370
    25
100
AcDbLine
 10
6276.1642722295
 20
5266.0159540591
 30
0.0
 11
6276.1642722295
 21
5266.0176006374
 31
0.0
  0
LINE
  5
88
330
1F
100
AcDbEntity
  8
0
  6
Continuous
 62
     7
370
    25
100
AcDbLine
 10
6258.1642728297
 20
5266.0176006374
 30
0.0
 11
6258.1642728297
 21
5266.0159540591
 31
0.0
  0
LINE
  5
89
330
1F
100
AcDbEntity
  8
0
  6
Continuous
 62
     7
370
    25
100
AcDbLine
 10
6259.5843534915
 20
5264.3577677426
 30
0.0
 11
6260.0575938819
 21
5263.2295710263
 31
0.0
  0
LINE
  5
8A
330
1F
100
AcDbEntity
  8
0
  6
Continuous
 62
     7
370
    25
100
AcDbLine
 10
6274.2709500714
 20
5263.2295710263
 30
0.0
 11
6274.744190811
 21
5264.3577677426
 31
0.0
  0
LINE
  5
8B
330
1F
100
AcDbEntity
  8
0
  6
Continuous
 62
     7
370
    25
100
AcDbLine
 10
6261.7050960659
 20
5263.8722804603
 30
0.0
 11
6261.7565115912
 21
5263.3322549281
 31
0.0
  0
LINE
  5
8C
330
1F
100
AcDbEntity
  8
0
  6
Continuous
 62
     7
370
    25
100
AcDbLine
 10
6272.5720332934
 20
5263.3322549281
 30
0.0
 11
6272.623517271
 21
5263.8730031666
 31
0.0
  0
LINE
  5
8D
330
1F
100
AcDbEntity
  8
0
  6
Continuous
 62
     7
370
    25
100
AcDbLine
 10
6267.1642724423
 20
5262.3366412935
 30
0.0
 11
6267.4490680917
 21
5262.3410445866
 31
0.0
  0
LINE
  5
8E
330
1F
100
AcDbEntity
  8
0
  6
Continuous
 62
     7
370
    25
100
AcDbLine
 10
6263.271091692
 20
5263.8364804206
 30
0.0
 11
6263.3525069802
 21
5263.3235302982
 31
0.0
  0
LINE
  5
8F
330
1F
100
AcDbEntity
  8
0
  6
Continuous
 62
     7
370
    25
100
AcDbLine
 10
6270.9760374388
 20
5263.3235302982
 30
0.0
 11
6271.0757825522
 21
5263.9519569692
 31
0.0
  0
SPLINE
  5
90
330
1F
100
AcDbEntity
  8
0
  6
Continuous
 62
     7
370
    25
100
AcDbSpline
210
0.0
220
0.0
230
1.0
 70
     8
 71
     3
 72
    10
 73
     6
 74
     0
 42
0.000000001
 43
0.00000001
 40
0.0
 40
0.0
 40
0.0
 40
0.0
 40
0.1034415676186581
 40
0.7506072834663177
 40
1.0
 40
1.0
 40
1.0
 40
1.0
 10
6268.983254395282
 20
5263.056821864569
 30
0.0
 10
6269.006493190056
 20
5263.061895361498
 30
0.0
 10
6269.175121808299
 20
5263.098710385038
 30
0.0
 10
6269.333930579652
 20
5263.16298761244
 30
0.0
 10
6269.377312538559
 20
5263.225549604927
 30
0.0
 10
6269.389379955684
 20
5263.242952269042
 30
0.0
  0
SPLINE
  5
91
330
1F
100
AcDbEntity
  8
0
  6
Continuous
 62
     7
370
    25
100
AcDbSpline
210
0.0
220
0.0
230
1.0
 70
     8
 71
     3
 72
    10
 73
     6
 74
     0
 42
0.000000001
 43
0.00000001
 40
0.0
 40
0.0
 40
0.0
 40
0.0
 40
0.079552040043985
 40
0.553814478962799
 40
1.0
 40
1.0
 40
1.0
 40
1.0
 10
6268.189813196515
 20
5262.925915163481
 30
0.0
 10
6268.21581197339
 20
5262.927542590957
 30
0.0
 10
6268.396806691573
 20
5262.938872192302
 30
0.0
 10
6268.677498288584
 20
5262.983265484037
 30
0.0
 10
6268.883429570503
 20
5263.032806799498
 30
0.0
 10
6268.983254395282
 20
5263.056821864569
 30
0.0
  0
LINE
  5
92
330
1F
100
AcDbEntity
  8
0
  6
Continuous
 62
     7
370
    25
100
AcDbLine
 10
6269.4724567233
 20
5263.3411583719
 30
0.0
 11
6269.5189837365
 21
5263.8298345027
 31
0.0
  0
LINE
  5
93
330
1F
100
AcDbEntity
  8
0
  6
Continuous
 62
     7
370
    25
100
AcDbLine
 10
6264.8095611481
 20
5263.8298345027
 30
0.0
 11
6264.8560881613
 21
5263.3411583719
 31
0.0
  0
LINE
  5
94
330
1F
100
AcDbEntity
  8
0
  6
Continuous
 62
     7
370
    25
100
AcDbLine
 10
6261.626770906
 20
5263.8740685997
 30
0.0
 11
6261.760134436
 21
5263.8710213122
 31
0.0
  0
LINE
  5
95
330
1F
100
AcDbEntity
  8
0
  6
Continuous
 62
     7
370
    25
100
AcDbLine
 10
6272.5678898393
 20
5263.8717291174
 30
0.0
 11
6272.6993096991
 21
5263.8747391519
 31
0.0
  0
LINE
  5
96
330
1F
100
AcDbEntity
  8
0
  6
Continuous
 62
     7
370
    25
100
AcDbLine
 10
6262.7977078779
 20
5263.8472986636
 30
0.0
 11
6263.3153798057
 21
5263.8354671416
 31
0.0
  0
SPLINE
  5
97
330
1F
100
AcDbEntity
  8
0
  6
Continuous
 62
     7
370
    25
100
AcDbSpline
210
0.0
220
0.0
230
1.0
 70
     8
 71
     3
 72
     9
 73
     5
 74
     0
 42
0.000000001
 43
0.00000001
 40
0.0
 40
0.0
 40
0.0
 40
0.0
 40
0.4875114013111767
 40
1.0
 40
1.0
 40
1.0
 40
1.0
 10
6267.149724252378
 20
5263.685635965789
 30
0.0
 10
6267.176997346592
 20
5263.685524047098
 30
0.0
 10
6267.232940846869
 20
5263.685294475667
 30
0.0
 10
6267.286193110594
 20
5263.688515288788
 30
0.0
 10
6267.313484288608
 20
5263.690165918792
 30
0.0
  0
LINE
  5
98
330
1F
100
AcDbEntity
  8
0
  6
Continuous
 62
     7
370
    25
100
AcDbLine
 10
6266.9846594332
 20
5263.4274584469
 30
0.0
 11
6267.1805370598
 21
5263.6858147797
 31
0.0
  0
LINE
  5
99
330
1F
100
AcDbEntity
  8
0
  6
Continuous
 62
     7
370
    25
100
AcDbLine
 10
6271.0293021052
 20
5263.6591118989
 30
0.0
 11
6272.112869378
 21
5263.634346169
 31
0.0
  0
LINE
  5
9A
330
1F
100
AcDbEntity
  8
0
  6
Continuous
 62
     7
370
    25
100
AcDbLine
 10
6260.8993399887
 20
5263.6049759802
 30
0.0
 11
6261.7287404834
 21
5263.6239377079
 31
0.0
  0
LINE
  5
9B
330
1F
100
AcDbEntity
  8
0
  6
Continuous
 62
     7
370
    25
100
AcDbLine
 10
6272.5997350177
 20
5263.6232150015
 30
0.0
 11
6273.4305895398
 21
5263.604216021
 31
0.0
  0
LINE
  5
9C
330
1F
100
AcDbEntity
  8
0
  6
Continuous
 62
     7
370
    25
100
AcDbLine
 10
6263.8497270642
 20
5263.5086995778
 30
0.0
 11
6264.8334002121
 21
5263.5794502911
 31
0.0
  0
LINE
  5
9D
330
1F
100
AcDbEntity
  8
0
  6
Continuous
 62
     7
370
    25
100
AcDbLine
 10
6269.4816176778
 20
5263.4373751697
 30
0.0
 11
6270.0004719196
 21
5263.3682412324
 31
0.0
  0
LINE
  5
9E
330
1F
100
AcDbEntity
  8
0
  6
Continuous
 62
     7
370
    25
100
AcDbLine
 10
6262.3714750631
 20
5263.4023723421
 30
0.0
 11
6263.3290609343
 21
5263.4712455091
 31
0.0
  0
LINE
  5
9F
330
1F
100
AcDbEntity
  8
0
  6
Continuous
 62
     7
370
    25
100
AcDbLine
 10
6272.5745539179
 20
5263.3587342915
 30
0.0
 11
6273.3445204327
 21
5263.3033541259
 31
0.0
  0
LINE
  5
A0
330
1F
100
AcDbEntity
  8
0
  6
Continuous
 62
     7
370
    25
100
AcDbLine
 10
6260.9856326132
 20
5263.3026910243
 30
0.0
 11
6261.7540640755
 21
5263.3579594311
 31
0.0
  0
LINE
  5
A1
330
1F
100
AcDbEntity
  8
0
  6
Continuous
 62
     7
370
    25
100
AcDbLine
 10
6270.9353991783
 20
5263.2436675248
 30
0.0
 11
6271.2698799557
 21
5263.1990981516
 31
0.0
  0
ARC
  5
A2
330
1F
100
AcDbEntity
  8
0
  6
Continuous
 62
     7
370
    25
100
AcDbCircle
 10
6307.7998591939
 20
5155.93036948
 30
0.0
 40
0.8000000000001819
100
AcDbArc
 50
270.0
 51
0.0
  0
LINE
  5
A3
330
1F
100
AcDbEntity
  8
0
  6
Continuous
 62
     7
370
    25
100
AcDbLine
 10
6294.4698698817
 20
5155.1303693322
 30
0.0
 11
6307.7998600899
 21
5155.1303693322
 31
0.0
  0
LINE
  5
A4
330
1F
100
AcDbEntity
  8
0
  6
Continuous
 62
     7
370
    25
100
AcDbLine
 10
6300.7998589425
 20
5167.9303699401
 30
0.0
 11
6294.4698698817
 21
5167.9303699401
 31
0.0
  0
ARC
  5
A5
330
1F
100
AcDbEntity
  8
0
  6
Continuous
 62
     7
370
    25
100
AcDbCircle
 10
6300.7998591939
 20
5168.73036948
 30
0.0
 40
0.8000000000001819
100
AcDbArc
 50
270.0
 51
0.0
  0
ARC
  5
A6
330
1F
100
AcDbEntity
  8
0
  6
Continuous
 62
     7
370
    25
100
AcDbCircle
 10
6296.2042702607
 20
5161.53036948
 30
0.0
 40
13.6249999999903
100
AcDbArc
 50
342.1153463596
 51
17.885981785
  0
ARC
  5
A7
330
1F
100
AcDbEntity
  8
0
  6
Continuous
 62
     7
370
    25
100
AcDbCircle
 10
6308.5998591939
 20
5157.53036948
 30
0.0
 40
0.5999999999996064
100
AcDbArc
 50
270.0
 51
342.7558769498
  0
ARC
  5
A8
330
1F
100
AcDbEntity
  8
0
  6
Continuous
 62
     7
370
    25
100
AcDbCircle
 10
6308.5998591939
 20
5165.53036948
 30
0.0
 40
0.5999999999996641
100
AcDbArc
 50
17.9081310249
 51
90.0
  0
ARC
  5
A9
330
1F
100
AcDbEntity
  8
0
  6
Continuous
 62
     7
370
    25
100
AcDbCircle
 10
6293.2503591939
 20
5155.66249448
 30
0.0
 40
1.3305500000007
100
AcDbArc
 50
283.2327951644
 51
336.4262849445
  0
ARC
  5
AA
330
1F
100
AcDbEntity
  8
0
  6
Continuous
 62
     7
370
    25
100
AcDbCircle
 10
6293.2503591939
 20
5167.39824448
 30
0.0
 40
1.3305500000007
100
AcDbArc
 50
23.5737150555
 51
76.7972730628
  0
ARC
  5
AB
330
1F
100
AcDbEntity
  8
0
  6
Continuous
 62
     7
370
    25
100
AcDbCircle
 10
6289.4142722555
 20
5127.03036948
 30
0.0
 40
1.25
100
AcDbArc
 50
270.0
 51
0.0
  0
ARC
  5
AC
330
1F
100
AcDbEntity
  8
0
  6
Continuous
 62
     7
370
    25
100
AcDbCircle
 10
6244.9142722555
 20
5127.03036948
 30
0.0
 40
1.25
100
AcDbArc
 50
180.0
 51
270.0
  0
LINE
  5
AD
330
1F
100
AcDbEntity
  8
0
  6
Continuous
 62
     7
370
    25
100
AcDbLine
 10
6244.9142739175
 20
5125.7803698299
 30
0.0
 11
6289.4142718984
 21
5125.7803698299
 31
0.0
  0
SPLINE
  5
AE
330
1F
100
AcDbEntity
  8
0
  6
Continuous
 62
     7
370
    25
100
AcDbSpline
210
0.0
220
0.0
230
1.0
 70
    11
 71
     3
 72
    46
 73
    42
 74
     0
 42
0.000000001
 43
0.00000001
 40
0.0
 40
0.0
 40
0.0
 40
0.0
 40
0.0250263793499322
 40
0.0500587362163454
 40
0.0750195038755797
 40
0.099989452912052
 40
0.126289755385234
 40
0.152590957942198
 40
0.1805393890573358
 40
0.2084704941407998
 40
0.234867323727928
 40
0.261256909867658
 40
0.2850949056403336
 40
0.3089421970111395
 40
0.3333351067201244
 40
0.3577359213222727
 40
0.3846897122121039
 40
0.4116392940162554
 40
0.4394884406557035
 40
0.4673227818434728
 40
0.4931123457659734
 40
0.5188999192150623
 40
0.5430668829976362
 40
0.5672415125738006
 40
0.5921636139365483
 40
0.6170929953576495
 40
0.6441546426883212
 40
0.6712114483848772
 40
0.699052373919042
 40
0.7268742486094864
 40
0.7522324558312418
 40
0.7775915859210853
 40
0.8012244721644304
 40
0.8248674520655627
 40
0.8500621372656687
 40
0.8752619412273412
 40
0.9028800833366322
 40
0.9304885299614876
 40
0.9578569626102407
 40
0.9852131129797874
 40
1.0
 40
1.0
 40
1.0
 40
1.0
 10
6267.164272442316
 20
5166.030369442427
 30
0.0
 10
6267.749130417817
 20
5166.058063282296
 30
0.0
 10
6268.918986061347
 20
5166.113457576667
 30
0.0
 10
6270.61988513619
 20
5166.541451008069
 30
0.0
 10
6272.217422517524
 20
5167.210101410679
 30
0.0
 10
6273.705461406696
 20
5168.128015275118
 30
0.0
 10
6275.042058681246
 20
5169.285462560425
 30
0.0
 10
6276.219574213901
 20
5170.692490422402
 30
0.0
 10
6277.164878683415
 20
5172.321403605502
 30
0.0
 10
6277.826683422202
 20
5174.108005530973
 30
0.0
 10
6278.161863564844
 20
5175.965285803024
 30
0.0
 10
6278.188181418796
 20
5177.764745788287
 30
0.0
 10
6277.929718984838
 20
5179.477645841341
 30
0.0
 10
6277.439180343426
 20
5181.076663231649
 30
0.0
 10
6276.710020111735
 20
5182.578797940531
 30
0.0
 10
6275.732180825396
 20
5184.003969045583
 30
0.0
 10
6274.500234596401
 20
5185.293410161536
 30
0.0
 10
6273.00668539769
 20
5186.414988942469
 30
0.0
 10
6271.308471455571
 20
5187.277880662549
 30
0.0
 10
6269.49561240651
 20
5187.836423074907
 30
0.0
 10
6267.649165735436
 20
5188.066797709949
 30
0.0
 10
6265.8725841551
 20
5188.002221325859
 30
0.0
 10
6264.175392013814
 20
5187.659319548889
 30
0.0
 10
6262.579337706071
 20
5187.078124544093
 30
0.0
 10
6261.091278252405
 20
5186.253358068803
 30
0.0
 10
6259.70318888765
 20
5185.178899218243
 30
0.0
 10
6258.477717550086
 20
5183.860212262535
 30
0.0
 10
6257.444977979811
 20
5182.297823298702
 30
0.0
 10
6256.684893335424
 20
5180.547262316465
 30
0.0
 10
6256.238714094041
 20
5178.710802333225
 30
0.0
 10
6256.119935837742
 20
5176.872148678955
 30
0.0
 10
6256.282301539243
 20
5175.136460739289
 30
0.0
 10
6256.704737329725
 20
5173.500241323762
 30
0.0
 10
6257.353397928195
 20
5171.960517562318
 30
0.0
 10
6258.24360271255
 20
5170.520210662804
 30
0.0
 10
6259.397711614313
 20
5169.1702771577
 30
0.0
 10
6260.804033323622
 20
5167.991808202396
 30
0.0
 10
6262.442085447998
 20
5167.033022467836
 30
0.0
 10
6264.234773238364
 20
5166.37600164751
 30
0.0
 10
6265.834823451713
 20
5166.067743884016
 30
0.0
 10
6266.818963499315
 20
5166.040077019786
 30
0.0
 10
6267.164272442316
 20
5166.030369442427
 30
0.0
  0
SPLINE
  5
AF
330
1F
100
AcDbEntity
  8
0
  6
Continuous
 62
     7
370
    25
100
AcDbSpline
210
0.0
220
0.0
230
1.0
 70
     8
 71
     3
 72
    13
 73
     9
 74
     0
 42
0.000000001
 43
0.00000001
 40
0.0
 40
0.0
 40
0.0
 40
0.0
 40
0.1687246241723059
 40
0.3352381293983871
 40
0.5025075348184639
 40
0.6692784710674496
 40
0.8352476393766569
 40
1.0
 40
1.0
 40
1.0
 40
1.0
 10
6240.664272755241
 20
5247.930370014632
 30
0.0
 10
6240.664270934799
 20
5248.926380889259
 30
0.0
 10
6240.664267317771
 20
5250.905350017854
 30
0.0
 10
6240.664272169014
 20
5253.82372901572
 30
0.0
 10
6240.664280577862
 20
5256.666109869096
 30
0.0
 10
6240.664264468209
 20
5259.41897827196
 30
0.0
 10
6240.664275744135
 20
5262.061389857214
 30
0.0
 10
6240.664271262515
 20
5263.710470558703
 30
0.0
 10
6240.66426902995
 20
5264.531977218116
 30
0.0
  0
SPLINE
  5
B0
330
1F
100
AcDbEntity
  8
0
  6
Continuous
 62
     7
370
    25
100
AcDbSpline
210
0.0
220
0.0
230
1.0
 70
     8
 71
     3
 72
     9
 73
     5
 74
     0
 42
0.000000001
 43
0.00000001
 40
0.0
 40
0.0
 40
0.0
 40
0.0
 40
0.7986534762076578
 40
1.0
 40
1.0
 40
1.0
 40
1.0
 10
6240.664272755241
 20
5269.643850367987
 30
0.0
 10
6240.664269279975
 20
5270.148144604896
 30
0.0
 10
6240.66426492857
 20
5270.779575196426
 30
0.0
 10
6240.664265241627
 20
5271.303195552096
 30
0.0
 10
6240.66426530466
 20
5271.408624690497
 30
0.0
  0
SPLINE
  5
B1
330
1F
100
AcDbEntity
  8
0
  6
Continuous
 62
     7
370
    25
100
AcDbSpline
210
0.0
220
0.0
230
1.0
 70
     8
 71
     3
 72
    14
 73
    10
 74
     0
 42
0.000000001
 43
0.00000001
 40
0.0
 40
0.0
 40
0.0
 40
0.0
 40
0.0852592009141942
 40
0.2515810617618771
 40
0.4167838611169187
 40
0.5836806781842548
 40
0.7482635003295502
 40
0.9132396503505363
 40
1.0
 40
1.0
 40
1.0
 40
1.0
 10
6240.66426902995
 20
5274.928666394675
 30
0.0
 10
6240.664270684028
 20
5275.33430969022
 30
0.0
 10
6240.664275564848
 20
5276.531273418423
 30
0.0
 10
6240.664265808166
 20
5278.088045108062
 30
0.0
 10
6240.664295793796
 20
5279.61829562311
 30
0.0
 10
6240.664299624745
 20
5280.722656898829
 30
0.0
 10
6240.664254648452
 20
5281.464385699674
 30
0.0
 10
6240.664270726708
 20
5281.851560156386
 30
0.0
 10
6240.664269464847
 20
5281.927010430238
 30
0.0
 10
6240.66426902995
 20
5281.95301417681
 30
0.0
  0
SPLINE
  5
B2
330
1F
100
AcDbEntity
  8
0
  6
Continuous
 62
     7
370
    18
100
AcDbSpline
210
0.0
220
0.0
230
1.0
 70
     8
 71
     3
 72
    22
 73
    18
 74
     0
 42
0.000000001
 43
0.00000001
 40
0.0
 40
0.0
 40
0.0
 40
0.0
 40
0.0881270816310207
 40
0.1793354781156664
 40
0.2477429084000075
 40
0.3161433023458771
 40
0.3845367989545156
 40
0.4529273380163221
 40
0.5213173612683346
 40
0.5897041938862685
 40
0.6580863334286963
 40
0.7264618071783955
 40
0.7948371724703742
 40
0.8632105842136567
 40
0.9088119202823219
 40
0.9544087280361953
 40
1.0
 40
1.0
 40
1.0
 40
1.0
 10
6241.424313932514
 20
5280.488557857001
 30
0.0
 10
6241.383217419253
 20
5280.509594681816
 30
0.0
 10
6241.299587475789
 20
5280.552403872436
 30
0.0
 10
6241.137199555718
 20
5280.239936558701
 30
0.0
 10
6241.004113745266
 20
5279.560521614816
 30
0.0
 10
6240.899088144462
 20
5278.585245197018
 30
0.0
 10
6240.820245455965
 20
5277.189654940712
 30
0.0
 10
6240.759504044364
 20
5275.363393224533
 30
0.0
 10
6240.720413673136
 20
5273.114421000127
 30
0.0
 10
6240.694554999477
 20
5270.468630933244
 30
0.0
 10
6240.678673306418
 20
5267.440318106479
 30
0.0
 10
6240.670067608904
 20
5264.046287090649
 30
0.0
 10
6240.666099250892
 20
5260.331498666194
 30
0.0
 10
6240.664791201542
 20
5256.802691594946
 30
0.0
 10
6240.664236108862
 20
5253.597398149
 30
0.0
 10
6240.664226036266
 20
5250.786417072924
 30
0.0
 10
6240.664257182879
 20
5248.88234717036
 30
0.0
 10
6240.664272755241
 20
5247.930370014632
 30
0.0
  0
SPLINE
  5
B3
330
1F
100
AcDbEntity
  8
0
  6
Continuous
 62
     7
370
    18
100
AcDbSpline
210
0.0
220
0.0
230
1.0
 70
     8
 71
     3
 72
    64
 73
    60
 74
     0
 42
0.000000001
 43
0.00000001
 40
0.0
 40
0.0
 40
0.0
 40
0.0
 40
0.0054712572576625
 40
0.0138271156149242
 40
0.0232937968602012
 40
0.0348960509911072
 40
0.0486422485055184
 40
0.0645396582172034
 40
0.0825923553306341
 40
0.1028014824008278
 40
0.1251638101227272
 40
0.1543738206932472
 40
0.1814969104886509
 40
0.2065273209525524
 40
0.2294575835031648
 40
0.2502817761006358
 40
0.2669375835802438
 40
0.2878100944437702
 40
0.3128962647822929
 40
0.338742086073743
 40
0.3595416275257006
 40
0.3752951250483868
 40
0.394558732132596
 40
0.4166854694231257
 40
0.441668716303898
 40
0.4695093499289474
 40
0.5002124968056014
 40
0.5229015172586345
 40
0.5448368707086412
 40
0.5660216668944298
 40
0.5864603973447663
 40
0.6061545861416441
 40
0.6251019151339959
 40
0.6439741068568138
 40
0.6681227882643461
 40
0.6974865741172699
 40
0.7108968879943764
 40
0.7228513539372544
 40
0.7333507063473856
 40
0.7423955181289641
 40
0.7499856754899328
 40
0.7578833200030425
 40
0.7709145555804955
 40
0.7890799920893664
 40
0.8123812279995778
 40
0.830620697730729
 40
0.8471215228488349
 40
0.8618842797037879
 40
0.874907638812467
 40
0.883446710124611
 40
0.8927343212486305
 40
0.9027690577886346
 40
0.913548975557479
 40
0.9250709858115564
 40
0.9373307317539856
 40
0.9614266996124405
 40
0.979881555731627
 40
0.9927284627321148
 40
1.0
 40
1.0
 40
1.0
 40
1.0
 10
6240.664272755241
 20
5282.030783337081
 30
0.0
 10
6240.665069094045
 20
5282.030775307206
 30
0.0
 10
6240.667081623926
 20
5282.030755013879
 30
0.0
 10
6240.687896136641
 20
5282.030659360256
 30
0.0
 10
6240.736044762663
 20
5282.030540077988
 30
0.0
 10
6240.825483759753
 20
5282.030367705125
 30
0.0
 10
6240.976456136477
 20
5282.030184353036
 30
0.0
 10
6241.21143239853
 20
5282.02992275237
 30
0.0
 10
6241.555715080111
 20
5282.029621320059
 30
0.0
 10
6242.037635006719
 20
5282.029302594115
 30
0.0
 10
6242.733611258026
 20
5282.028881870215
 30
0.0
 10
6243.662109830685
 20
5282.028530895172
 30
0.0
 10
6244.801687659544
 20
5282.028390828701
 30
0.0
 10
6245.996446005118
 20
5282.028563003104
 30
0.0
 10
6247.204548567025
 20
5282.028931084124
 30
0.0
 10
6248.351478436589
 20
5282.029744727217
 30
0.0
 10
6249.526433872467
 20
5282.030224955875
 30
0.0
 10
6250.856337246039
 20
5282.029957854314
 30
0.0
 10
6252.47208286233
 20
5282.029221611189
 30
0.0
 10
6254.174502942822
 20
5282.028424085166
 30
0.0
 10
6255.7162436086
 20
5282.028060922796
 30
0.0
 10
6257.132785011426
 20
5282.028275005787
 30
0.0
 10
6258.616198358
 20
5282.028882826623
 30
0.0
 10
6260.378167040486
 20
5282.029212074463
 30
0.0
 10
6262.408355592882
 20
5282.029519020025
 30
0.0
 10
6264.706288666875
 20
5282.029717006994
 30
0.0
 10
6266.961153315217
 20
5282.029819549916
 30
0.0
 10
6269.051306474143
 20
5282.029787473043
 30
0.0
 10
6270.868328246006
 20
5282.029661934609
 30
0.0
 10
6272.606415369073
 20
5282.029400823514
 30
0.0
 10
6274.259901213864
 20
5282.028978131543
 30
0.0
 10
6275.82495814773
 20
5282.028527705879
 30
0.0
 10
6277.316809599502
 20
5282.027726771456
 30
0.0
 10
6278.885372589643
 20
5282.027466225818
 30
0.0
 10
6280.659092579755
 20
5282.028089365774
 30
0.0
 10
6282.221575944955
 20
5282.029196440682
 30
0.0
 10
6283.439174624301
 20
5282.029931226936
 30
0.0
 10
6284.212393667433
 20
5282.030327746438
 30
0.0
 10
6284.871379686931
 20
5282.030564976726
 30
0.0
 10
6285.4234848704
 20
5282.030691827633
 30
0.0
 10
6285.910342684826
 20
5282.030560078682
 30
0.0
 10
6286.462713590427
 20
5282.030506521313
 30
0.0
 10
6287.194154570845
 20
5282.030614857785
 30
0.0
 10
6288.158400292426
 20
5282.030804856741
 30
0.0
 10
6289.130315156262
 20
5282.031097695995
 30
0.0
 10
6289.987711956385
 20
5282.031265753409
 30
0.0
 10
6290.654074502157
 20
5282.031046102205
 30
0.0
 10
6291.195852689748
 20
5282.030537683068
 30
0.0
 10
6291.599572840938
 20
5282.029625551991
 30
0.0
 10
6291.915544437121
 20
5282.028807315102
 30
0.0
 10
6292.180720512023
 20
5282.028400889039
 30
0.0
 10
6292.443484371339
 20
5282.028178002253
 30
0.0
 10
6292.698095488076
 20
5282.0281846688
 30
0.0
 10
6292.938363977462
 20
5282.028330557776
 30
0.0
 10
6293.223667570944
 20
5282.028892064824
 30
0.0
 10
6293.466801203289
 20
5282.029581664648
 30
0.0
 10
6293.609915083349
 20
5282.03021088995
 30
0.0
 10
6293.658882826017
 20
5282.030656500878
 30
0.0
 10
6293.662841368284
 20
5282.030749664397
 30
0.0
 10
6293.664272129392
 20
5282.030783337081
 30
0.0
  0
LINE
  5
B4
330
1F
100
AcDbEntity
  8
0
  6
Continuous
 62
     7
370
    25
100
AcDbLine
 10
6240.6642727552
 20
5282.0307833371
 30
0.0
 11
6240.6642727552
 21
5284.3025249657
 31
0.0
  0
SPLINE
  5
B5
330
1F
100
AcDbEntity
  8
0
  6
Continuous
 62
     7
370
    18
100
AcDbSpline
210
0.0
220
0.0
230
1.0
 70
    24
 71
     3
 72
    31
 73
    27
 74
     0
 42
0.000000001
 43
0.00000001
 40
0.0
 40
0.0
 40
0.0
 40
0.0
 40
0.0414404855269672
 40
0.0831026044333864
 40
0.1248557122071995
 40
0.1665928620498895
 40
0.2083009260877052
 40
0.2499929929513715
 40
0.291673900318817
 40
0.3333630675291228
 40
0.3750537009422096
 40
0.4167151300170587
 40
0.4583338056071266
 40
0.4999374663627907
 40
0.5415447480044625
 40
0.5831737449163275
 40
0.6248523175365872
 40
0.6665715428709926
 40
0.7083094776846054
 40
0.7500675496427345
 40
0.791846545758125
 40
0.8336177837996509
 40
0.8753596549782464
 40
0.9170561623642848
 40
0.9586356096459901
 40
1.0
 40
1.0
 40
1.0
 40
1.0
 10
6293.664272129392
 20
5284.302524965728
 30
0.0
 10
6293.619703491332
 20
5284.302524965728
 30
0.0
 10
6293.530327851746
 20
5284.302524965728
 30
0.0
 10
6292.826282237635
 20
5284.302524965728
 30
0.0
 10
6291.722365971825
 20
5284.302524965728
 30
0.0
 10
6290.183625731332
 20
5284.302524965728
 30
0.0
 10
6288.249094911338
 20
5284.302524965728
 30
0.0
 10
6285.956617022267
 20
5284.302524965728
 30
0.0
 10
6283.342405042966
 20
5284.302524965728
 30
0.0
 10
6280.447665685786
 20
5284.302524965728
 30
0.0
 10
6277.32896095556
 20
5284.302524965728
 30
0.0
 10
6274.039623251242
 20
5284.302524965728
 30
0.0
 10
6270.63322475779
 20
5284.302524965728
 30
0.0
 10
6267.169368393225
 20
5284.302524965728
 30
0.0
 10
6263.705160678186
 20
5284.302524965728
 30
0.0
 10
6260.297639910546
 20
5284.302524965728
 30
0.0
 10
6257.00623922102
 20
5284.302524965728
 30
0.0
 10
6253.884647632117
 20
5284.302524965728
 30
0.0
 10
6250.986361646789
 20
5284.302524965728
 30
0.0
 10
6248.368915438894
 20
5284.302524965728
 30
0.0
 10
6246.073709616679
 20
5284.302524965728
 30
0.0
 10
6244.137618686906
 20
5284.302524965728
 30
0.0
 10
6242.599179965647
 20
5284.302524965728
 30
0.0
 10
6241.497683065647
 20
5284.302524965728
 30
0.0
 10
6240.797077794736
 20
5284.302524965728
 30
0.0
 10
6240.708464516184
 20
5284.302524965728
 30
0.0
 10
6240.664272755241
 20
5284.302524965728
 30
0.0
  0
LINE
  5
B6
330
1F
100
AcDbEntity
  8
0
  6
Continuous
 62
     7
370
    25
100
AcDbLine
 10
6293.6642721294
 20
5284.3025249657
 30
0.0
 11
6293.6642721294
 21
5282.0307833371
 31
0.0
  0
SPLINE
  5
B7
330
1F
100
AcDbEntity
  8
0
  6
Continuous
 62
     7
370
    18
100
AcDbSpline
210
0.0
220
0.0
230
1.0
 70
     8
 71
     3
 72
    31
 73
    27
 74
     0
 42
0.000000001
 43
0.00000001
 40
0.0
 40
0.0
 40
0.0
 40
0.0
 40
0.0418539821894707
 40
0.0837667389359531
 40
0.1251894626716358
 40
0.1670903998208192
 40
0.2088503133539531
 40
0.2502640110261362
 40
0.2922418831232211
 40
0.3338570109380272
 40
0.3752833484825203
 40
0.4169910330949814
 40
0.4587017933757414
 40
0.5002121957960658
 40
0.5418170854335451
 40
0.5834779918337603
 40
0.6250989853297817
 40
0.6664716311725404
 40
0.7081734324833946
 40
0.7499818467058446
 40
0.7912480321996814
 40
0.8330147487756667
 40
0.8749008419568691
 40
0.9163656124617087
 40
0.9581796899863034
 40
1.0
 40
1.0
 40
1.0
 40
1.0
 10
6241.483944654321
 20
5280.416212719405
 30
0.0
 10
6241.527315142214
 20
5280.415786085588
 30
0.0
 10
6241.614117022152
 20
5280.414932218842
 30
0.0
 10
6242.30628627389
 20
5280.410702802702
 30
0.0
 10
6243.390636741717
 20
5280.408231348017
 30
0.0
 10
6244.885039470591
 20
5280.409201271073
 30
0.0
 10
6246.757784163951
 20
5280.412343155576
 30
0.0
 10
6248.981345355352
 20
5280.415673614276
 30
0.0
 10
6251.517226377629
 20
5280.415756546954
 30
0.0
 10
6254.323228939466
 20
5280.413682893776
 30
0.0
 10
6257.339998573455
 20
5280.413484127761
 30
0.0
 10
6260.526517347463
 20
5280.414103724129
 30
0.0
 10
6263.828888853105
 20
5280.414324988885
 30
0.0
 10
6267.185453261181
 20
5280.41585039748
 30
0.0
 10
6270.540247645607
 20
5280.41337458158
 30
0.0
 10
6273.840381430667
 20
5280.413437977038
 30
0.0
 10
6277.020801206192
 20
5280.413430704014
 30
0.0
 10
6280.033171705595
 20
5280.411527188367
 30
0.0
 10
6282.834069347588
 20
5280.41432657884
 30
0.0
 10
6285.364811915363
 20
5280.416653683227
 30
0.0
 10
6287.582803512185
 20
5280.415067817175
 30
0.0
 10
6289.457562049122
 20
5280.416785327704
 30
0.0
 10
6290.950187771951
 20
5280.41481165674
 30
0.0
 10
6292.027308033676
 20
5280.413144685641
 30
0.0
 10
6292.715878925758
 20
5280.415774703393
 30
0.0
 10
6292.801690997203
 20
5280.416066706814
 30
0.0
 10
6292.844600230312
 20
5280.416212719405
 30
0.0
  0
ARC
  5
B8
330
1F
100
AcDbEntity
  8
0
  6
Continuous
 62
     7
370
    18
100
AcDbCircle
 10
6242.6642722555
 20
5282.0307839044
 30
0.0
 40
2.0
100
AcDbArc
 50
180.0
 51
233.8313674074
  0
ARC
  5
B9
330
1F
100
AcDbEntity
  8
0
  6
Continuous
 62
     7
370
    18
100
AcDbCircle
 10
6291.6642722555
 20
5282.0307839044
 30
0.0
 40
2.0
100
AcDbArc
 50
306.1686423476
 51
0.0
  0
ARC
  5
BA
330
1F
100
AcDbEntity
  8
0
  6
Continuous
 62
     7
370
    25
100
AcDbCircle
 10
6242.6642722555
 20
5284.3025199591
 30
0.0
 40
2.0
100
AcDbArc
 50
98.0681505
 51
180.0
  0
SPLINE
  5
BB
330
1F
100
AcDbEntity
  8
0
  6
Continuous
 62
     7
370
    18
100
AcDbSpline
210
0.0
220
0.0
230
1.0
 70
     8
 71
     3
 72
    31
 73
    27
 74
     0
 42
0.000000001
 43
0.00000001
 40
0.0
 40
0.0
 40
0.0
 40
0.0
 40
0.041769046511225
 40
0.0836501445260145
 40
0.1253666199267089
 40
0.1669940009474563
 40
0.2086431860771402
 40
0.2500234378815986
 40
0.2915255587949022
 40
0.3332931646695797
 40
0.374949351130011
 40
0.4165582967147957
 40
0.4582108511550677
 40
0.4999641030844064
 40
0.541719201140758
 40
0.5835273556341722
 40
0.6251748438302651
 40
0.6667502457657746
 40
0.7084183388482383
 40
0.749960306835277
 40
0.7914906227583242
 40
0.8331764546531153
 40
0.8747791245933472
 40
0.9164272448342444
 40
0.9582450444732518
 40
1.0
 40
1.0
 40
1.0
 40
1.0
 10
6291.944974288201
 20
5286.282725375617
 30
0.0
 10
6291.902402228606
 20
5286.282936379637
 30
0.0
 10
6291.817143903712
 20
5286.283358953726
 30
0.0
 10
6291.142731864988
 20
5286.285113610477
 30
0.0
 10
6290.093975126301
 20
5286.285939025594
 30
0.0
 10
6288.65611058093
 20
5286.285272934054
 30
0.0
 10
6286.862756858144
 20
5286.283629214675
 30
0.0
 10
6284.73233787416
 20
5286.282482981599
 30
0.0
 10
6282.293200161291
 20
5286.283061088638
 30
0.0
 10
6279.591560772696
 20
5286.283510280322
 30
0.0
 10
6276.677008061549
 20
5286.283362833317
 30
0.0
 10
6273.603108679503
 20
5286.282878310488
 30
0.0
 10
6270.415712858759
 20
5286.282816749294
 30
0.0
 10
6267.168736130873
 20
5286.282832644658
 30
0.0
 10
6263.9177268209
 20
5286.283367483974
 30
0.0
 10
6260.726776471055
 20
5286.284521052288
 30
0.0
 10
6257.650705288241
 20
5286.284996446219
 30
0.0
 10
6254.737485601052
 20
5286.284361633871
 30
0.0
 10
6252.035932070513
 20
5286.283204475827
 30
0.0
 10
6249.595041577728
 20
5286.282664781127
 30
0.0
 10
6247.461013981895
 20
5286.283742063728
 30
0.0
 10
6245.664330383916
 20
5286.284986903296
 30
0.0
 10
6244.227262262344
 20
5286.285445520396
 30
0.0
 10
6243.181332023149
 20
5286.284691342864
 30
0.0
 10
6242.510340366728
 20
5286.283217724238
 30
0.0
 10
6242.425804755384
 20
5286.28288940953
 30
0.0
 10
6242.383568733787
 20
5286.282725375617
 30
0.0
  0
ARC
  5
BC
330
1F
100
AcDbEntity
  8
0
  6
Continuous
 62
     7
370
    25
100
AcDbCircle
 10
6291.6642722555
 20
5284.3025199591
 30
0.0
 40
2.0
100
AcDbArc
 50
0.0000000001
 51
81.9318495
  0
ARC
  5
BD
330
1F
100
AcDbEntity
  8
0
  6
Continuous
 62
     7
370
    25
100
AcDbCircle
 10
6267.1642722555
 20
5315.5442583688
 30
0.0
 40
43.51388888888947
100
AcDbArc
 50
300.8292417768
 51
306.1686408138
  0
SPLINE
  5
BE
330
1F
100
AcDbEntity
  8
0
  6
Continuous
 62
     7
370
    18
100
AcDbSpline
210
0.0
220
0.0
230
1.0
 70
     8
 71
     3
 72
    31
 73
    27
 74
     0
 42
0.000000001
 43
0.00000001
 40
0.0
 40
0.0
 40
0.0
 40
0.0
 40
0.0418529135702234
 40
0.0836337924350121
 40
0.1251071129166555
 40
0.1669092891510437
 40
0.2086709992453791
 40
0.2500371903830641
 40
0.2916086448852535
 40
0.3332613120631354
 40
0.3748720645750416
 40
0.4165996687958123
 40
0.4582869754505938
 40
0.4997018657614862
 40
0.5411137995067793
 40
0.5827862886542804
 40
0.6244969543090751
 40
0.6661121815970138
 40
0.7077916992167912
 40
0.749430944085583
 40
0.7907625090615319
 40
0.8325161274055984
 40
0.8744328560614664
 40
0.9161130973770594
 40
0.9581393356201596
 40
1.0
 40
1.0
 40
1.0
 40
1.0
 10
6244.864224642371
 20
5278.178952377761
 30
0.0
 10
6244.926534515404
 20
5278.16274826733
 30
0.0
 10
6245.051047017481
 20
5278.130367936003
 30
0.0
 10
6245.711953503795
 20
5278.072078827719
 30
0.0
 10
6246.705024129001
 20
5278.008283496006
 30
0.0
 10
6248.047158831357
 20
5277.939548893436
 30
0.0
 10
6249.702733078562
 20
5277.869234129733
 30
0.0
 10
6251.638373629331
 20
5277.801420970765
 30
0.0
 10
6253.827471366469
 20
5277.732426486432
 30
0.0
 10
6256.23483696006
 20
5277.667670550725
 30
0.0
 10
6258.814376528429
 20
5277.615168980534
 30
0.0
 10
6261.522019391392
 20
5277.579562112272
 30
0.0
 10
6264.312365870869
 20
5277.560957413731
 30
0.0
 10
6267.140672381425
 20
5277.556122310555
 30
0.0
 10
6269.969007732973
 20
5277.560822168188
 30
0.0
 10
6272.759802586023
 20
5277.579558374954
 30
0.0
 10
6275.468814229255
 20
5277.615052464554
 30
0.0
 10
6278.051255515197
 20
5277.667308704556
 30
0.0
 10
6280.463286692538
 20
5277.731410621849
 30
0.0
 10
6282.657586661766
 20
5277.800768489159
 30
0.0
 10
6284.595242623617
 20
5277.866343412209
 30
0.0
 10
6286.248684133391
 20
5277.931042682952
 30
0.0
 10
6287.594101387164
 20
5277.996962634685
 30
0.0
 10
6288.598792660186
 20
5278.063540650937
 30
0.0
 10
6289.273044128524
 20
5278.12787614405
 30
0.0
 10
6289.400646111094
 20
5278.16194938416
 30
0.0
 10
6289.464321173584
 20
5278.178952377761
 30
0.0
  0
ARC
  5
BF
330
1F
100
AcDbEntity
  8
0
  6
Continuous
 62
     7
370
    25
100
AcDbCircle
 10
6267.1642722555
 20
5315.5442583688
 30
0.0
 40
43.51388888889031
100
AcDbArc
 50
233.8313576524
 51
239.1707582232
  0
ARC
  5
C0
330
1F
100
AcDbEntity
  8
0
  6
Continuous
 62
     7
370
    25
100
AcDbCircle
 10
6267.1642722555
 20
5111.4678694799
 30
0.0
 40
176.5625000000246
100
AcDbArc
 50
81.9318494999
 51
98.0681505001
  0
SPLINE
  5
C1
330
1F
100
AcDbEntity
  8
0
  6
Continuous
 62
     7
370
    25
100
AcDbSpline
210
0.0
220
0.0
230
1.0
 70
     8
 71
     3
 72
    26
 73
    22
 74
     0
 42
0.000000001
 43
0.00000001
 40
0.0
 40
0.0
 40
0.0
 40
0.0
 40
0.0540216605370453
 40
0.1080454961003657
 40
0.1620679282894943
 40
0.216092482314282
 40
0.2701327603060904
 40
0.3241704191809571
 40
0.3780111680281867
 40
0.4318528170910546
 40
0.4854413421444314
 40
0.5390216502441593
 40
0.5921911662573299
 40
0.6453517703240743
 40
0.6989754934093664
 40
0.7525984251646715
 40
0.8064439885353777
 40
0.8602887726885033
 40
0.9143185511571543
 40
0.9683442370664619
 40
1.0
 40
1.0
 40
1.0
 40
1.0
 10
6252.058708295082
 20
5267.140432935679
 30
0.0
 10
6252.104407130798
 20
5267.288714108976
 30
0.0
 10
6252.195806642159
 20
5267.585282425684
 30
0.0
 10
6252.869120701953
 20
5268.017442829565
 30
0.0
 10
6253.927281516852
 20
5268.423961530658
 30
0.0
 10
6255.364743339057
 20
5268.794548918434
 30
0.0
 10
6257.14356957562
 20
5269.117150137476
 30
0.0
 10
6259.203153558128
 20
5269.384015163771
 30
0.0
 10
6261.4941144563
 20
5269.584891831135
 30
0.0
 10
6263.937959480408
 20
5269.716805471437
 30
0.0
 10
6266.471547156905
 20
5269.774279196839
 30
0.0
 10
6269.014437678895
 20
5269.757764225357
 30
0.0
 10
6271.496408976807
 20
5269.666264287478
 30
0.0
 10
6273.860436063123
 20
5269.505814588774
 30
0.0
 10
6276.036830405052
 20
5269.276562185952
 30
0.0
 10
6277.976545403055
 20
5268.9874536565
 30
0.0
 10
6279.6054052074
 20
5268.644603505828
 30
0.0
 10
6280.893353756046
 20
5268.259037732863
 30
0.0
 10
6281.778810607364
 20
5267.840602387054
 30
0.0
 10
6282.209640660331
 20
5267.462302391214
 30
0.0
 10
6282.253595979832
 20
5267.227268331081
 30
0.0
 10
6282.269835658228
 20
5267.140432935679
 30
0.0
  0
ARC
  5
C2
330
1F
100
AcDbEntity
  8
0
  6
Continuous
 62
     7
370
    25
100
AcDbCircle
 10
6237.1814152135
 20
5265.3077878308
 30
0.0
 40
14.98974441129526
100
AcDbArc
 50
7.0225475803
 51
59.1669856518
  0
ARC
  5
C3
330
1F
100
AcDbEntity
  8
0
  6
Continuous
 62
     7
370
    25
100
AcDbCircle
 10
6297.1471305227
 20
5265.3077853723
 30
0.0
 40
14.98974648139098
100
AcDbArc
 50
120.8330092702
 51
172.9774439264
  0
LWPOLYLINE
  5
C4
330
1F
100
AcDbEntity
  8
0
  6
Continuous
 62
     7
370
    25
100
AcDbPolyline
 90
       20
 70
   128
 43
0.0
 10
6267.1642724423
 20
5269.131444138
 10
6265.6477402894
 20
5269.1148889479
 10
6264.1551245003
 20
5269.0654319939
 10
6262.7099651842
 20
5268.983907741
 10
6261.335052736
 20
5268.8715529856
 10
6260.0520711391
 20
5268.7301707682
 10
6258.8812515138
 20
5268.5619813618
 10
6257.8410629182
 20
5268.369622272
 10
6256.94790408
 20
5268.1561631379
 10
6256.2158640473
 20
5267.9249269185
 10
6255.6564874946
 20
5267.6795942006
 10
6255.2785959093
 20
5267.4240243849
 10
6255.088149756
 20
5267.1622407851
 10
6255.088149756
 20
5266.8983784732
 10
6255.2785959093
 20
5266.6365948734
 10
6255.6564874946
 20
5266.3810176072
 10
6256.2158640473
 20
5266.1356848893
 10
6256.94790408
 20
5265.9044561205
 10
6257.8410629182
 20
5265.6909895358
 10
6258.5719630121
 20
5265.55091117
  0
LWPOLYLINE
  5
C5
330
1F
100
AcDbEntity
  8
0
  6
Continuous
 62
     7
370
    25
100
AcDbPolyline
 90
       20
 70
   128
 43
0.0
 10
6275.7565818144
 20
5265.55091117
 10
6276.4874824903
 20
5265.6909895358
 10
6277.3806401643
 20
5265.9044561205
 10
6278.1126795568
 20
5266.1356848893
 10
6278.6720559931
 20
5266.3810176072
 10
6279.049948044
 20
5266.6365948734
 10
6279.2403955942
 20
5266.8983784732
 10
6279.2403955942
 20
5267.1622407851
 10
6279.049948044
 20
5267.4240243849
 10
6278.6720559931
 20
5267.6795942006
 10
6278.1126795568
 20
5267.9249269185
 10
6277.3806401643
 20
5268.1561631379
 10
6276.4874824903
 20
5268.369622272
 10
6275.4472922067
 20
5268.5619813618
 10
6274.2764737456
 20
5268.7301707682
 10
6272.993491683
 20
5268.8715529856
 10
6271.6185792348
 20
5268.983907741
 10
6270.1734199187
 20
5269.0654319939
 10
6268.6808045952
 20
5269.1148889479
 10
6267.1642724423
 20
5269.131444138
  0
SPLINE
  5
C6
330
1F
100
AcDbEntity
  8
0
  6
Continuous
 62
     7
370
    25
100
AcDbSpline
210
0.0
220
0.0
230
1.0
 70
     8
 71
     3
 72
    13
 73
     9
 74
     0
 42
0.000000001
 43
0.00000001
 40
0.0
 40
0.0
 40
0.0
 40
0.0
 40
0.174474267304167
 40
0.3489372928748044
 40
0.5237578248478898
 40
0.6985397731712393
 40
0.8661365095350271
 40
1.0
 40
1.0
 40
1.0
 40
1.0
 10
6282.269835658228
 20
5267.140432935679
 30
0.0
 10
6282.226822130584
 20
5266.976374731422
 30
0.0
 10
6282.140797846744
 20
5266.648268893511
 30
0.0
 10
6281.425799650307
 20
5266.168776122044
 30
0.0
 10
6280.279044173481
 20
5265.716183533374
 30
0.0
 10
6278.703700441331
 20
5265.312409858224
 30
0.0
 10
6276.922845134577
 20
5264.983957583788
 30
0.0
 10
6275.564375660691
 20
5264.826206947776
 30
0.0
 10
6274.96114694499
 20
5264.756157737696
 30
0.0
  0
SPLINE
  5
C7
330
1F
100
AcDbEntity
  8
0
  6
Continuous
 62
     7
370
    25
100
AcDbSpline
210
0.0
220
0.0
230
1.0
 70
     8
 71
     3
 72
    14
 73
    10
 74
     0
 42
0.000000001
 43
0.00000001
 40
0.0
 40
0.0
 40
0.0
 40
0.0
 40
0.0862841437916183
 40
0.2374100022422667
 40
0.3943136631161522
 40
0.551247438445245
 40
0.7165843376779081
 40
0.8819550725726435
 40
1.0
 40
1.0
 40
1.0
 40
1.0
 10
6259.365980699515
 20
5264.758422714198
 30
0.0
 10
6258.968931494541
 20
5264.801208049597
 30
0.0
 10
6257.876454377646
 20
5264.918931493637
 30
0.0
 10
6256.322815602934
 20
5265.176978443757
 30
0.0
 10
6254.755711347
 20
5265.519707370137
 30
0.0
 10
6253.489409309852
 20
5265.914922365457
 30
0.0
 10
6252.596818067096
 20
5266.347475311761
 30
0.0
 10
6252.123026479308
 20
5266.763249025491
 30
0.0
 10
6252.077620326756
 20
5267.02952629019
 30
0.0
 10
6252.058708295082
 20
5267.140432935679
 30
0.0
  0
SPLINE
  5
C8
330
1F
100
AcDbEntity
  8
0
  6
Continuous
 62
     7
370
    18
100
AcDbSpline
210
0.0
220
0.0
230
1.0
 70
     8
 71
     3
 72
    51
 73
    47
 74
     0
 42
0.000000001
 43
0.00000001
 40
0.0
 40
0.0
 40
0.0
 40
0.0
 40
0.0080224699706974
 40
0.0402856851029657
 40
0.0735394840469117
 40
0.1077804674891596
 40
0.1182382465686979
 40
0.1290628334849561
 40
0.1402528841436111
 40
0.1518068155729327
 40
0.1637230793403825
 40
0.1759992868329791
 40
0.1886329969386135
 40
0.1997444302252069
 40
0.2169433217538687
 40
0.2255193401581701
 40
0.2350593157721061
 40
0.2455589762871726
 40
0.2570124475510966
 40
0.2694130369877718
 40
0.3195248614933677
 40
0.3732807000171959
 40
0.4305886109042005
 40
0.4594944269713135
 40
0.4875634503025014
 40
0.5147912981601043
 40
0.5411722666324815
 40
0.5667008034820673
 40
0.5913717896651786
 40
0.6148420016740467
 40
0.6459620552532342
 40
0.6838350757254104
 40
0.7176638534609434
 40
0.7436997145850494
 40
0.7690039056349707
 40
0.7886256159409575
 40
0.809174876122016
 40
0.8306165844698649
 40
0.8510259725940358
 40
0.871177232888052
 40
0.8910969145891964
 40
0.9107785716180639
 40
0.9428242855993337
 40
0.968486494029607
 40
0.9880673439000113
 40
1.0
 40
1.0
 40
1.0
 40
1.0
 10
6293.664288893198
 20
5250.785745423758
 30
0.0
 10
6293.664290049067
 20
5250.927969877072
 30
0.0
 10
6293.664295853385
 20
5251.642165076438
 30
0.0
 10
6293.664318310444
 20
5252.931786702577
 30
0.0
 10
6293.664282918548
 20
5254.662744559549
 30
0.0
 10
6293.664140225957
 20
5255.992196405686
 30
0.0
 10
6293.66393681744
 20
5256.926531922033
 30
0.0
 10
6293.663786049803
 20
5257.46934847573
 30
0.0
 10
6293.663595549076
 20
5258.02644471484
 30
0.0
 10
6293.663353444393
 20
5258.597170107089
 30
0.0
 10
6293.663055247478
 20
5259.180821924557
 30
0.0
 10
6293.662686062937
 20
5259.776620753812
 30
0.0
 10
6293.662264936409
 20
5260.353695755681
 30
0.0
 10
6293.66169728752
 20
5261.003108769856
 30
0.0
 10
6293.661107872778
 20
5261.58109517124
 30
0.0
 10
6293.660467744025
 20
5262.127988685827
 30
0.0
 10
6293.659910752293
 20
5262.567380989234
 30
0.0
 10
6293.659239212829
 20
5263.046278921156
 30
0.0
 10
6293.658444331801
 20
5263.562904418638
 30
0.0
 10
6293.656582828304
 20
5264.661448551554
 30
0.0
 10
6293.65274358528
 20
5266.327868877391
 30
0.0
 10
6293.644512582926
 20
5268.482928388934
 30
0.0
 10
6293.634137350456
 20
5270.20577800885
 30
0.0
 10
6293.623194916414
 20
5271.514231601855
 30
0.0
 10
6293.613722792215
 20
5272.429941325022
 30
0.0
 10
6293.603042693449
 20
5273.271954162365
 30
0.0
 10
6293.59115725676
 20
5274.043792283986
 30
0.0
 10
6293.577942696553
 20
5274.748643037658
 30
0.0
 10
6293.563773953404
 20
5275.387761911547
 30
0.0
 10
6293.545605085282
 20
5276.031253168971
 30
0.0
 10
6293.520679778265
 20
5276.724376720201
 30
0.0
 10
6293.488462869548
 20
5277.414823149234
 30
0.0
 10
6293.454382501088
 20
5277.99383890376
 30
0.0
 10
6293.422340342053
 20
5278.443793522028
 30
0.0
 10
6293.394381029136
 20
5278.781082808344
 30
0.0
 10
6293.367562591446
 20
5279.062593247105
 30
0.0
 10
6293.341449136431
 20
5279.302925864227
 30
0.0
 10
6293.314114234004
 20
5279.52109153903
 30
0.0
 10
6293.285958830207
 20
5279.713337192557
 30
0.0
 10
6293.257423251263
 20
5279.878263447398
 30
0.0
 10
6293.228253429576
 20
5280.020011563176
 30
0.0
 10
6293.192093487327
 20
5280.165652098246
 30
0.0
 10
6293.15166591841
 20
5280.290856470728
 30
0.0
 10
6293.110608690029
 20
5280.381755028731
 30
0.0
 10
6293.080120095062
 20
5280.434449956768
 30
0.0
 10
6293.064260290792
 20
5280.452998636326
 30
0.0
 10
6293.058254942154
 20
5280.460022133315
 30
0.0
  0
SPLINE
  5
C9
330
1F
100
AcDbEntity
  8
0
  6
Continuous
 62
     7
370
    25
100
AcDbSpline
210
0.0
220
0.0
230
1.0
 70
    24
 71
     3
 72
    23
 73
    19
 74
     0
 42
0.000000001
 43
0.00000001
 40
0.0
 40
0.0
 40
0.0
 40
0.0
 40
0.0218857255169526
 40
0.068972094294964
 40
0.1150457440794247
 40
0.1607697565982217
 40
0.232247380410236
 40
0.3007136489813643
 40
0.3705438151178951
 40
0.4395432729790826
 40
0.5092976193595954
 40
0.579340676638108
 40
0.6494265813941743
 40
0.719482678728846
 40
0.7895903321824522
 40
0.8597506789000812
 40
0.9301162747580073
 40
1.0
 40
1.0
 40
1.0
 40
1.0
 10
6293.664272129392
 20
5282.050825398886
 30
0.0
 10
6293.664272129392
 20
5282.048991257009
 30
0.0
 10
6293.664272129392
 20
5282.043211023385
 30
0.0
 10
6293.664272129392
 20
5281.954393627971
 30
0.0
 10
6293.664272129392
 20
5281.752465788233
 30
0.0
 10
6293.664272129392
 20
5281.363430964641
 30
0.0
 10
6293.664272129392
 20
5280.677115338151
 30
0.0
 10
6293.664272129392
 20
5279.530788979961
 30
0.0
 10
6293.664272129392
 20
5277.996261663052
 30
0.0
 10
6293.664272129392
 20
5276.037518684681
 30
0.0
 10
6293.664272129392
 20
5273.67983333215
 30
0.0
 10
6293.664272129392
 20
5270.928972977684
 30
0.0
 10
6293.664272129392
 20
5267.806233894722
 30
0.0
 10
6293.664272129392
 20
5264.330858220056
 30
0.0
 10
6293.664272129392
 20
5260.540817238128
 30
0.0
 10
6293.664272129392
 20
5256.496678856513
 30
0.0
 10
6293.664272129392
 20
5252.27234592552
 30
0.0
 10
6293.664272129392
 20
5249.374416138539
 30
0.0
 10
6293.664272129392
 20
5247.930429619277
 30
0.0
  0
SPLINE
  5
CA
330
1F
100
AcDbEntity
  8
0
  6
Continuous
 62
     7
370
    25
100
AcDbSpline
210
0.0
220
0.0
230
1.0
 70
     8
 71
     3
 72
    11
 73
     7
 74
     0
 42
0.000000001
 43
0.00000001
 40
0.0
 40
0.0
 40
0.0
 40
0.0
 40
0.1823911433247128
 40
0.488714120727717
 40
0.8264568767821655
 40
1.0
 40
1.0
 40
1.0
 40
1.0
 10
6240.66463783369
 20
5255.540527146781
 30
0.0
 10
6240.664550831199
 20
5255.1313103779
 30
0.0
 10
6240.664317709429
 20
5254.03482065946
 30
0.0
 10
6240.664197740887
 20
5252.133744829799
 30
0.0
 10
6240.664244471507
 20
5250.230950018105
 30
0.0
 10
6240.664257244051
 20
5249.029352728906
 30
0.0
 10
6240.66426157937
 20
5248.621500771964
 30
0.0
  0
LINE
  5
CB
330
1F
100
AcDbEntity
  8
0
  6
Continuous
 62
     7
370
    25
100
AcDbLine
 10
6240.6642727552
 20
5247.9303700146
 30
0.0
 11
6240.6642727552
 21
5248.6206141529
 31
0.0
  0
SPLINE
  5
CC
330
1F
100
AcDbEntity
  8
0
  6
Continuous
 62
     7
370
    25
100
AcDbSpline
210
0.0
220
0.0
230
1.0
 70
    24
 71
     3
 72
    20
 73
    16
 74
     0
 42
0.000000001
 43
0.00000001
 40
0.0
 40
0.0
 40
0.0
 40
0.0
 40
0.0192048731533325
 40
0.1050856174212881
 40
0.1908989213453617
 40
0.2767080449209588
 40
0.3624038522280023
 40
0.4467314188032625
 40
0.5322168833546481
 40
0.6175146439734202
 40
0.7026257142164672
 40
0.7855089978015665
 40
0.8720155655296258
 40
0.9573192013758258
 40
1.0
 40
1.0
 40
1.0
 40
1.0
 10
6240.664272755241
 20
5255.548082035506
 30
0.0
 10
6240.664272755241
 20
5255.861301800747
 30
0.0
 10
6240.664272755241
 20
5257.575184113647
 30
0.0
 10
6240.664272755241
 20
5260.555330618065
 30
0.0
 10
6240.664272755241
 20
5264.355336846513
 30
0.0
 10
6240.664272755241
 20
5267.830640260414
 30
0.0
 10
6240.664272755241
 20
5270.938137828944
 30
0.0
 10
6240.664272755241
 20
5273.677255675656
 30
0.0
 10
6240.664272755241
 20
5276.034085788495
 30
0.0
 10
6240.664272755241
 20
5277.996716587638
 30
0.0
 10
6240.664272755241
 20
5279.531288994924
 30
0.0
 10
6240.664272755241
 20
5280.671032990811
 30
0.0
 10
6240.664272755241
 20
5281.436585153378
 30
0.0
 10
6240.664272755241
 20
5281.839238892124
 30
0.0
 10
6240.664272755241
 20
5281.917543043149
 30
0.0
 10
6240.664272755241
 20
5281.94365624758
 30
0.0
  0
LINE
  5
CD
330
1F
100
AcDbEntity
  8
0
  6
Continuous
 62
     7
370
    25
100
AcDbLine
 10
6240.6642727552
 20
5282.0316476044
 30
0.0
 11
6240.6642727552
 21
5282.0307833371
 31
0.0
  0
SPLINE
  5
CE
330
1F
100
AcDbEntity
  8
0
  6
Continuous
 62
     7
370
    18
100
AcDbSpline
210
0.0
220
0.0
230
1.0
 70
    24
 71
     3
 72
    19
 73
    15
 74
     0
 42
0.000000001
 43
0.00000001
 40
0.0
 40
0.0
 40
0.0
 40
0.0
 40
0.0833333364295526
 40
0.1666666731955046
 40
0.2499999953998881
 40
0.3333333326104516
 40
0.4166666683131882
 40
0.5000000140049525
 40
0.5833333366558335
 40
0.666666664506809
 40
0.7500000059260641
 40
0.8333333345838487
 40
0.9166666667623513
 40
1.0
 40
1.0
 40
1.0
 40
1.0
 10
6293.664272129392
 20
5247.030377131427
 30
0.0
 10
6293.620418980024
 20
5247.030377131427
 30
0.0
 10
6293.53271268111
 20
5247.030377131427
 30
0.0
 10
6292.828551277062
 20
5247.030377131427
 30
0.0
 10
6291.71787028742
 20
5247.030377131427
 30
0.0
 10
6290.178393358306
 20
5247.030377131427
 30
0.0
 10
6288.247519619868
 20
5247.030377131427
 30
0.0
 10
6285.955322453652
 20
5247.030377131427
 30
0.0
 10
6283.341807504948
 20
5247.030377131427
 30
0.0
 10
6280.451477059974
 20
5247.030377131427
 30
0.0
 10
6277.333837735183
 20
5247.030377131427
 30
0.0
 10
6274.042209054803
 20
5247.030377131427
 30
0.0
 10
6270.632912506041
 20
5247.030377131427
 30
0.0
 10
6268.32048580179
 20
5247.030377131427
 30
0.0
 10
6267.164272442316
 20
5247.030377131427
 30
0.0
  0
LINE
  5
CF
330
1F
100
AcDbEntity
  8
0
  6
Continuous
 62
     7
370
    25
100
AcDbLine
 10
6293.6642721294
 20
5247.0303771314
 30
0.0
 11
6293.6642721294
 21
5247.9304296193
 31
0.0
  0
LINE
  5
D0
330
1F
100
AcDbEntity
  8
0
  6
Continuous
 62
     7
370
    18
100
AcDbLine
 10
6267.1642724423
 20
5247.0303696808
 30
0.0
 11
6240.6642727552
 21
5247.0303696808
 31
0.0
  0
LINE
  5
D1
330
1F
100
AcDbEntity
  8
0
  6
Continuous
 62
     7
370
    25
100
AcDbLine
 10
6240.6642727552
 20
5247.9303700146
 30
0.0
 11
6240.6642727552
 21
5247.0303696808
 31
0.0
  0
SPLINE
  5
D2
330
1F
100
AcDbEntity
  8
0
  6
Continuous
 62
     7
370
    25
100
AcDbSpline
210
0.0
220
0.0
230
1.0
 70
     8
 71
     3
 72
    26
 73
    22
 74
     0
 42
0.000000001
 43
0.00000001
 40
0.0
 40
0.0
 40
0.0
 40
0.0
 40
0.0509097024630264
 40
0.1018374914611512
 40
0.1526059697489731
 40
0.2033842971182948
 40
0.2566524643822413
 40
0.309925090175023
 40
0.3644900283689148
 40
0.4190330829566549
 40
0.4730198414601335
 40
0.5269829165015918
 40
0.574927813052296
 40
0.6228988953736142
 40
0.6729410657243892
 40
0.7229872255885089
 40
0.7777376785111298
 40
0.8324836179710298
 40
0.8867798085386304
 40
0.9410549020954838
 40
1.0
 40
1.0
 40
1.0
 40
1.0
 10
6267.164273373639
 20
5188.079181801999
 30
0.0
 10
6267.759927302602
 20
5188.050371244642
 30
0.0
 10
6268.951446776686
 20
5187.992739894488
 30
0.0
 10
6270.682787160146
 20
5187.546726060801
 30
0.0
 10
6272.309354387013
 20
5186.856151937193
 30
0.0
 10
6273.822093164263
 20
5185.910023315194
 30
0.0
 10
6275.172399177168
 20
5184.712703263815
 30
0.0
 10
6276.333878496132
 20
5183.274852885139
 30
0.0
 10
6277.247552353565
 20
5181.64057071615
 30
0.0
 10
6277.892069169533
 20
5179.857908279362
 30
0.0
 10
6278.221179727063
 20
5177.98241650831
 30
0.0
 10
6278.226831636221
 20
5176.148689987373
 30
0.0
 10
6277.933913279971
 20
5174.418577204045
 30
0.0
 10
6277.407651145347
 20
5172.804998692982
 30
0.0
 10
6276.638230664019
 20
5171.278749090488
 30
0.0
 10
6275.608025700683
 20
5169.829903763996
 30
0.0
 10
6274.313009910502
 20
5168.537397116593
 30
0.0
 10
6272.773100537608
 20
5167.450030774528
 30
0.0
 10
6271.061698787214
 20
5166.647302824689
 30
0.0
 10
6269.179952851823
 20
5166.093495857518
 30
0.0
 10
6267.854390491521
 20
5166.019883271882
 30
0.0
 10
6267.164271510994
 20
5165.981558826292
 30
0.0
  0
SPLINE
  5
D3
330
1F
100
AcDbEntity
  8
0
  6
Continuous
 62
     7
370
    25
100
AcDbSpline
210
0.0
220
0.0
230
1.0
 70
     8
 71
     3
 72
    26
 73
    22
 74
     0
 42
0.000000001
 43
0.00000001
 40
0.0
 40
0.0
 40
0.0
 40
0.0
 40
0.0509097157001852
 40
0.1018374919882652
 40
0.1526059908553213
 40
0.2033843015975023
 40
0.2566525057290629
 40
0.3099251356089324
 40
0.3644900658363677
 40
0.4190330720488055
 40
0.4730198271293619
 40
0.5269829021610409
 40
0.5749277970854305
 40
0.6228988768648541
 40
0.6729410385509194
 40
0.7229872585226698
 40
0.7777376770373764
 40
0.8324836305115325
 40
0.8867797868167226
 40
0.9410548787737256
 40
1.0
 40
1.0
 40
1.0
 40
1.0
 10
6267.164271510994
 20
5165.981558826292
 30
0.0
 10
6266.568617502564
 20
5166.010369630635
 30
0.0
 10
6265.377098173161
 20
5166.068001460164
 30
0.0
 10
6263.645756385691
 20
5166.514011445312
 30
0.0
 10
6262.019191117633
 20
5167.204589899805
 30
0.0
 10
6260.506449528062
 20
5168.150714621288
 30
0.0
 10
6259.156145452926
 20
5169.348037756492
 30
0.0
 10
6257.994664777302
 20
5170.785887306338
 30
0.0
 10
6257.08099255836
 20
5172.420169758071
 30
0.0
 10
6256.436474287643
 20
5174.2028308116
 30
0.0
 10
6256.107365168519
 20
5176.078322385186
 30
0.0
 10
6256.101713791891
 20
5177.912048723039
 30
0.0
 10
6256.39463152084
 20
5179.642161554837
 30
0.0
 10
6256.92089351107
 20
5181.255739993385
 30
0.0
 10
6257.690313600852
 20
5182.781990250539
 30
0.0
 10
6258.720518187154
 20
5184.230836593688
 30
0.0
 10
6260.015536424647
 20
5185.523340954805
 30
0.0
 10
6261.555442756327
 20
5186.610710501187
 30
0.0
 10
6263.266845664158
 20
5187.413436287394
 30
0.0
 10
6265.148592036205
 20
5187.967239707617
 30
0.0
 10
6266.474154301783
 20
5188.040855617774
 30
0.0
 10
6267.164273373639
 20
5188.079181801999
 30
0.0
  0
SPLINE
  5
D4
330
1F
100
AcDbEntity
  8
0
  6
Continuous
 62
     7
370
    25
100
AcDbSpline
210
0.0
220
0.0
230
1.0
 70
     8
 71
     3
 72
    27
 73
    23
 74
     0
 42
0.000000001
 43
0.00000001
 40
0.0
 40
0.0
 40
0.0
 40
0.0
 40
0.0050785778792998
 40
0.0612411261784507
 40
0.1134891675676949
 40
0.1671196612458533
 40
0.2217339460388885
 40
0.278012487859733
 40
0.3311460567457362
 40
0.3858519121621036
 40
0.4383035217331628
 40
0.4924807560158647
 40
0.5413706530412818
 40
0.591781105341917
 40
0.6394867261101012
 40
0.6883664756961357
 40
0.7401390646030884
 40
0.793370686957345
 40
0.8459953066138729
 40
0.9000234443946189
 40
0.9494030516428874
 40
1.0
 40
1.0
 40
1.0
 40
1.0
 10
6293.661521002507
 20
5154.007415030623
 30
0.0
 10
6293.662420682911
 20
5154.004370278302
 30
0.0
 10
6293.673269673016
 20
5153.967654476076
 30
0.0
 10
6293.631116714855
 20
5154.110634473568
 30
0.0
 10
6293.535677995492
 20
5154.435006610449
 30
0.0
 10
6293.385709672482
 20
5154.967227588038
 30
0.0
 10
6293.197947680509
 20
5155.693011793395
 30
0.0
 10
6292.995160910173
 20
5156.598762603439
 30
0.0
 10
6292.801783815371
 20
5157.657483009312
 30
0.0
 10
6292.641886760793
 20
5158.80923438332
 30
0.0
 10
6292.52964012651
 20
5160.054643976012
 30
0.0
 10
6292.482553354118
 20
5161.305564784694
 30
0.0
 10
6292.505458418846
 20
5162.546177390226
 30
0.0
 10
6292.585859642267
 20
5163.703708052439
 30
0.0
 10
6292.712611930372
 20
5164.800590537041
 30
0.0
 10
6292.873848105392
 20
5165.823012876548
 30
0.0
 10
6293.060477243168
 20
5166.769190364725
 30
0.0
 10
6293.253176809598
 20
5167.587267402912
 30
0.0
 10
6293.42872754709
 20
5168.248228813616
 30
0.0
 10
6293.561482624056
 20
5168.713261249252
 30
0.0
 10
6293.64795585139
 20
5169.006574742463
 30
0.0
 10
6293.658789399338
 20
5169.043552078664
 30
0.0
 10
6293.664272129392
 20
5169.062265869701
 30
0.0
  0
LINE
  5
D5
330
1F
100
AcDbEntity
  8
0
  6
Continuous
 62
     7
370
    25
100
AcDbLine
 10
6240.6642727552
 20
5127.0303686378
 30
0.0
 11
6293.6642721294
 21
5127.0303686378
 31
0.0
  0
SPLINE
  5
D6
330
1F
100
AcDbEntity
  8
0
  6
Continuous
 62
     7
370
    25
100
AcDbSpline
210
0.0
220
0.0
230
1.0
 70
     8
 71
     3
 72
    10
 73
     6
 74
     0
 42
0.000000001
 43
0.00000001
 40
0.0
 40
0.0
 40
0.0
 40
0.0
 40
0.3676554214823985
 40
0.7459713383958991
 40
0.9999999999999999
 40
0.9999999999999999
 40
0.9999999999999999
 40
0.9999999999999999
 10
6274.84751930446
 20
5266.568593424285
 30
0.0
 10
6275.001755160684
 20
5266.493189581476
 30
0.0
 10
6275.314699078751
 20
5266.340195494478
 30
0.0
 10
6275.502693363715
 20
5266.122832036037
 30
0.0
 10
6275.458896894034
 20
5265.985384281192
 30
0.0
 10
6275.441302754773
 20
5265.930168074095
 30
0.0
  0
SPLINE
  5
D7
330
1F
100
AcDbEntity
  8
0
  6
Continuous
 62
     7
370
    25
100
AcDbSpline
210
0.0
220
0.0
230
1.0
 70
     8
 71
     3
 72
    25
 73
    21
 74
     0
 42
0.000000001
 43
0.00000001
 40
0.0
 40
0.0
 40
0.0
 40
0.0
 40
0.0014936201682614
 40
0.0606973157929154
 40
0.1216184164334007
 40
0.1808217890226038
 40
0.2417425633033999
 40
0.3009463749653509
 40
0.3618672427529059
 40
0.4210710288361622
 40
0.4819917910287537
 40
0.5411956161874991
 40
0.6021163183902625
 40
0.6613202004769485
 40
0.7222407829742625
 40
0.7814447747085845
 40
0.8423653076481897
 40
0.9015690538687247
 40
0.9624900585938835
 40
0.9999999999999999
 40
0.9999999999999999
 40
0.9999999999999999
 40
0.9999999999999999
 10
6258.865605294561
 20
5265.93010101887
 30
0.0
 10
6258.863952376155
 20
5265.93209742468
 30
0.0
 10
6258.796781543439
 20
5266.013226801799
 30
0.0
 10
6258.879213523572
 20
5266.179256970127
 30
0.0
 10
6259.130187942048
 20
5266.417455836929
 30
0.0
 10
6259.641225637193
 20
5266.646981798441
 30
0.0
 10
6260.352713132157
 20
5266.856432089103
 30
0.0
 10
6261.266978861876
 20
5267.043866585906
 30
0.0
 10
6262.339096660085
 20
5267.200561599478
 30
0.0
 10
6263.558724979516
 20
5267.324889917897
 30
0.0
 10
6264.869193689205
 20
5267.411125733324
 30
0.0
 10
6266.257049095921
 20
5267.458344044389
 30
0.0
 10
6267.658023352434
 20
5267.464397719466
 30
0.0
 10
6269.057650193335
 20
5267.429181407458
 30
0.0
 10
6270.391222663305
 20
5267.354370954123
 30
0.0
 10
6271.64466050107
 20
5267.240678804624
 30
0.0
 10
6272.761088786338
 20
5267.093472781195
 30
0.0
 10
6273.724766474597
 20
5266.913991373943
 30
0.0
 10
6274.41215457224
 20
5266.736022127458
 30
0.0
 10
6274.727389843106
 20
5266.614791745919
 30
0.0
 10
6274.84751930446
 20
5266.568593424285
 30
0.0
  0
LWPOLYLINE
  5
D8
330
1F
100
AcDbEntity
  8
0
  6
Continuous
 62
     7
370
    25
100
AcDbPolyline
 90
       23
 70
   128
 43
0.0
 10
6259.5843534915
 20
5264.3577677426
 10
6259.5642723142
 20
5264.4536418137
 10
6259.6578404306
 20
5264.6600899515
 10
6259.9362425505
 20
5264.8614567933
 10
6260.392622277
 20
5265.052787703
 10
6261.015742272
 20
5265.2293590126
 10
6261.7902608587
 20
5265.3868270335
 10
6262.6971045508
 20
5265.5213249144
 10
6263.7139448895
 20
5265.6295296964
 10
6264.8157432674
 20
5265.7087740717
 10
6265.9753702579
 20
5265.7571208892
 10
6267.1642724423
 20
5265.7733706054
 10
6268.3531746267
 20
5265.7571208892
 10
6269.5128016172
 20
5265.7087740717
 10
6270.6145999952
 20
5265.6295296964
 10
6271.6314403339
 20
5265.5213249144
 10
6272.5382835603
 20
5265.3868270335
 10
6273.3128014485
 20
5265.2293590126
 10
6273.9359219091
 20
5265.052787703
 10
6274.3923018685
 20
5264.8614567933
 10
6274.6707037555
 20
5264.6600899515
 10
6274.7642722212
 20
5264.4536418137
 10
6274.744190811
 20
5264.3577677426
  0
LWPOLYLINE
  5
D9
330
1F
100
AcDbEntity
  8
0
  6
Continuous
 62
     7
370
    25
100
AcDbPolyline
 90
       12
 70
   128
 43
0.0
 10
6267.1642724423
 20
5267.5804344234
 10
6268.4746824203
 20
5267.5637823758
 10
6269.7571643627
 20
5267.5141764102
 10
6270.9843825547
 20
5267.4326670584
 10
6272.1301817334
 20
5267.321005207
 10
6273.1701414565
 20
5267.1815601406
 10
6274.0820964797
 20
5267.0173046407
 10
6274.8466101008
 20
5266.831747931
 10
6275.4473879001
 20
5266.628838819
 10
6275.8716255309
 20
5266.4128986416
 10
6276.1102810151
 20
5266.1885318575
 10
6276.1642722295
 20
5266.0176006374
  0
LWPOLYLINE
  5
DA
330
1F
100
AcDbEntity
  8
0
  6
Continuous
 62
     7
370
    25
100
AcDbPolyline
 90
       12
 70
   128
 43
0.0
 10
6258.1642728297
 20
5266.0176006374
 10
6258.218263462
 20
5266.1885318575
 10
6258.4569185971
 20
5266.4128986416
 10
6258.8811565189
 20
5266.628838819
 10
6259.4819340853
 20
5266.831747931
 10
6260.2464474736
 20
5267.0173046407
 10
6261.1584031953
 20
5267.1815601406
 10
6262.1983626856
 20
5267.321005207
 10
6263.3441623299
 20
5267.4326670584
 10
6264.5713800563
 20
5267.5141764102
 10
6265.853861533
 20
5267.5637823758
 10
6267.1642724423
 20
5267.5804344234
  0
LWPOLYLINE
  5
DB
330
1F
100
AcDbEntity
  8
0
  6
Continuous
 62
     7
370
    25
100
AcDbPolyline
 90
       15
 70
   128
 43
0.0
 10
6267.1642724423
 20
5267.5787878451
 10
6268.4746824203
 20
5267.5621357975
 10
6269.7571643627
 20
5267.5125223813
 10
6270.9843825547
 20
5267.4310204801
 10
6272.1301817334
 20
5267.3193586287
 10
6273.1701414565
 20
5267.1799135623
 10
6274.0820964797
 20
5267.0156580624
 10
6274.8466101008
 20
5266.8301013527
 10
6275.4473879001
 20
5266.6271847901
 10
6275.8716255309
 20
5266.4112446127
 10
6276.1102810151
 20
5266.1868852791
 10
6276.1582678765
 20
5265.9588751611
 10
6276.014563348
 20
5265.7320869383
 10
6275.6822302005
 20
5265.511348587
 10
6275.2394621026
 20
5265.3259036359
  0
LWPOLYLINE
  5
DC
330
1F
100
AcDbEntity
  8
0
  6
Continuous
 62
     7
370
    25
100
AcDbPolyline
 90
       15
 70
   128
 43
0.0
 10
6259.0667560695
 20
5265.3338385043
 10
6258.6463142185
 20
5265.511348587
 10
6258.313981071
 20
5265.7320869383
 10
6258.1702761351
 20
5265.9588751611
 10
6258.218263462
 20
5266.1868852791
 10
6258.4569185971
 20
5266.4112446127
 10
6258.8811565189
 20
5266.6271847901
 10
6259.4819340853
 20
5266.8301013527
 10
6260.2464474736
 20
5267.0156580624
 10
6261.1584031953
 20
5267.1799135623
 10
6262.1983626856
 20
5267.3193586287
 10
6263.3441623299
 20
5267.4310204801
 10
6264.5713800563
 20
5267.5125223813
 10
6265.853861533
 20
5267.5621357975
 10
6267.1642724423
 20
5267.5787878451
  0
LWPOLYLINE
  5
DD
330
1F
100
AcDbEntity
  8
0
  6
Continuous
 62
     7
370
    25
100
AcDbPolyline
 90
       25
 70
   128
 43
0.0
 10
6260.3557493536
 20
5262.9545179424
 10
6260.3200946002
 20
5262.9752156553
 10
6260.0907191633
 20
5263.1703165588
 10
6260.0445460527
 20
5263.3692843136
 10
6260.1827692239
 20
5263.5669556675
 10
6260.501808673
 20
5263.758219522
 10
6260.9934035687
 20
5263.9381212411
 10
6261.6448199375
 20
5264.1020042119
 10
6262.4391878022
 20
5264.2456141529
 10
6263.3559333159
 20
5264.3652406749
 10
6264.3713124095
 20
5264.457776886
 10
6265.4590273275
 20
5264.5208386001
 10
6266.5909074245
 20
5264.5527792391
 10
6267.7376374601
 20
5264.5527792391
 10
6268.8695175572
 20
5264.5208386001
 10
6269.9572324751
 20
5264.457776886
 10
6270.9726115687
 20
5264.3652406749
 10
6271.8893566167
 20
5264.2456141529
 10
6272.6837240158
 20
5264.1020042119
 10
6273.3351410831
 20
5263.9381212411
 10
6273.826735746
 20
5263.758219522
 10
6274.1457758936
 20
5263.5669556675
 10
6274.2839990648
 20
5263.3692843136
 10
6274.23782479
 20
5263.1703165588
 10
6274.1659467107
 20
5263.0897832331
  0
SPLINE
  5
DE
330
1F
100
AcDbEntity
  8
0
  6
Continuous
 62
     7
370
    25
100
AcDbSpline
210
0.0
220
0.0
230
1.0
 70
     8
 71
     3
 72
    23
 73
    19
 74
     0
 42
0.000000001
 43
0.00000001
 40
0.0
 40
0.0
 40
0.0
 40
0.0
 40
0.0582580148317775
 40
0.120005652663495
 40
0.1843204281330222
 40
0.2499999781759929
 40
0.3156796602903564
 40
0.3799941892125526
 40
0.4417419356312867
 40
0.4999997452757228
 40
0.5582580289505833
 40
0.6200054070732212
 40
0.6843205151396324
 40
0.7499999887653358
 40
0.8156798702954918
 40
0.8799942318861387
 40
0.9417419223713334
 40
1.0
 40
1.0
 40
1.0
 40
1.0
 10
6269.855702016359
 20
5262.130178254569
 30
0.0
 10
6269.450665899167
 20
5262.105333566331
 30
0.0
 10
6268.616332224456
 20
5262.054156006714
 30
0.0
 10
6267.255584363576
 20
5262.029827721476
 30
0.0
 10
6265.842787048718
 20
5262.050163855441
 30
0.0
 10
6264.453573205524
 20
5262.122176039641
 30
0.0
 10
6263.179169955979
 20
5262.241869171598
 30
0.0
 10
6262.093521191277
 20
5262.40070091632
 30
0.0
 10
6261.243768173633
 20
5262.585933386681
 30
0.0
 10
6260.630231084909
 20
5262.788525186434
 30
0.0
 10
6260.239169739272
 20
5263.007086364665
 30
0.0
 10
6260.08571287087
 20
5263.242423580698
 30
0.0
 10
6260.206589570762
 20
5263.488038185139
 30
0.0
 10
6260.620392346584
 20
5263.72914648127
 30
0.0
 10
6261.30944010564
 20
5263.950639918646
 30
0.0
 10
6262.225649941172
 20
5264.138508673832
 30
0.0
 10
6263.286908091784
 20
5264.288381760981
 30
0.0
 10
6264.085269404537
 20
5264.354637904834
 30
0.0
 10
6264.472842402613
 20
5264.386802655185
 30
0.0
  0
SPLINE
  5
DF
330
1F
100
AcDbEntity
  8
0
  6
Continuous
 62
     7
370
    25
100
AcDbSpline
210
0.0
220
0.0
230
1.0
 70
     8
 71
     3
 72
    23
 73
    19
 74
     0
 42
0.000000001
 43
0.00000001
 40
0.0
 40
0.0
 40
0.0
 40
0.0
 40
0.058258085060156
 40
0.1200057186368341
 40
0.1843204378893149
 40
0.2500000155576147
 40
0.3156795207171396
 40
0.3799944690982585
 40
0.4417417256975194
 40
0.5000000639141694
 40
0.5582576977394511
 40
0.6200057280924123
 40
0.6843201623801028
 40
0.7500002642138899
 40
0.8156796028666023
 40
0.8799944124061018
 40
0.941741903363607
 40
1.0
 40
1.0
 40
1.0
 40
1.0
 10
6264.472842402613
 20
5264.386802655185
 30
0.0
 10
6264.877878102621
 20
5264.411647596362
 30
0.0
 10
6265.712210370888
 20
5264.462825643451
 30
0.0
 10
6267.072960413388
 20
5264.487149791105
 30
0.0
 10
6268.485758118597
 20
5264.466830498502
 30
0.0
 10
6269.874967428667
 20
5264.394799319735
 30
0.0
 10
6271.149383487901
 20
5264.275120566859
 30
0.0
 10
6272.235013040233
 20
5264.116292320778
 30
0.0
 10
6273.084785947033
 20
5263.931039587569
 30
0.0
 10
6273.698306079689
 20
5263.728469836795
 30
0.0
 10
6274.089379005282
 20
5263.509897088687
 30
0.0
 10
6274.242830718011
 20
5263.274569413873
 30
0.0
 10
6274.121951209692
 20
5263.02894520366
 30
0.0
 10
6273.708159871946
 20
5262.787848749243
 30
0.0
 10
6273.019095185775
 20
5262.566333125033
 30
0.0
 10
6272.102902733389
 20
5262.37848380979
 30
0.0
 10
6271.041632978222
 20
5262.228607508935
 30
0.0
 10
6270.243274397569
 20
5262.162345776728
 30
0.0
 10
6269.855702016359
 20
5262.130178254569
 30
0.0
  0
LWPOLYLINE
  5
E0
330
1F
100
AcDbEntity
  8
0
  6
Continuous
 62
     7
370
    25
100
AcDbPolyline
 90
       38
 70
   128
 43
0.0
 10
6267.1642724423
 20
5264.4002286014
 10
6268.2754529639
 20
5264.3838075218
 10
6269.3546663037
 20
5264.3350136695
 10
6270.3708663581
 20
5264.2552477536
 10
6271.2948189116
 20
5264.146804553
 10
6272.0999426207
 20
5264.0128133115
 10
6272.7630764245
 20
5263.8571110782
 10
6273.2651426455
 20
5263.6841980037
 10
6273.5916978678
 20
5263.4990361747
 10
6273.7333480733
 20
5263.3069527564
 10
6273.6860175616
 20
5263.1134760794
 10
6273.4510686247
 20
5262.924164277
 10
6273.0352598707
 20
5262.7444786248
 10
6272.4505534394
 20
5262.579582375
 10
6271.7137701808
 20
5262.4342066464
 10
6270.8461062981
 20
5262.3125535664
 10
6269.872523099
 20
5262.2181100068
 10
6268.8210282473
 20
5262.1535954294
 10
6267.7218711002
 20
5262.1208724794
 10
6266.6066728531
 20
5262.1208724794
 10
6265.5075166373
 20
5262.1535954294
 10
6264.4560217856
 20
5262.2181100068
 10
6263.4824376552
 20
5262.3125535664
 10
6262.6147737725
 20
5262.4342066464
 10
6261.8779914452
 20
5262.579582375
 10
6261.2932847811
 20
5262.7444786248
 10
6260.8774762599
 20
5262.924164277
 10
6260.6425277887
 20
5263.1134760794
 10
6260.5951961128
 20
5263.3069527564
 10
6260.7368465512
 20
5263.4990361747
 10
6261.0634017734
 20
5263.6841980037
 10
6261.5654684602
 20
5263.8571110782
 10
6262.2286017983
 20
5264.0128133115
 10
6263.0337255074
 20
5264.146804553
 10
6263.9576775952
 20
5264.2552477536
 10
6264.9738781153
 20
5264.3350136695
 10
6266.0530919208
 20
5264.3838075218
 10
6267.1642724423
 20
5264.4002286014
  0
SPLINE
  5
E1
330
1F
100
AcDbEntity
  8
0
  6
Continuous
 62
     7
370
    25
100
AcDbSpline
210
0.0
220
0.0
230
1.0
 70
     8
 71
     3
 72
     9
 73
     5
 74
     0
 42
0.000000001
 43
0.00000001
 40
0.0
 40
0.0
 40
0.0
 40
0.0
 40
0.5036405652935917
 40
1.0
 40
1.0
 40
1.0
 40
1.0
 10
6272.460139542674
 20
5263.041756790602
 30
0.0
 10
6272.462278979443
 20
5263.041051368549
 30
0.0
 10
6272.466526923148
 20
5263.039650722728
 30
0.0
 10
6272.470991095603
 20
5263.040659852882
 30
0.0
 10
6272.473206929719
 20
5263.041160744155
 30
0.0
  0
ARC
  5
E2
330
1F
100
AcDbEntity
  8
0
  6
Continuous
 62
     7
370
    25
100
AcDbCircle
 10
6271.5442953301
 20
5267.1703759507
 30
0.0
 40
4.232410067825501
100
AcDbArc
 50
282.6782462771
 51
282.8594170209
  0
SPLINE
  5
E3
330
1F
100
AcDbEntity
  8
0
  6
Continuous
 62
     7
370
    25
100
AcDbSpline
210
0.0
220
0.0
230
1.0
 70
     8
 71
     3
 72
    12
 73
     8
 74
     0
 42
0.000000001
 43
0.00000001
 40
0.0
 40
0.0
 40
0.0
 40
0.0
 40
0.2314137309260297
 40
0.4627169471962828
 40
0.6941130035501774
 40
0.9254917516474457
 40
1.0
 40
1.0
 40
1.0
 40
1.0
 10
6272.486258949941
 20
5263.044118624652
 30
0.0
 10
6272.493074336949
 20
5263.046759317098
 30
0.0
 10
6272.506701856189
 20
5263.052039440893
 30
0.0
 10
6272.524720673122
 20
5263.073174028646
 30
0.0
 10
6272.538278142315
 20
5263.101312522116
 30
0.0
 10
6272.544432841515
 20
5263.12695108766
 30
0.0
 10
6272.545721150525
 20
5263.141674028248
 30
0.0
 10
6272.54603495807
 20
5263.145260256255
 30
0.0
  0
ELLIPSE
  5
E4
330
1F
100
AcDbEntity
  8
0
  6
Continuous
 62
     7
370
    25
100
AcDbEllipse
 10
6267.1642722555
 20
5262.8842664559
 30
0.0
 11
4.047824415925788
 21
58.99040065963254
 31
0.0
210
0.0
220
0.0
230
1.0
 40
0.0905065628
 41
4.723023585716446
 42
4.725874567106065
  0
LWPOLYLINE
  5
E5
330
1F
100
AcDbEntity
  8
0
  6
Continuous
 62
     7
370
    25
100
AcDbPolyline
 90
        3
 70
   128
 43
0.0
 10
6272.5573910399
 20
5263.3134422121
 10
6272.6670426315
 20
5263.3400482354
 10
6272.7041227742
 20
5263.3494136152
  0
SPLINE
  5
E6
330
1F
100
AcDbEntity
  8
0
  6
Continuous
 62
     7
370
    25
100
AcDbSpline
210
0.0
220
0.0
230
1.0
 70
     8
 71
     3
 72
     9
 73
     5
 74
     0
 42
0.000000001
 43
0.00000001
 40
0.0
 40
0.0
 40
0.0
 40
0.0
 40
0.1858999682441758
 40
0.9999999999999999
 40
0.9999999999999999
 40
0.9999999999999999
 40
0.9999999999999999
 10
6273.344584693989
 20
5263.303875666583
 30
0.0
 10
6273.345011034064
 20
5263.30366291668
 30
0.0
 10
6273.347304418397
 20
5263.302518484517
 30
0.0
 10
6273.349750400796
 20
5263.303673211108
 30
0.0
 10
6273.351741675144
 20
5263.304613274062
 30
0.0
  0
ARC
  5
E7
330
1F
100
AcDbEntity
  8
0
  6
Continuous
 62
     7
370
    25
100
AcDbCircle
 10
6273.5269846815
 20
5262.8927429943
 30
0.0
 40
0.4476016517366467
100
AcDbArc
 50
112.3494036583
 51
113.048834193
  0
SPLINE
  5
E8
330
1F
100
AcDbEntity
  8
0
  6
Continuous
 62
     7
370
    25
100
AcDbSpline
210
0.0
220
0.0
230
1.0
 70
     8
 71
     3
 72
    12
 73
     8
 74
     0
 42
0.000000001
 43
0.00000001
 40
0.0
 40
0.0
 40
0.0
 40
0.0
 40
0.2243818061889236
 40
0.448794549866939
 40
0.6732171775281864
 40
0.8976467257664085
 40
1.0
 40
1.0
 40
1.0
 40
1.0
 10
6273.356782458579
 20
5263.306721788371
 30
0.0
 10
6273.361058981188
 20
5263.309617341917
 30
0.0
 10
6273.369612616047
 20
5263.315408848243
 30
0.0
 10
6273.380830346817
 20
5263.337201153739
 30
0.0
 10
6273.389234914038
 20
5263.365842738704
 30
0.0
 10
6273.393284055532
 20
5263.393206416439
 30
0.0
 10
6273.393970347556
 20
5263.409473765232
 30
0.0
 10
6273.394185304498
 20
5263.414568942511
 30
0.0
  0
LINE
  5
E9
330
1F
100
AcDbEntity
  8
0
  6
Continuous
 62
     7
370
    25
100
AcDbLine
 10
6273.3941853045
 20
5263.4145689425
 30
0.0
 11
6273.3982812612
 21
5263.5774609861
 31
0.0
  0
LINE
  5
EA
330
1F
100
AcDbEntity
  8
0
  6
Continuous
 62
     7
370
    25
100
AcDbLine
 10
6273.3982812612
 20
5263.5774609861
 30
0.0
 11
6273.4555785543
 21
5263.6036497769
 31
0.0
  0
LINE
  5
EB
330
1F
100
AcDbEntity
  8
0
  6
Continuous
 62
     7
370
    25
100
AcDbLine
 10
6260.8715102075
 20
5263.6043352303
 30
0.0
 11
6260.9259944408
 21
5263.579345983
 31
0.0
  0
ELLIPSE
  5
EC
330
1F
100
AcDbEntity
  8
0
  6
Continuous
 62
     7
370
    25
100
AcDbEllipse
 10
6267.1642722555
 20
5262.8842664416
 30
0.0
 11
-2.545285008507562
 21
59.14022051493248
 31
0.0
210
0.0
220
0.0
230
1.0
 40
0.104796754
 41
1.554532821592293
 42
1.557383802989185
  0
SPLINE
  5
ED
330
1F
100
AcDbEntity
  8
0
  6
Continuous
 62
     7
370
    25
100
AcDbSpline
210
0.0
220
0.0
230
1.0
 70
     8
 71
     3
 72
    12
 73
     8
 74
     0
 42
0.000000001
 43
0.00000001
 40
0.0
 40
0.0
 40
0.0
 40
0.0
 40
0.2313549544802874
 40
0.4626917514167012
 40
0.694074041357753
 40
0.9254952390639606
 40
1.0
 40
1.0
 40
1.0
 40
1.0
 10
6260.932988673305
 20
5263.410746794665
 30
0.0
 10
6260.933858887392
 20
5263.399487306604
 30
0.0
 10
6260.935599247271
 20
5263.376969214165
 30
0.0
 10
6260.943176598917
 20
5263.346259954355
 30
0.0
 10
6260.953534523246
 20
5263.322434380172
 30
0.0
 10
6260.963177322503
 20
5263.310944638687
 30
0.0
 10
6260.968813154617
 20
5263.308082042529
 30
0.0
 10
6260.970185696935
 20
5263.307384890044
 30
0.0
  0
ARC
  5
EE
330
1F
100
AcDbEntity
  8
0
  6
Continuous
 62
     7
370
    25
100
AcDbCircle
 10
6263.5877307774
 20
5269.5473190126
 30
0.0
 40
6.766706739809806
100
AcDbArc
 50
247.2427884673
 51
247.3180894235
  0
LINE
  5
EF
330
1F
100
AcDbEntity
  8
0
  6
Continuous
 62
     7
370
    25
100
AcDbLine
 10
6260.9783887862
 20
5263.3039501724
 30
0.0
 11
6260.9855432062
 21
5263.3040842828
 31
0.0
  0
LWPOLYLINE
  5
F0
330
1F
100
AcDbEntity
  8
0
  6
Continuous
 62
     7
370
    25
100
AcDbPolyline
 90
        3
 70
   128
 43
0.0
 10
6261.626796983
 20
5263.3488101182
 10
6261.6681700571
 20
5263.3383867559
 10
6261.7780884726
 20
5263.3118105349
  0
LINE
  5
F1
330
1F
100
AcDbEntity
  8
0
  6
Continuous
 62
     7
370
    25
100
AcDbLine
 10
6261.7780884726
 20
5263.3118105349
 30
0.0
 11
6261.7847297339
 21
5263.1491643605
 31
0.0
  0
ARC
  5
F2
330
1F
100
AcDbEntity
  8
0
  6
Continuous
 62
     7
370
    25
100
AcDbCircle
 10
6271.1778282552
 20
5268.3149341631
 30
0.0
 40
5.489678561660283
100
AcDbArc
 50
276.3047150133
 51
297.0006126402
  0
ARC
  5
F3
330
1F
100
AcDbEntity
  8
0
  6
Continuous
 62
     7
370
    25
100
AcDbCircle
 10
6263.1507175383
 20
5268.3149418386
 30
0.0
 40
5.489686341747339
100
AcDbArc
 50
242.999404452
 51
263.6952795251
  0
LWPOLYLINE
  5
F4
330
1F
100
AcDbEntity
  8
0
  6
Continuous
 62
     7
370
    25
100
AcDbPolyline
 90
       20
 70
   128
 43
0.0
 10
6260.5962205677
 20
5263.3109686193
 10
6260.6425277887
 20
5263.2184175071
 10
6260.8774762599
 20
5263.0291131553
 10
6261.2932847811
 20
5262.8494275031
 10
6261.8779914452
 20
5262.6845238027
 10
6262.6147737725
 20
5262.5391555247
 10
6263.4824376552
 20
5262.4175024447
 10
6264.4560217856
 20
5262.3230588851
 10
6265.5075166373
 20
5262.2585443077
 10
6266.6066728531
 20
5262.2258139071
 10
6267.7218711002
 20
5262.2258139071
 10
6268.8210282473
 20
5262.2585443077
 10
6269.872523099
 20
5262.3230588851
 10
6270.8461062981
 20
5262.4175024447
 10
6271.7137701808
 20
5262.5391555247
 10
6272.4505534394
 20
5262.6845238027
 10
6273.0352598707
 20
5262.8494275031
 10
6273.4510686247
 20
5263.0291131553
 10
6273.6860175616
 20
5263.2184175071
 10
6273.7323245498
 20
5263.3109686193
  0
LWPOLYLINE
  5
F5
330
1F
100
AcDbEntity
  8
0
  6
Continuous
 62
     7
370
    25
100
AcDbPolyline
 90
       20
 70
   128
 43
0.0
 10
6261.8400745092
 20
5263.1826100168
 10
6261.761898361
 20
5263.3030933556
 10
6261.8108225985
 20
5263.4814379034
 10
6262.0532356201
 20
5263.6549544749
 10
6262.4803736804
 20
5263.8173696813
 10
6263.0768010391
 20
5263.9628124652
 10
6263.8209594412
 20
5264.0860227165
 10
6264.6859541534
 20
5264.1825524387
 10
6265.6405216081
 20
5264.2489147601
 10
6266.650161892
 20
5264.2827031431
 10
6267.6783829926
 20
5264.2827031431
 10
6268.6880223452
 20
5264.2489147601
 10
6269.6425902656
 20
5264.1825524387
 10
6270.5075849778
 20
5264.0860227165
 10
6271.2517438455
 20
5263.9628124652
 10
6271.8481707385
 20
5263.8173696813
 10
6272.2753092645
 20
5263.6549544749
 10
6272.5177213548
 20
5263.4814379034
 10
6272.566646058
 20
5263.3030933556
 10
6272.4833793005
 20
5263.1777298865
  0
SPLINE
  5
F6
330
1F
100
AcDbEntity
  8
0
  6
Continuous
 62
     7
370
    25
100
AcDbSpline
210
0.0
220
0.0
230
1.0
 70
     8
 71
     3
 72
    23
 73
    19
 74
     0
 42
0.000000001
 43
0.00000001
 40
0.0
 40
0.0
 40
0.0
 40
0.0
 40
0.0582579369675476
 40
0.120005588050291
 40
0.1843202720705668
 40
0.2499999180783371
 40
0.315679751608974
 40
0.3799945411045836
 40
0.441742253967175
 40
0.499999571067809
 40
0.5582576201760148
 40
0.6200057127647793
 40
0.6843200729330255
 40
0.7499999006009057
 40
0.8156798037996768
 40
0.8799944970537933
 40
0.9417422999549432
 40
1.0
 40
1.0
 40
1.0
 40
1.0
 10
6269.195914454614
 20
5262.40678105923
 30
0.0
 10
6268.890170160132
 20
5262.388025239911
 30
0.0
 10
6268.260367153672
 20
5262.349390107193
 30
0.0
 10
6267.233200504168
 20
5262.331035964154
 30
0.0
 10
6266.16673985327
 20
5262.346377368716
 30
0.0
 10
6265.118084843331
 20
5262.400744463342
 30
0.0
 10
6264.156092477559
 20
5262.491080671786
 30
0.0
 10
6263.336587464948
 20
5262.610981127543
 30
0.0
 10
6262.695146112858
 20
5262.750819475049
 30
0.0
 10
6262.232011087765
 20
5262.903725750612
 30
0.0
 10
6261.936815404763
 20
5263.068729048538
 30
0.0
 10
6261.820979961984
 20
5263.246351814061
 30
0.0
 10
6261.912225989247
 20
5263.431771088923
 30
0.0
 10
6262.224583593847
 20
5263.613771371312
 30
0.0
 10
6262.744719432486
 20
5263.780967161534
 30
0.0
 10
6263.43632174879
 20
5263.922774588787
 30
0.0
 10
6264.237417355142
 20
5264.035905825136
 30
0.0
 10
6264.840068342512
 20
5264.085925043032
 30
0.0
 10
6265.132630430018
 20
5264.110207301104
 30
0.0
  0
SPLINE
  5
F7
330
1F
100
AcDbEntity
  8
0
  6
Continuous
 62
     7
370
    25
100
AcDbSpline
210
0.0
220
0.0
230
1.0
 70
     8
 71
     3
 72
    23
 73
    19
 74
     0
 42
0.000000001
 43
0.00000001
 40
0.0
 40
0.0
 40
0.0
 40
0.0
 40
0.058258103428684
 40
0.1200057436098592
 40
0.1843205379750669
 40
0.2500001630910116
 40
0.315679531808611
 40
0.379994322233462
 40
0.4417419980305989
 40
0.5000000896003318
 40
0.558258111880934
 40
0.6200053894860297
 40
0.6843205298624082
 40
0.7500003366384049
 40
0.815679443812726
 40
0.8799941346269873
 40
0.9417419444257409
 40
0.9999999999999999
 40
0.9999999999999999
 40
0.9999999999999999
 40
0.9999999999999999
 10
6265.132630430018
 20
5264.110207301104
 30
0.0
 10
6265.438374057298
 20
5264.128959216421
 30
0.0
 10
6266.068174706242
 20
5264.167586246987
 30
0.0
 10
6267.095344673584
 20
5264.18595584899
 30
0.0
 10
6268.161804352113
 20
5264.170610002388
 30
0.0
 10
6269.21045564774
 20
5264.11624454515
 30
0.0
 10
6270.172456196104
 20
5264.025907076627
 30
0.0
 10
6270.991956338105
 20
5263.906007501015
 30
0.0
 10
6271.633403050669
 20
5263.766167730157
 30
0.0
 10
6272.09653039498
 20
5263.61326299889
 30
0.0
 10
6272.391727905744
 20
5263.448263985696
 30
0.0
 10
6272.507565434623
 20
5263.270620520435
 30
0.0
 10
6272.416319410459
 20
5263.085222473019
 30
0.0
 10
6272.103965055085
 20
5262.903217403277
 30
0.0
 10
6271.583820688475
 20
5262.736019236626
 30
0.0
 10
6270.892223211714
 20
5262.594217322276
 30
0.0
 10
6270.091124552776
 20
5262.481070248928
 30
0.0
 10
6269.488476176427
 20
5262.431059352442
 30
0.0
 10
6269.195914454614
 20
5262.40678105923
 30
0.0
  0
LINE
  5
F8
330
1F
100
AcDbEntity
  8
0
  6
Continuous
 62
     7
370
    25
100
AcDbLine
 10
6272.5654041393
 20
5263.8732192335
 30
0.0
 11
6272.5636849178
 21
5263.87548421
 31
0.0
  0
LINE
  5
F9
330
1F
100
AcDbEntity
  8
0
  6
Continuous
 62
     7
370
    25
100
AcDbLine
 10
6272.5654041393
 20
5263.8732192335
 30
0.0
 11
6272.5678591056
 21
5263.8731372771
 31
0.0
  0
LINE
  5
FA
330
1F
100
AcDbEntity
  8
0
  6
Continuous
 62
     7
370
    25
100
AcDbLine
 10
6261.7626070975
 20
5263.8725114283
 30
0.0
 11
6261.7601651697
 21
5263.8724294719
 31
0.0
  0
ARC
  5
FB
330
1F
100
AcDbEntity
  8
0
  6
Continuous
 62
     7
370
    25
100
AcDbCircle
 10
6262.1706142124
 20
5263.5658058391
 30
0.0
 40
0.510429352854863
100
AcDbArc
 50
142.5475356281
 51
143.0672195283
  0
SPLINE
  5
FC
330
1F
100
AcDbEntity
  8
0
  6
Continuous
 62
     7
370
    25
100
AcDbSpline
210
0.0
220
0.0
230
1.0
 70
     8
 71
     3
 72
    23
 73
    19
 74
     0
 42
0.000000001
 43
0.00000001
 40
0.0
 40
0.0
 40
0.0
 40
0.0
 40
0.0582581720751177
 40
0.1200055784733027
 40
0.1843202703111133
 40
0.250000189688912
 40
0.3156796647200708
 40
0.3799945250075504
 40
0.4417423781476292
 40
0.5000003875466025
 40
0.5582581282569976
 40
0.6200054120682554
 40
0.684320620371886
 40
0.749999952367083
 40
0.8156794528446443
 40
0.8799942288259298
 40
0.941741873315606
 40
1.0
 40
1.0
 40
1.0
 40
1.0
 10
6265.136050246512
 20
5264.108769339049
 30
0.0
 10
6264.843981290016
 20
5264.08453319845
 30
0.0
 10
6264.242350603197
 20
5264.034609351392
 30
0.0
 10
6263.442592902198
 20
5263.921646077534
 30
0.0
 10
6262.752158549864
 20
5263.780096025039
 30
0.0
 10
6262.232900067338
 20
5263.613170485888
 30
0.0
 10
6261.921064570544
 20
5263.431470765709
 30
0.0
 10
6261.829973931865
 20
5263.246385806358
 30
0.0
 10
6261.945615746703
 20
5263.069039454741
 30
0.0
 10
6262.240315808275
 20
5262.904329062158
 30
0.0
 10
6262.702663249806
 20
5262.751668831904
 30
0.0
 10
6263.343038194147
 20
5262.612071924798
 30
0.0
 10
6264.161147553409
 20
5262.492374572599
 30
0.0
 10
6265.121533405647
 20
5262.4021811268
 30
0.0
 10
6266.168420089078
 20
5262.347919580579
 30
0.0
 10
6267.233083133649
 20
5262.332591218488
 30
0.0
 10
6268.258525038092
 20
5262.350925829
 30
0.0
 10
6268.887265593252
 20
5262.389490113149
 30
0.0
 10
6269.19249463812
 20
5262.408211570704
 30
0.0
  0
SPLINE
  5
FD
330
1F
100
AcDbEntity
  8
0
  6
Continuous
 62
     7
370
    25
100
AcDbSpline
210
0.0
220
0.0
230
1.0
 70
     8
 71
     3
 72
    23
 73
    19
 74
     0
 42
0.000000001
 43
0.00000001
 40
0.0
 40
0.0
 40
0.0
 40
0.0
 40
0.0582577746659022
 40
0.1200057110830263
 40
0.1843204921044875
 40
0.2499996786644425
 40
0.3156800300212675
 40
0.3799940404098619
 40
0.4417419188782454
 40
0.4999999634574848
 40
0.5582577310375496
 40
0.6200057163431165
 40
0.684320385541163
 40
0.7500001308294618
 40
0.8156797375107371
 40
0.8799944679509775
 40
0.9417420852511955
 40
1.0
 40
1.0
 40
1.0
 40
1.0
 10
6269.19249463812
 20
5262.408211570704
 30
0.0
 10
6269.484564257382
 20
5262.432451954437
 30
0.0
 10
6270.086201078324
 20
5262.482384937692
 30
0.0
 10
6270.885947280829
 20
5262.595328426763
 30
0.0
 10
6271.576380671667
 20
5262.736894514269
 30
0.0
 10
6272.095651511463
 20
5262.903820102018
 30
0.0
 10
6272.407475549286
 20
5263.08551426856
 30
0.0
 10
6272.498571128539
 20
5263.270604445904
 30
0.0
 10
6272.382928856021
 20
5263.447948723969
 30
0.0
 10
6272.088229434456
 20
5263.612659140411
 30
0.0
 10
6271.625875953066
 20
5263.765320894301
 30
0.0
 10
6270.985517391721
 20
5263.904913724558
 30
0.0
 10
6270.167387547326
 20
5264.024618450302
 30
0.0
 10
6269.207015797675
 20
5264.114793831114
 30
0.0
 10
6268.160124579425
 20
5264.169072383161
 30
0.0
 10
6267.095460136602
 20
5264.184395644093
 30
0.0
 10
6266.070022004538
 20
5264.166064933466
 30
0.0
 10
6265.441279658567
 20
5264.127493995814
 30
0.0
 10
6265.136050246512
 20
5264.108769339049
 30
0.0
  0
LWPOLYLINE
  5
FE
330
1F
100
AcDbEntity
  8
0
  6
Continuous
 62
     7
370
    25
100
AcDbPolyline
 90
       10
 70
   128
 43
0.0
 10
6272.3642724565
 20
5263.3569759545
 10
6272.3113435319
 20
5263.2284683404
 10
6272.0782763323
 20
5263.0616423902
 10
6271.6676045208
 20
5262.9054856715
 10
6271.0941701195
 20
5262.7656531748
 10
6270.378698781
 20
5262.6471889434
 10
6269.5470500736
 20
5262.5543845114
 10
6268.6292819677
 20
5262.4905777392
 10
6267.6585635169
 20
5262.4580932078
 10
6267.2412537037
 20
5262.4540996966
  0
LWPOLYLINE
  5
FF
330
1F
100
AcDbEntity
  8
0
  6
Continuous
 62
     7
370
    25
100
AcDbPolyline
 90
       10
 70
   128
 43
0.0
 10
6266.8424595146
 20
5262.4557313738
 10
6266.6699804364
 20
5262.4580932078
 10
6265.6992629169
 20
5262.4905777392
 10
6264.7814938797
 20
5262.5543845114
 10
6263.9498451723
 20
5262.6471889434
 10
6263.2343742995
 20
5262.7656531748
 10
6262.6609403639
 20
5262.9054856715
 10
6262.2502680866
 20
5263.0616423902
 10
6262.0172008871
 20
5263.2284683404
 10
6261.9642719625
 20
5263.3569759545
  0
SPLINE
  5
100
330
1F
100
AcDbEntity
  8
0
  6
Continuous
 62
     7
370
    25
100
AcDbSpline
210
0.0
220
0.0
230
1.0
 70
     8
 71
     3
 72
    12
 73
     8
 74
     0
 42
0.000000001
 43
0.00000001
 40
0.0
 40
0.0
 40
0.0
 40
0.0
 40
0.2313348215236374
 40
0.4627323728949142
 40
0.6941282327541094
 40
0.9255126482618938
 40
1.0
 40
1.0
 40
1.0
 40
1.0
 10
6262.31904905275
 20
5263.510443013633
 30
0.0
 10
6262.319908782903
 20
5263.499183095935
 30
0.0
 10
6262.321628476339
 20
5263.476660207248
 30
0.0
 10
6262.329124903573
 20
5263.445952860419
 30
0.0
 10
6262.339405247702
 20
5263.422115498563
 30
0.0
 10
6262.349007478495
 20
5263.410626288022
 30
0.0
 10
6262.354636033835
 20
5263.407763393564
 30
0.0
 10
6262.356006726479
 20
5263.40706620785
 30
0.0
  0
ARC
  5
101
330
1F
100
AcDbEntity
  8
0
  6
Continuous
 62
     7
370
    25
100
AcDbCircle
 10
6260.2548584461
 20
5258.3871472983
 30
0.0
 40
5.44191234351026
100
AcDbArc
 50
67.1939766643
 51
67.2876575086
  0
LINE
  5
102
330
1F
100
AcDbEntity
  8
0
  6
Continuous
 62
     7
370
    25
100
AcDbLine
 10
6262.3642116784
 20
5263.4036240396
 30
0.0
 11
6262.3713856562
 21
5263.4037656006
 31
0.0
  0
LWPOLYLINE
  5
103
330
1F
100
AcDbEntity
  8
0
  6
Continuous
 62
     7
370
    25
100
AcDbPolyline
 90
        3
 70
   128
 43
0.0
 10
6263.0512995644
 20
5263.4512705025
 10
6263.2334848864
 20
5263.4126317916
 10
6263.3417017756
 20
5263.3916062531
  0
SPLINE
  5
104
330
1F
100
AcDbEntity
  8
0
  6
Continuous
 62
     7
370
    25
100
AcDbSpline
210
0.0
220
0.0
230
1.0
 70
     8
 71
     3
 72
     9
 73
     5
 74
     0
 42
0.000000001
 43
0.00000001
 40
0.0
 40
0.0
 40
0.0
 40
0.0
 40
0.5039824221996647
 40
0.9999999999999999
 40
0.9999999999999999
 40
0.9999999999999999
 40
0.9999999999999999
 10
6271.27008810625
 20
5263.200327497447
 30
0.0
 10
6271.272231412416
 20
5263.19962183108
 30
0.0
 10
6271.276484152338
 20
5263.198221650566
 30
0.0
 10
6271.280956625676
 20
5263.199230863596
 30
0.0
 10
6271.283175051069
 20
5263.199731450999
 30
0.0
  0
ARC
  5
105
330
1F
100
AcDbEntity
  8
0
  6
Continuous
 62
     7
370
    25
100
AcDbCircle
 10
6268.7299655905
 20
5274.5244799055
 30
0.0
 40
11.60899677431608
100
AcDbArc
 50
282.705138132
 51
282.7711790102
  0
SPLINE
  5
106
330
1F
100
AcDbEntity
  8
0
  6
Continuous
 62
     7
370
    25
100
AcDbSpline
210
0.0
220
0.0
230
1.0
 70
     8
 71
     3
 72
    12
 73
     8
 74
     0
 42
0.000000001
 43
0.00000001
 40
0.0
 40
0.0
 40
0.0
 40
0.0
 40
0.2313604373216917
 40
0.4626920413595605
 40
0.6941139346342448
 40
0.9254505852740981
 40
1.0
 40
1.0
 40
1.0
 40
1.0
 10
6271.296226605629
 20
5263.202681880915
 30
0.0
 10
6271.303034678622
 20
5263.205321750556
 30
0.0
 10
6271.316649976151
 20
5263.210601160845
 30
0.0
 10
6271.334597848129
 20
5263.231755319975
 30
0.0
 10
6271.348085561356
 20
5263.259893688454
 30
0.0
 10
6271.354207535143
 20
5263.285539803614
 30
0.0
 10
6271.355486112638
 20
5263.300264633935
 30
0.0
 10
6271.355797722792
 20
5263.303853314841
 30
0.0
  0
ELLIPSE
  5
107
330
1F
100
AcDbEntity
  8
0
  6
Continuous
 62
     7
370
    25
100
AcDbEllipse
 10
6267.1642722555
 20
5262.8842664559
 30
0.0
 11
3.141595068871538
 21
45.78359453881785
 31
0.0
210
0.0
220
0.0
230
1.0
 40
0.0905065628
 41
4.727763832514162
 42
4.731437599626842
  0
ARC
  5
108
330
1F
100
AcDbEntity
  8
0
  6
Continuous
 62
     7
370
    25
100
AcDbCircle
 10
6270.45164776
 20
5267.5126000874
 30
0.0
 40
4.142959318054713
100
AcDbArc
 50
282.7654178905
 51
290.764401195
  0
LWPOLYLINE
  5
109
330
1F
100
AcDbEntity
  8
0
  6
Continuous
 62
     7
370
    25
100
AcDbPolyline
 90
        3
 70
   128
 43
0.0
 10
6263.4717581792
 20
5263.1764930901
 10
6263.4466646238
 20
5263.1944266376
 10
6263.3524771778
 20
5263.3237165627
  0
LINE
  5
10A
330
1F
100
AcDbEntity
  8
0
  6
Continuous
 62
     7
370
    25
100
AcDbLine
 10
6270.9759633987
 20
5263.3230683622
 30
0.0
 11
6270.883454196
 21
5263.1956336317
 31
0.0
  0
SPLINE
  5
10B
330
1F
100
AcDbEntity
  8
0
  6
Continuous
 62
     7
370
    25
100
AcDbSpline
210
0.0
220
0.0
230
1.0
 70
     8
 71
     3
 72
    14
 73
    10
 74
     0
 42
0.000000001
 43
0.00000001
 40
0.0
 40
0.0
 40
0.0
 40
0.0
 40
0.1931947745219658
 40
0.2971949382556437
 40
0.4034025249229811
 40
0.5096096317685049
 40
0.6136090400452371
 40
0.806804303772032
 40
1.0
 40
1.0
 40
1.0
 40
1.0
 10
6268.585715629017
 20
5262.662589293444
 30
0.0
 10
6268.13507727519
 20
5262.639500504274
 30
0.0
 10
6267.441852326057
 20
5262.603982611575
 30
0.0
 10
6266.465349026324
 20
5262.620813642758
 30
0.0
 10
6265.733105723388
 20
5262.658224814999
 30
0.0
 10
6265.058801883429
 20
5262.721640847289
 30
0.0
 10
6264.317235426539
 20
5262.830543588635
 30
0.0
 10
6263.625563126629
 20
5263.00574208207
 30
0.0
 10
6263.508735083266
 20
5263.167473326222
 30
0.0
 10
6263.4503209962
 20
5263.248339038813
 30
0.0
  0
SPLINE
  5
10C
330
1F
100
AcDbEntity
  8
0
  6
Continuous
 62
     7
370
    25
100
AcDbSpline
210
0.0
220
0.0
230
1.0
 70
     8
 71
     3
 72
    12
 73
     8
 74
     0
 42
0.000000001
 43
0.00000001
 40
0.0
 40
0.0
 40
0.0
 40
0.0
 40
0.1694895172630115
 40
0.3425752123151825
 40
0.515660114430668
 40
0.6851506749337343
 40
1.0
 40
1.0
 40
1.0
 40
1.0
 10
6270.878223888432
 20
5263.26864187094
 30
0.0
 10
6270.867475510127
 20
5263.225174886838
 30
0.0
 10
6270.845750697647
 20
5263.13731864919
 30
0.0
 10
6270.618806405818
 20
5263.00979795984
 30
0.0
 10
6270.255621374567
 20
5262.893396238624
 30
0.0
 10
6269.632970226642
 20
5262.761601939654
 30
0.0
 10
6268.998293024765
 20
5262.701596407676
 30
0.0
 10
6268.585715629017
 20
5262.662589293444
 30
0.0
  0
SPLINE
  5
10D
330
1F
100
AcDbEntity
  8
0
  6
Continuous
 62
     7
370
    25
100
AcDbSpline
210
0.0
220
0.0
230
1.0
 70
     8
 71
     3
 72
     9
 73
     5
 74
     0
 42
0.000000001
 43
0.00000001
 40
0.0
 40
0.0
 40
0.0
 40
0.0
 40
0.4176753823132037
 40
1.0
 40
1.0
 40
1.0
 40
1.0
 10
6263.315413333332
 20
5263.83642826649
 30
0.0
 10
6263.315810550795
 20
5263.836078303912
 30
0.0
 10
6263.316761570367
 20
5263.835240422167
 30
0.0
 10
6263.317506912012
 20
5263.836320721965
 30
0.0
 10
6263.317940942799
 20
5263.836949807132
 30
0.0
  0
ARC
  5
10E
330
1F
100
AcDbEntity
  8
0
  6
Continuous
 62
     7
370
    25
100
AcDbCircle
 10
6263.4995520657
 20
5263.7023666846
 30
0.0
 40
0.2260425110733287
100
AcDbArc
 50
142.2847806408
 51
143.4596642241
  0
SPLINE
  5
10F
330
1F
100
AcDbEntity
  8
0
  6
Continuous
 62
     7
370
    25
100
AcDbSpline
210
0.0
220
0.0
230
1.0
 70
     8
 71
     3
 72
    12
 73
     8
 74
     0
 42
0.000000001
 43
0.00000001
 40
0.0
 40
0.0
 40
0.0
 40
0.0
 40
0.2287242261505462
 40
0.4573781014112291
 40
0.6867932151817873
 40
0.9180067887036717
 40
1.0
 40
1.0
 40
1.0
 40
1.0
 10
6263.320738635814
 20
5263.840645295108
 30
0.0
 10
6263.32208636317
 20
5263.84364289288
 30
0.0
 10
6263.324781403351
 20
5263.849637166426
 30
0.0
 10
6263.326516826643
 20
5263.871567438973
 30
0.0
 10
6263.326097559379
 20
5263.900189734662
 30
0.0
 10
6263.323957329977
 20
5263.926334726836
 30
0.0
 10
6263.322005763024
 20
5263.941438934676
 30
0.0
 10
6263.321494869744
 20
5263.94539300772
 30
0.0
  0
SPLINE
  5
110
330
1F
100
AcDbEntity
  8
0
  6
Continuous
 62
     7
370
    25
100
AcDbSpline
210
0.0
220
0.0
230
1.0
 70
     8
 71
     3
 72
    19
 73
    15
 74
     0
 42
0.000000001
 43
0.00000001
 40
0.0
 40
0.0
 40
0.0
 40
0.0
 40
0.1197280316228874
 40
0.184180323164616
 40
0.2500001199250215
 40
0.3158195699072556
 40
0.3802708732845756
 40
0.5000005619126099
 40
0.6197283909568025
 40
0.6841804554500179
 40
0.7499997141761009
 40
0.8158196117139096
 40
0.8802714711192984
 40
1.0
 40
1.0
 40
1.0
 40
1.0
 10
6265.74834361658
 20
5263.852081936324
 30
0.0
 10
6265.337271183473
 20
5263.813225673899
 30
0.0
 10
6264.704909216543
 20
5263.753452211718
 30
0.0
 10
6264.085396493247
 20
5263.622170243736
 30
0.0
 10
6263.721254021317
 20
5263.506223768718
 30
0.0
 10
6263.504075586896
 20
5263.379193937695
 30
0.0
 10
6263.420807210508
 20
5263.211298485731
 30
0.0
 10
6263.663347325416
 20
5263.006678599884
 30
0.0
 10
6264.325055783383
 20
5262.832214070228
 30
0.0
 10
6265.06761524168
 20
5262.723718667654
 30
0.0
 10
6265.738486037718
 20
5262.66055163887
 30
0.0
 10
6266.468105520377
 20
5262.623287035142
 30
0.0
 10
6267.44075306687
 20
5262.606524610871
 30
0.0
 10
6268.131302110584
 20
5262.641901699712
 30
0.0
 10
6268.580201268052
 20
5262.664898973429
 30
0.0
  0
SPLINE
  5
111
330
1F
100
AcDbEntity
  8
0
  6
Continuous
 62
     7
370
    25
100
AcDbSpline
210
0.0
220
0.0
230
1.0
 70
     8
 71
     3
 72
    19
 73
    15
 74
     0
 42
0.000000001
 43
0.00000001
 40
0.0
 40
0.0
 40
0.0
 40
0.0
 40
0.1197281676783562
 40
0.1841804061874884
 40
0.24999916706542
 40
0.3158200096211557
 40
0.3802713678868471
 40
0.4999998145693863
 40
0.6197288823957399
 40
0.6841802195014864
 40
0.750000052199892
 40
0.8158196794080517
 40
0.8802715971279729
 40
0.9999999999999999
 40
0.9999999999999999
 40
0.9999999999999999
 40
0.9999999999999999
 10
6268.580201268052
 20
5262.664898973429
 30
0.0
 10
6268.991273857901
 20
5262.703760554052
 30
0.0
 10
6269.623635632403
 20
5262.763542156351
 30
0.0
 10
6270.24314277534
 20
5262.894807229333
 30
0.0
 10
6270.607297826532
 20
5263.010758345921
 30
0.0
 10
6270.824466314158
 20
5263.13779466139
 30
0.0
 10
6270.9077393754
 20
5263.305689357655
 30
0.0
 10
6270.665186366899
 20
5263.510300755109
 30
0.0
 10
6270.003502361337
 20
5263.68477208914
 30
0.0
 10
6269.260919839034
 20
5263.793273756314
 30
0.0
 10
6268.59006602676
 20
5263.856423402271
 30
0.0
 10
6267.860436051044
 20
5263.893704567631
 30
0.0
 10
6266.887794073619
 20
5263.910463023094
 30
0.0
 10
6266.19724347644
 20
5263.875081849578
 30
0.0
 10
6265.74834361658
 20
5263.852081936324
 30
0.0
  0
LWPOLYLINE
  5
112
330
1F
100
AcDbEntity
  8
0
  6
Continuous
 62
     7
370
    25
100
AcDbPolyline
 90
       16
 70
   128
 43
0.0
 10
6270.7642723805
 20
5263.3569759545
 10
6270.7581815308
 20
5263.3206245718
 10
6270.6130344419
 20
5263.177685183
 10
6270.2819637021
 20
5263.0444091973
 10
6269.7828171773
 20
5262.9279789743
 10
6269.1425045019
 20
5262.8346828041
 10
6268.3955451472
 20
5262.7695423779
 10
6267.582207173
 20
5262.7360669193
 10
6266.7463377117
 20
5262.7360669193
 10
6265.9329997374
 20
5262.7695423779
 10
6265.186039917
 20
5262.8346828041
 10
6264.545726776
 20
5262.9279789743
 10
6264.0465807168
 20
5263.0444091973
 10
6263.7155104427
 20
5263.177685183
 10
6263.5703628881
 20
5263.3206245718
 10
6263.5773589833
 20
5263.410225254
  0
ARC
  5
113
330
1F
100
AcDbEntity
  8
0
  6
Continuous
 62
     7
370
    25
100
AcDbCircle
 10
6266.5279660258
 20
5255.5360456258
 30
0.0
 40
8.46999883694346
100
AcDbArc
 50
85.6916106977
 51
109.6779816442
  0
LWPOLYLINE
  5
114
330
1F
100
AcDbEntity
  8
0
  6
Continuous
 62
     7
370
    25
100
AcDbPolyline
 90
        3
 70
   128
 43
0.0
 10
6264.6094627677
 20
5263.5633421359
 10
6264.6416306494
 20
5263.5577914533
 10
6264.838429354
 20
5263.5266182241
  0
SPLINE
  5
115
330
1F
100
AcDbEntity
  8
0
  6
Continuous
 62
     7
370
    25
100
AcDbSpline
210
0.0
220
0.0
230
1.0
 70
     8
 71
     3
 72
     9
 73
     5
 74
     0
 42
0.000000001
 43
0.00000001
 40
0.0
 40
0.0
 40
0.0
 40
0.0
 40
0.5030361096166427
 40
1.0
 40
1.0
 40
1.0
 40
1.0
 10
6270.000680070227
 20
5263.369470578158
 30
0.0
 10
6270.002834178712
 20
5263.368762479202
 30
0.0
 10
6270.007116393137
 20
5263.367354828853
 30
0.0
 10
6270.011584952358
 20
5263.368365041782
 30
0.0
 10
6270.013805664932
 20
5263.36886708113
 30
0.0
  0
ARC
  5
116
330
1F
100
AcDbEntity
  8
0
  6
Continuous
 62
     7
370
    25
100
AcDbCircle
 10
6268.2651984097
 20
5271.1346463198
 30
0.0
 40
7.960210708089916
100
AcDbArc
 50
282.6895610127
 51
282.7858768569
  0
SPLINE
  5
117
330
1F
100
AcDbEntity
  8
0
  6
Continuous
 62
     7
370
    25
100
AcDbSpline
210
0.0
220
0.0
230
1.0
 70
     8
 71
     3
 72
    12
 73
     8
 74
     0
 42
0.000000001
 43
0.00000001
 40
0.0
 40
0.0
 40
0.0
 40
0.0
 40
0.2312746626962297
 40
0.4626830303165614
 40
0.6940130408177121
 40
0.9254573000550514
 40
1.0
 40
1.0
 40
1.0
 40
1.0
 10
6270.026857685154
 20
5263.371817511046
 30
0.0
 10
6270.033650591952
 20
5263.374460995078
 30
0.0
 10
6270.047240332677
 20
5263.379749491399
 30
0.0
 10
6270.065038821426
 20
5263.400903550714
 30
0.0
 10
6270.07840954513
 20
5263.429071442344
 30
0.0
 10
6270.084448574654
 20
5263.454721484117
 30
0.0
 10
6270.085713254904
 20
5263.469452433802
 30
0.0
 10
6270.08602134869
 20
5263.473041099036
 30
0.0
  0
ELLIPSE
  5
118
330
1F
100
AcDbEntity
  8
0
  6
Continuous
 62
     7
370
    25
100
AcDbEllipse
 10
6267.1642722555
 20
5262.8842664559
 30
0.0
 11
2.174950432455262
 21
31.69633468305165
 31
0.0
210
0.0
220
0.0
230
1.0
 40
0.0905065628
 41
4.737175614007668
 42
4.742483697314162
  0
LINE
  5
119
330
1F
100
AcDbEntity
  8
0
  6
Continuous
 62
     7
370
    25
100
AcDbLine
 10
6270.0971441342
 20
5263.6412528572
 30
0.0
 11
6270.2451061456
 21
5263.6803758559
 31
0.0
  0
LWPOLYLINE
  5
11A
330
1F
100
AcDbEntity
  8
0
  6
Continuous
 62
     7
370
    25
100
AcDbPolyline
 90
        4
 70
   128
 43
0.0
 10
6269.4724567233
 20
5263.3411583719
 10
6269.4713014177
 20
5263.3334768233
 10
6269.354636967
 20
5263.2211891231
 10
6269.3457987158
 20
5263.2166666207
  0
LWPOLYLINE
  5
11B
330
1F
100
AcDbEntity
  8
0
  6
Continuous
 62
     7
370
    25
100
AcDbPolyline
 90
        4
 70
   128
 43
0.0
 10
6264.9585383011
 20
5263.2295114216
 10
6264.9274805559
 20
5263.2486445126
 10
6264.8572430013
 20
5263.3620870528
 10
6264.8576052858
 20
5263.3637559828
  0
SPLINE
  5
11C
330
1F
100
AcDbEntity
  8
0
  6
Continuous
 62
     7
370
    25
100
AcDbSpline
210
0.0
220
0.0
230
1.0
 70
     8
 71
     3
 72
    14
 73
    10
 74
     0
 42
0.000000001
 43
0.00000001
 40
0.0
 40
0.0
 40
0.0
 40
0.0
 40
0.1931859002599047
 40
0.2982339219586245
 40
0.4034065650046516
 40
0.5084544075546494
 40
0.6136259826641617
 40
0.8068112764899203
 40
1.0
 40
1.0
 40
1.0
 40
1.0
 10
6268.009595759069
 20
5262.904114764655
 30
0.0
 10
6267.741629537702
 20
5262.890415344548
 30
0.0
 10
6267.327952260827
 20
5262.869266638657
 30
0.0
 10
6266.746929717388
 20
5262.879163643822
 30
0.0
 10
6266.313617896959
 20
5262.90163340428
 30
0.0
 10
6265.913120052129
 20
5262.938932048166
 30
0.0
 10
6265.472388181942
 20
5263.003808716569
 30
0.0
 10
6265.059747918335
 20
5263.108159812074
 30
0.0
 10
6264.990322372631
 20
5263.204359125973
 30
0.0
 10
6264.955609291648
 20
5263.252459209883
 30
0.0
  0
SPLINE
  5
11D
330
1F
100
AcDbEntity
  8
0
  6
Continuous
 62
     7
370
    25
100
AcDbSpline
210
0.0
220
0.0
230
1.0
 70
     8
 71
     3
 72
    19
 73
    15
 74
     0
 42
0.000000001
 43
0.00000001
 40
0.0
 40
0.0
 40
0.0
 40
0.0
 40
0.1197213124030987
 40
0.1848216917496373
 40
0.2499996919575367
 40
0.3151002751870568
 40
0.3802789232886192
 40
0.5000002088383291
 40
0.6197216609057394
 40
0.6848216147469237
 40
0.7500010213050945
 40
0.8151007812293075
 40
0.8802786303591239
 40
1.0
 40
1.0
 40
1.0
 40
1.0
 10
6266.318949125563
 20
5263.612873595679
 30
0.0
 10
6266.58692069437
 20
5263.626570184025
 30
0.0
 10
6267.000606091678
 20
5263.64771451145
 30
0.0
 10
6267.581588707041
 20
5263.637814962678
 30
0.0
 10
6268.015028614608
 20
5263.61535684028
 30
0.0
 10
6268.415047713064
 20
5263.578058288621
 30
0.0
 10
6268.858083393477
 20
5263.5131643646
 30
0.0
 10
6269.254596798909
 20
5263.408853830417
 30
0.0
 10
6269.399005649751
 20
5263.286416057024
 30
0.0
 10
6269.350014377815
 20
5263.186141584943
 30
0.0
 10
6269.219154089565
 20
5263.11067200099
 30
0.0
 10
6269.004103391033
 20
5263.041535426284
 30
0.0
 10
6268.633645666019
 20
5262.963184097321
 30
0.0
 10
6268.254858595616
 20
5262.927330074715
 30
0.0
 10
6268.009595759069
 20
5262.904114764655
 30
0.0
  0
SPLINE
  5
11E
330
1F
100
AcDbEntity
  8
0
  6
Continuous
 62
     7
370
    25
100
AcDbSpline
210
0.0
220
0.0
230
1.0
 70
     8
 71
     3
 72
    19
 73
    15
 74
     0
 42
0.000000001
 43
0.00000001
 40
0.0
 40
0.0
 40
0.0
 40
0.0
 40
0.1197207710624093
 40
0.1848215315133254
 40
0.2500001361281816
 40
0.3151004644659082
 40
0.3802779845713601
 40
0.5000006896634867
 40
0.619721955907077
 40
0.6848225131528369
 40
0.7500005380728227
 40
0.8151008764600887
 40
0.8802788934119923
 40
0.9999999999999999
 40
0.9999999999999999
 40
0.9999999999999999
 40
0.9999999999999999
 10
6266.322368942057
 20
5263.611443084204
 30
0.0
 10
6266.078095750539
 20
5263.588318692872
 30
0.0
 10
6265.700993724188
 20
5263.552619913259
 30
0.0
 10
6265.331991146007
 20
5263.47459957826
 30
0.0
 10
6265.117843957624
 20
5263.405774846961
 30
0.0
 10
6264.987403025973
 20
5263.330582658033
 30
0.0
 10
6264.938544139116
 20
5263.230712052793
 30
0.0
 10
6265.082402378214
 20
5263.108752431519
 30
0.0
 10
6265.477210593984
 20
5263.004869035445
 30
0.0
 10
6265.918407037771
 20
5262.940239771277
 30
0.0
 10
6266.316630127218
 20
5262.903096926828
 30
0.0
 10
6266.748460685772
 20
5262.880703388752
 30
0.0
 10
6267.327103899248
 20
5262.870842950292
 30
0.0
 10
6267.739288689401
 20
5262.891906651904
 30
0.0
 10
6268.006175942575
 20
5262.905545276129
 30
0.0
  0
SPLINE
  5
11F
330
1F
100
AcDbEntity
  8
0
  6
Continuous
 62
     7
370
    25
100
AcDbSpline
210
0.0
220
0.0
230
1.0
 70
     8
 71
     3
 72
    15
 73
    11
 74
     0
 42
0.000000001
 43
0.00000001
 40
0.0
 40
0.0
 40
0.0
 40
0.0
 40
0.0099776315557412
 40
0.2012349771257173
 40
0.3924931881684857
 40
0.4964933574938275
 40
0.6006172556293398
 40
0.7046169608278199
 40
0.8087411620224674
 40
1.0
 40
1.0
 40
1.0
 40
1.0
 10
6269.360333867227
 20
5263.257063668692
 30
0.0
 10
6269.361641959174
 20
5263.259544196157
 30
0.0
 10
6269.388024357796
 20
5263.309572991529
 30
0.0
 10
6269.234321168614
 20
5263.408378123435
 30
0.0
 10
6268.85294132418
 20
5263.512087092564
 30
0.0
 10
6268.409819513164
 20
5263.576754183913
 30
0.0
 10
6268.012000170228
 20
5263.613893050768
 30
0.0
 10
6267.580060870138
 20
5263.636272893133
 30
0.0
 10
6267.001452247164
 20
5263.6461515088
 30
0.0
 10
6266.589260654265
 20
5263.625084107034
 30
0.0
 10
6266.322368942057
 20
5263.611443084204
 30
0.0
  0
SPLINE
  5
120
330
1F
100
AcDbEntity
  8
0
  6
Continuous
 62
     7
370
    25
100
AcDbSpline
210
0.0
220
0.0
230
1.0
 70
     8
 71
     3
 72
    12
 73
     8
 74
     0
 42
0.000000001
 43
0.00000001
 40
0.0
 40
0.0
 40
0.0
 40
0.0
 40
0.2385970388078789
 40
0.4771642484763302
 40
0.7159296540531841
 40
0.9547224439390612
 40
1.0
 40
1.0
 40
1.0
 40
1.0
 10
6266.778128407752
 20
5263.47546253773
 30
0.0
 10
6266.780940287583
 20
5263.464610097682
 30
0.0
 10
6266.786563695706
 20
5263.442906574346
 30
0.0
 10
6266.80796277058
 20
5263.415787188743
 30
0.0
 10
6266.83620279857
 20
5263.396826194376
 30
0.0
 10
6266.860353974957
 20
5263.390367313566
 30
0.0
 10
6266.87354554142
 20
5263.389790794938
 30
0.0
 10
6266.875648125862
 20
5263.389698904479
 30
0.0
  0
ARC
  5
121
330
1F
100
AcDbEntity
  8
0
  6
Continuous
 62
     7
370
    25
100
AcDbCircle
 10
6267.1305218407
 20
5273.9194399147
 30
0.0
 40
10.53282518377111
100
AcDbArc
 50
268.6134191514
 51
268.7714937876
  0
SPLINE
  5
122
330
1F
100
AcDbEntity
  8
0
  6
Continuous
 62
     7
370
    25
100
AcDbSpline
210
0.0
220
0.0
230
1.0
 70
     8
 71
     3
 72
    10
 73
     6
 74
     0
 42
0.000000001
 43
0.00000001
 40
0.0
 40
0.0
 40
0.0
 40
0.0
 40
0.3610288365781013
 40
0.7220146811228156
 40
1.0
 40
1.0
 40
1.0
 40
1.0
 10
6266.904699802255
 20
5263.389035802806
 30
0.0
 10
6266.915805885748
 20
5263.389934757067
 30
0.0
 10
6266.9380167302
 20
5263.391732558541
 30
0.0
 10
6266.966275923447
 20
5263.406316516258
 30
0.0
 10
6266.978565788946
 20
5263.421521499892
 30
0.0
 10
6266.983912512516
 20
5263.428136449778
 30
0.0
  0
LINE
  5
123
330
1F
100
AcDbEntity
  8
0
  6
Continuous
 62
     7
370
    25
100
AcDbLine
 10
6267.1349190174
 20
5263.6926916656
 30
0.0
 11
6266.9046998023
 21
5263.3890358028
 31
0.0
  0
LINE
  5
124
330
1F
100
AcDbEntity
  8
0
  6
Continuous
 62
     7
370
    25
100
AcDbLine
 10
6266.8756481259
 20
5263.3896989045
 30
0.0
 11
6267.105867341
 21
5263.6933547673
 31
0.0
  0
LINE
  5
125
330
1F
100
AcDbEntity
  8
0
  6
Continuous
 62
     7
370
    25
100
AcDbLine
 10
6269.5084970443
 20
5263.7196925697
 30
0.0
 11
6270.0971441342
 21
5263.6412528572
 31
0.0
  0
LINE
  5
126
330
1F
100
AcDbEntity
  8
0
  6
Continuous
 62
     7
370
    25
100
AcDbLine
 10
6262.3121470211
 20
5263.6790496525
 30
0.0
 11
6263.2849721237
 21
5263.7490255055
 31
0.0
  0
LINE
  5
127
330
1F
100
AcDbEntity
  8
0
  6
Continuous
 62
     7
370
    25
100
AcDbLine
 10
6271.0072209126
 20
5263.519994658
 30
0.0
 11
6271.3670755735
 21
5263.4720427212
 31
0.0
  0
LINE
  5
128
330
1F
100
AcDbEntity
  8
0
  6
Continuous
 62
     7
370
    25
100
AcDbLine
 10
6264.8328507318
 20
5263.5852170405
 30
0.0
 11
6263.8342186807
 21
5263.5133934435
 31
0.0
  0
LINE
  5
129
330
1F
100
AcDbEntity
  8
0
  6
Continuous
 62
     7
370
    25
100
AcDbLine
 10
6261.4606769754
 20
5263.61780588
 30
0.0
 11
6260.9259944408
 21
5263.579345983
 31
0.0
  0
LINE
  5
12A
330
1F
100
AcDbEntity
  8
0
  6
Continuous
 62
     7
370
    25
100
AcDbLine
 10
6272.8379142469
 20
5263.6177686271
 30
0.0
 11
6273.3982812612
 21
5263.5774609861
 31
0.0
  0
LINE
  5
12B
330
1F
100
AcDbEntity
  8
0
  6
Continuous
 62
     7
370
    25
100
AcDbLine
 10
6269.4822845048
 20
5263.4443787155
 30
0.0
 11
6270.0268576852
 21
5263.371817511
 31
0.0
  0
LINE
  5
12C
330
1F
100
AcDbEntity
  8
0
  6
Continuous
 62
     7
370
    25
100
AcDbLine
 10
6262.3560067265
 20
5263.4070662079
 30
0.0
 11
6263.3281491695
 21
5263.4769899068
 31
0.0
  0
LINE
  5
12D
330
1F
100
AcDbEntity
  8
0
  6
Continuous
 62
     7
370
    25
100
AcDbLine
 10
6261.7535145952
 20
5263.3637336311
 30
0.0
 11
6260.9701856969
 21
5263.30738489
 31
0.0
  0
LINE
  5
12E
330
1F
100
AcDbEntity
  8
0
  6
Continuous
 62
     7
370
    25
100
AcDbLine
 10
6272.5749562493
 20
5263.3629587707
 30
0.0
 11
6273.3567824586
 21
5263.3067217884
 31
0.0
  0
LINE
  5
12F
330
1F
100
AcDbEntity
  8
0
  6
Continuous
 62
     7
370
    25
100
AcDbLine
 10
6270.9407254121
 20
5263.2500526724
 30
0.0
 11
6271.2962266056
 21
5263.2026818809
 31
0.0
  0
SPLINE
  5
130
330
1F
100
AcDbEntity
  8
0
  6
Continuous
 62
     7
370
    25
100
AcDbSpline
210
0.0
220
0.0
230
1.0
 70
    24
 71
     3
 72
    15
 73
    11
 74
     0
 42
0.000000001
 43
0.00000001
 40
0.0
 40
0.0
 40
0.0
 40
0.0
 40
0.127993538314143
 40
0.2530997670407834
 40
0.3718118311226946
 40
0.4947697480060685
 40
0.6230118984809131
 40
0.7526460916911997
 40
0.8795252222797593
 40
1.0
 40
1.0
 40
1.0
 40
1.0
 10
6308.599858730888
 20
5155.932005238259
 30
0.0
 10
6308.599858730888
 20
5155.965954930082
 30
0.0
 10
6308.599858730888
 20
5156.033088468265
 30
0.0
 10
6308.599858730888
 20
5156.562201043364
 30
0.0
 10
6308.599858730888
 20
5157.346408827691
 30
0.0
 10
6308.599858730888
 20
5158.386942768724
 30
0.0
 10
6308.599858730888
 20
5159.653350247218
 30
0.0
 10
6308.599858730888
 20
5161.051781861048
 30
0.0
 10
6308.599858730888
 20
5162.460695576496
 30
0.0
 10
6308.599858730888
 20
5163.324070945136
 30
0.0
 10
6308.599858730888
 20
5163.74458160671
 30
0.0
  0
LWPOLYLINE
  5
131
330
1F
100
AcDbEntity
  8
0
  6
Continuous
 62
     7
370
    25
100
AcDbPolyline
 90
        9
 70
   128
 43
0.0
 10
6308.5998587309
 20
5163.7445816067
 10
6308.5844881831
 20
5163.8062929031
 10
6308.5389614104
 20
5163.8656311897
 10
6308.4650330244
 20
5163.9203184512
 10
6308.3655454217
 20
5163.9682517615
 10
6308.2443170248
 20
5164.0075889644
 10
6308.1060044466
 20
5164.0368213174
 10
6307.9559311269
 20
5164.0548200575
 10
6307.7998600899
 20
5164.0608978686
  0
SPLINE
  5
132
330
1F
100
AcDbEntity
  8
0
  6
Continuous
 62
     7
370
    25
100
AcDbSpline
210
0.0
220
0.0
230
1.0
 70
     8
 71
     3
 72
    10
 73
     6
 74
     0
 42
0.000000001
 43
0.00000001
 40
0.0
 40
0.0
 40
0.0
 40
0.0
 40
0.4999916766888441
 40
0.7501306374163055
 40
1.0
 40
1.0
 40
1.0
 40
1.0
 10
6302.399859949803
 20
5164.060897868598
 30
0.0
 10
6302.038281033399
 20
5164.624617491857
 30
0.0
 10
6301.495809157
 20
5165.470358291224
 30
0.0
 10
6300.913739382549
 20
5166.44021498296
 30
0.0
 10
6300.837805441633
 20
5166.844425564216
 30
0.0
 10
6300.799858942484
 20
5167.046421882236
 30
0.0
  0
LINE
  5
133
330
1F
100
AcDbEntity
  8
0
  6
Continuous
 62
     7
370
    25
100
AcDbLine
 10
6307.7998600899
 20
5164.0608978686
 30
0.0
 11
6302.3998599498
 21
5164.0608978686
 31
0.0
  0
SPLINE
  5
134
330
1F
100
AcDbEntity
  8
0
  6
Continuous
 62
     7
370
    25
100
AcDbSpline
210
0.0
220
0.0
230
1.0
 70
    24
 71
     3
 72
    10
 73
     6
 74
     0
 42
0.000000001
 43
0.00000001
 40
0.0
 40
0.0
 40
0.0
 40
0.0
 40
0.3332682880655704
 40
0.6667499037179375
 40
1.0
 40
1.0
 40
1.0
 40
1.0
 10
6301.599859446143
 20
5181.062891822779
 30
0.0
 10
6301.599859446143
 20
5179.559074846295
 30
0.0
 10
6301.599859446143
 20
5176.550478288546
 30
0.0
 10
6301.599859446143
 20
5172.076597949706
 30
0.0
 10
6301.599859446143
 20
5169.182483269446
 30
0.0
 10
6301.599859446143
 20
5167.735928412998
 30
0.0
  0
LINE
  5
135
330
1F
100
AcDbEntity
  8
0
  6
Continuous
 62
     7
370
    25
100
AcDbLine
 10
6301.5998594461
 20
5181.0628918228
 30
0.0
 11
6302.3998599498
 21
5181.0628918228
 31
0.0
  0
LINE
  5
136
330
1F
100
AcDbEntity
  8
0
  6
Continuous
 62
     7
370
    25
100
AcDbLine
 10
6302.3998599498
 20
5164.0608978686
 30
0.0
 11
6302.3998599498
 21
5181.0628918228
 31
0.0
  0
SPLINE
  5
137
330
1F
100
AcDbEntity
  8
0
  6
Continuous
 62
     7
370
    25
100
AcDbSpline
210
0.0
220
0.0
230
1.0
 70
     8
 71
     3
 72
    12
 73
     8
 74
     0
 42
0.000000001
 43
0.00000001
 40
0.0
 40
0.0
 40
0.0
 40
0.0
 40
0.185428068816997
 40
0.3401613639191775
 40
0.5002734004554314
 40
0.7501303979714667
 40
1.0
 40
1.0
 40
1.0
 40
1.0
 10
6302.399859949803
 20
5164.060897868598
 30
0.0
 10
6302.333881060043
 20
5164.301684589132
 30
0.0
 10
6302.212845074102
 20
5164.743399480482
 30
0.0
 10
6302.040345777353
 20
5165.378727351878
 30
0.0
 10
6301.860057290336
 20
5166.082667220609
 30
0.0
 10
6301.666943116679
 20
5166.888991773955
 30
0.0
 10
6301.622221045661
 20
5167.453611452884
 30
0.0
 10
6301.599859446143
 20
5167.735928412998
 30
0.0
  0
LINE
  5
138
330
1F
100
AcDbEntity
  8
0
  6
Continuous
 62
     7
370
    25
100
AcDbLine
 10
6302.3998599498
 20
5181.0628918228
 30
0.0
 11
6307.7998600899
 21
5181.0628918228
 31
0.0
  0
LINE
  5
139
330
1F
100
AcDbEntity
  8
0
  6
Continuous
 62
     7
370
    25
100
AcDbLine
 10
6307.7998600899
 20
5181.0628918228
 30
0.0
 11
6307.7998600899
 21
5164.0608978686
 31
0.0
  0
ARC
  5
13A
330
1F
100
AcDbEntity
  8
0
  6
Continuous
 62
     7
370
    25
100
AcDbCircle
 10
6300.8512891436
 20
5167.7956038277
 30
0.0
 40
0.7509451730724378
100
AcDbArc
 50
266.0728931236
 51
355.4420662744
  0
SPLINE
  5
13B
330
1F
100
AcDbEntity
  8
0
  6
Continuous
 62
     7
370
    25
100
AcDbSpline
210
0.0
220
0.0
230
1.0
 70
    24
 71
     3
 72
    11
 73
     7
 74
     0
 42
0.000000001
 43
0.00000001
 40
0.0
 40
0.0
 40
0.0
 40
0.0
 40
0.2500077549440479
 40
0.5000000660977251
 40
0.7500077199077322
 40
1.0
 40
1.0
 40
1.0
 40
1.0
 10
6308.599858730888
 20
5163.74458160671
 30
0.0
 10
6308.599858730888
 20
5165.124563025087
 30
0.0
 10
6308.599858730888
 20
5167.884440615909
 30
0.0
 10
6308.599858730888
 20
5172.208840633178
 30
0.0
 10
6308.599858730888
 20
5176.611140974905
 30
0.0
 10
6308.599858730888
 20
5179.579005291564
 30
0.0
 10
6308.599858730888
 20
5181.062891822779
 30
0.0
  0
LINE
  5
13C
330
1F
100
AcDbEntity
  8
0
  6
Continuous
 62
     7
370
    25
100
AcDbLine
 10
6308.5998587309
 20
5181.0628918228
 30
0.0
 11
6307.7998600899
 21
5181.0628918228
 31
0.0
  0
LINE
  5
13D
330
1F
100
AcDbEntity
  8
0
  6
Continuous
 62
     7
370
    25
100
AcDbLine
 10
6307.7998600899
 20
5189.4172762749
 30
0.0
 11
6307.7998600899
 21
5181.0628918228
 31
0.0
  0
LINE
  5
13E
330
1F
100
AcDbEntity
  8
0
  6
Continuous
 62
     7
370
    25
100
AcDbLine
 10
6308.5998587309
 20
5189.4172762749
 30
0.0
 11
6307.7998600899
 21
5189.4172762749
 31
0.0
  0
LINE
  5
13F
330
1F
100
AcDbEntity
  8
0
  6
Continuous
 62
     7
370
    25
100
AcDbLine
 10
6308.5998587309
 20
5189.4172762749
 30
0.0
 11
6308.5998587309
 21
5181.0628918228
 31
0.0
  0
LINE
  5
140
330
1F
100
AcDbEntity
  8
0
  6
Continuous
 62
     7
370
    25
100
AcDbLine
 10
6302.3998599498
 20
5189.4172762749
 30
0.0
 11
6301.5998594461
 21
5189.4172762749
 31
0.0
  0
LINE
  5
141
330
1F
100
AcDbEntity
  8
0
  6
Continuous
 62
     7
370
    25
100
AcDbLine
 10
6302.3998599498
 20
5181.0628918228
 30
0.0
 11
6302.3998599498
 21
5189.4172762749
 31
0.0
  0
LINE
  5
142
330
1F
100
AcDbEntity
  8
0
  6
Continuous
 62
     7
370
    25
100
AcDbLine
 10
6301.5998594461
 20
5181.0628918228
 30
0.0
 11
6301.5998594461
 21
5189.4172762749
 31
0.0
  0
LINE
  5
143
330
1F
100
AcDbEntity
  8
0
  6
Continuous
 62
     7
370
    25
100
AcDbLine
 10
6302.3998599498
 20
5190.2172749159
 30
0.0
 11
6302.3998599498
 21
5189.4172762749
 31
0.0
  0
LINE
  5
144
330
1F
100
AcDbEntity
  8
0
  6
Continuous
 62
     7
370
    25
100
AcDbLine
 10
6307.7998600899
 20
5190.2172749159
 30
0.0
 11
6302.3998599498
 21
5190.2172749159
 31
0.0
  0
LINE
  5
145
330
1F
100
AcDbEntity
  8
0
  6
Continuous
 62
     7
370
    25
100
AcDbLine
 10
6307.7998600899
 20
5189.4172762749
 30
0.0
 11
6307.7998600899
 21
5190.2172749159
 31
0.0
  0
LINE
  5
146
330
1F
100
AcDbEntity
  8
0
  6
Continuous
 62
     7
370
    25
100
AcDbLine
 10
6302.3998599498
 20
5189.4172762749
 30
0.0
 11
6307.7998600899
 21
5189.4172762749
 31
0.0
  0
ARC
  5
147
330
1F
100
AcDbEntity
  8
0
  6
Continuous
 62
     7
370
    25
100
AcDbCircle
 10
6302.3998591939
 20
5189.4172766098
 30
0.0
 40
0.8000000000010914
100
AcDbArc
 50
90.0
 51
180.0
  0
ARC
  5
148
330
1F
100
AcDbEntity
  8
0
  6
Continuous
 62
     7
370
    25
100
AcDbCircle
 10
6307.7998591939
 20
5189.4172766098
 30
0.0
 40
0.8000000000010914
100
AcDbArc
 50
0.0
 51
90.0
  0
SPLINE
  5
149
330
1F
100
AcDbEntity
  8
0
  6
Continuous
 62
     7
370
    25
100
AcDbSpline
210
0.0
220
0.0
230
1.0
 70
     8
 71
     3
 72
    30
 73
    26
 74
     0
 42
0.000000001
 43
0.00000001
 40
0.0
 40
0.0
 40
0.0
 40
0.0
 40
0.1188416039031305
 40
0.2497889819503265
 40
0.3353548631285322
 40
0.4185544367090601
 40
0.499815818956254
 40
0.5496792659474703
 40
0.6081072957823161
 40
0.6748961105310143
 40
0.7498924797758576
 40
0.8329927314077096
 40
0.8590736732470104
 40
0.8749517772939581
 40
0.9374573148279477
 40
0.9687213183920051
 40
0.9843583201019012
 40
0.9921784970007627
 40
0.9980424563681063
 40
0.9995095419064296
 40
0.9998768534563389
 40
0.9999689296162884
 40
0.9999920905301739
 40
0.9999979428284758
 40
1.0
 40
1.0
 40
1.0
 40
1.0
 10
6309.170863777255
 20
5161.530369636142
 30
0.0
 10
6309.171071552488
 20
5161.270005181776
 30
0.0
 10
6309.171508267931
 20
5160.722754304506
 30
0.0
 10
6309.172286309054
 20
5160.015056136699
 30
0.0
 10
6309.171739334121
 20
5159.425170311607
 30
0.0
 10
6309.171092571181
 20
5158.968872174592
 30
0.0
 10
6309.17074548676
 20
5158.61502928031
 30
0.0
 10
6309.171075147414
 20
5158.333921696631
 30
0.0
 10
6309.17158584886
 20
5158.099544509091
 30
0.0
 10
6309.171970618592
 20
5157.866325059671
 30
0.0
 10
6309.172139678946
 20
5157.65157999746
 30
0.0
 10
6309.171914368905
 20
5157.520915914992
 30
0.0
 10
6309.171663475853
 20
5157.45466111804
 30
0.0
 10
6309.171425744111
 20
5157.406582529114
 30
0.0
 10
6309.171133580899
 20
5157.370420898867
 30
0.0
 10
6309.17093910812
 20
5157.352218220961
 30
0.0
 10
6309.170883264422
 20
5157.347639378681
 30
0.0
 10
6309.170873359481
 20
5157.346408590794
 30
0.0
 10
6309.170863254823
 20
5157.346145599786
 30
0.0
 10
6309.170863790913
 20
5157.346110254804
 30
0.0
 10
6309.170863776898
 20
5157.346108630291
 30
0.0
 10
6309.170863777264
 20
5157.346108672838
 30
0.0
 10
6309.170863777255
 20
5157.346108671721
 30
0.0
 10
6309.170863777255
 20
5157.34610867175
 30
0.0
 10
6309.170863777255
 20
5157.34610867175
 30
0.0
 10
6309.170863777255
 20
5157.346108671749
 30
0.0
  0
SPLINE
  5
14A
330
1F
100
AcDbEntity
  8
0
  6
Continuous
 62
     8
370
    25
100
AcDbSpline
210
0.0
220
0.0
230
1.0
 70
     8
 71
     3
 72
     9
 73
     5
 74
     0
 42
0.000000001
 43
0.00000001
 40
0.0
 40
0.0
 40
0.0
 40
0.0
 40
0.8634938617768787
 40
0.9999999999999999
 40
0.9999999999999999
 40
0.9999999999999999
 40
0.9999999999999999
 10
6241.369496285772
 20
5280.512235802138
 30
0.0
 10
6241.359058387483
 20
5280.517653232738
 30
0.0
 10
6241.346970405448
 20
5280.523927082316
 30
0.0
 10
6241.332402828873
 20
5280.511581559477
 30
0.0
 10
6241.330414265251
 20
5280.509896319831
 30
0.0
  0
SPLINE
  5
14B
330
1F
100
AcDbEntity
  8
0
  6
Continuous
 62
     8
370
    25
100
AcDbSpline
210
0.0
220
0.0
230
1.0
 70
     8
 71
     3
 72
    25
 73
    21
 74
     0
 42
0.000000001
 43
0.00000001
 40
0.0
 40
0.0
 40
0.0
 40
0.0
 40
0.0267213193459271
 40
0.0575773243790221
 40
0.0994187925004835
 40
0.1493548795718738
 40
0.1918967094470477
 40
0.2255749023658814
 40
0.2500865216593941
 40
0.3677945573574332
 40
0.4916690801041778
 40
0.6156703300877546
 40
0.7333025712577117
 40
0.7718256708501271
 40
0.8111108826815651
 40
0.8511380914264673
 40
0.8918870048085729
 40
0.9333376741638623
 40
0.9754721757462937
 40
1.0
 40
1.0
 40
1.0
 40
1.0
 10
6240.913554280853
 20
5278.629295271361
 30
0.0
 10
6240.906471537817
 20
5278.545610718263
 30
0.0
 10
6240.891210113487
 20
5278.365292800692
 30
0.0
 10
6240.868166605597
 20
5278.006622561898
 30
0.0
 10
6240.841387447313
 20
5277.52781212525
 30
0.0
 10
6240.814906538052
 20
5276.940559955829
 30
0.0
 10
6240.792542525923
 20
5276.331873009667
 30
0.0
 10
6240.776354976142
 20
5275.808645327976
 30
0.0
 10
6240.750864435281
 20
5274.844679949611
 30
0.0
 10
6240.721526548708
 20
5273.201547158493
 30
0.0
 10
6240.694934333139
 20
5270.54119417073
 30
0.0
 10
6240.678858477772
 20
5267.482874706786
 30
0.0
 10
6240.672094317457
 20
5264.854356404825
 30
0.0
 10
6240.669093882153
 20
5262.908715600077
 30
0.0
 10
6240.667669161689
 20
5261.704398297744
 30
0.0
 10
6240.666582437831
 20
5260.447009832206
 30
0.0
 10
6240.665757228992
 20
5259.138366042514
 30
0.0
 10
6240.665175580611
 20
5257.778122452751
 30
0.0
 10
6240.664822464957
 20
5256.57821382312
 30
0.0
 10
6240.664687494792
 20
5255.819638392925
 30
0.0
 10
6240.66463783369
 20
5255.540527146781
 30
0.0
  0
SPLINE
  5
14C
330
1F
100
AcDbEntity
  8
0
  6
Continuous
 62
     7
370
    18
100
AcDbSpline
210
0.0
220
0.0
230
1.0
 70
    24
 71
     3
 72
    12
 73
     8
 74
     0
 42
0.000000001
 43
0.00000001
 40
0.0
 40
0.0
 40
0.0
 40
0.0
 40
0.2261814626140927
 40
0.4524055847671996
 40
0.6784699939381055
 40
0.9045032001354522
 40
1.0
 40
1.0
 40
1.0
 40
1.0
 10
6267.164272442316
 20
5247.030369680846
 30
0.0
 10
6267.164272442316
 20
5248.251778725868
 30
0.0
 10
6267.164272442316
 20
5250.694827182918
 30
0.0
 10
6267.164272442316
 20
5254.284569274724
 30
0.0
 10
6267.164272442316
 20
5257.699620528415
 30
0.0
 10
6267.164272442316
 20
5260.327208937892
 30
0.0
 10
6267.164272442316
 20
5261.680262502288
 30
0.0
 10
6267.164272442316
 20
5262.082129460299
 30
0.0
  0
LINE
  5
14D
330
1F
100
AcDbEntity
  8
0
  6
Continuous
 62
     8
370
    25
100
AcDbLine
 10
6267.2412537037
 20
5262.4540996966
 30
0.0
 11
6266.8424595146
 21
5262.4557313738
 31
0.0
  0
LWPOLYLINE
  5
14E
330
1F
100
AcDbEntity
  8
0
  6
Continuous
 62
     8
370
    25
100
AcDbPolyline
 90
       17
 70
   128
 43
0.0
 10
6263.3524771778
 20
5263.3237165627
 10
6263.3510597049
 20
5263.3417693195
 10
6263.4466646238
 20
5263.4891120014
 10
6263.7286858632
 20
5263.6290711579
 10
6264.1829822211
 20
5263.7546208915
 10
6264.7867726161
 20
5263.8594654617
 10
6265.5097816138
 20
5263.9383522091
 10
6266.3157528265
 20
5263.9873248753
 10
6267.1642724423
 20
5264.0039247689
 10
6268.0127920581
 20
5263.9873248753
 10
6268.8187632708
 20
5263.9383522091
 10
6269.5417718029
 20
5263.8594654617
 10
6270.1455621979
 20
5263.7546208915
 10
6270.5998585558
 20
5263.6290711579
 10
6270.8818797952
 20
5263.4891120014
 10
6270.9774851798
 20
5263.3417693195
 10
6270.9759633987
 20
5263.3230683622
  0
SPLINE
  5
14F
330
1F
100
AcDbEntity
  8
0
  6
Continuous
 62
     8
370
    25
100
AcDbSpline
210
0.0
220
0.0
230
1.0
 70
     8
 71
     3
 72
    12
 73
     8
 74
     0
 42
0.000000001
 43
0.00000001
 40
0.0
 40
0.0
 40
0.0
 40
0.0
 40
0.1694864877779622
 40
0.3425753292441269
 40
0.5156603267802176
 40
0.685150523023632
 40
1.0
 40
1.0
 40
1.0
 40
1.0
 10
6263.4503209962
 20
5263.248339038813
 30
0.0
 10
6263.461070168079
 20
5263.29180966988
 30
0.0
 10
6263.482796980307
 20
5263.379674879347
 30
0.0
 10
6263.70973387069
 20
5263.50718744618
 30
0.0
 10
6264.072923663678
 20
5263.623595049532
 30
0.0
 10
6264.695574154476
 20
5263.755372962774
 30
0.0
 10
6265.33025086682
 20
5263.815386628996
 30
0.0
 10
6265.742828324293
 20
5263.85439906689
 30
0.0
  0
SPLINE
  5
150
330
1F
100
AcDbEntity
  8
0
  6
Continuous
 62
     8
370
    25
100
AcDbSpline
210
0.0
220
0.0
230
1.0
 70
     8
 71
     3
 72
    14
 73
    10
 74
     0
 42
0.000000001
 43
0.00000001
 40
0.0
 40
0.0
 40
0.0
 40
0.0
 40
0.1931950177624186
 40
0.2971952890142367
 40
0.4034023583149026
 40
0.5096096429894962
 40
0.6136104926669554
 40
0.8068039850533917
 40
1.0
 40
1.0
 40
1.0
 40
1.0
 10
6265.742828324293
 20
5263.85439906689
 30
0.0
 10
6266.193467555848
 20
5263.877487804303
 30
0.0
 10
6266.886693800572
 20
5263.913005614589
 30
0.0
 10
6267.863191830945
 20
5263.896175007335
 30
0.0
 10
6268.595440488872
 20
5263.858762679346
 30
0.0
 10
6269.269748223282
 20
5263.795349701442
 30
0.0
 10
6270.011296762287
 20
5263.68643252767
 30
0.0
 10
6270.702986320011
 20
5263.511250833744
 30
0.0
 10
6270.819811111393
 20
5263.349511877182
 30
0.0
 10
6270.878223888432
 20
5263.26864187094
 30
0.0
  0
LWPOLYLINE
  5
151
330
1F
100
AcDbEntity
  8
0
  6
Continuous
 62
     8
370
    25
100
AcDbPolyline
 90
        8
 70
   128
 43
0.0
 10
6266.2808477877
 20
5263.7181353984
 10
6266.9175045563
 20
5263.7463507471
 10
6267.5741540267
 20
5263.7422827301
 10
6268.1975962593
 20
5263.7062442717
 10
6268.7373256309
 20
5263.6411709008
 10
6269.1496151498
 20
5263.5523301777
 10
6269.401063863
 20
5263.4469193635
 10
6269.4724567233
 20
5263.3411583719
  0
ARC
  5
152
330
1F
100
AcDbEntity
  8
0
  6
Continuous
 62
     8
370
    25
100
AcDbCircle
 10
6266.0803237448
 20
5261.4883003131
 30
0.0
 40
2.238833267422865
100
AcDbArc
 50
84.8613420618
 51
123.1026645988
  0
SPLINE
  5
153
330
1F
100
AcDbEntity
  8
0
  6
Continuous
 62
     8
370
    25
100
AcDbSpline
210
0.0
220
0.0
230
1.0
 70
     8
 71
     3
 72
    12
 73
     8
 74
     0
 42
0.000000001
 43
0.00000001
 40
0.0
 40
0.0
 40
0.0
 40
0.0
 40
0.1711903517312756
 40
0.3425842908828725
 40
0.5137786982552166
 40
0.6851736594359106
 40
1.0
 40
1.0
 40
1.0
 40
1.0
 10
6264.955609291648
 20
5263.252459209883
 30
0.0
 10
6264.961872012286
 20
5263.278579167866
 30
0.0
 10
6264.974404901476
 20
5263.330850146885
 30
0.0
 10
6265.110498788693
 20
5263.40632035336
 30
0.0
 10
6265.324148634082
 20
5263.47544193162
 30
0.0
 10
6265.69504497113
 20
5263.553797542575
 30
0.0
 10
6266.073743408165
 20
5263.589655628817
 30
0.0
 10
6266.318949125563
 20
5263.612873595679
 30
0.0
  0
LINE
  5
154
330
1F
100
AcDbEntity
  8
0
  6
Continuous
 62
     8
370
    25
100
AcDbLine
 10
6266.2808477877
 20
5263.7181353984
 30
0.0
 11
6266.2720756604
 21
5263.9626038489
 31
0.0
  0
SPLINE
  5
155
330
1F
100
AcDbEntity
  8
0
  6
Continuous
 62
     8
370
    25
100
AcDbSpline
210
0.0
220
0.0
230
1.0
 70
     8
 71
     3
 72
    12
 73
     8
 74
     0
 42
0.000000001
 43
0.00000001
 40
0.0
 40
0.0
 40
0.0
 40
0.0
 40
0.3200832841170628
 40
0.4941337966752915
 40
0.668387327326333
 40
0.842436736604392
 40
1.0
 40
1.0
 40
1.0
 40
1.0
 10
6268.006175942575
 20
5262.905545276129
 30
0.0
 10
6268.250377301066
 20
5262.92867010782
 30
0.0
 10
6268.627367135938
 20
5262.964369444359
 30
0.0
 10
6268.996910196053
 20
5263.042385344938
 30
0.0
 10
6269.209322896913
 20
5263.111223068288
 30
0.0
 10
6269.341924303433
 20
5263.183974597747
 30
0.0
 10
6269.35440415823
 20
5263.233521724603
 30
0.0
 10
6269.360333867227
 20
5263.257063668692
 30
0.0
  0
LWPOLYLINE
  5
156
330
1F
100
AcDbEntity
  8
0
  6
Continuous
 62
     8
370
    25
100
AcDbPolyline
 90
       12
 70
   128
 43
0.0
 10
6269.2632048389
 20
5263.3453530488
 10
6269.2116207442
 20
5263.2758316812
 10
6268.9829256384
 20
5263.1746453461
 10
6268.5926353557
 20
5263.0896565733
 10
6268.0754281579
 20
5263.0284277019
 10
6267.4772610886
 20
5262.9963827548
 10
6266.851283796
 20
5262.9963827548
 10
6266.2531167267
 20
5263.0284277019
 10
6265.7359095289
 20
5263.0896565733
 10
6265.3456192462
 20
5263.1746453461
 10
6265.1169236748
 20
5263.2758316812
 10
6265.0642722844
 20
5263.357162219
  0
LINE
  5
157
330
1F
100
AcDbEntity
  8
0
  6
Continuous
 62
     8
370
    25
100
AcDbLine
 10
6261.6448860614
 20
5263.8789561805
 30
0.0
 11
6261.7654057218
 21
5263.8761994657
 31
0.0
  0
LINE
  5
158
330
1F
100
AcDbEntity
  8
0
  6
Continuous
 62
     8
370
    25
100
AcDbLine
 10
6272.5636849178
 20
5263.87548421
 30
0.0
 11
6272.6861435919
 21
5263.8782856283
 31
0.0
  0
LINE
  5
159
330
1F
100
AcDbEntity
  8
0
  6
Continuous
 62
     8
370
    25
100
AcDbLine
 10
6261.7626070975
 20
5263.8725114283
 30
0.0
 11
6261.6320328786
 21
5263.8754916606
 31
0.0
  0
LINE
  5
15A
330
1F
100
AcDbEntity
  8
0
  6
Continuous
 62
     8
370
    25
100
AcDbLine
 10
6272.694040276
 20
5263.8761622128
 30
0.0
 11
6272.5654041393
 21
5263.8732192335
 31
0.0
  0
LINE
  5
15B
330
1F
100
AcDbEntity
  8
0
  6
Continuous
 62
     8
370
    25
100
AcDbLine
 10
6266.8968850745
 20
5263.6321035442
 30
0.0
 11
6266.7781284078
 21
5263.4754625377
 31
0.0
  0
LINE
  5
15C
330
1F
100
AcDbEntity
  8
0
  6
Continuous
 62
     8
370
    25
100
AcDbLine
 10
6271.0301402955
 20
5263.6643943605
 30
0.0
 11
6272.1024609169
 21
5263.6398819503
 31
0.0
  0
LINE
  5
15D
330
1F
100
AcDbEntity
  8
0
  6
Continuous
 62
     8
370
    25
100
AcDbLine
 10
6271.8443364835
 20
5263.7505454239
 30
0.0
 11
6271.0467085241
 21
5263.7687844453
 31
0.0
  0
LINE
  5
15E
330
1F
100
AcDbEntity
  8
0
  6
Continuous
 62
     8
370
    25
100
AcDbLine
 10
6272.1098593435
 20
5263.6359554944
 30
0.0
 11
6271.0295465773
 21
5263.660654169
 31
0.0
  0
LINE
  5
15F
330
1F
100
AcDbEntity
  8
0
  6
Continuous
 62
     8
370
    25
100
AcDbLine
 10
6273.1780451255
 20
5263.7200576481
 30
0.0
 11
6272.6101914419
 21
5263.7330365595
 31
0.0
  0
LINE
  5
160
330
1F
100
AcDbEntity
  8
0
  6
Continuous
 62
     8
370
    25
100
AcDbLine
 10
6272.6002383976
 20
5263.6285049138
 30
0.0
 11
6273.420374561
 21
5263.6097518024
 31
0.0
  0
LINE
  5
161
330
1F
100
AcDbEntity
  8
0
  6
Continuous
 62
     8
370
    25
100
AcDbLine
 10
6260.9067626296
 20
5263.6089992938
 30
0.0
 11
6261.7283744736
 21
5263.6277822075
 31
0.0
  0
LINE
  5
162
330
1F
100
AcDbEntity
  8
0
  6
Continuous
 62
     8
370
    25
100
AcDbLine
 10
6261.7179948835
 20
5263.7367991027
 30
0.0
 11
6261.160738021
 21
5263.7240586099
 31
0.0
  0
LINE
  5
163
330
1F
100
AcDbEntity
  8
0
  6
Continuous
 62
     8
370
    25
100
AcDbLine
 10
6273.427630728
 20
5263.605832797
 30
0.0
 11
6272.599881701
 21
5263.6247572717
 31
0.0
  0
LINE
  5
164
330
1F
100
AcDbEntity
  8
0
  6
Continuous
 62
     8
370
    25
100
AcDbLine
 10
6261.7285942657
 20
5263.625479978
 30
0.0
 11
6260.9023053198
 21
5263.6065853057
 31
0.0
  0
LINE
  5
165
330
1F
100
AcDbEntity
  8
0
  6
Continuous
 62
     8
370
    25
100
AcDbLine
 10
6264.8332316427
 20
5263.5812160787
 30
0.0
 11
6263.8424227013
 21
5263.5099512753
 31
0.0
  0
LINE
  5
166
330
1F
100
AcDbEntity
  8
0
  6
Continuous
 62
     8
370
    25
100
AcDbLine
 10
6269.4925430229
 20
5263.5521215615
 30
0.0
 11
6270.0860213487
 21
5263.473041099
 31
0.0
  0
LINE
  5
167
330
1F
100
AcDbEntity
  8
0
  6
Continuous
 62
     8
370
    25
100
AcDbLine
 10
6262.3190490528
 20
5263.5104430136
 30
0.0
 11
6263.3115092291
 21
5263.5818270263
 31
0.0
  0
LINE
  5
168
330
1F
100
AcDbEntity
  8
0
  6
Continuous
 62
     8
370
    25
100
AcDbLine
 10
6269.4818435235
 20
5263.4397444543
 30
0.0
 11
6270.0138056649
 21
5263.3688670811
 31
0.0
  0
LINE
  5
169
330
1F
100
AcDbEntity
  8
0
  6
Continuous
 62
     8
370
    25
100
AcDbLine
 10
6263.3287815376
 20
5263.4730038461
 30
0.0
 11
6262.3642116784
 21
5263.4036240396
 31
0.0
  0
LINE
  5
16A
330
1F
100
AcDbEntity
  8
0
  6
Continuous
 62
     8
370
    25
100
AcDbLine
 10
6261.7434879763
 20
5263.4690475878
 30
0.0
 11
6260.9329886733
 21
5263.4107467947
 31
0.0
  0
LINE
  5
16B
330
1F
100
AcDbEntity
  8
0
  6
Continuous
 62
     8
370
    25
100
AcDbLine
 10
6273.3941853045
 20
5263.4145689425
 30
0.0
 11
6272.5854084826
 21
5263.4727430758
 31
0.0
  0
LINE
  5
16C
330
1F
100
AcDbEntity
  8
0
  6
Continuous
 62
     8
370
    25
100
AcDbLine
 10
6261.7538955061
 20
5263.3597252187
 30
0.0
 11
6260.9783887862
 21
5263.3039501724
 31
0.0
  0
LINE
  5
16D
330
1F
100
AcDbEntity
  8
0
  6
Continuous
 62
     8
370
    25
100
AcDbLine
 10
6273.3517416751
 20
5263.3046132741
 30
0.0
 11
6272.5747220217
 21
5263.3605000791
 31
0.0
  0
LINE
  5
16E
330
1F
100
AcDbEntity
  8
0
  6
Continuous
 62
     8
370
    25
100
AcDbLine
 10
6270.9808444603
 20
5263.3538169083
 30
0.0
 11
6271.3557977228
 21
5263.3038533148
 31
0.0
  0
LINE
  5
16F
330
1F
100
AcDbEntity
  8
0
  6
Continuous
 62
     8
370
    25
100
AcDbLine
 10
6271.2831750511
 20
5263.199731451
 30
0.0
 11
6270.9372394717
 21
5263.2458207426
 31
0.0
  0
LINE
  5
170
330
1F
100
AcDbEntity
  8
0
  6
Continuous
 62
     8
370
    25
100
AcDbLine
 10
6272.4597209132
 20
5263.1567639527
 30
0.0
 11
6272.5460349581
 21
5263.1452602563
 31
0.0
  0
LINE
  5
171
330
1F
100
AcDbEntity
  8
0
  6
Continuous
 62
     8
370
    25
100
AcDbLine
 10
6261.8651317431
 20
5263.1598708448
 30
0.0
 11
6261.7847297339
 21
5263.1491643605
 31
0.0
  0
LINE
  5
172
330
1F
100
AcDbEntity
  8
0
  6
Continuous
 62
     8
370
    25
100
AcDbLine
 10
6307.7998600899
 20
5155.1303693322
 30
0.0
 11
6307.7998600899
 21
5164.0608978686
 31
0.0
  0
LINE
  5
173
330
1F
100
AcDbEntity
  8
0
  6
Continuous
 62
     8
370
    25
100
AcDbLine
 10
6300.7998589425
 20
5167.0464218822
 30
0.0
 11
6300.7998589425
 21
5167.9303699401
 31
0.0
  0
SPLINE
  5
174
330
1F
100
AcDbEntity
  8
0
  6
Continuous
 62
     8
370
    25
100
AcDbSpline
210
0.0
220
0.0
230
1.0
 70
     8
 71
     3
 72
    12
 73
     8
 74
     0
 42
0.000000001
 43
0.00000001
 40
0.0
 40
0.0
 40
0.0
 40
0.0
 40
0.0006570835592225
 40
0.2504927956302745
 40
0.5003286409994827
 40
0.7501643926551829
 40
1.0
 40
1.0
 40
1.0
 40
1.0
 10
6309.170867502546
 20
5165.713783096993
 30
0.0
 10
6309.170866256173
 20
5165.714066283758
 30
0.0
 10
6309.170391115284
 20
5165.822022484492
 30
0.0
 10
6309.173455540721
 20
5165.440627775977
 30
0.0
 10
6309.169692822732
 20
5164.581654557752
 30
0.0
 10
6309.172955830801
 20
5163.167285048055
 30
0.0
 10
6309.171561128303
 20
5162.076008001722
 30
0.0
 10
6309.170863777255
 20
5161.530369636142
 30
0.0
  0
LINE
  5
175
330
1F
100
AcDbEntity
  8
0
  6
Continuous
 62
     7
370
    25
100
AcDbLine
 10
6542.0967877571
 20
5166.0303694424
 30
0.0
 11
6542.3209421996
 21
5166.0303694424
 31
0.0
  0
LINE
  5
176
330
1F
100
AcDbEntity
  8
0
  6
Continuous
 62
     7
370
    25
100
AcDbLine
 10
6542.3209421996
 20
5188.0303693232
 30
0.0
 11
6542.1063170497
 21
5188.0303693232
 31
0.0
  0
LINE
  5
177
330
1F
100
AcDbEntity
  8
0
  6
Continuous
 62
     7
370
    25
100
AcDbLine
 10
6542.3209421996
 20
5166.0303694424
 30
0.0
 11
6542.3209421996
 21
5188.0303693232
 31
0.0
  0
LINE
  5
178
330
1F
100
AcDbEntity
  8
0
  6
Continuous
 62
     7
370
    25
100
AcDbLine
 10
6675.1061153326
 20
5282.0137513098
 30
0.0
 11
6675.1061153326
 21
5284.3025249657
 31
0.0
  0
LINE
  5
179
330
1F
100
AcDbEntity
  8
0
  6
Continuous
 62
     7
370
    25
100
AcDbLine
 10
6542.1063170497
 20
5188.079181802
 30
0.0
 11
6542.1063170497
 21
5247.0303771314
 31
0.0
  0
LINE
  5
17A
330
1F
100
AcDbEntity
  8
0
  6
Continuous
 62
     7
370
    25
100
AcDbLine
 10
6542.1063170497
 20
5127.0303686378
 30
0.0
 11
6542.1063170497
 21
5165.9815588263
 31
0.0
  0
LINE
  5
17B
330
1F
100
AcDbEntity
  8
0
  6
Continuous
 62
     7
370
    25
100
AcDbLine
 10
6489.1063158129
 20
5134.3303692755
 30
0.0
 11
6489.1063158129
 21
5127.0303686378
 31
0.0
  0
LINE
  5
17C
330
1F
100
AcDbEntity
  8
0
  6
Continuous
 62
     7
370
    25
100
AcDbLine
 10
6489.1063158129
 20
5156.4803698328
 30
0.0
 11
6489.1063158129
 21
5137.7303695534
 31
0.0
  0
LINE
  5
17D
330
1F
100
AcDbEntity
  8
0
  6
Continuous
 62
     7
370
    25
100
AcDbLine
 10
6489.1063158129
 20
5284.3025249657
 30
0.0
 11
6489.1063158129
 21
5161.5803686199
 31
0.0
  0
SPLINE
  5
17E
330
1F
100
AcDbEntity
  8
0
  6
Continuous
 62
     7
370
    25
100
AcDbSpline
210
0.0
220
0.0
230
1.0
 70
     8
 71
     3
 72
    11
 73
     7
 74
     0
 42
0.000000001
 43
0.00000001
 40
0.0
 40
0.0
 40
0.0
 40
0.0
 40
0.2464298715089401
 40
0.4999981198764697
 40
0.7535659492270934
 40
1.0
 40
1.0
 40
1.0
 40
1.0
 10
6674.276433578524
 20
5280.40791277262
 30
0.0
 10
6674.397065116275
 20
5280.508034621354
 30
0.0
 10
6674.641822546468
 20
5280.711178565792
 30
0.0
 10
6674.904538021457
 20
5281.116436896695
 30
0.0
 10
6675.076792530214
 20
5281.567641048511
 30
0.0
 10
6675.096434479021
 20
5281.885114654061
 30
0.0
 10
6675.106115332636
 20
5282.041586678946
 30
0.0
  0
SPLINE
  5
17F
330
1F
100
AcDbEntity
  8
0
  6
Continuous
 62
     7
370
    25
100
AcDbSpline
210
0.0
220
0.0
230
1.0
 70
     8
 71
     3
 72
    11
 73
     7
 74
     0
 42
0.000000001
 43
0.00000001
 40
0.0
 40
0.0
 40
0.0
 40
0.0
 40
0.2420782248417715
 40
0.5004890715828911
 40
0.7586260590214643
 40
1.0
 40
1.0
 40
1.0
 40
1.0
 10
6675.106115332636
 20
5284.302703779662
 30
0.0
 10
6675.082452914567
 20
5284.535243382824
 30
0.0
 10
6675.033531613783
 20
5285.016011655843
 30
0.0
 10
6674.640283905055
 20
5285.650188528729
 30
0.0
 10
6674.062708498835
 20
5286.12140727106
 30
0.0
 10
6673.593344971317
 20
5286.232238896728
 30
0.0
 10
6673.366538873705
 20
5286.285795014823
 30
0.0
  0
ARC
  5
180
330
1F
100
AcDbEntity
  8
0
  6
Continuous
 62
     7
370
    25
100
AcDbCircle
 10
6491.1063166664
 20
5284.3025199591
 30
0.0
 40
1.999999999999633
100
AcDbArc
 50
98.0681504999
 51
180.0
  0
ARC
  5
181
330
1F
100
AcDbEntity
  8
0
  6
Continuous
 62
     7
370
    25
100
AcDbCircle
 10
6648.6074613321
 20
5315.5442583688
 30
0.0
 40
43.51388888888965
100
AcDbArc
 50
299.1922089431
 51
306.1655951895
  0
LINE
  5
182
330
1F
100
AcDbEntity
  8
0
  6
Continuous
 62
     7
370
    25
100
AcDbLine
 10
6567.0912150953
 20
5272.0303756413
 30
0.0
 11
6619.3222400461
 21
5272.0303756413
 31
0.0
  0
ARC
  5
183
330
1F
100
AcDbEntity
  8
0
  6
Continuous
 62
     7
370
    25
100
AcDbCircle
 10
6515.6063166664
 20
5111.46786948
 30
0.0
 40
176.5624999999994
100
AcDbArc
 50
90.0
 51
98.0681505001
  0
ARC
  5
184
330
1F
100
AcDbEntity
  8
0
  6
Continuous
 62
     7
370
    25
100
AcDbCircle
 10
6648.6074613321
 20
5111.46786948
 30
0.0
 40
176.5625000000025
100
AcDbArc
 50
81.9322915933
 51
90.0
  0
LINE
  5
185
330
1F
100
AcDbEntity
  8
0
  6
Continuous
 62
     7
370
    25
100
AcDbLine
 10
6648.6074548874
 20
5288.0303633628
 30
0.0
 11
6515.6063166641
 21
5288.0303633628
 31
0.0
  0
SPLINE
  5
186
330
1F
100
AcDbEntity
  8
0
  6
Continuous
 62
     7
370
    25
100
AcDbSpline
210
0.0
220
0.0
230
1.0
 70
     8
 71
     3
 72
    16
 73
    12
 74
     0
 42
0.000000001
 43
0.00000001
 40
0.0
 40
0.0
 40
0.0
 40
0.0
 40
0.1527861449651129
 40
0.2795813421436264
 40
0.3479623544363977
 40
0.4026902153916923
 40
0.448989678399223
 40
0.541895849759597
 40
0.666125348619073
 40
0.8200696507054465
 40
1.0
 40
1.0
 40
1.0
 40
1.0
 10
6619.314968279395
 20
5272.03037564131
 30
0.0
 10
6620.130683001047
 20
5271.992763333664
 30
0.0
 10
6621.623348561383
 20
5271.923937070291
 30
0.0
 10
6623.435603254401
 20
5271.481906514661
 30
0.0
 10
6624.695320013895
 20
5271.045999108085
 30
0.0
 10
6625.527845485678
 20
5270.693449399249
 30
0.0
 10
6626.457426510849
 20
5270.239631573064
 30
0.0
 10
6627.673461903472
 20
5269.530566533444
 30
0.0
 10
6629.255959689905
 20
5268.336241315676
 30
0.0
 10
6631.000587699697
 20
5266.600615657275
 30
0.0
 10
6631.947181299038
 20
5265.086060991316
 30
0.0
 10
6632.45731561521
 20
5264.269843440974
 30
0.0
  0
SPLINE
  5
187
330
1F
100
AcDbEntity
  8
0
  6
Continuous
 62
     7
370
    25
100
AcDbSpline
210
0.0
220
0.0
230
1.0
 70
     8
 71
     3
 72
    14
 73
    10
 74
     0
 42
0.000000001
 43
0.00000001
 40
0.0
 40
0.0
 40
0.0
 40
0.0
 40
0.1275062286777531
 40
0.2597260365801106
 40
0.3606308418152338
 40
0.4345361407384257
 40
0.5676255885209579
 40
0.7573986517355772
 40
1.0
 40
1.0
 40
1.0
 40
1.0
 10
6663.123435965571
 20
5269.735969346488
 30
0.0
 10
6663.286292237322
 20
5270.15562422034
 30
0.0
 10
6663.618025160748
 20
5271.010447535619
 30
0.0
 10
6664.236145379538
 20
5272.126060194965
 30
0.0
 10
6664.826535615296
 20
5273.034291198137
 30
0.0
 10
6665.475769920126
 20
5273.905671929347
 30
0.0
 10
6666.393815264076
 20
5274.963234345576
 30
0.0
 10
6667.857503542436
 20
5276.332903308782
 30
0.0
 10
6669.15761001824
 20
5277.137206604364
 30
0.0
 10
6669.88708793262
 20
5277.588493865454
 30
0.0
  0
LINE
  5
188
330
1F
100
AcDbEntity
  8
0
  6
Continuous
 62
     7
370
    25
100
AcDbLine
 10
6489.1036578182
 20
5161.6466340837
 30
0.0
 11
6489.1036578182
 21
5160.0539737609
 31
0.0
  0
LINE
  5
189
330
1F
100
AcDbEntity
  8
0
  6
Continuous
 62
     7
370
    25
100
AcDbLine
 10
6489.1036578182
 20
5157.9180636671
 30
0.0
 11
6489.1036578182
 21
5156.414104369
 31
0.0
  0
LINE
  5
18A
330
1F
100
AcDbEntity
  8
0
  6
Continuous
 62
     7
370
    25
100
AcDbLine
 10
6489.103128827
 20
5137.6669101645
 30
0.0
 11
6489.103128827
 21
5134.3938277331
 31
0.0
  0
SPLINE
  5
18B
330
1F
100
AcDbEntity
  8
0
  6
Continuous
 62
     7
370
    25
100
AcDbSpline
210
0.0
220
0.0
230
1.0
 70
     8
 71
     3
 72
     9
 73
     5
 74
     0
 42
0.000000001
 43
0.00000001
 40
0.0
 40
0.0
 40
0.0
 40
0.0
 40
0.46960409480579
 40
0.9999999999999999
 40
0.9999999999999999
 40
0.9999999999999999
 40
0.9999999999999999
 10
6655.528433314356
 20
5265.76546553942
 30
0.0
 10
6655.621625827751
 20
5266.022867161548
 30
0.0
 10
6655.820074935042
 20
5266.570991901035
 30
0.0
 10
6655.916754189862
 20
5267.146057535022
 30
0.0
 10
6655.968032470736
 20
5267.451069992507
 30
0.0
  0
SPLINE
  5
18C
330
1F
100
AcDbEntity
  8
0
  6
Continuous
 62
     7
370
    25
100
AcDbSpline
210
0.0
220
0.0
230
1.0
 70
     8
 71
     3
 72
    10
 73
     6
 74
     0
 42
0.000000001
 43
0.00000001
 40
0.0
 40
0.0
 40
0.0
 40
0.0
 40
0.3612642522575304
 40
0.9082982268289723
 40
1.0
 40
1.0
 40
1.0
 40
1.0
 10
6639.607250383887
 20
5264.568030577624
 30
0.0
 10
6639.708842532537
 20
5264.385809361955
 30
0.0
 10
6639.964267662212
 20
5263.927664925993
 30
0.0
 10
6640.295808307939
 20
5263.449760342841
 30
0.0
 10
6640.545531788101
 20
5263.178028556442
 30
0.0
 10
6640.581383994612
 20
5263.139016669715
 30
0.0
  0
ARC
  5
18D
330
1F
100
AcDbEntity
  8
0
  6
Continuous
 62
     7
370
    25
100
AcDbCircle
 10
6647.2986055772
 20
5268.7734168157
 30
0.0
 40
9.425000000000368
100
AcDbArc
 50
352.7282222192
 51
359.0687767853
  0
ARC
  5
18E
330
1F
100
AcDbEntity
  8
0
  6
Continuous
 62
     7
370
    25
100
AcDbCircle
 10
6647.2986055772
 20
5268.7734168157
 30
0.0
 40
9.424999999999608
100
AcDbArc
 50
200.9039610438
 51
207.2717777808
  0
LINE
  5
18F
330
1F
100
AcDbEntity
  8
0
  6
Continuous
 62
     7
370
    25
100
AcDbLine
 10
6656.6480916653
 20
5267.5787878451
 30
0.0
 11
6656.6477936421
 21
5267.5804344234
 31
0.0
  0
LINE
  5
190
330
1F
100
AcDbEntity
  8
0
  6
Continuous
 62
     7
370
    25
100
AcDbLine
 10
6638.9212605272
 20
5264.454774302
 30
0.0
 11
6638.9215510998
 21
5264.4531202731
 31
0.0
  0
LINE
  5
191
330
1F
100
AcDbEntity
  8
0
  6
Continuous
 62
     7
370
    25
100
AcDbLine
 10
6640.5757588063
 20
5263.133913022
 30
0.0
 11
6641.2430328045
 21
5262.0821294603
 31
0.0
  0
LINE
  5
192
330
1F
100
AcDbEntity
  8
0
  6
Continuous
 62
     7
370
    25
100
AcDbLine
 10
6655.2775424633
 20
5264.5567876515
 30
0.0
 11
6655.5448394928
 21
5265.7733706054
 31
0.0
  0
ARC
  5
193
330
1F
100
AcDbEntity
  8
0
  6
Continuous
 62
     7
370
    25
100
AcDbCircle
 10
6655.1798682115
 20
5264.5782496952
 30
0.0
 40
0.1000000000707259
100
AcDbArc
 50
280.0000000001
 51
347.608240159
  0
ARC
  5
194
330
1F
100
AcDbEntity
  8
0
  6
Continuous
 62
     7
370
    25
100
AcDbCircle
 10
6641.3274728971
 20
5262.1356986539
 30
0.0
 40
0.1000000000677895
100
AcDbArc
 50
212.3917598415
 51
280.0
  0
ARC
  5
195
330
1F
100
AcDbEntity
  8
0
  6
Continuous
 62
     7
370
    25
100
AcDbCircle
 10
6537.8563166664
 20
5127.03036948
 30
0.0
 40
1.25
100
AcDbArc
 50
270.0
 51
0.0
  0
ARC
  5
196
330
1F
100
AcDbEntity
  8
0
  6
Continuous
 62
     7
370
    25
100
AcDbCircle
 10
6493.3563166664
 20
5127.03036948
 30
0.0
 40
1.25
100
AcDbArc
 50
180.0
 51
270.0
  0
LINE
  5
197
330
1F
100
AcDbEntity
  8
0
  6
Continuous
 62
     7
370
    25
100
AcDbLine
 10
6493.3563169751
 20
5125.7803698299
 30
0.0
 11
6537.8563158874
 21
5125.7803698299
 31
0.0
  0
LWPOLYLINE
  5
198
330
1F
100
AcDbEntity
  8
0
  6
Continuous
 62
     7
370
    25
100
AcDbPolyline
 90
       22
 70
   128
 43
0.0
 10
6542.3068550144
 20
5187.9995648977
 10
6542.2844920967
 20
5187.9506108579
 10
6542.1384700302
 20
5187.6263392386
 10
6541.8859624032
 20
5187.045860779
 10
6541.5509712611
 20
5186.230052006
 10
6541.1541552011
 20
5185.1762642381
 10
6540.7147125069
 20
5183.8480604109
 10
6540.2893011186
 20
5182.2847721395
 10
6539.941452137
 20
5180.558316153
 10
6539.7126280431
 20
5178.6441278872
 10
6539.6520566855
 20
5176.9023311553
 10
6539.7382189248
 20
5175.1069014189
 10
6539.9362050656
 20
5173.5347246048
 10
6540.2335856769
 20
5172.0140015003
 10
6540.6103987906
 20
5170.5635448215
 10
6541.0283763621
 20
5169.2440004316
 10
6541.4654013429
 20
5168.0489459303
 10
6541.8581288967
 20
5167.0805399534
 10
6542.1396490846
 20
5166.4317508456
 10
6542.2986500625
 20
5166.0790943769
 10
6542.3209421996
 20
5166.0303694424
 10
6542.3209421996
 20
5166.0303694424
  0
SPLINE
  5
199
330
1F
100
AcDbEntity
  8
0
  6
Continuous
 62
     7
370
    18
100
AcDbSpline
210
0.0
220
0.0
230
1.0
 70
     8
 71
     3
 72
    11
 73
     7
 74
     0
 42
0.000000001
 43
0.00000001
 40
0.0
 40
0.0
 40
0.0
 40
0.0
 40
0.2500106401812575
 40
0.5000196003798331
 40
0.7500071817996579
 40
0.9999999999999999
 40
0.9999999999999999
 40
0.9999999999999999
 40
0.9999999999999999
 10
6567.106317422184
 20
5282.03076843592
 30
0.0
 10
6567.106302365778
 20
5281.874083124958
 30
0.0
 10
6567.106272253063
 20
5281.560713555903
 30
0.0
 10
6567.10620752873
 20
5281.118202290654
 30
0.0
 10
6567.106176325849
 20
5280.719160364776
 30
0.0
 10
6567.10613876328
 20
5280.51717610484
 30
0.0
 10
6567.106119981799
 20
5280.416182917083
 30
0.0
  0
SPLINE
  5
19A
330
1F
100
AcDbEntity
  8
0
  6
Continuous
 62
     7
370
    18
100
AcDbSpline
210
0.0
220
0.0
230
1.0
 70
     8
 71
     3
 72
    25
 73
    21
 74
     0
 42
0.000000001
 43
0.00000001
 40
0.0
 40
0.0
 40
0.0
 40
0.0
 40
0.0431233218585297
 40
0.0856815169938363
 40
0.1284329081579887
 40
0.1710568985553179
 40
0.2134759698598205
 40
0.2555840445345491
 40
0.3184213832427007
 40
0.3813220144604333
 40
0.4436993917552635
 40
0.5057274150740697
 40
0.5677384016038913
 40
0.6293321603153579
 40
0.6915575119455364
 40
0.7529201200541511
 40
0.8144293754494002
 40
0.8763753514707632
 40
0.9384458984003837
 40
1.0
 40
1.0
 40
1.0
 40
1.0
 10
6515.616619769316
 20
5247.930370014632
 30
0.0
 10
6515.669023003299
 20
5248.9263703979
 30
0.0
 10
6515.773142732241
 20
5250.905318681263
 30
0.0
 10
6516.353275787285
 20
5253.823852681227
 30
0.0
 10
6517.17410028397
 20
5256.665644153294
 30
0.0
 10
6518.247303496217
 20
5259.420707449663
 30
0.0
 10
6519.555379732154
 20
5262.054990150406
 30
0.0
 10
6521.329977432298
 20
5264.965013530988
 30
0.0
 10
6523.705222287261
 20
5268.044110138088
 30
0.0
 10
6526.767866284488
 20
5271.141349758593
 30
0.0
 10
6530.147607912905
 20
5273.857561955424
 30
0.0
 10
6533.782648366847
 20
5276.182129469765
 30
0.0
 10
6537.627050388544
 20
5278.100196233931
 30
0.0
 10
6541.65163283852
 20
5279.615482306042
 30
0.0
 10
6545.79061435839
 20
5280.721627173398
 30
0.0
 10
6550.005128444736
 20
5281.47117328853
 30
0.0
 10
6554.256548204282
 20
5281.899084287636
 30
0.0
 10
6558.541040137585
 20
5282.074877417285
 30
0.0
 10
6562.828474685202
 20
5282.052031378927
 30
0.0
 10
6565.68434667081
 20
5282.037836316837
 30
0.0
 10
6567.106317422184
 20
5282.03076843592
 30
0.0
  0
SPLINE
  5
19B
330
1F
100
AcDbEntity
  8
0
  6
Continuous
 62
     7
370
    18
100
AcDbSpline
210
0.0
220
0.0
230
1.0
 70
     8
 71
     3
 72
    23
 73
    19
 74
     0
 42
0.000000001
 43
0.00000001
 40
0.0
 40
0.0
 40
0.0
 40
0.0
 40
0.0833664333257415
 40
0.166728687037624
 40
0.2500751038035626
 40
0.3125859516433817
 40
0.3750903696629063
 40
0.4375884848817503
 40
0.5000838974883309
 40
0.562578838746881
 40
0.6250708643975712
 40
0.6875586015063934
 40
0.7500402474003686
 40
0.81252179418546
 40
0.8750015558138104
 40
0.9166721487367154
 40
0.9583386036764256
 40
1.0
 40
1.0
 40
1.0
 40
1.0
 10
6567.106119981799
 20
5280.416182917083
 30
0.0
 10
6565.200775973647
 20
5280.440872910639
 30
0.0
 10
6561.390183482627
 20
5280.490251659909
 30
0.0
 10
6555.674942770416
 20
5280.554592449311
 30
0.0
 10
6550.440402316994
 20
5280.240271046559
 30
0.0
 10
6545.723729430604
 20
5279.560443064786
 30
0.0
 10
6541.544654005734
 20
5278.585266241188
 30
0.0
 10
6537.484717180801
 20
5277.189649302452
 30
0.0
 10
6533.598548305933
 20
5275.363394735262
 30
0.0
 10
6529.940318106534
 20
5273.11442059535
 30
0.0
 10
6526.557561806508
 20
5270.468631041694
 30
0.0
 10
6523.510769353468
 20
5267.440318077421
 30
0.0
 10
6520.874956589379
 20
5264.046287098441
 30
0.0
 10
6518.71557708421
 20
5260.331498664078
 30
0.0
 10
6517.248552099261
 20
5256.802691595308
 30
0.0
 10
6516.325283189116
 20
5253.597398148921
 30
0.0
 10
6515.769309753542
 20
5250.786417072944
 30
0.0
 10
6515.667514370814
 20
5248.882347170366
 30
0.0
 10
6515.616619769316
 20
5247.930370014632
 30
0.0
  0
SPLINE
  5
19C
330
1F
100
AcDbEntity
  8
0
  6
Continuous
 62
     7
370
    18
100
AcDbSpline
210
0.0
220
0.0
230
1.0
 70
     8
 71
     3
 72
    24
 73
    20
 74
     0
 42
0.000000001
 43
0.00000001
 40
0.0
 40
0.0
 40
0.0
 40
0.0
 40
0.0414678875109501
 40
0.0834116006905525
 40
0.1258683745438095
 40
0.1887390298909916
 40
0.2515603142336156
 40
0.3143785382715051
 40
0.3771138069493055
 40
0.4388474286081708
 40
0.5014287118145077
 40
0.5638725827364581
 40
0.6261797833678925
 40
0.6868560898058406
 40
0.7501848912881517
 40
0.8126330632836648
 40
0.8751236133406638
 40
0.9375549023646478
 40
0.9999999999999999
 40
0.9999999999999999
 40
0.9999999999999999
 40
0.9999999999999999
 10
6515.616619769316
 20
5247.930370014632
 30
0.0
 10
6515.66572842926
 20
5248.88807029795
 30
0.0
 10
6515.7645092493
 20
5250.814460051762
 30
0.0
 10
6516.318738489863
 20
5253.677215171499
 30
0.0
 10
6517.247451006069
 20
5256.952779938834
 30
0.0
 10
6518.72040982372
 20
5260.560555431322
 30
0.0
 10
6520.883576965337
 20
5264.353937479864
 30
0.0
 10
6523.52002780242
 20
5267.831014143288
 30
0.0
 10
6526.545378499462
 20
5270.938042142442
 30
0.0
 10
6529.898297817727
 20
5273.677271908495
 30
0.0
 10
6533.521963822825
 20
5276.03411796548
 30
0.0
 10
6537.387897512353
 20
5277.996572260316
 30
0.0
 10
6541.395011897314
 20
5279.53182694543
 30
0.0
 10
6545.552147182118
 20
5280.669045980148
 30
0.0
 10
6549.794153067049
 20
5281.444324277931
 30
0.0
 10
6554.12372587737
 20
5281.890955350161
 30
0.0
 10
6558.450447688714
 20
5282.074036144883
 30
0.0
 10
6562.779197383527
 20
5282.052803733144
 30
0.0
 10
6565.663837749811
 20
5282.038124010188
 30
0.0
 10
6567.106317422184
 20
5282.030783337081
 30
0.0
  0
LINE
  5
19D
330
1F
100
AcDbEntity
  8
0
  6
Continuous
 62
     7
370
    18
100
AcDbLine
 10
6648.6074548874
 20
5284.3025249657
 30
0.0
 11
6515.6063166641
 21
5284.3025249657
 31
0.0
  0
LINE
  5
19E
330
1F
100
AcDbEntity
  8
0
  6
Continuous
 62
     7
370
    18
100
AcDbLine
 10
6648.6074548874
 20
5282.0307833371
 30
0.0
 11
6648.6074548874
 21
5284.3025249657
 31
0.0
  0
LINE
  5
19F
330
1F
100
AcDbEntity
  8
0
  6
Continuous
 62
     7
370
    18
100
AcDbLine
 10
6567.1063174222
 20
5282.0307833371
 30
0.0
 11
6648.6074548874
 21
5282.0307833371
 31
0.0
  0
SPLINE
  5
1A0
330
1F
100
AcDbEntity
  8
0
  6
Continuous
 62
     7
370
    18
100
AcDbSpline
210
0.0
220
0.0
230
1.0
 70
     8
 71
     3
 72
    11
 73
     7
 74
     0
 42
0.000000001
 43
0.00000001
 40
0.0
 40
0.0
 40
0.0
 40
0.0
 40
0.2499958550090615
 40
0.4999954995627549
 40
0.749998891529075
 40
0.9999999999999999
 40
0.9999999999999999
 40
0.9999999999999999
 40
0.9999999999999999
 10
6567.106317422184
 20
5282.030783337081
 30
0.0
 10
6567.106299593971
 20
5281.874110314823
 30
0.0
 10
6567.106263937275
 20
5281.560761895392
 30
0.0
 10
6567.106218435462
 20
5281.118134726035
 30
0.0
 10
6567.106163355134
 20
5280.719284381235
 30
0.0
 10
6567.106131956002
 20
5280.5172362991
 30
0.0
 10
6567.106116256508
 20
5280.416212719405
 30
0.0
  0
LINE
  5
1A1
330
1F
100
AcDbEntity
  8
0
  6
Continuous
 62
     7
370
    18
100
AcDbLine
 10
6648.6074548874
 20
5280.4162127194
 30
0.0
 11
6648.6074548874
 21
5282.0307833371
 31
0.0
  0
SPLINE
  5
1A2
330
1F
100
AcDbEntity
  8
0
  6
Continuous
 62
     7
370
    25
100
AcDbSpline
210
0.0
220
0.0
230
1.0
 70
     8
 71
     3
 72
    12
 73
     8
 74
     0
 42
0.000000001
 43
0.00000001
 40
0.0
 40
0.0
 40
0.0
 40
0.0
 40
0.2067439170980974
 40
0.4128585642207987
 40
0.6189949503129542
 40
0.825203792677386
 40
1.0
 40
1.0
 40
1.0
 40
1.0
 10
6489.106315812859
 20
5137.530369427526
 30
0.0
 10
6489.107644466971
 20
5137.507709612883
 30
0.0
 10
6489.110297731148
 20
5137.462458953661
 30
0.0
 10
6489.127796178445
 20
5137.114762458054
 30
0.0
 10
6489.143984424471
 20
5136.62067577677
 30
0.0
 10
6489.151391670592
 20
5136.055495557272
 30
0.0
 10
6489.145988129496
 20
5135.704431026075
 30
0.0
 10
6489.143509111199
 20
5135.543370828504
 30
0.0
  0
SPLINE
  5
1A3
330
1F
100
AcDbEntity
  8
0
  6
Continuous
 62
     7
370
    25
100
AcDbSpline
210
0.0
220
0.0
230
1.0
 70
     8
 71
     3
 72
    15
 73
    11
 74
     0
 42
0.000000001
 43
0.00000001
 40
0.0
 40
0.0
 40
0.0
 40
0.0
 40
0.1252985530744248
 40
0.2502180216293197
 40
0.3751502891119128
 40
0.500121169681205
 40
0.6251065874924698
 40
0.7501029210512106
 40
0.875082467363531
 40
1.0
 40
1.0
 40
1.0
 40
1.0
 10
6489.106315812859
 20
5161.580368619883
 30
0.0
 10
6489.110170941727
 20
5161.541751122993
 30
0.0
 10
6489.117869535961
 20
5161.464632964526
 30
0.0
 10
6489.168289356749
 20
5160.874311767903
 30
0.0
 10
6489.215827294172
 20
5160.032149975597
 30
0.0
 10
6489.236016438597
 20
5159.02939078112
 30
0.0
 10
6489.215733719158
 20
5158.02664938004
 30
0.0
 10
6489.168139521748
 20
5157.184718314084
 30
0.0
 10
6489.117814421837
 20
5156.595489161375
 30
0.0
 10
6489.110148048364
 20
5156.518736593457
 30
0.0
 10
6489.106315812859
 20
5156.480369832838
 30
0.0
  0
LINE
  5
1A4
330
1F
100
AcDbEntity
  8
0
  6
Continuous
 62
     7
370
    18
100
AcDbLine
 10
6515.6166197693
 20
5247.9303700146
 30
0.0
 11
6515.6097311255
 21
5247.0303696808
 31
0.0
  0
LINE
  5
1A5
330
1F
100
AcDbEntity
  8
0
  6
Continuous
 62
     7
370
    18
100
AcDbLine
 10
6542.1063170497
 20
5247.0303696808
 30
0.0
 11
6515.6097311255
 21
5247.0303696808
 31
0.0
  0
SPLINE
  5
1A6
330
1F
100
AcDbEntity
  8
0
  6
Continuous
 62
     7
370
    25
100
AcDbSpline
210
0.0
220
0.0
230
1.0
 70
     8
 71
     3
 72
    26
 73
    22
 74
     0
 42
0.000000001
 43
0.00000001
 40
0.0
 40
0.0
 40
0.0
 40
0.0
 40
0.0501389347222337
 40
0.1018398487388208
 40
0.1519509852707919
 40
0.2033846160979515
 40
0.255926913487886
 40
0.3099258545565414
 40
0.3636892683373016
 40
0.4190308783010769
 40
0.4720393350707572
 40
0.5269889700793065
 40
0.5743080168392981
 40
0.6229044586329269
 40
0.6723498367761688
 40
0.7229899645877681
 40
0.7769431071649985
 40
0.8324873689823898
 40
0.8859437335649247
 40
0.9410578547508639
 40
1.0
 40
1.0
 40
1.0
 40
1.0
 10
6542.106317049655
 20
5165.981558826292
 30
0.0
 10
6542.09494118105
 20
5166.008848475064
 30
0.0
 10
6542.071835051164
 20
5166.064277927614
 30
0.0
 10
6541.890771541256
 20
5166.50940108078
 30
0.0
 10
6541.619938190505
 20
5167.199916632657
 30
0.0
 10
6541.274022024361
 20
5168.142005999985
 30
0.0
 10
6540.8803887946
 20
5169.340268552277
 30
0.0
 10
6540.481395150571
 20
5170.772025188331
 30
0.0
 10
6540.119054055825
 20
5172.410926370281
 30
0.0
 10
6539.842646214099
 20
5174.183319448016
 30
0.0
 10
6539.688219579552
 20
5176.066039602551
 30
0.0
 10
6539.686624197258
 20
5177.8932911327
 30
0.0
 10
6539.818986272309
 20
5179.635353968319
 30
0.0
 10
6540.047819271053
 20
5181.242465474262
 30
0.0
 10
6540.359257183322
 20
5182.7766248105
 30
0.0
 10
6540.731766652467
 20
5184.218003090965
 30
0.0
 10
6541.135855450701
 20
5185.51921866007
 30
0.0
 10
6541.521009404275
 20
5186.600412333141
 30
0.0
 10
6541.835339646785
 20
5187.411324569192
 30
0.0
 10
6542.060267557993
 20
5187.966210779879
 30
0.0
 10
6542.090627565573
 20
5188.040691538823
 30
0.0
 10
6542.106317049655
 20
5188.079181801999
 30
0.0
  0
LINE
  5
1A7
330
1F
100
AcDbEntity
  8
0
  6
Continuous
 62
     7
370
    25
100
AcDbLine
 10
6489.1063158129
 20
5127.0303686378
 30
0.0
 11
6542.1063170497
 21
5127.0303686378
 31
0.0
  0
SPLINE
  5
1A8
330
1F
100
AcDbEntity
  8
0
  6
Continuous
 62
     7
370
    18
100
AcDbSpline
210
0.0
220
0.0
230
1.0
 70
     8
 71
     3
 72
    39
 73
    35
 74
     0
 42
0.000000001
 43
0.00000001
 40
0.0
 40
0.0
 40
0.0
 40
0.0
 40
0.0339587195640546
 40
0.0691289926905771
 40
0.1057881368486951
 40
0.1430456057495528
 40
0.1785481897972195
 40
0.2105229667966155
 40
0.2495758109375654
 40
0.2745545477418479
 40
0.3040959941538269
 40
0.3326246475923416
 40
0.3604068757908541
 40
0.3824502541720416
 40
0.3984477364098401
 40
0.4201406983586912
 40
0.4460303644088783
 40
0.4680864331404458
 40
0.4855470957389361
 40
0.4982552928580081
 40
0.5592817351439052
 40
0.6235052298974006
 40
0.6877944271525029
 40
0.7487815733073743
 40
0.7687541070431451
 40
0.7891217624738307
 40
0.8098741106873607
 40
0.8310006310305043
 40
0.8524909809978729
 40
0.8743358679150379
 40
0.9058121236048567
 40
0.9373186643611281
 40
0.972056854747562
 40
1.0
 40
1.0
 40
1.0
 40
1.0
 10
6567.106116256508
 20
5280.416212719405
 30
0.0
 10
6566.329712904198
 20
5280.418725126508
 30
0.0
 10
6564.749206266853
 20
5280.42383957648
 30
0.0
 10
6562.33120722839
 20
5280.473451118754
 30
0.0
 10
6559.837990945744
 20
5280.515987174565
 30
0.0
 10
6557.336971135354
 20
5280.525104445456
 30
0.0
 10
6554.943541558228
 20
5280.475389148954
 30
0.0
 10
6552.51163582638
 20
5280.356505283402
 30
0.0
 10
6550.324670503219
 20
5280.172122995382
 30
0.0
 10
6548.201598502957
 20
5279.913764905461
 30
0.0
 10
6546.325841027789
 20
5279.620910673404
 30
0.0
 10
6544.400025009387
 20
5279.242279968444
 30
0.0
 10
6542.657934596837
 20
5278.824839050739
 30
0.0
 10
6541.208920112924
 20
5278.418699723266
 30
0.0
 10
6539.906645125207
 20
5278.007782911692
 30
0.0
 10
6538.534629966975
 20
5277.527385001869
 30
0.0
 10
6537.054181857686
 20
5276.940663823283
 30
0.0
 10
6535.688148628226
 20
5276.331852880755
 30
0.0
 10
6534.614766586535
 20
5275.808648543624
 30
0.0
 10
6532.766122441512
 20
5274.844675740203
 30
0.0
 10
6530.065716777045
 20
5273.20154906138
 30
0.0
 10
6526.632728265509
 20
5270.541193244349
 30
0.0
 10
6523.547995184949
 20
5267.482876415542
 30
0.0
 10
6521.501818916685
 20
5264.854352408309
 30
0.0
 10
6520.24347318385
 20
5262.90871999126
 30
0.0
 10
6519.535130991588
 20
5261.704380818658
 30
0.0
 10
6518.867473907909
 20
5260.447077066246
 30
0.0
 10
6518.245383908174
 20
5259.138108343062
 30
0.0
 10
6517.673733097949
 20
5257.779108874038
 30
0.0
 10
6517.086313489339
 20
5256.172177389578
 30
0.0
 10
6516.52248455365
 20
5254.314753233759
 30
0.0
 10
6516.025506160566
 20
5252.135280514398
 30
0.0
 10
6515.703879307929
 20
5250.001480877891
 30
0.0
 10
6515.643525368532
 20
5248.568976173991
 30
0.0
 10
6515.616619769316
 20
5247.930370014632
 30
0.0
  0
SPLINE
  5
1A9
330
1F
100
AcDbEntity
  8
0
  6
Continuous
 62
     7
370
    18
100
AcDbSpline
210
0.0
220
0.0
230
1.0
 70
     8
 71
     3
 72
    13
 73
     9
 74
     0
 42
0.000000001
 43
0.00000001
 40
0.0
 40
0.0
 40
0.0
 40
0.0
 40
0.1666666726878998
 40
0.3333333124452899
 40
0.5000000506751592
 40
0.6666667195619221
 40
0.8333334499522015
 40
1.0
 40
1.0
 40
1.0
 40
1.0
 10
6567.10626526812
 20
5272.03037564131
 30
0.0
 10
6567.106256152304
 20
5272.076739763671
 30
0.0
 10
6567.106237920673
 20
5272.169467999232
 30
0.0
 10
6567.106218195723
 20
5272.91766045123
 30
0.0
 10
6567.106190332482
 20
5274.100758509612
 30
0.0
 10
6567.106165048251
 20
5275.758871057163
 30
0.0
 10
6567.1061375862
 20
5277.826638750164
 30
0.0
 10
6567.106123366403
 20
5279.553021707665
 30
0.0
 10
6567.106116256508
 20
5280.416212719405
 30
0.0
  0
SPLINE
  5
1AA
330
1F
100
AcDbEntity
  8
0
  6
Continuous
 62
     7
370
    25
100
AcDbSpline
210
0.0
220
0.0
230
1.0
 70
     8
 71
     3
 72
    18
 73
    14
 74
     0
 42
0.000000001
 43
0.00000001
 40
0.0
 40
0.0
 40
0.0
 40
0.0
 40
0.0933273435034664
 40
0.1866722892516317
 40
0.2799513339830666
 40
0.3732175036954878
 40
0.4666219182451686
 40
0.5599036861230955
 40
0.6478601139414256
 40
0.7359585094345921
 40
0.82398456321103
 40
0.911990975378002
 40
1.0
 40
1.0
 40
1.0
 40
1.0
 10
6542.106317049655
 20
5247.030369680846
 30
0.0
 10
6542.158206873984
 20
5248.252047655672
 30
0.0
 10
6542.261996309457
 20
5250.695634023056
 30
0.0
 10
6543.094701509093
 20
5254.281342153606
 30
0.0
 10
6544.401896797556
 20
5257.711711911885
 30
0.0
 10
6546.212906751208
 20
5260.910021661053
 30
0.0
 10
6548.460328980367
 20
5263.816055152657
 30
0.0
 10
6551.060340246275
 20
5266.313948841515
 30
0.0
 10
6553.933462933104
 20
5268.370530985872
 30
0.0
 10
6557.000070581218
 20
5269.984877442213
 30
0.0
 10
6560.260144407192
 20
5271.153168816204
 30
0.0
 10
6563.650543975439
 20
5271.89206568374
 30
0.0
 10
6565.954346772731
 20
5271.984271865939
 30
0.0
 10
6567.10626526812
 20
5272.03037564131
 30
0.0
  0
LINE
  5
1AB
330
1F
100
AcDbEntity
  8
0
  6
Continuous
 62
     7
370
    18
100
AcDbLine
 10
6648.6074548874
 20
5286.2827253756
 30
0.0
 11
6515.6063166641
 21
5286.2827253756
 31
0.0
  0
LINE
  5
1AC
330
1F
100
AcDbEntity
  8
0
  6
Continuous
 62
     7
370
    18
100
AcDbLine
 10
6648.6074548874
 20
5284.3025249657
 30
0.0
 11
6648.6074548874
 21
5286.2827253756
 31
0.0
  0
LINE
  5
1AD
330
1F
100
AcDbEntity
  8
0
  6
Continuous
 62
     7
370
    18
100
AcDbLine
 10
6515.6063166641
 20
5284.3025249657
 30
0.0
 11
6515.6063166641
 21
5286.2827253756
 31
0.0
  0
LINE
  5
1AE
330
1F
100
AcDbEntity
  8
0
  6
Continuous
 62
     7
370
    18
100
AcDbLine
 10
6648.6074548874
 20
5278.1789523778
 30
0.0
 11
6648.6074548874
 21
5280.4162127194
 31
0.0
  0
SPLINE
  5
1AF
330
1F
100
AcDbEntity
  8
0
  6
Continuous
 62
     7
370
    25
100
AcDbSpline
210
0.0
220
0.0
230
1.0
 70
     8
 71
     3
 72
    17
 73
    13
 74
     0
 42
0.000000001
 43
0.00000001
 40
0.0
 40
0.0
 40
0.0
 40
0.0
 40
0.0966135180108739
 40
0.1941324356957625
 40
0.2944139032573843
 40
0.3932147039582488
 40
0.4946807768739494
 40
0.5973191413402106
 40
0.7026410983799137
 40
0.8107871785707984
 40
0.9217816521724868
 40
1.0
 40
1.0
 40
1.0
 40
1.0
 10
6632.422715118918
 20
5264.353088777983
 30
0.0
 10
6632.455361231558
 20
5264.358847161185
 30
0.0
 10
6632.520959395182
 20
5264.370417891447
 30
0.0
 10
6633.130581296648
 20
5264.477902663531
 30
0.0
 10
6634.088242860085
 20
5264.646771719719
 30
0.0
 10
6635.418606323808
 20
5264.881341536754
 30
0.0
 10
6637.070298359579
 20
5265.172584962105
 30
0.0
 10
6639.031359719158
 20
5265.518379201026
 30
0.0
 10
6641.259990737132
 20
5265.91133802369
 30
0.0
 10
6643.721724496246
 20
5266.345413010452
 30
0.0
 10
6646.080114608166
 20
5266.761253573883
 30
0.0
 10
6647.601565335157
 20
5267.029530443302
 30
0.0
 10
6648.230515113863
 20
5267.140432935679
 30
0.0
  0
ARC
  5
1B0
330
1F
100
AcDbEntity
  8
0
  6
Continuous
 62
     7
370
    18
100
AcDbCircle
 10
6946.1282672696
 20
5262.4936128637
 30
0.0
 40
297.9339921462783
100
AcDbArc
 50
176.9821522404
 51
179.1063323391
  0
SPLINE
  5
1B1
330
1F
100
AcDbEntity
  8
0
  6
Continuous
 62
     7
370
    25
100
AcDbSpline
210
0.0
220
0.0
230
1.0
 70
     8
 71
     3
 72
    17
 73
    13
 74
     0
 42
0.000000001
 43
0.00000001
 40
0.0
 40
0.0
 40
0.0
 40
0.0
 40
0.10650461106008
 40
0.2161026987579997
 40
0.3226075430869861
 40
0.4322082437708972
 40
0.5387360634569109
 40
0.6483751654529198
 40
0.7545019311692316
 40
0.8637606877854707
 40
0.9693830862603611
 40
0.9999999999999999
 40
0.9999999999999999
 40
0.9999999999999999
 40
0.9999999999999999
 10
6648.230515113863
 20
5267.140432935679
 30
0.0
 10
6649.059598013806
 20
5267.286622078743
 30
0.0
 10
6650.741844917376
 20
5267.583246497448
 30
0.0
 10
6653.181060381428
 20
5268.013352051085
 30
0.0
 10
6655.500747790817
 20
5268.422362652652
 30
0.0
 10
6657.591536531216
 20
5268.791023129114
 30
0.0
 10
6659.435822868774
 20
5269.116243777255
 30
0.0
 10
6660.938205011525
 20
5269.381142439168
 30
0.0
 10
6662.099897438981
 20
5269.585980103215
 30
0.0
 10
6662.813069437691
 20
5269.711728212501
 30
0.0
 10
6663.143431016547
 20
5269.769980687625
 30
0.0
 10
6663.084934418321
 20
5269.75966969178
 30
0.0
 10
6663.071788540873
 20
5269.757352512801
 30
0.0
  0
LWPOLYLINE
  5
1B2
330
1F
100
AcDbEntity
  8
0
  6
Continuous
 62
     7
370
    25
100
AcDbPolyline
 90
       22
 70
   128
 43
0.0
 10
6640.5757588063
 20
5263.133913022
 10
6640.6679075871
 20
5263.1501627383
 10
6640.9420815025
 20
5263.1985095558
 10
6641.3915228758
 20
5263.2777613816
 10
6642.0051824961
 20
5263.385958713
 10
6642.7679282341
 20
5263.520456594
 10
6643.660999528
 20
5263.6779246149
 10
6644.6623873625
 20
5263.8544959244
 10
6645.7474452172
 20
5264.0458268342
 10
6646.8894553099
 20
5264.247193676
 10
6648.0602991495
 20
5264.4536418137
 10
6649.2311429892
 20
5264.6600899515
 10
6650.3731530819
 20
5264.8614567933
 10
6651.4582109366
 20
5265.052787703
 10
6652.4595987711
 20
5265.2293590126
 10
6653.352670065
 20
5265.3868270335
 10
6654.115415803
 20
5265.5213249144
 10
6654.7290754233
 20
5265.6295296964
 10
6655.1785242472
 20
5265.7087740717
 10
6655.452690712
 20
5265.7571208892
 10
6655.5448394928
 20
5265.7733706054
 10
6655.5448394928
 20
5265.7733706054
  0
LWPOLYLINE
  5
1B3
330
1F
100
AcDbEntity
  8
0
  6
Continuous
 62
     7
370
    25
100
AcDbPolyline
 90
       23
 70
   128
 43
0.0
 10
6638.9212605272
 20
5264.454774302
 10
6638.9449012194
 20
5264.4589391765
 10
6639.133304051
 20
5264.4921613154
 10
6639.5060938511
 20
5264.5578903374
 10
6640.0553208504
 20
5264.654732984
 10
6640.7692801867
 20
5264.7806254444
 10
6641.632765225
 20
5264.9328855095
 10
6642.6273506794
 20
5265.1082572755
 10
6643.7318694506
 20
5265.3030080018
 10
6644.9227553521
 20
5265.5129951653
 10
6646.1746317063
 20
5265.7337335167
 10
6647.4608254347
 20
5265.96052919
 10
6648.7539184008
 20
5266.1885318575
 10
6650.0263434563
 20
5266.4128986416
 10
6651.250995389
 20
5266.628838819
 10
6652.4017673645
 20
5266.831747931
 10
6653.4541171704
 20
5267.0173046407
 10
6654.3856483612
 20
5267.1815601406
 10
6655.1764827881
 20
5267.321005207
 10
6655.8097672377
 20
5267.4326670584
 10
6656.2720012579
 20
5267.5141764102
 10
6656.5533500824
 20
5267.5637823758
 10
6656.6477936421
 20
5267.5804344234
  0
LWPOLYLINE
  5
1B4
330
1F
100
AcDbEntity
  8
0
  6
Continuous
 62
     7
370
    25
100
AcDbPolyline
 90
       24
 70
   128
 43
0.0
 10
6638.9215510998
 20
5264.4531202731
 10
6638.945191792
 20
5264.4572925982
 10
6639.1335946236
 20
5264.4905072865
 10
6639.5063844238
 20
5264.5562437591
 10
6640.055611423
 20
5264.6530864057
 10
6640.7695707593
 20
5264.7789788661
 10
6641.6330557976
 20
5264.9312314806
 10
6642.6276487027
 20
5265.1066032467
 10
6643.7321525727
 20
5265.3013614235
 10
6644.9230384741
 20
5265.511348587
 10
6646.1749297295
 20
5265.7320869383
 10
6647.4611085568
 20
5265.9588751611
 10
6648.7542015229
 20
5266.1868852791
 10
6650.0266414795
 20
5266.4112446127
 10
6651.2512934122
 20
5266.6271847901
 10
6652.4020504866
 20
5266.8301013527
 10
6653.4544151936
 20
5267.0156580624
 10
6654.3859314833
 20
5267.1799135623
 10
6655.1767659102
 20
5267.3193586287
 10
6655.8100503598
 20
5267.4310204801
 10
6656.2722992812
 20
5267.5125223813
 10
6656.5536332045
 20
5267.5621357975
 10
6656.6480916653
 20
5267.5787878451
 10
6656.6480916653
 20
5267.5787878451
  0
SPLINE
  5
1B5
330
1F
100
AcDbEntity
  8
0
  6
Continuous
 62
     7
370
    25
100
AcDbSpline
210
0.0
220
0.0
230
1.0
 70
     8
 71
     3
 72
    21
 73
    17
 74
     0
 42
0.000000001
 43
0.00000001
 40
0.0
 40
0.0
 40
0.0
 40
0.0
 40
0.073085441587426
 40
0.1477217733340607
 40
0.2223582551627877
 40
0.2954434165809924
 40
0.3656117609636889
 40
0.4318142426282201
 40
0.4980172629671484
 40
0.5681851888288653
 40
0.6412710083697236
 40
0.7159072532779968
 40
0.7905439617170346
 40
0.8636289329845299
 40
0.933797213805978
 40
1.0
 40
1.0
 40
1.0
 40
1.0
 10
6641.345694354567
 20
5262.037366372073
 30
0.0
 10
6641.365693472357
 20
5262.040893070442
 30
0.0
 10
6641.40611609389
 20
5262.048021304542
 30
0.0
 10
6641.829983280388
 20
5262.122755690657
 30
0.0
 10
6642.504581123571
 20
5262.241717213975
 30
0.0
 10
6643.4064502773
 20
5262.400739557203
 30
0.0
 10
6644.456753252684
 20
5262.58592385223
 30
0.0
 10
6645.60567421136
 20
5262.788527673066
 30
0.0
 10
6646.845265350954
 20
5263.007085654767
 30
0.0
 10
6648.179879041378
 20
5263.242423784452
 30
0.0
 10
6649.57284035238
 20
5263.488038128292
 30
0.0
 10
6650.940237813662
 20
5263.729146496648
 30
0.0
 10
6652.196447870355
 20
5263.950639914615
 30
0.0
 10
6653.261800679808
 20
5264.138508674851
 30
0.0
 10
6654.111815368482
 20
5264.288381760746
 30
0.0
 10
6654.487585573896
 20
5264.354637904758
 30
0.0
 10
6654.670007220301
 20
5264.386802655185
 30
0.0
  0
LINE
  5
1B6
330
1F
100
AcDbEntity
  8
0
  6
Continuous
 62
     7
370
    25
100
AcDbLine
 10
6489.1063158129
 20
5137.7303695534
 30
0.0
 11
6489.1063158129
 21
5134.3303692755
 31
0.0
  0
LINE
  5
1B7
330
1F
100
AcDbEntity
  8
0
  6
Continuous
 62
     7
370
    25
100
AcDbLine
 10
6489.1063158129
 20
5159.0320651648
 30
0.0
 11
6489.1063158129
 21
5158.010154706
 31
0.0
  0
LINE
  5
1B8
330
1F
100
AcDbEntity
  8
0
  6
Continuous
 62
     7
370
    25
100
AcDbLine
 10
6489.1814642314
 20
5159.0320651648
 30
0.0
 11
6489.1063158129
 21
5159.0320651648
 31
0.0
  0
LINE
  5
1B9
330
1F
100
AcDbEntity
  8
0
  6
Continuous
 62
     7
370
    25
100
AcDbLine
 10
6489.1605951552
 20
5158.010154706
 30
0.0
 11
6489.1063158129
 21
5158.010154706
 31
0.0
  0
LINE
  5
1BA
330
1F
100
AcDbEntity
  8
0
  6
Continuous
 62
     7
370
    25
100
AcDbLine
 10
6489.1063158129
 20
5160.0539737609
 30
0.0
 11
6489.1063158129
 21
5159.0320651648
 31
0.0
  0
LINE
  5
1BB
330
1F
100
AcDbEntity
  8
0
  6
Continuous
 62
     7
370
    25
100
AcDbLine
 10
6489.1063158129
 20
5160.0539737609
 30
0.0
 11
6489.1612061028
 21
5160.0539737609
 31
0.0
  0
LINE
  5
1BC
330
1F
100
AcDbEntity
  8
0
  6
Continuous
 62
     7
370
    18
100
AcDbLine
 10
6515.6163920609
 20
5248.7342504081
 30
0.0
 11
6515.6063166641
 21
5284.3025249657
 31
0.0
  0
LINE
  5
1BD
330
1F
100
AcDbEntity
  8
0
  6
Continuous
 62
     7
370
    18
100
AcDbLine
 10
6567.1462413583
 20
5280.4162127194
 30
0.0
 11
6648.6074548874
 21
5280.4162127194
 31
0.0
  0
SPLINE
  5
1BE
330
1F
100
AcDbEntity
  8
0
  6
Continuous
 62
     7
370
    18
100
AcDbSpline
210
0.0
220
0.0
230
1.0
 70
     8
 71
     3
 72
    32
 73
    28
 74
     0
 42
0.000000001
 43
0.00000001
 40
0.0
 40
0.0
 40
0.0
 40
0.0
 40
0.010942720223773
 40
0.0276547511020386
 40
0.0465884695210779
 40
0.0697934140046901
 40
0.0972863258633424
 40
0.1290817429978648
 40
0.1651878159704205
 40
0.2056068299340021
 40
0.2503323261570796
 40
0.3087534455367253
 40
0.3630006449020462
 40
0.4130624069237602
 40
0.4589237941574897
 40
0.5005729623008727
 40
0.5338852034854967
 40
0.5756310099776619
 40
0.6258042938450792
 40
0.6774969081797242
 40
0.7190967731052463
 40
0.7506043604509575
 40
0.7891322988928894
 40
0.8333866053954934
 40
0.8833540384776917
 40
0.9390363524805321
 40
1.0
 40
1.0
 40
1.0
 40
1.0
 10
6648.607454887423
 20
5282.030783337081
 30
0.0
 10
6648.759250413797
 20
5282.030775307206
 30
0.0
 10
6649.142872348233
 20
5282.030755013879
 30
0.0
 10
6649.788902907304
 20
5282.030659360256
 30
0.0
 10
6650.603943994553
 20
5282.030540077988
 30
0.0
 10
6651.565927680574
 20
5282.030367705125
 30
0.0
 10
6652.700595855044
 20
5282.030184353036
 30
0.0
 10
6654.003397190671
 20
5282.02992275237
 30
0.0
 10
6655.466813405787
 20
5282.029621320059
 30
0.0
 10
6657.079413509831
 20
5282.029302594115
 30
0.0
 10
6658.947003203661
 20
5282.028881870215
 30
0.0
 10
6660.926735941602
 20
5282.028530895172
 30
0.0
 10
6662.878476237859
 20
5282.028390828701
 30
0.0
 10
6664.587504026183
 20
5282.028563003104
 30
0.0
 10
6666.066855177603
 20
5282.028931084122
 30
0.0
 10
6667.290644171828
 20
5282.029744727224
 30
0.0
 10
6668.405374477741
 20
5282.030224955852
 30
0.0
 10
6669.52502791711
 20
5282.029957854437
 30
0.0
 10
6670.693987165745
 20
5282.029221610619
 30
0.0
 10
6671.728956085646
 20
5282.028424087171
 30
0.0
 10
6672.519033816555
 20
5282.028060917518
 30
0.0
 10
6673.146176362278
 20
5282.028275021665
 30
0.0
 10
6673.708208673607
 20
5282.028882746868
 30
0.0
 10
6674.249127144017
 20
5282.029212438599
 30
0.0
 10
6674.706241872462
 20
5282.029517397052
 30
0.0
 10
6675.03902766234
 20
5282.029723557708
 30
0.0
 10
6675.08251041304
 20
5282.029773669894
 30
0.0
 10
6675.105236164126
 20
5282.029799860442
 30
0.0
  0
SPLINE
  5
1BF
330
1F
100
AcDbEntity
  8
0
  6
Continuous
 62
     7
370
    18
100
AcDbSpline
210
0.0
220
0.0
230
1.0
 70
    24
 71
     3
 72
    19
 73
    15
 74
     0
 42
0.000000001
 43
0.00000001
 40
0.0
 40
0.0
 40
0.0
 40
0.0
 40
0.0831046479723156
 40
0.1663612659561256
 40
0.2497170337182462
 40
0.3331541055650843
 40
0.4166285957519882
 40
0.5001433595623914
 40
0.583699970995773
 40
0.6672410665378302
 40
0.7507234293246025
 40
0.8341150660255356
 40
0.9172725863866434
 40
1.0
 40
1.0
 40
1.0
 40
1.0
 10
6675.105817309412
 20
5284.302524965728
 30
0.0
 10
6675.062799124292
 20
5284.302524965728
 30
0.0
 10
6674.976684088486
 20
5284.302524965728
 30
0.0
 10
6674.275622945093
 20
5284.302524965728
 30
0.0
 10
6673.162252834954
 20
5284.302524965728
 30
0.0
 10
6671.623319019473
 20
5284.302524965728
 30
0.0
 10
6669.693600459444
 20
5284.302524965728
 30
0.0
 10
6667.394147055025
 20
5284.302524965728
 30
0.0
 10
6664.772376068072
 20
5284.302524965728
 30
0.0
 10
6661.875998237702
 20
5284.302524965728
 30
0.0
 10
6658.751102032044
 20
5284.302524965728
 30
0.0
 10
6655.456081817182
 20
5284.302524965728
 30
0.0
 10
6652.056738324559
 20
5284.302524965728
 30
0.0
 10
6649.755226912192
 20
5284.302524965728
 30
0.0
 10
6648.607454887423
 20
5284.302524965728
 30
0.0
  0
LINE
  5
1C0
330
1F
100
AcDbEntity
  8
0
  6
Continuous
 62
     7
370
    18
100
AcDbLine
 10
6515.6063166641
 20
5284.3025249657
 30
0.0
 11
6489.1063158129
 21
5284.3025249657
 31
0.0
  0
SPLINE
  5
1C1
330
1F
100
AcDbEntity
  8
0
  6
Continuous
 62
     7
370
    18
100
AcDbSpline
210
0.0
220
0.0
230
1.0
 70
     8
 71
     3
 72
    19
 73
    15
 74
     0
 42
0.000000001
 43
0.00000001
 40
0.0
 40
0.0
 40
0.0
 40
0.0
 40
0.0837111224895446
 40
0.1675397985279728
 40
0.2503883715691456
 40
0.3341934075211229
 40
0.4177163856000022
 40
0.5005469058331099
 40
0.5845058174860507
 40
0.6677392132034043
 40
0.7505950141348793
 40
0.8340135304314569
 40
0.9174381982967083
 40
1.0
 40
1.0
 40
1.0
 40
1.0
 10
6648.607454887423
 20
5280.416212719405
 30
0.0
 10
6649.732878135463
 20
5280.415786085694
 30
0.0
 10
6651.985305036783
 20
5280.41493221916
 30
0.0
 10
6655.292360550618
 20
5280.410702801437
 30
0.0
 10
6658.485466825539
 20
5280.408231352726
 30
0.0
 10
6661.507506310586
 20
5280.409201253286
 30
0.0
 10
6664.309304670766
 20
5280.412343221455
 30
0.0
 10
6666.844854989011
 20
5280.415673369257
 30
0.0
 10
6669.062816566827
 20
5280.415757472126
 30
0.0
 10
6670.926532517748
 20
5280.413679482202
 30
0.0
 10
6672.410798840934
 20
5280.413496835262
 30
0.0
 10
6673.482851861142
 20
5280.414055930727
 30
0.0
 10
6674.160428655056
 20
5280.414502143981
 30
0.0
 10
6674.243731004336
 20
5280.414957863855
 30
0.0
 10
6674.285165658984
 20
5280.415184539283
 30
0.0
  0
SPLINE
  5
1C2
330
1F
100
AcDbEntity
  8
0
  6
Continuous
 62
     8
370
    25
100
AcDbSpline
210
0.0
220
0.0
230
1.0
 70
     8
 71
     3
 72
    19
 73
    15
 74
     0
 42
0.000000001
 43
0.00000001
 40
0.0
 40
0.0
 40
0.0
 40
0.0
 40
0.0833888713537878
 40
0.1670096989603879
 40
0.2503091766075532
 40
0.3334644739424781
 40
0.4168051635893587
 40
0.4998935894138056
 40
0.5829587098509159
 40
0.6663348790396595
 40
0.7495447153311514
 40
0.8328454571362369
 40
0.9164855760764692
 40
1.0
 40
1.0
 40
1.0
 40
1.0
 10
6673.386476627383
 20
5286.282919090712
 30
0.0
 10
6673.344628737136
 20
5286.283060928436
 30
0.0
 10
6673.260816551664
 20
5286.283344998423
 30
0.0
 10
6672.59269904948
 20
5286.284527213706
 30
0.0
 10
6671.549731320219
 20
5286.284994801246
 30
0.0
 10
6670.115065556342
 20
5286.284362075455
 30
0.0
 10
6668.319405731548
 20
5286.283204357792
 30
0.0
 10
6666.18357755677
 20
5286.2826648127
 30
0.0
 10
6663.740655243391
 20
5286.283742055233
 30
0.0
 10
6661.038884018369
 20
5286.284986905571
 30
0.0
 10
6658.125557340421
 20
5286.285445519787
 30
0.0
 10
6655.04948498092
 20
5286.284691343028
 30
0.0
 10
6651.858745142686
 20
5286.283217724197
 30
0.0
 10
6649.690674865375
 20
5286.282889409516
 30
0.0
 10
6648.607454887423
 20
5286.282725375617
 30
0.0
  0
LINE
  5
1C3
330
1F
100
AcDbEntity
  8
0
  6
Continuous
 62
     8
370
    25
100
AcDbLine
 10
6515.6063166641
 20
5286.2827253756
 30
0.0
 11
6490.8256155167
 21
5286.2827253756
 31
0.0
  0
SPLINE
  5
1C4
330
1F
100
AcDbEntity
  8
0
  6
Continuous
 62
     7
370
    18
100
AcDbSpline
210
0.0
220
0.0
230
1.0
 70
     8
 71
     3
 72
    20
 73
    16
 74
     0
 42
0.000000001
 43
0.00000001
 40
0.0
 40
0.0
 40
0.0
 40
0.0
 40
0.0836975371105415
 40
0.167251019078512
 40
0.2501894451999221
 40
0.3337855176886079
 40
0.4173006659125325
 40
0.5000248545657063
 40
0.5831595292902791
 40
0.6664566132800089
 40
0.749669876240049
 40
0.8331168194723765
 40
0.9164831755546796
 40
0.9993047529081632
 40
1.0
 40
1.0
 40
1.0
 40
1.0
 10
6648.607454887423
 20
5278.178952377761
 30
0.0
 10
6649.55681424021
 20
5278.162748267823
 30
0.0
 10
6651.453898965841
 20
5278.130367937481
 30
0.0
 10
6654.228511264662
 20
5278.072078821839
 30
0.0
 10
6656.894152955578
 20
5278.008283517951
 30
0.0
 10
6659.404638324792
 20
5277.939548810799
 30
0.0
 10
6661.71585194002
 20
5277.869234436505
 30
0.0
 10
6663.791487210223
 20
5277.801419835541
 30
0.0
 10
6665.593837246778
 20
5277.732430751435
 30
0.0
 10
6667.102856130886
 20
5277.667654607952
 30
0.0
 10
6668.298555997644
 20
5277.615228479184
 30
0.0
 10
6669.181866960862
 20
5277.579339450648
 30
0.0
 10
6669.68181396784
 20
5277.561785136805
 30
0.0
 10
6669.889939783878
 20
5277.555934623708
 30
0.0
 10
6669.831013663183
 20
5277.557737759464
 30
0.0
 10
6669.830523124728
 20
5277.557752769912
 30
0.0
  0
SPLINE
  5
1C5
330
1F
100
AcDbEntity
  8
0
  6
Continuous
 62
     7
370
    18
100
AcDbSpline
210
0.0
220
0.0
230
1.0
 70
     8
 71
     3
 72
    22
 73
    18
 74
     0
 42
0.000000001
 43
0.00000001
 40
0.0
 40
0.0
 40
0.0
 40
0.0
 40
0.0008189478056707
 40
0.0631551655911961
 40
0.1256636962267101
 40
0.1882253991850004
 40
0.2506043358931649
 40
0.3132231173163462
 40
0.3758537760107
 40
0.4373711179259116
 40
0.5002522616471896
 40
0.5830092851096546
 40
0.6662822683769067
 40
0.7500764406522643
 40
0.8334462820339236
 40
0.9166310723401702
 40
1.0
 40
1.0
 40
1.0
 40
1.0
 10
6619.322240046057
 20
5272.03137401911
 30
0.0
 10
6619.321480833539
 20
5272.031037198852
 30
0.0
 10
6619.262932300862
 20
5272.00506247972
 30
0.0
 10
6619.47258697493
 20
5272.096360613446
 30
0.0
 10
6619.966100856455
 20
5272.312029523421
 30
0.0
 10
6620.820546963011
 20
5272.681229374486
 30
0.0
 10
6621.966557282596
 20
5273.155278492293
 30
0.0
 10
6623.40014461834
 20
5273.70869362203
 30
0.0
 10
6625.058729299495
 20
5274.308046266134
 30
0.0
 10
6626.925315013457
 20
5274.926089148767
 30
0.0
 10
6629.182584494953
 20
5275.601852556425
 30
0.0
 10
6631.878972212191
 20
5276.307425541639
 30
0.0
 10
6635.015262219004
 20
5276.981415140714
 30
0.0
 10
6638.303791892126
 20
5277.529363027361
 30
0.0
 10
6641.689808236818
 20
5277.927013454239
 30
0.0
 10
6645.135615895912
 20
5278.168405925825
 30
0.0
 10
6647.4493225661
 20
5278.175434303653
 30
0.0
 10
6648.607454887423
 20
5278.178952377761
 30
0.0
  0
LINE
  5
1C6
330
1F
100
AcDbEntity
  8
0
  6
Continuous
 62
     7
370
    18
100
AcDbLine
 10
6515.6063166641
 20
5286.2827253756
 30
0.0
 11
6515.6063166641
 21
5288.0303633628
 31
0.0
  0
LINE
  5
1C7
330
1F
100
AcDbEntity
  8
0
  6
Continuous
 62
     8
370
    25
100
AcDbLine
 10
6648.6074548874
 20
5286.2827253756
 30
0.0
 11
6648.6074548874
 21
5288.0303633628
 31
0.0
  0
LWPOLYLINE
  5
1C8
330
1F
100
AcDbEntity
  8
0
  6
Continuous
 62
     8
370
    25
100
AcDbPolyline
 90
        4
 70
   128
 43
0.0
 10
6654.8965644751
 20
5264.4896132168
 10
6655.0736349736
 20
5264.5208386001
 10
6655.2547883902
 20
5264.5527792391
 10
6655.2775424633
 20
5264.5567876515
  0
LINE
  5
1C9
330
1F
100
AcDbEntity
  8
0
  6
Continuous
 62
     7
370
    25
100
AcDbLine
 10
6294.4698698817
 20
4958.4418380967
 30
0.0
 11
6307.7998600899
 21
4958.4418380967
 31
0.0
  0
LINE
  5
1CA
330
1F
100
AcDbEntity
  8
0
  6
Continuous
 62
     7
370
    25
100
AcDbLine
 10
6307.7998600899
 20
4971.2418377734
 30
0.0
 11
6294.4698698817
 21
4971.2418377734
 31
0.0
  0
ARC
  5
1CB
330
1F
100
AcDbEntity
  8
0
  6
Continuous
 62
     7
370
    25
100
AcDbCircle
 10
6307.7998591939
 20
4970.4418381656
 30
0.0
 40
0.8000000000001819
100
AcDbArc
 50
0.0
 51
90.0
  0
ARC
  5
1CC
330
1F
100
AcDbEntity
  8
0
  6
Continuous
 62
     7
370
    25
100
AcDbCircle
 10
6307.7998591939
 20
4959.2418381656
 30
0.0
 40
0.8000000000001819
100
AcDbArc
 50
270.0
 51
0.0
  0
ARC
  5
1CD
330
1F
100
AcDbEntity
  8
0
  6
Continuous
 62
     7
370
    25
100
AcDbCircle
 10
6308.5998591939
 20
4960.8418381656
 30
0.0
 40
0.5999999999994543
100
AcDbArc
 50
270.0
 51
342.1061672242
  0
ARC
  5
1CE
330
1F
100
AcDbEntity
  8
0
  6
Continuous
 62
     7
370
    25
100
AcDbCircle
 10
6308.5998591939
 20
4968.8418381656
 30
0.0
 40
0.6000000000003638
100
AcDbArc
 50
17.9129032528
 51
90.0
  0
SPLINE
  5
1CF
330
1F
100
AcDbEntity
  8
0
  6
Continuous
 62
     7
370
    25
100
AcDbSpline
210
0.0
220
0.0
230
1.0
 70
     8
 71
     3
 72
    11
 73
     7
 74
     0
 42
0.000000001
 43
0.00000001
 40
0.0
 40
0.0
 40
0.0
 40
0.0
 40
0.3604125565100507
 40
0.5148332237796875
 40
0.7764822839902125
 40
1.0
 40
1.0
 40
1.0
 40
1.0
 10
6309.829271584606
 20
4964.841838167862
 30
0.0
 10
6309.813732143884
 20
4965.353025992175
 30
0.0
 10
6309.791534747545
 20
4966.083234945205
 30
0.0
 10
6309.636348234218
 20
4967.17324307362
 30
0.0
 10
6309.462905439492
 20
4968.064601499044
 30
0.0
 10
6309.257194079188
 20
4968.7211265085
 30
0.0
 10
6309.162422269439
 20
4969.023589450748
 30
0.0
  0
SPLINE
  5
1D0
330
1F
100
AcDbEntity
  8
0
  6
Continuous
 62
     7
370
    25
100
AcDbSpline
210
0.0
220
0.0
230
1.0
 70
     8
 71
     3
 72
    12
 73
     8
 74
     0
 42
0.000000001
 43
0.00000001
 40
0.0
 40
0.0
 40
0.0
 40
0.0
 40
0.0057268240206577
 40
0.3239392116621337
 40
0.5330046210496543
 40
0.7565864336680272
 40
1.0
 40
1.0
 40
1.0
 40
1.0
 10
6309.169712662553
 20
4960.658030757562
 30
0.0
 10
6309.17259371752
 20
4960.665618823381
 30
0.0
 10
6309.335561301538
 20
4961.094839635866
 30
0.0
 10
6309.503057451384
 20
4961.836027395362
 30
0.0
 10
6309.698730392086
 20
4962.881160566144
 30
0.0
 10
6309.80688703298
 20
4963.834907593959
 30
0.0
 10
6309.821601771918
 20
4964.496824829179
 30
0.0
 10
6309.829271584606
 20
4964.841838167862
 30
0.0
  0
LINE
  5
1D1
330
1F
100
AcDbEntity
  8
0
  6
Continuous
 62
     7
370
    25
100
AcDbLine
 10
6265.4642725362
 20
4991.3418390191
 30
0.0
 11
6265.4058683662
 21
4991.2834339178
 31
0.0
  0
ARC
  5
1D2
330
1F
100
AcDbEntity
  8
0
  6
Continuous
 62
     7
370
    25
100
AcDbCircle
 10
6293.2503591939
 20
4958.9739631656
 30
0.0
 40
1.330550000000767
100
AcDbArc
 50
288.1245806239
 51
336.4262849445
  0
ARC
  5
1D3
330
1F
100
AcDbEntity
  8
0
  6
Continuous
 62
     7
370
    25
100
AcDbCircle
 10
6293.2503591939
 20
4970.7097131656
 30
0.0
 40
1.330550000000336
100
AcDbArc
 50
23.5737150555
 51
114.3834090687
  0
SPLINE
  5
1D4
330
1F
100
AcDbEntity
  8
0
  6
Continuous
 62
     7
370
    18
100
AcDbSpline
210
0.0
220
0.0
230
1.0
 70
     8
 71
     3
 72
    31
 73
    27
 74
     0
 42
0.000000001
 43
0.00000001
 40
0.0
 40
0.0
 40
0.0
 40
0.0
 40
0.041769046511225
 40
0.0836501445260145
 40
0.1253666199267089
 40
0.1669940009474563
 40
0.2086431860771402
 40
0.2500234378815986
 40
0.2915255587949022
 40
0.3332931646695797
 40
0.374949351130011
 40
0.4165582967147957
 40
0.4582108511550677
 40
0.4999641030844064
 40
0.541719201140758
 40
0.5835273556341722
 40
0.6251748438302651
 40
0.6667502457657746
 40
0.7084183388482383
 40
0.749960306835277
 40
0.7914906227583242
 40
0.8331764546531153
 40
0.8747791245933472
 40
0.9164272448342444
 40
0.9582450444732518
 40
1.0
 40
1.0
 40
1.0
 40
1.0
 10
6291.944974288201
 20
4831.840699944527
 30
0.0
 10
6291.902402228606
 20
4830.757115119047
 30
0.0
 10
6291.817143903712
 20
4828.587038595197
 30
0.0
 10
6291.142731864988
 20
4825.393090147592
 30
0.0
 10
6290.093975126301
 20
4822.313760997942
 30
0.0
 10
6288.65611058093
 20
4819.399274107274
 30
0.0
 10
6286.862756858144
 20
4816.700341349747
 30
0.0
 10
6284.73233787416
 20
4814.261971233032
 30
0.0
 10
6282.293200161291
 20
4812.128075222961
 30
0.0
 10
6279.591560772696
 20
4810.325753983297
 30
0.0
 10
6276.677008061549
 20
4808.886866522572
 30
0.0
 10
6273.603108679503
 20
4807.839020903259
 30
0.0
 10
6270.415712858759
 20
4807.203262376852
 30
0.0
 10
6267.168736130873
 20
4806.989607413202
 30
0.0
 10
6263.9177268209
 20
4807.206330249869
 30
0.0
 10
6260.726776471055
 20
4807.850296009441
 30
0.0
 10
6257.650705288241
 20
4808.899801066044
 30
0.0
 10
6254.737485601052
 20
4810.332719478408
 30
0.0
 10
6252.035932070513
 20
4812.128847946459
 30
0.0
 10
6249.595041577728
 20
4814.264550834839
 30
0.0
 10
6247.461013981895
 20
4816.707506702361
 30
0.0
 10
6245.664330383916
 20
4819.409268908808
 30
0.0
 10
6244.227262262344
 20
4822.322598001858
 30
0.0
 10
6243.181332023149
 20
4825.398669714253
 30
0.0
 10
6242.510340366728
 20
4828.589409723456
 30
0.0
 10
6242.425804755384
 20
4830.757479977967
 30
0.0
 10
6242.383568733787
 20
4831.840699944527
 30
0.0
  0
LINE
  5
1D5
330
1F
100
AcDbEntity
  8
0
  6
Continuous
 62
     7
370
    18
100
AcDbLine
 10
6242.3835687338
 20
4831.8406999445
 30
0.0
 11
6291.9449742882
 21
4831.8406999445
 31
0.0
  0
LINE
  5
1D6
330
1F
100
AcDbEntity
  8
0
  6
Continuous
 62
     7
370
    18
100
AcDbLine
 10
6291.9449742882
 20
4964.8418381679
 30
0.0
 11
6291.9449742882
 21
4831.8406999445
 31
0.0
  0
LINE
  5
1D7
330
1F
100
AcDbEntity
  8
0
  6
Continuous
 62
     7
370
    18
100
AcDbLine
 10
6242.3835687338
 20
4831.8406999445
 30
0.0
 11
6242.3835687338
 21
4964.8418381679
 31
0.0
  0
LINE
  5
1D8
330
1F
100
AcDbEntity
  8
0
  6
Continuous
 62
     7
370
    18
100
AcDbLine
 10
6242.3835687338
 20
4964.8418381679
 30
0.0
 11
6291.9449742882
 21
4964.8418381679
 31
0.0
  0
ARC
  5
1D9
330
1F
100
AcDbEntity
  8
0
  6
Continuous
 62
     7
370
    18
100
AcDbCircle
 10
6267.1642722555
 20
4964.8418381656
 30
0.0
 40
24.78070175438188
100
AcDbArc
 50
0.0
 51
180.0
  0
SPLINE
  5
1DA
330
1F
100
AcDbEntity
  8
0
  6
Continuous
 62
     7
370
    25
100
AcDbSpline
210
0.0
220
0.0
230
1.0
 70
     8
 71
     3
 72
    31
 73
    27
 74
     0
 42
0.000000001
 43
0.00000001
 40
0.0
 40
0.0
 40
0.0
 40
0.0
 40
0.0414404855269672
 40
0.0831026044333864
 40
0.1248557122071995
 40
0.1665928620498895
 40
0.2083009260877052
 40
0.2499929929513715
 40
0.291673900318817
 40
0.3333630675291228
 40
0.3750537009422096
 40
0.4167151300170587
 40
0.4583338056071266
 40
0.4999374663627907
 40
0.5415447480044625
 40
0.5831737449163275
 40
0.6248523175365872
 40
0.6665715428709926
 40
0.7083094776846054
 40
0.7500675496427345
 40
0.791846545758125
 40
0.8336177837996509
 40
0.8753596549782464
 40
0.9170561623642848
 40
0.9586356096459901
 40
1.0
 40
1.0
 40
1.0
 40
1.0
 10
6293.664272129392
 20
4831.840699944527
 30
0.0
 10
6293.619703491332
 20
4830.690817768778
 30
0.0
 10
6293.530327851746
 20
4828.384903579282
 30
0.0
 10
6292.826282237635
 20
4824.980110747211
 30
0.0
 10
6291.722365971825
 20
4821.682020700461
 30
0.0
 10
6290.183625731332
 20
4818.557628338991
 30
0.0
 10
6288.249094911338
 20
4815.665351372676
 30
0.0
 10
6285.956617022267
 20
4813.04951783926
 30
0.0
 10
6283.342405042966
 20
4810.755556606861
 30
0.0
 10
6280.447665685786
 20
4808.827908087206
 30
0.0
 10
6277.32896095556
 20
4807.29099659797
 30
0.0
 10
6274.039623251242
 20
4806.169568506112
 30
0.0
 10
6270.63322475779
 20
4805.492439597108
 30
0.0
 10
6267.169368393225
 20
4805.267136637197
 30
0.0
 10
6263.705160678186
 20
4805.491316828296
 30
0.0
 10
6260.297639910546
 20
4806.16712432641
 30
0.0
 10
6257.00623922102
 20
4807.287353227935
 30
0.0
 10
6253.884647632117
 20
4808.824446608595
 30
0.0
 10
6250.986361646789
 20
4810.754658733477
 30
0.0
 10
6248.368915438894
 20
4813.053979791962
 30
0.0
 10
6246.073709616679
 20
4815.675786262649
 30
0.0
 10
6244.137618686906
 20
4818.57215458665
 30
0.0
 10
6242.599179965647
 20
4821.697053336901
 30
0.0
 10
6241.497683065647
 20
4824.992072872059
 30
0.0
 10
6240.797077794736
 20
4828.391416542811
 30
0.0
 10
6240.708464516184
 20
4830.692927931544
 30
0.0
 10
6240.664272755241
 20
4831.840699944527
 30
0.0
  0
LINE
  5
1DB
330
1F
100
AcDbEntity
  8
0
  6
Continuous
 62
     7
370
    25
100
AcDbLine
 10
6240.6642727552
 20
4831.8406999445
 30
0.0
 11
6242.3835687338
 21
4831.8406999445
 31
0.0
  0
LINE
  5
1DC
330
1F
100
AcDbEntity
  8
0
  6
Continuous
 62
     7
370
    25
100
AcDbLine
 10
6291.9449742882
 20
4831.8406999445
 30
0.0
 11
6293.6642721294
 21
4831.8406999445
 31
0.0
  0
LINE
  5
1DD
330
1F
100
AcDbEntity
  8
0
  6
Continuous
 62
     7
370
    25
100
AcDbLine
 10
6293.6642721294
 20
4964.8418381679
 30
0.0
 11
6293.6642721294
 21
4831.8406999445
 31
0.0
  0
LINE
  5
1DE
330
1F
100
AcDbEntity
  8
0
  6
Continuous
 62
     7
370
    25
100
AcDbLine
 10
6291.9449742882
 20
4964.8418381679
 30
0.0
 11
6293.6642721294
 21
4964.8418381679
 31
0.0
  0
LINE
  5
1DF
330
1F
100
AcDbEntity
  8
0
  6
Continuous
 62
     7
370
    25
100
AcDbLine
 10
6240.6642727552
 20
4831.8406999445
 30
0.0
 11
6240.6642727552
 21
4964.8418381679
 31
0.0
  0
LINE
  5
1E0
330
1F
100
AcDbEntity
  8
0
  6
Continuous
 62
     7
370
    25
100
AcDbLine
 10
6240.6642727552
 20
4964.8418381679
 30
0.0
 11
6242.3835687338
 21
4964.8418381679
 31
0.0
  0
ARC
  5
1E1
330
1F
100
AcDbEntity
  8
0
  6
Continuous
 62
     7
370
    25
100
AcDbCircle
 10
6267.1642722555
 20
4964.8418381656
 30
0.0
 40
26.50000000000091
100
AcDbArc
 50
0.0
 51
180.0
  0
LINE
  5
1E2
330
1F
100
AcDbEntity
  8
0
  6
Continuous
 62
     7
370
    18
100
AcDbLine
 10
6307.7998600899
 20
4966.3246662224
 30
0.0
 11
6307.7998600899
 21
4963.2673895088
 31
0.0
  0
LINE
  5
1E3
330
1F
100
AcDbEntity
  8
0
  6
Continuous
 62
     7
370
    18
100
AcDbLine
 10
6308.5998587309
 20
4966.3246662224
 30
0.0
 11
6307.7998600899
 21
4966.3246662224
 31
0.0
  0
LINE
  5
1E4
330
1F
100
AcDbEntity
  8
0
  6
Continuous
 62
     7
370
    25
100
AcDbLine
 10
6308.5998587309
 20
4966.3246662224
 30
0.0
 11
6308.5998587309
 21
4963.2673895088
 31
0.0
  0
LINE
  5
1E5
330
1F
100
AcDbEntity
  8
0
  6
Continuous
 62
     7
370
    18
100
AcDbLine
 10
6307.7998600899
 20
4963.2673895088
 30
0.0
 11
6308.5998587309
 21
4963.2673895088
 31
0.0
  0
LINE
  5
1E6
330
1F
100
AcDbEntity
  8
0
  6
Continuous
 62
     7
370
    18
100
AcDbLine
 10
6302.3998599498
 20
4963.2673895088
 30
0.0
 11
6302.3998599498
 21
4966.3246662224
 31
0.0
  0
LINE
  5
1E7
330
1F
100
AcDbEntity
  8
0
  6
Continuous
 62
     7
370
    18
100
AcDbLine
 10
6302.3998599498
 20
4966.3246662224
 30
0.0
 11
6307.7998600899
 21
4966.3246662224
 31
0.0
  0
LINE
  5
1E8
330
1F
100
AcDbEntity
  8
0
  6
Continuous
 62
     7
370
    18
100
AcDbLine
 10
6307.7998600899
 20
4963.2673895088
 30
0.0
 11
6302.3998599498
 21
4963.2673895088
 31
0.0
  0
ARC
  5
1E9
330
1F
100
AcDbEntity
  8
0
  6
Continuous
 62
     7
370
    18
100
AcDbCircle
 10
6307.7998591939
 20
4966.3246661305
 30
0.0
 40
0.8000000000010914
100
AcDbArc
 50
0.0
 51
90.0
  0
LINE
  5
1EA
330
1F
100
AcDbEntity
  8
0
  6
Continuous
 62
     7
370
    18
100
AcDbLine
 10
6307.7998600899
 20
4966.3246662224
 30
0.0
 11
6307.7998600899
 21
4967.1246660276
 31
0.0
  0
LINE
  5
1EB
330
1F
100
AcDbEntity
  8
0
  6
Continuous
 62
     7
370
    18
100
AcDbLine
 10
6302.3998599498
 20
4966.3246662224
 30
0.0
 11
6301.5998594461
 21
4966.3246662224
 31
0.0
  0
ARC
  5
1EC
330
1F
100
AcDbEntity
  8
0
  6
Continuous
 62
     7
370
    18
100
AcDbCircle
 10
6302.3998591939
 20
4966.3246661305
 30
0.0
 40
0.8000000000010914
100
AcDbArc
 50
90.0
 51
180.0
  0
LINE
  5
1ED
330
1F
100
AcDbEntity
  8
0
  6
Continuous
 62
     7
370
    18
100
AcDbLine
 10
6302.3998599498
 20
4967.1246660276
 30
0.0
 11
6302.3998599498
 21
4966.3246662224
 31
0.0
  0
LINE
  5
1EE
330
1F
100
AcDbEntity
  8
0
  6
Continuous
 62
     7
370
    18
100
AcDbLine
 10
6301.5998594461
 20
4963.2673895088
 30
0.0
 11
6302.3998599498
 21
4963.2673895088
 31
0.0
  0
LINE
  5
1EF
330
1F
100
AcDbEntity
  8
0
  6
Continuous
 62
     7
370
    18
100
AcDbLine
 10
6301.5998594461
 20
4963.2673895088
 30
0.0
 11
6301.5998594461
 21
4966.3246662224
 31
0.0
  0
LINE
  5
1F0
330
1F
100
AcDbEntity
  8
0
  6
Continuous
 62
     7
370
    18
100
AcDbLine
 10
6307.7998600899
 20
4967.1246660276
 30
0.0
 11
6302.3998599498
 21
4967.1246660276
 31
0.0
  0
ARC
  5
1F1
330
1F
100
AcDbEntity
  8
0
  6
Continuous
 62
     7
370
    18
100
AcDbCircle
 10
6307.7998591939
 20
4963.2673895227
 30
0.0
 40
0.8000000000001819
100
AcDbArc
 50
270.0
 51
0.0000000001
  0
LINE
  5
1F2
330
1F
100
AcDbEntity
  8
0
  6
Continuous
 62
     7
370
    18
100
AcDbLine
 10
6307.7998600899
 20
4962.467389529
 30
0.0
 11
6307.7998600899
 21
4963.2673895088
 31
0.0
  0
ARC
  5
1F3
330
1F
100
AcDbEntity
  8
0
  6
Continuous
 62
     7
370
    25
100
AcDbCircle
 10
6302.3998591939
 20
4963.2673895227
 30
0.0
 40
0.8000000000029104
100
AcDbArc
 50
180.0000000002
 51
270.0
  0
LINE
  5
1F4
330
1F
100
AcDbEntity
  8
0
  6
Continuous
 62
     7
370
    18
100
AcDbLine
 10
6302.3998599498
 20
4963.2673895088
 30
0.0
 11
6302.3998599498
 21
4962.467389529
 31
0.0
  0
LINE
  5
1F5
330
1F
100
AcDbEntity
  8
0
  6
Continuous
 62
     7
370
    18
100
AcDbLine
 10
6302.3998599498
 20
4962.467389529
 30
0.0
 11
6307.7998600899
 21
4962.467389529
 31
0.0
  0
LINE
  5
1F6
330
1F
100
AcDbEntity
  8
0
  6
Continuous
 62
     7
370
    18
100
AcDbLine
 10
6302.3998599498
 20
4967.1246660276
 30
0.0
 11
6302.3998599498
 21
4970.7084395325
 31
0.0
  0
SPLINE
  5
1F7
330
1F
100
AcDbEntity
  8
0
  6
Continuous
 62
     7
370
    18
100
AcDbSpline
210
0.0
220
0.0
230
1.0
 70
     8
 71
     3
 72
    13
 73
     9
 74
     0
 42
0.000000001
 43
0.00000001
 40
0.0
 40
0.0
 40
0.0
 40
0.0
 40
0.1584190258852901
 40
0.3257900880141073
 40
0.4998553868022643
 40
0.6599357908235878
 40
0.81462672791129
 40
1.0
 40
1.0
 40
1.0
 40
1.0
 10
6301.599859446143
 20
4968.464015923322
 30
0.0
 10
6301.609270616609
 20
4968.615250582501
 30
0.0
 10
6301.628624769542
 20
4968.926265958649
 30
0.0
 10
6301.742166095215
 20
4969.345586327683
 30
0.0
 10
6301.882455029215
 20
4969.731262111892
 30
0.0
 10
6302.040790746705
 20
4970.074802565944
 30
0.0
 10
6302.212717361952
 20
4970.40139054523
 30
0.0
 10
6302.333836426369
 20
4970.600113275858
 30
0.0
 10
6302.399859949803
 20
4970.708439532549
 30
0.0
  0
SPLINE
  5
1F8
330
1F
100
AcDbEntity
  8
0
  6
Continuous
 62
     7
370
    18
100
AcDbSpline
210
0.0
220
0.0
230
1.0
 70
    24
 71
     3
 72
    10
 73
     6
 74
     0
 42
0.000000001
 43
0.00000001
 40
0.0
 40
0.0
 40
0.0
 40
0.0
 40
0.3332656988569329
 40
0.6667519950899999
 40
1.0
 40
1.0
 40
1.0
 40
1.0
 10
6301.599859446143
 20
4968.464015923322
 30
0.0
 10
6301.599859446143
 20
4968.038240498649
 30
0.0
 10
6301.599859446143
 20
4967.186407817296
 30
0.0
 10
6301.599859446143
 20
4966.468133090417
 30
0.0
 10
6301.599859446143
 20
4966.372477115927
 30
0.0
 10
6301.599859446143
 20
4966.324666222439
 30
0.0
  0
ARC
  5
1F9
330
1F
100
AcDbEntity
  8
0
  6
Continuous
 62
     7
370
    25
100
AcDbCircle
 10
6307.8311256044
 20
4959.7322181615
 30
0.0
 40
0.7694865117624681
100
AcDbArc
 50
267.671336307
 51
357.4643977287
  0
LINE
  5
1FA
330
1F
100
AcDbEntity
  8
0
  6
Continuous
 62
     7
370
    18
100
AcDbLine
 10
6307.7998600899
 20
4962.467389529
 30
0.0
 11
6307.7998600899
 21
4958.963367097
 31
0.0
  0
SPLINE
  5
1FB
330
1F
100
AcDbEntity
  8
0
  6
Continuous
 62
     7
370
    25
100
AcDbSpline
210
0.0
220
0.0
230
1.0
 70
    24
 71
     3
 72
    11
 73
     7
 74
     0
 42
0.000000001
 43
0.00000001
 40
0.0
 40
0.0
 40
0.0
 40
0.0
 40
0.2500077549440479
 40
0.5000000660977251
 40
0.7500077199077322
 40
1.0
 40
1.0
 40
1.0
 40
1.0
 10
6308.599858730888
 20
4959.69817595172
 30
0.0
 10
6308.599858730888
 20
4960.245605648824
 30
0.0
 10
6308.599858730888
 20
4961.340431226524
 30
0.0
 10
6308.599858730888
 20
4962.428898859052
 30
0.0
 10
6308.599858730888
 20
4963.138907334614
 30
0.0
 10
6308.599858730888
 20
4963.224562995287
 30
0.0
 10
6308.599858730888
 20
4963.267389508777
 30
0.0
  0
LINE
  5
1FC
330
1F
100
AcDbEntity
  8
0
  6
Continuous
 62
     7
370
    18
100
AcDbLine
 10
6307.7998600899
 20
4970.7084395325
 30
0.0
 11
6307.7998600899
 21
4967.1246660276
 31
0.0
  0
ARC
  5
1FD
330
1F
100
AcDbEntity
  8
0
  6
Continuous
 62
     7
370
    25
100
AcDbCircle
 10
6307.831806039
 20
4969.9402603955
 30
0.0
 40
0.7688431116570849
100
AcDbArc
 50
2.5982736532
 51
92.3813637888
  0
SPLINE
  5
1FE
330
1F
100
AcDbEntity
  8
0
  6
Continuous
 62
     7
370
    25
100
AcDbSpline
210
0.0
220
0.0
230
1.0
 70
    24
 71
     3
 72
    11
 73
     7
 74
     0
 42
0.000000001
 43
0.00000001
 40
0.0
 40
0.0
 40
0.0
 40
0.0
 40
0.2499923188308899
 40
0.4999999207819321
 40
0.7499922728782752
 40
1.0
 40
1.0
 40
1.0
 40
1.0
 10
6308.599858730888
 20
4969.975114274652
 30
0.0
 10
6308.599858730888
 20
4969.415388915651
 30
0.0
 10
6308.599858730888
 20
4968.295903979198
 30
0.0
 10
6308.599858730888
 20
4967.182515361046
 30
0.0
 10
6308.599858730888
 20
4966.456063095306
 30
0.0
 10
6308.599858730888
 20
4966.368466077933
 30
0.0
 10
6308.599858730888
 20
4966.324666222439
 30
0.0
  0
LINE
  5
1FF
330
1F
100
AcDbEntity
  8
0
  6
Continuous
 62
     7
370
    18
100
AcDbLine
 10
6302.3998599498
 20
4970.7084395325
 30
0.0
 11
6307.7998600899
 21
4970.7084395325
 31
0.0
  0
LINE
  5
200
330
1F
100
AcDbEntity
  8
0
  6
Continuous
 62
     7
370
    18
100
AcDbLine
 10
6302.3998599498
 20
4958.963367097
 30
0.0
 11
6302.3998599498
 21
4962.467389529
 31
0.0
  0
SPLINE
  5
201
330
1F
100
AcDbEntity
  8
0
  6
Continuous
 62
     7
370
    18
100
AcDbSpline
210
0.0
220
0.0
230
1.0
 70
     8
 71
     3
 72
    12
 73
     8
 74
     0
 42
0.000000001
 43
0.00000001
 40
0.0
 40
0.0
 40
0.0
 40
0.0
 40
0.185428068816997
 40
0.3401613639191775
 40
0.5002734004554314
 40
0.7501303979714667
 40
1.0
 40
1.0
 40
1.0
 40
1.0
 10
6302.399859949803
 20
4958.963367096962
 30
0.0
 10
6302.333881060043
 20
4959.070600068194
 30
0.0
 10
6302.212845074102
 20
4959.26731523642
 30
0.0
 10
6302.040345777353
 20
4959.590642219896
 30
0.0
 10
6301.860057290336
 20
4959.985473229339
 30
0.0
 10
6301.666943116679
 20
4960.490921151006
 30
0.0
 10
6301.622221045661
 20
4960.957415898606
 30
0.0
 10
6301.599859446143
 20
4961.190669155561
 30
0.0
  0
SPLINE
  5
202
330
1F
100
AcDbEntity
  8
0
  6
Continuous
 62
     7
370
    18
100
AcDbSpline
210
0.0
220
0.0
230
1.0
 70
    24
 71
     3
 72
    10
 73
     6
 74
     0
 42
0.000000001
 43
0.00000001
 40
0.0
 40
0.0
 40
0.0
 40
0.0
 40
0.3332682880655704
 40
0.6667499037179375
 40
1.0
 40
1.0
 40
1.0
 40
1.0
 10
6301.599859446143
 20
4963.267389508777
 30
0.0
 10
6301.599859446143
 20
4963.220997747329
 30
0.0
 10
6301.599859446143
 20
4963.128184528711
 30
0.0
 10
6301.599859446143
 20
4962.430962126433
 30
0.0
 10
6301.599859446143
 20
4961.604004426828
 30
0.0
 10
6301.599859446143
 20
4961.190669155561
 30
0.0
  0
LINE
  5
203
330
1F
100
AcDbEntity
  8
0
  6
Continuous
 62
     7
370
    18
100
AcDbLine
 10
6307.7998600899
 20
4958.963367097
 30
0.0
 11
6302.3998599498
 21
4958.963367097
 31
0.0
  0
LWPOLYLINE
  5
204
330
1F
100
AcDbEntity
  8
0
  6
Continuous
 62
     7
370
    18
100
AcDbPolyline
 90
        9
 70
   128
 43
0.0
 10
6301.5998594461
 20
4961.1906691556
 10
6301.5844870357
 20
4961.2698144614
 10
6301.5389621256
 20
4961.3459183004
 10
6301.4650356023
 20
4961.4160559707
 10
6301.3655442743
 20
4961.4775321082
 10
6301.2443158774
 20
4961.5279842968
 10
6301.1060051619
 20
4961.5654736393
 10
6300.9559318422
 20
4961.5885594961
 10
6300.7998589425
 20
4961.596354666
  0
LINE
  5
205
330
1F
100
AcDbEntity
  8
0
  6
Continuous
 62
     7
370
    18
100
AcDbLine
 10
6300.7998589425
 20
4961.596354666
 30
0.0
 11
6300.7998589425
 21
4968.0615518576
 31
0.0
  0
LWPOLYLINE
  5
206
330
1F
100
AcDbEntity
  8
0
  6
Continuous
 62
     7
370
    18
100
AcDbPolyline
 90
        9
 70
   128
 43
0.0
 10
6300.7998589425
 20
4968.0615518576
 10
6300.9559318422
 20
4968.0692850946
 10
6301.1060051619
 20
4968.0921877137
 10
6301.2443158774
 20
4968.1293791494
 10
6301.3655442743
 20
4968.1794307529
 10
6301.4650356023
 20
4968.2404188773
 10
6301.5389621256
 20
4968.3099998495
 10
6301.5844870357
 20
4968.3854993767
 10
6301.5998594461
 20
4968.4640159233
  0
SPLINE
  5
207
330
1F
100
AcDbEntity
  8
0
  6
Continuous
 62
     7
370
    18
100
AcDbSpline
210
0.0
220
0.0
230
1.0
 70
     8
 71
     3
 72
    10
 73
     6
 74
     0
 42
0.000000001
 43
0.00000001
 40
0.0
 40
0.0
 40
0.0
 40
0.0
 40
0.2498693398078709
 40
0.5000084564736185
 40
1.0
 40
1.0
 40
1.0
 40
1.0
 10
6300.799858942484
 20
4968.061551857621
 30
0.0
 10
6300.837805478249
 20
4968.367590836803
 30
0.0
 10
6300.913739519581
 20
4968.979999216795
 30
0.0
 10
6301.495808767696
 20
4969.951202093834
 30
0.0
 10
6302.038280942067
 20
4970.405579288428
 30
0.0
 10
6302.399859949803
 20
4970.708439532549
 30
0.0
  0
SPLINE
  5
208
330
1F
100
AcDbEntity
  8
0
  6
Continuous
 62
     7
370
    18
100
AcDbSpline
210
0.0
220
0.0
230
1.0
 70
     8
 71
     3
 72
    10
 73
     6
 74
     0
 42
0.000000001
 43
0.00000001
 40
0.0
 40
0.0
 40
0.0
 40
0.0
 40
0.4999916766888441
 40
0.7501306374163055
 40
1.0
 40
1.0
 40
1.0
 40
1.0
 10
6302.399859949803
 20
4958.963367096962
 30
0.0
 10
6302.038281033399
 20
4959.263600408816
 30
0.0
 10
6301.495809157
 20
4959.714036318243
 30
0.0
 10
6300.913739382549
 20
4960.680725965384
 30
0.0
 10
6300.837805441633
 20
4961.291254828966
 30
0.0
 10
6300.799858942484
 20
4961.596354666048
 30
0.0
  0
LINE
  5
209
330
1F
100
AcDbEntity
  8
0
  6
Continuous
 62
     7
370
    25
100
AcDbLine
 10
6308.5998587309
 20
4969.9751142747
 30
0.0
 11
6308.5998587309
 21
4970.3080858438
 31
0.0
  0
SPLINE
  5
20A
330
1F
100
AcDbEntity
  8
0
  6
Continuous
 62
     7
370
    25
100
AcDbSpline
210
0.0
220
0.0
230
1.0
 70
     8
 71
     3
 72
    13
 73
     9
 74
     0
 42
0.000000001
 43
0.00000001
 40
0.0
 40
0.0
 40
0.0
 40
0.0
 40
0.1326225207992084
 40
0.308167544741623
 40
0.4837126518930903
 40
0.6592576426789495
 40
0.8348026457416218
 40
1.0
 40
1.0
 40
1.0
 40
1.0
 10
6309.171158075189
 20
4968.947381187112
 30
0.0
 10
6309.171651699972
 20
4968.894217687545
 30
0.0
 10
6309.172798708314
 20
4968.770684632732
 30
0.0
 10
6309.169720645456
 20
4967.867138707476
 30
0.0
 10
6309.173228239139
 20
4966.483928220803
 30
0.0
 10
6309.169746322831
 20
4964.847128022465
 30
0.0
 10
6309.172905810043
 20
4963.211373275109
 30
0.0
 10
6309.171578202957
 20
4962.370762210479
 30
0.0
 10
6309.170934557771
 20
4961.963220497941
 30
0.0
  0
LINE
  5
20B
330
1F
100
AcDbEntity
  8
0
  6
Continuous
 62
     7
370
    25
100
AcDbLine
 10
6268.9226760528
 20
4991.2834339178
 30
0.0
 11
6268.8642723484
 21
4991.3418390191
 31
0.0
  0
LINE
  5
20C
330
1F
100
AcDbEntity
  8
0
  6
Continuous
 62
     7
370
    25
100
AcDbLine
 10
6268.8642723484
 20
4991.3418390191
 30
0.0
 11
6268.3442721142
 21
4991.3418390191
 31
0.0
  0
LINE
  5
20D
330
1F
100
AcDbEntity
  8
0
  6
Continuous
 62
     7
370
    25
100
AcDbLine
 10
6265.9842718391
 20
4991.3418390191
 30
0.0
 11
6265.4642725362
 21
4991.3418390191
 31
0.0
  0
LINE
  5
20E
330
1F
100
AcDbEntity
  8
0
  6
Continuous
 62
     7
370
    25
100
AcDbLine
 10
6266.5742721407
 20
4991.3418390191
 30
0.0
 11
6265.9842718391
 21
4991.3418390191
 31
0.0
  0
LINE
  5
20F
330
1F
100
AcDbEntity
  8
0
  6
Continuous
 62
     7
370
    25
100
AcDbLine
 10
6266.5742721407
 20
4991.3418390191
 30
0.0
 11
6266.5742721407
 21
4991.3352694696
 31
0.0
  0
LINE
  5
210
330
1F
100
AcDbEntity
  8
0
  6
Continuous
 62
     7
370
    25
100
AcDbLine
 10
6265.9842718391
 20
4991.3155533707
 30
0.0
 11
6265.9842718391
 21
4991.3418390191
 31
0.0
  0
LINE
  5
211
330
1F
100
AcDbEntity
  8
0
  6
Continuous
 62
     7
370
    25
100
AcDbLine
 10
6267.7542718126
 20
4991.3418390191
 30
0.0
 11
6266.5742721407
 21
4991.3418390191
 31
0.0
  0
LINE
  5
212
330
1F
100
AcDbEntity
  8
0
  6
Continuous
 62
     7
370
    25
100
AcDbLine
 10
6267.7542718126
 20
4991.3418390191
 30
0.0
 11
6267.7542718126
 21
4991.2876285947
 31
0.0
  0
LINE
  5
213
330
1F
100
AcDbEntity
  8
0
  6
Continuous
 62
     7
370
    25
100
AcDbLine
 10
6268.3442721142
 20
4991.3418390191
 30
0.0
 11
6268.3442721142
 21
4991.3155533707
 31
0.0
  0
LINE
  5
214
330
1F
100
AcDbEntity
  8
0
  6
Continuous
 62
     7
370
    25
100
AcDbLine
 10
6268.3442721142
 20
4991.3418390191
 30
0.0
 11
6267.7542718126
 21
4991.3418390191
 31
0.0
  0
LINE
  5
215
330
1F
100
AcDbEntity
  8
0
  6
Continuous
 62
     8
370
    25
100
AcDbLine
 10
6240.6642466782
 20
4964.7274879374
 30
0.0
 11
6240.6642727552
 21
4964.8315350626
 31
0.0
  0
LINE
  5
216
330
1F
100
AcDbEntity
  8
0
  6
Continuous
 62
     7
370
    18
100
AcDbLine
 10
6307.7998600899
 20
4970.7084395325
 30
0.0
 11
6307.7998600899
 21
4971.2418377734
 31
0.0
  0
LINE
  5
217
330
1F
100
AcDbEntity
  8
0
  6
Continuous
 62
     7
370
    18
100
AcDbLine
 10
6307.7998600899
 20
4958.4418380967
 30
0.0
 11
6307.7998600899
 21
4958.963367097
 31
0.0
  0
LINE
  5
218
330
1F
100
AcDbEntity
  8
0
  6
Continuous
 62
     8
370
    25
100
AcDbLine
 10
6309.1708637773
 20
4969.0260993651
 30
0.0
 11
6309.1711580752
 21
4968.9473811871
 31
0.0
  0
SPLINE
  5
219
330
1F
100
AcDbEntity
  8
0
  6
Continuous
 62
     8
370
    25
100
AcDbSpline
210
0.0
220
0.0
230
1.0
 70
     8
 71
     3
 72
    10
 73
     6
 74
     0
 42
0.000000001
 43
0.00000001
 40
0.0
 40
0.0
 40
0.0
 40
0.0
 40
0.0286293941790723
 40
0.5143148373610841
 40
1.0
 40
1.0
 40
1.0
 40
1.0
 10
6309.170934557771
 20
4961.963220497941
 30
0.0
 10
6309.170909104007
 20
4961.936327780149
 30
0.0
 10
6309.170451838011
 20
4961.453211592275
 30
0.0
 10
6309.173064624474
 20
4960.875579243482
 30
0.0
 10
6309.171597392853
 20
4960.730244536148
 30
0.0
 10
6309.170863777255
 20
4960.657577203468
 30
0.0
  0
ENDSEC
  0
SECTION
  2
OBJECTS
  0
DICTIONARY
  5
C
330
0
100
AcDbDictionary
281
     1
  3
ACAD_GROUP
350
D
  3
ACAD_LAYOUT
350
1A
  3
ACAD_MLINESTYLE
350
17
  3
ACAD_PLOTSETTINGS
350
19
  3
ACAD_PLOTSTYLENAME
350
E
  3
ACAD_SCALELIST
350
47
  0
DICTIONARY
  5
D
102
{ACAD_REACTORS
330
C
102
}
330
C
100
AcDbDictionary
281
     1
  0
DICTIONARY
  5
1A
102
{ACAD_REACTORS
330
C
102
}
330
C
100
AcDbDictionary
281
     1
  3
Layout1
350
1E
  3
Layout2
350
26
  3
Model
350
22
  0
DICTIONARY
  5
17
102
{ACAD_REACTORS
330
C
102
}
330
C
100
AcDbDictionary
281
     1
  3
Standard
350
18
  0
DICTIONARY
  5
19
102
{ACAD_REACTORS
330
C
102
}
330
C
100
AcDbDictionary
281
     1
  0
ACDBDICTIONARYWDFLT
  5
E
102
{ACAD_REACTORS
330
C
102
}
330
C
100
AcDbDictionary
281
     1
  3
Normal
350
F
100
AcDbDictionaryWithDefault
340
F
  0
DICTIONARY
  5
47
102
{ACAD_REACTORS
330
C
102
}
330
C
100
AcDbDictionary
281
     1
  3
A0
350
48
  3
A1
350
49
  3
A2
350
4A
  3
A3
350
4B
  3
A4
350
4C
  3
A5
350
4D
  3
A6
350
4E
  3
A7
350
4F
  3
A8
350
50
  3
A9
350
51
  3
B0
350
52
  3
B1
350
53
  3
B2
350
54
  3
B3
350
55
  3
B4
350
56
  3
B5
350
57
  3
B6
350
58
  3
B7
350
59
  3
B8
350
5A
  3
B9
350
5B
  3
C0
350
5C
  3
C1
350
5D
  3
C2
350
5E
  3
C3
350
5F
  3
C4
350
60
  3
C5
350
61
  3
C6
350
62
  3
C7
350
63
  3
C8
350
64
  3
C9
350
65
  3
D0
350
66
  3
D1
350
67
  3
D2
350
68
  0
LAYOUT
  5
1E
102
{ACAD_REACTORS
330
1A
102
}
330
1A
100
AcDbPlotSettings
  1

  2
none_device
  4

  6

 40
0.0
 41
0.0
 42
0.0
 43
0.0
 44
0.0
 45
0.0
 46
0.0
 47
0.0
 48
0.0
 49
0.0
140
0.0
141
0.0
142
1.0
143
1.0
 70
   688
 72
     1
 73
     0
 74
     5
  7

 75
    16
147
1.0
148
0.0
149
0.0
100
AcDbLayout
  1
Layout1
 70
     1
 71
     1
 10
0.0
 20
0.0
 11
420.0
 21
297.0
 12
0.0
 22
0.0
 32
0.0
 14
1.0000000000E+20
 24
1.0000000000E+20
 34
1.0000000000E+20
 15
-1.0000000000E+20
 25
-1.0000000000E+20
 35
-1.0000000000E+20
146
0.0
 13
0.0
 23
0.0
 33
0.0
 16
1.0
 26
0.0
 36
0.0
 17
0.0
 27
1.0
 37
0.0
 76
     0
330
1B
  0
LAYOUT
  5
26
102
{ACAD_REACTORS
330
1A
102
}
330
1A
100
AcDbPlotSettings
  1

  2
none_device
  4

  6

 40
0.0
 41
0.0
 42
0.0
 43
0.0
 44
0.0
 45
0.0
 46
0.0
 47
0.0
 48
0.0
 49
0.0
140
0.0
141
0.0
142
1.0
143
1.0
 70
   688
 72
     1
 73
     0
 74
     5
  7

 75
    16
147
1.0
148
0.0
149
0.0
100
AcDbLayout
  1
Layout2
 70
     1
 71
     2
 10
0.0
 20
0.0
 11
0.0
 21
0.0
 12
0.0
 22
0.0
 32
0.0
 14
0.0
 24
0.0
 34
0.0
 15
0.0
 25
0.0
 35
0.0
146
0.0
 13
0.0
 23
0.0
 33
0.0
 16
1.0
 26
0.0
 36
0.0
 17
0.0
 27
1.0
 37
0.0
 76
     0
330
23
  0
LAYOUT
  5
22
102
{ACAD_REACTORS
330
1A
102
}
330
1A
100
AcDbPlotSettings
  1

  2
none_device
  4
Letter_(8.50_x_11.00_Inches)
  6

 40
6.35
 41
6.35
 42
6.35000508
 43
6.35000508
 44
215.9
 45
279.4
 46
0.0
 47
0.0
 48
0.0
 49
0.0
140
0.0
141
0.0
142
1.0
143
1.0
 70
  1712
 72
     1
 73
     0
 74
     0
  7

 75
     0
147
1.0
148
0.0
149
0.0
100
AcDbLayout
  1
Model
 70
     1
 71
     0
 10
0.0
 20
0.0
 11
20000.0
 21
10000.0
 12
0.0
 22
0.0
 32
0.0
 14
0.0
 24
0.0
 34
0.0
 15
20000.0
 25
10000.0
 35
0.0
146
0.0
 13
0.0
 23
0.0
 33
0.0
 16
1.0
 26
0.0
 36
0.0
 17
0.0
 27
1.0
 37
0.0
 76
     0
330
1F
331
29
  0
MLINESTYLE
  5
18
102
{ACAD_REACTORS
330
17
102
}
330
17
100
AcDbMlineStyle
  2
Standard
 70
     0
  3

 62
   256
 51
90.0
 52
90.0
 71
     2
 49
0.5
 62
   256
  6
BYLAYER
 49
-0.5
 62
   256
  6
BYLAYER
  0
ACDBPLACEHOLDER
  5
F
102
{ACAD_REACTORS
330
E
102
}
330
E
  0
SCALE
  5
48
102
{ACAD_REACTORS
330
47
102
}
330
47
100
AcDbScale
 70
     0
300
1:1
140
1.0
141
1.0
290
     1
  0
SCALE
  5
49
102
{ACAD_REACTORS
330
47
102
}
330
47
100
AcDbScale
 70
     0
300
1:2
140
1.0
141
2.0
290
     0
  0
SCALE
  5
4A
102
{ACAD_REACTORS
330
47
102
}
330
47
100
AcDbScale
 70
     0
300
1:4
140
1.0
141
4.0
290
     0
  0
SCALE
  5
4B
102
{ACAD_REACTORS
330
47
102
}
330
47
100
AcDbScale
 70
     0
300
1:5
140
1.0
141
5.0
290
     0
  0
SCALE
  5
4C
102
{ACAD_REACTORS
330
47
102
}
330
47
100
AcDbScale
 70
     0
300
1:8
140
1.0
141
8.0
290
     0
  0
SCALE
  5
4D
102
{ACAD_REACTORS
330
47
102
}
330
47
100
AcDbScale
 70
     0
300
1:10
140
1.0
141
10.0
290
     0
  0
SCALE
  5
4E
102
{ACAD_REACTORS
330
47
102
}
330
47
100
AcDbScale
 70
     0
300
1:16
140
1.0
141
16.0
290
     0
  0
SCALE
  5
4F
102
{ACAD_REACTORS
330
47
102
}
330
47
100
AcDbScale
 70
     0
300
1:20
140
1.0
141
20.0
290
     0
  0
SCALE
  5
50
102
{ACAD_REACTORS
330
47
102
}
330
47
100
AcDbScale
 70
     0
300
1:30
140
1.0
141
30.0
290
     0
  0
SCALE
  5
51
102
{ACAD_REACTORS
330
47
102
}
330
47
100
AcDbScale
 70
     0
300
1:40
140
1.0
141
40.0
290
     0
  0
SCALE
  5
52
102
{ACAD_REACTORS
330
47
102
}
330
47
100
AcDbScale
 70
     0
300
1:50
140
1.0
141
50.0
290
     0
  0
SCALE
  5
53
102
{ACAD_REACTORS
330
47
102
}
330
47
100
AcDbScale
 70
     0
300
1:100
140
1.0
141
100.0
290
     0
  0
SCALE
  5
54
102
{ACAD_REACTORS
330
47
102
}
330
47
100
AcDbScale
 70
     0
300
2:1
140
2.0
141
1.0
290
     0
  0
SCALE
  5
55
102
{ACAD_REACTORS
330
47
102
}
330
47
100
AcDbScale
 70
     0
300
4:1
140
4.0
141
1.0
290
     0
  0
SCALE
  5
56
102
{ACAD_REACTORS
330
47
102
}
330
47
100
AcDbScale
 70
     0
300
8:1
140
8.0
141
1.0
290
     0
  0
SCALE
  5
57
102
{ACAD_REACTORS
330
47
102
}
330
47
100
AcDbScale
 70
     0
300
10:1
140
10.0
141
1.0
290
     0
  0
SCALE
  5
58
102
{ACAD_REACTORS
330
47
102
}
330
47
100
AcDbScale
 70
     0
300
100:1
140
100.0
141
1.0
290
     0
  0
SCALE
  5
59
102
{ACAD_REACTORS
330
47
102
}
330
47
100
AcDbScale
 70
     0
300
1/128" = 1'-0"
140
0.0078125
141
12.0
290
     0
  0
SCALE
  5
5A
102
{ACAD_REACTORS
330
47
102
}
330
47
100
AcDbScale
 70
     0
300
1/64" = 1'-0"
140
0.015625
141
12.0
290
     0
  0
SCALE
  5
5B
102
{ACAD_REACTORS
330
47
102
}
330
47
100
AcDbScale
 70
     0
300
1/32" = 1'-0"
140
0.03125
141
12.0
290
     0
  0
SCALE
  5
5C
102
{ACAD_REACTORS
330
47
102
}
330
47
100
AcDbScale
 70
     0
300
1/16" = 1'-0"
140
0.0625
141
12.0
290
     0
  0
SCALE
  5
5D
102
{ACAD_REACTORS
330
47
102
}
330
47
100
AcDbScale
 70
     0
300
3/32" = 1'-0"
140
0.09375
141
12.0
290
     0
  0
SCALE
  5
5E
102
{ACAD_REACTORS
330
47
102
}
330
47
100
AcDbScale
 70
     0
300
1/8" = 1'-0"
140
0.125
141
12.0
290
     0
  0
SCALE
  5
5F
102
{ACAD_REACTORS
330
47
102
}
330
47
100
AcDbScale
 70
     0
300
3/16" = 1'-0"
140
0.1875
141
12.0
290
     0
  0
SCALE
  5
60
102
{ACAD_REACTORS
330
47
102
}
330
47
100
AcDbScale
 70
     0
300
1/4" = 1'-0"
140
0.25
141
12.0
290
     0
  0
SCALE
  5
61
102
{ACAD_REACTORS
330
47
102
}
330
47
100
AcDbScale
 70
     0
300
3/8" = 1'-0"
140
0.375
141
12.0
290
     0
  0
SCALE
  5
62
102
{ACAD_REACTORS
330
47
102
}
330
47
100
AcDbScale
 70
     0
300
1/2" = 1'-0"
140
0.5
141
12.0
290
     0
  0
SCALE
  5
63
102
{ACAD_REACTORS
330
47
102
}
330
47
100
AcDbScale
 70
     0
300
3/4" = 1'-0"
140
0.75
141
12.0
290
     0
  0
SCALE
  5
64
102
{ACAD_REACTORS
330
47
102
}
330
47
100
AcDbScale
 70
     0
300
1" = 1'-0"
140
1.0
141
12.0
290
     0
  0
SCALE
  5
65
102
{ACAD_REACTORS
330
47
102
}
330
47
100
AcDbScale
 70
     0
300
1-1/2" = 1'-0"
140
1.5
141
12.0
290
     0
  0
SCALE
  5
66
102
{ACAD_REACTORS
330
47
102
}
330
47
100
AcDbScale
 70
     0
300
3" = 1'-0"
140
3.0
141
12.0
290
     0
  0
SCALE
  5
67
102
{ACAD_REACTORS
330
47
102
}
330
47
100
AcDbScale
 70
     0
300
6" = 1'-0"
140
6.0
141
12.0
290
     0
  0
SCALE
  5
68
102
{ACAD_REACTORS
330
47
102
}
330
47
100
AcDbScale
 70
     0
300
1'-0" = 1'-0"
140
12.0
141
12.0
290
     0
  0
ENDSEC
  0
EOF
