  0
SECTION
  2
HEADER
  9
$ACADVER
  1
AC1015
  9
$ACADMAINTVER
 70
     6
  9
$DWGCODEPAGE
  3
ANSI_1250
  9
$INSBASE
 10
0.0
 20
0.0
 30
0.0
  9
$EXTMIN
 10
0.0
 20
0.0
 30
0.0
  9
$EXTMAX
 10
20000.0
 20
10000.0
 30
0.0
  9
$LIMMIN
 10
0.0
 20
0.0
  9
$LIMMAX
 10
20000.0
 20
10000.0
  9
$ORTHOMODE
 70
     0
  9
$REGENMODE
 70
     1
  9
$FILLMODE
 70
     1
  9
$QTEXTMODE
 70
     0
  9
$MIRRTEXT
 70
     1
  9
$LTSCALE
 40
1.0
  9
$ATTMODE
 70
     1
  9
$TEXTSIZE
 40
2.0
  9
$TRACEWID
 40
1.0
  9
$TEXTSTYLE
  7
Standard
  9
$CLAYER
  8
0
  9
$CELTYPE
  6
ByLayer
  9
$CECOLOR
 62
   256
  9
$CELTSCALE
 40
1.0
  9
$DISPSILH
 70
     0
  9
$DIMSCALE
 40
1.0
  9
$DIMASZ
 40
2.0
  9
$DIMEXO
 40
1.0
  9
$DIMDLI
 40
3.75
  9
$DIMRND
 40
0.0
  9
$DIMDLE
 40
0.0
  9
$DIMEXE
 40
1.0
  9
$DIMTP
 40
0.0
  9
$DIMTM
 40
0.0
  9
$DIMTXT
 40
2.0
  9
$DIMCEN
 40
2.5
  9
$DIMTSZ
 40
0.0
  9
$DIMTOL
 70
     0
  9
$DIMLIM
 70
     0
  9
$DIMTIH
 70
     1
  9
$DIMTOH
 70
     1
  9
$DIMSE1
 70
     0
  9
$DIMSE2
 70
     0
  9
$DIMTAD
 70
     1
  9
$DIMZIN
 70
     0
  9
$DIMBLK
  1

  9
$DIMASO
 70
     1
  9
$DIMSHO
 70
     1
  9
$DIMPOST
  1

  9
$DIMAPOST
  1

  9
$DIMALT
 70
     0
  9
$DIMALTD
 70
     3
  9
$DIMALTF
 40
0.0393700787
  9
$DIMLFAC
 40
1.0
  9
$DIMTOFL
 70
     1
  9
$DIMTVP
 40
0.0
  9
$DIMTIX
 70
     0
  9
$DIMSOXD
 70
     0
  9
$DIMSAH
 70
     0
  9
$DIMBLK1
  1

  9
$DIMBLK2
  1

  9
$DIMSTYLE
  2
ISO-25
  9
$DIMCLRD
 70
     0
  9
$DIMCLRE
 70
     0
  9
$DIMCLRT
 70
     0
  9
$DIMTFAC
 40
1.0
  9
$DIMGAP
 40
1.524
  9
$DIMJUST
 70
     0
  9
$DIMSD1
 70
     0
  9
$DIMSD2
 70
     0
  9
$DIMTOLJ
 70
     0
  9
$DIMTZIN
 70
     0
  9
$DIMALTZ
 70
     0
  9
$DIMALTTZ
 70
     0
  9
$DIMUPT
 70
     0
  9
$DIMDEC
 70
     2
  9
$DIMTDEC
 70
     0
  9
$DIMALTU
 70
     2
  9
$DIMALTTD
 70
     3
  9
$DIMTXSTY
  7
Standard
  9
$DIMAUNIT
 70
     0
  9
$DIMADEC
 70
     2
  9
$DIMALTRND
 40
0.0
  9
$DIMAZIN
 70
     0
  9
$DIMDSEP
 70
    44
  9
$DIMATFIT
 70
     3
  9
$DIMFRAC
 70
     0
  9
$DIMLDRBLK
  1

  9
$DIMLUNIT
 70
     2
  9
$DIMLWD
 70
    -2
  9
$DIMLWE
 70
    -2
  9
$DIMTMOVE
 70
     0
  9
$LUNITS
 70
     2
  9
$LUPREC
 70
     3
  9
$SKETCHINC
 40
1.0
  9
$FILLETRAD
 40
10.0
  9
$AUNITS
 70
     0
  9
$AUPREC
 70
     2
  9
$MENU
  1
.
  9
$ELEVATION
 40
0.0
  9
$PELEVATION
 40
0.0
  9
$THICKNESS
 40
0.0
  9
$LIMCHECK
 70
     0
  9
$CHAMFERA
 40
0.0
  9
$CHAMFERB
 40
0.0
  9
$CHAMFERC
 40
0.0
  9
$CHAMFERD
 40
0.0
  9
$SKPOLY
 70
     0
  9
$TDCREATE
 40
2458668.560614537
  9
$TDUCREATE
 40
2458668.477281203
  9
$TDUPDATE
 40
2458668.560615081
  9
$TDUUPDATE
 40
2458668.477281748
  9
$TDINDWG
 40
0.0000000116
  9
$TDUSRTIMER
 40
0.0000000116
  9
$USRTIMER
 70
     1
  9
$ANGBASE
 50
0.0
  9
$ANGDIR
 70
     0
  9
$PDMODE
 70
     0
  9
$PDSIZE
 40
-1.0
  9
$PLINEWID
 40
0.0
  9
$SPLFRAME
 70
     0
  9
$SPLINETYPE
 70
     6
  9
$SPLINESEGS
 70
     8
  9
$HANDSEED
  5
26C
  9
$SURFTAB1
 70
     6
  9
$SURFTAB2
 70
     6
  9
$SURFTYPE
 70
     6
  9
$SURFU
 70
     6
  9
$SURFV
 70
     6
  9
$UCSBASE
  2

  9
$UCSNAME
  2

  9
$UCSORG
 10
0.0
 20
0.0
 30
0.0
  9
$UCSXDIR
 10
1.0
 20
0.0
 30
0.0
  9
$UCSYDIR
 10
0.0
 20
1.0
 30
0.0
  9
$UCSORTHOREF
  2

  9
$UCSORTHOVIEW
 70
     0
  9
$UCSORGTOP
 10
0.0
 20
0.0
 30
0.0
  9
$UCSORGBOTTOM
 10
0.0
 20
0.0
 30
0.0
  9
$UCSORGLEFT
 10
0.0
 20
0.0
 30
0.0
  9
$UCSORGRIGHT
 10
0.0
 20
0.0
 30
0.0
  9
$UCSORGFRONT
 10
0.0
 20
0.0
 30
0.0
  9
$UCSORGBACK
 10
0.0
 20
0.0
 30
0.0
  9
$PUCSBASE
  2

  9
$PUCSNAME
  2

  9
$PUCSORG
 10
0.0
 20
0.0
 30
0.0
  9
$PUCSXDIR
 10
1.0
 20
0.0
 30
0.0
  9
$PUCSYDIR
 10
0.0
 20
1.0
 30
0.0
  9
$PUCSORTHOREF
  2

  9
$PUCSORTHOVIEW
 70
     0
  9
$PUCSORGTOP
 10
0.0
 20
0.0
 30
0.0
  9
$PUCSORGBOTTOM
 10
0.0
 20
0.0
 30
0.0
  9
$PUCSORGLEFT
 10
0.0
 20
0.0
 30
0.0
  9
$PUCSORGRIGHT
 10
0.0
 20
0.0
 30
0.0
  9
$PUCSORGFRONT
 10
0.0
 20
0.0
 30
0.0
  9
$PUCSORGBACK
 10
0.0
 20
0.0
 30
0.0
  9
$USERI1
 70
     0
  9
$USERI2
 70
     0
  9
$USERI3
 70
     0
  9
$USERI4
 70
     0
  9
$USERI5
 70
     0
  9
$USERR1
 40
0.0
  9
$USERR2
 40
0.0
  9
$USERR3
 40
0.0
  9
$USERR4
 40
0.0
  9
$USERR5
 40
0.0
  9
$WORLDVIEW
 70
     1
  9
$SHADEDGE
 70
     3
  9
$SHADEDIF
 70
    70
  9
$TILEMODE
 70
     1
  9
$MAXACTVP
 70
    64
  9
$PINSBASE
 10
0.0
 20
0.0
 30
0.0
  9
$PLIMCHECK
 70
     0
  9
$PEXTMIN
 10
1.0000000000E+20
 20
1.0000000000E+20
 30
1.0000000000E+20
  9
$PEXTMAX
 10
-1.0000000000E+20
 20
-1.0000000000E+20
 30
-1.0000000000E+20
  9
$PLIMMIN
 10
0.0
 20
0.0
  9
$PLIMMAX
 10
420.0
 20
297.0
  9
$UNITMODE
 70
     0
  9
$VISRETAIN
 70
     1
  9
$PLINEGEN
 70
     0
  9
$PSLTSCALE
 70
     1
  9
$TREEDEPTH
 70
  3020
  9
$CMLSTYLE
  2
Standard
  9
$CMLJUST
 70
     0
  9
$CMLSCALE
 40
20.0
  9
$PROXYGRAPHICS
 70
     1
  9
$MEASUREMENT
 70
     1
  9
$CELWEIGHT
370
    -1
  9
$ENDCAPS
280
     0
  9
$JOINSTYLE
280
     0
  9
$LWDISPLAY
290
     1
  9
$INSUNITS
 70
     4
  9
$HYPERLINKBASE
  1

  9
$STYLESHEET
  1

  9
$XEDIT
290
     1
  9
$CEPSNTYPE
380
     0
  9
$PSTYLEMODE
290
     1
  9
$FINGERPRINTGUID
  2
{CDD22AF9-1F48-42F2-A407-E88D1C3BD0E6}
  9
$VERSIONGUID
  2
{FAEB1C32-E019-11D5-929B-00C0DF256EC4}
  9
$EXTNAMES
290
     1
  9
$PSVPSCALE
 40
0.0
  9
$OLESTARTUP
290
     0
  0
ENDSEC
  0
SECTION
  2
CLASSES
  0
CLASS
  1
ACDBDICTIONARYWDFLT
  2
AcDbDictionaryWithDefault
  3
ObjectDBX Classes
 90
        0
280
     0
281
     0
  0
CLASS
  1
VISUALSTYLE
  2
AcDbVisualStyle
  3
ObjectDBX Classes
 90
     4095
280
     0
281
     0
  0
CLASS
  1
MATERIAL
  2
AcDbMaterial
  3
ObjectDBX Classes
 90
     1153
280
     0
281
     0
  0
CLASS
  1
SCALE
  2
AcDbScale
  3
ObjectDBX Classes
 90
     1153
280
     0
281
     0
  0
CLASS
  1
TABLESTYLE
  2
AcDbTableStyle
  3
ObjectDBX Classes
 90
     4095
280
     0
281
     0
  0
CLASS
  1
MLEADERSTYLE
  2
AcDbMLeaderStyle
  3
ACDB_MLEADERSTYLE_CLASS
 90
     4095
280
     0
281
     0
  0
CLASS
  1
SUN
  2
AcDbSun
  3
SCENEOE
 90
     1153
280
     0
281
     0
  0
CLASS
  1
ACDBPLACEHOLDER
  2
AcDbPlaceHolder
  3
ObjectDBX Classes
 90
        0
280
     0
281
     0
  0
CLASS
  1
LAYOUT
  2
AcDbLayout
  3
ObjectDBX Classes
 90
        0
280
     0
281
     0
  0
ENDSEC
  0
SECTION
  2
TABLES
  0
TABLE
  2
VPORT
  5
8
330
0
100
AcDbSymbolTable
 70
     1
  0
VPORT
  5
29
330
8
100
AcDbSymbolTableRecord
100
AcDbViewportTableRecord
  2
*Active
 70
     0
 10
0.0
 20
0.0
 11
1.0
 21
1.0
 12
10000.0
 22
5000.0
 13
0.0
 23
0.0
 14
10.0
 24
10.0
 15
10.0
 25
10.0
 16
0.0
 26
0.0
 36
1.0
 17
0.0
 27
0.0
 37
0.0
 40
10000.0
 41
2.0
 42
50.0
 43
0.0
 44
0.0
 50
0.0
 51
0.0
 71
     0
 72
  2000
 73
     1
 74
     3
 75
     0
 76
     0
 77
     0
 78
     0
281
     0
 65
     1
110
0.0
120
0.0
130
0.0
111
1.0
121
0.0
131
0.0
112
0.0
122
1.0
132
0.0
 79
     0
146
0.0
  0
ENDTAB
  0
TABLE
  2
LTYPE
  5
5
330
0
100
AcDbSymbolTable
 70
     6
  0
LTYPE
  5
14
330
5
100
AcDbSymbolTableRecord
100
AcDbLinetypeTableRecord
  2
ByBlock
 70
     0
  3

 72
    65
 73
     0
 40
0.0
  0
LTYPE
  5
15
330
5
100
AcDbSymbolTableRecord
100
AcDbLinetypeTableRecord
  2
ByLayer
 70
     0
  3

 72
    65
 73
     0
 40
0.0
  0
LTYPE
  5
16
330
5
100
AcDbSymbolTableRecord
100
AcDbLinetypeTableRecord
  2
Continuous
 70
     0
  3
Solid line
 72
    65
 73
     0
 40
0.0
  0
LTYPE
  5
6E
330
5
100
AcDbSymbolTableRecord
100
AcDbLinetypeTableRecord
  2
HIDDEN
 70
     0
  3
Hidden __ __ __ __ __ __ __ __ __ __ __ __ __ __
 72
    65
 73
     2
 40
1.905
 49
1.27
 74
     0
 49
-0.635
 74
     0
  0
LTYPE
  5
6F
330
5
100
AcDbSymbolTableRecord
100
AcDbLinetypeTableRecord
  2
PHANTOM
 70
     0
  3
Phantom ______  __  __  ______  __  __  ______
 72
    65
 73
     6
 40
12.7
 49
6.35
 74
     0
 49
-1.27
 74
     0
 49
1.27
 74
     0
 49
-1.27
 74
     0
 49
1.27
 74
     0
 49
-1.27
 74
     0
  0
LTYPE
  5
70
330
5
100
AcDbSymbolTableRecord
100
AcDbLinetypeTableRecord
  2
CENTER
 70
     0
  3
Center ____ _ ____ _ ____ _ ____ _ ____ _ ____
 72
    65
 73
     4
 40
10.16
 49
6.35
 74
     0
 49
-1.27
 74
     0
 49
1.27
 74
     0
 49
-1.27
 74
     0
  0
LTYPE
  5
71
330
5
100
AcDbSymbolTableRecord
100
AcDbLinetypeTableRecord
  2
CENTERX2
 70
     0
  3
Center (2x) ________  __  ________  __  _____
 72
    65
 73
     4
 40
20.32
 49
12.7
 74
     0
 49
-2.54
 74
     0
 49
2.54
 74
     0
 49
-2.54
 74
     0
  0
LTYPE
  5
72
330
5
100
AcDbSymbolTableRecord
100
AcDbLinetypeTableRecord
  2
DOT2
 70
     0
  3
Dot (.5x) ........................................
 72
    65
 73
     2
 40
0.635
 49
0.0
 74
     0
 49
-0.635
 74
     0
  0
ENDTAB
  0
TABLE
  2
LAYER
  5
2
330
0
100
AcDbSymbolTable
 70
    13
  0
LAYER
  5
10
330
2
100
AcDbSymbolTableRecord
100
AcDbLayerTableRecord
  2
0
 70
     0
 62
     7
  6
Continuous
370
    -3
390
F
  0
LAYER
  5
73
330
2
100
AcDbSymbolTableRecord
100
AcDbLayerTableRecord
  2
FORMAT
 70
     0
 62
     7
  6
Continuous
370
    -3
390
F
  0
LAYER
  5
74
330
2
100
AcDbSymbolTableRecord
100
AcDbLayerTableRecord
  2
OSA
 70
     0
 62
     7
  6
CENTER
370
    -3
390
F
  0
LAYER
  5
75
330
2
100
AcDbSymbolTableRecord
100
AcDbLayerTableRecord
  2
0_35
 70
     0
 62
     7
  6
Continuous
370
    35
390
F
  0
LAYER
  5
76
330
2
100
AcDbSymbolTableRecord
100
AcDbLayerTableRecord
  2
0_5
 70
     0
 62
     7
  6
Continuous
370
    50
390
F
  0
LAYER
  5
77
330
2
100
AcDbSymbolTableRecord
100
AcDbLayerTableRecord
  2
0_25
 70
     0
 62
     7
  6
Continuous
370
    25
390
F
  0
LAYER
  5
78
330
2
100
AcDbSymbolTableRecord
100
AcDbLayerTableRecord
  2
0_18
 70
     0
 62
     7
  6
Continuous
370
    -3
390
F
  0
LAYER
  5
79
330
2
100
AcDbSymbolTableRecord
100
AcDbLayerTableRecord
  2
SLD-0
 70
     0
 62
   179
  6
Continuous
370
    -3
390
F
  0
LAYER
  5
7A
330
2
100
AcDbSymbolTableRecord
100
AcDbLayerTableRecord
  2
KOTY
 70
     0
 62
     7
  6
Continuous
370
    -3
390
F
  0
LAYER
  5
7B
330
2
100
AcDbSymbolTableRecord
100
AcDbLayerTableRecord
  2
SILNA
 70
     0
 62
   179
  6
Continuous
370
    -3
390
F
  0
LAYER
  5
7C
330
2
100
AcDbSymbolTableRecord
100
AcDbLayerTableRecord
  2
0_18_1
 70
     0
 62
   179
  6
Continuous
370
    -3
390
F
  0
LAYER
  5
7D
330
2
100
AcDbSymbolTableRecord
100
AcDbLayerTableRecord
  2
0_35_1
 70
     0
 62
   179
  6
Continuous
370
    35
390
F
  0
LAYER
  5
7E
330
2
100
AcDbSymbolTableRecord
100
AcDbLayerTableRecord
  2
0_5_1
 70
     0
 62
   179
  6
Continuous
370
    50
390
F
  0
ENDTAB
  0
TABLE
  2
STYLE
  5
3
330
0
100
AcDbSymbolTable
 70
     1
  0
STYLE
  5
11
330
3
100
AcDbSymbolTableRecord
100
AcDbTextStyleTableRecord
  2
Standard
 70
     0
 40
0.0
 41
1.0
 50
0.0
 71
     0
 42
2.0
  3
txt
  4

  0
ENDTAB
  0
TABLE
  2
VIEW
  5
6
330
0
100
AcDbSymbolTable
 70
     0
  0
ENDTAB
  0
TABLE
  2
UCS
  5
7
330
0
100
AcDbSymbolTable
 70
     0
  0
ENDTAB
  0
TABLE
  2
APPID
  5
9
330
0
100
AcDbSymbolTable
 70
     1
  0
APPID
  5
12
330
9
100
AcDbSymbolTableRecord
100
AcDbRegAppTableRecord
  2
ACAD
 70
     0
  0
ENDTAB
  0
TABLE
  2
DIMSTYLE
  5
A
330
0
100
AcDbSymbolTable
 70
     1
100
AcDbDimStyleTable
  0
DIMSTYLE
105
27
330
A
100
AcDbSymbolTableRecord
100
AcDbDimStyleTableRecord
  2
ISO-25
 70
     0
 41
2.5
 42
0.625
 43
3.75
 44
1.25
 73
     0
 74
     0
 77
     1
 78
     8
140
2.5
141
2.5
143
0.0393700787
147
0.625
171
     3
172
     1
178
     0
271
     2
272
     2
274
     3
278
    44
283
     0
284
     8
340
11
  0
ENDTAB
  0
TABLE
  2
BLOCK_RECORD
  5
1
330
0
100
AcDbSymbolTable
 70
     1
  0
BLOCK_RECORD
  5
1F
330
1
100
AcDbSymbolTableRecord
100
AcDbBlockTableRecord
  2
*Model_Space
340
22
  0
BLOCK_RECORD
  5
1B
330
1
100
AcDbSymbolTableRecord
100
AcDbBlockTableRecord
  2
*Paper_Space
340
1E
  0
BLOCK_RECORD
  5
23
330
1
100
AcDbSymbolTableRecord
100
AcDbBlockTableRecord
  2
*Paper_Space0
340
26
  0
ENDTAB
  0
ENDSEC
  0
SECTION
  2
BLOCKS
  0
BLOCK
  5
20
330
1F
100
AcDbEntity
  8
0
100
AcDbBlockBegin
  2
*Model_Space
 70
     0
 10
0.0
 20
0.0
 30
0.0
  3
*Model_Space
  1

  0
ENDBLK
  5
21
330
1F
100
AcDbEntity
  8
0
100
AcDbBlockEnd
  0
BLOCK
  5
1C
330
1B
100
AcDbEntity
 67
     1
  8
0
100
AcDbBlockBegin
  2
*Paper_Space
 70
     0
 10
0.0
 20
0.0
 30
0.0
  3
*Paper_Space
  1

  0
ENDBLK
  5
1D
330
1B
100
AcDbEntity
 67
     1
  8
0
100
AcDbBlockEnd
  0
BLOCK
  5
24
330
23
100
AcDbEntity
  8
0
100
AcDbBlockBegin
  2
*Paper_Space0
 70
     0
 10
0.0
 20
0.0
 30
0.0
  3
*Paper_Space0
  1

  0
ENDBLK
  5
25
330
23
100
AcDbEntity
  8
0
100
AcDbBlockEnd
  0
ENDSEC
  0
SECTION
  2
ENTITIES
  0
LINE
  5
7F
330
1F
100
AcDbEntity
  8
0
  6
Continuous
 62
     7
370
    25
100
AcDbLine
 10
6234.7687553361
 20
5148.1797915293
 30
0.0
 11
6304.3687563136
 21
5148.1797915293
 31
0.0
  0
LINE
  5
80
330
1F
100
AcDbEntity
  8
0
  6
Continuous
 62
     7
370
    25
100
AcDbLine
 10
6304.3687563136
 20
5279.179796238
 30
0.0
 11
6234.7687553361
 21
5279.179796238
 31
0.0
  0
LINE
  5
81
330
1F
100
AcDbEntity
  8
0
  6
Continuous
 62
     7
370
    25
100
AcDbLine
 10
6308.2687552765
 20
5277.5797915054
 30
0.0
 11
6307.2687532499
 21
5277.5797915054
 31
0.0
  0
LINE
  5
82
330
1F
100
AcDbEntity
  8
0
  6
Continuous
 62
     7
370
    25
100
AcDbLine
 10
6307.2687532499
 20
5273.3797911895
 30
0.0
 11
6308.2687552765
 21
5273.3797911895
 31
0.0
  0
LINE
  5
83
330
1F
100
AcDbEntity
  8
0
  6
Continuous
 62
     7
370
    25
100
AcDbLine
 10
6311.7687549189
 20
5184.8297916693
 30
0.0
 11
6313.2687579587
 21
5186.3297928465
 31
0.0
  0
LINE
  5
84
330
1F
100
AcDbEntity
  8
0
  6
Continuous
 62
     7
370
    25
100
AcDbLine
 10
6313.2687579587
 20
5211.3297925206
 30
0.0
 11
6311.7687549189
 21
5212.8297925336
 31
0.0
  0
LINE
  5
85
330
1F
100
AcDbEntity
  8
0
  6
Continuous
 62
     7
370
    25
100
AcDbLine
 10
6311.2687539056
 20
5184.8297916693
 30
0.0
 11
6311.7687549189
 21
5184.8297916693
 31
0.0
  0
LINE
  5
86
330
1F
100
AcDbEntity
  8
0
  6
Continuous
 62
     7
370
    25
100
AcDbLine
 10
6311.7687549189
 20
5212.8297925336
 30
0.0
 11
6311.2687539056
 21
5212.8297925336
 31
0.0
  0
LINE
  5
87
330
1F
100
AcDbEntity
  8
0
  6
Continuous
 62
     7
370
    25
100
AcDbLine
 10
6277.6687551036
 20
5148.1797915293
 30
0.0
 11
6277.6687551036
 21
5147.2797911955
 31
0.0
  0
LINE
  5
88
330
1F
100
AcDbEntity
  8
0
  6
Continuous
 62
     7
370
    25
100
AcDbLine
 10
6290.8687550321
 20
5147.2797911955
 30
0.0
 11
6290.8687550321
 21
5148.1797915293
 31
0.0
  0
ARC
  5
89
330
1F
100
AcDbEntity
  8
0
  6
Continuous
 62
     7
370
    25
100
AcDbCircle
 10
6278.4687553361
 20
5147.2797925306
 30
0.0
 40
0.8000000000001819
100
AcDbArc
 50
180.0
 51
270.0
  0
ARC
  5
8A
330
1F
100
AcDbEntity
  8
0
  6
Continuous
 62
     7
370
    25
100
AcDbCircle
 10
6290.0687553361
 20
5147.2797925306
 30
0.0
 40
0.8000000000001819
100
AcDbArc
 50
270.0
 51
0.0
  0
LINE
  5
8B
330
1F
100
AcDbEntity
  8
0
  6
Continuous
 62
     7
370
    25
100
AcDbLine
 10
6273.1815051034
 20
5297.4875416947
 30
0.0
 11
6271.9892557457
 21
5298.6797910524
 31
0.0
  0
LINE
  5
8C
330
1F
100
AcDbEntity
  8
0
  6
Continuous
 62
     7
370
    25
100
AcDbLine
 10
6247.1921356142
 20
5297.3236736251
 30
0.0
 11
6247.0482555896
 21
5297.1797954632
 31
0.0
  0
LINE
  5
8D
330
1F
100
AcDbEntity
  8
0
  6
Continuous
 62
     7
370
    25
100
AcDbLine
 10
6248.5482549041
 20
5298.6797910524
 30
0.0
 11
6247.8520968676
 21
5297.9836311532
 31
0.0
  0
LINE
  5
8E
330
1F
100
AcDbEntity
  8
0
  6
Continuous
 62
     7
370
    25
100
AcDbLine
 10
6273.4892550602
 20
5296.0442450238
 30
0.0
 11
6273.4892550602
 21
5296.4411598039
 31
0.0
  0
LINE
  5
8F
330
1F
100
AcDbEntity
  8
0
  6
Continuous
 62
     7
370
    25
100
AcDbLine
 10
6273.4892550602
 20
5294.4567423654
 30
0.0
 11
6273.4892550602
 21
5294.8536645962
 31
0.0
  0
LINE
  5
90
330
1F
100
AcDbEntity
  8
0
  6
Continuous
 62
     7
370
    25
100
AcDbLine
 10
6273.4892550602
 20
5292.8692471576
 30
0.0
 11
6273.4892550602
 21
5293.2661619378
 31
0.0
  0
LINE
  5
91
330
1F
100
AcDbEntity
  8
0
  6
Continuous
 62
     7
370
    25
100
AcDbLine
 10
6273.4892550602
 20
5291.2817444993
 30
0.0
 11
6273.4892550602
 21
5291.6786592794
 31
0.0
  0
LINE
  5
92
330
1F
100
AcDbEntity
  8
0
  6
Continuous
 62
     7
370
    25
100
AcDbLine
 10
6273.4892550602
 20
5289.6797951651
 30
0.0
 11
6273.4892550602
 21
5290.0911640716
 31
0.0
  0
LINE
  5
93
330
1F
100
AcDbEntity
  8
0
  6
Continuous
 62
     7
370
    25
100
AcDbLine
 10
6247.0482555896
 20
5290.8848893238
 30
0.0
 11
6247.0482555896
 21
5290.4880117965
 31
0.0
  0
LINE
  5
94
330
1F
100
AcDbEntity
  8
0
  6
Continuous
 62
     7
370
    25
100
AcDbLine
 10
6247.0482555896
 20
5292.4723919822
 30
0.0
 11
6247.0482555896
 21
5292.0755144549
 31
0.0
  0
LINE
  5
95
330
1F
100
AcDbEntity
  8
0
  6
Continuous
 62
     7
370
    25
100
AcDbLine
 10
6247.0482555896
 20
5294.0598871899
 30
0.0
 11
6247.0482555896
 21
5293.6630171133
 31
0.0
  0
LINE
  5
96
330
1F
100
AcDbEntity
  8
0
  6
Continuous
 62
     7
370
    25
100
AcDbLine
 10
6247.0482555896
 20
5295.6473898483
 30
0.0
 11
6247.0482555896
 21
5295.2505123211
 31
0.0
  0
LINE
  5
97
330
1F
100
AcDbEntity
  8
0
  6
Continuous
 62
     7
370
    25
100
AcDbLine
 10
6247.0482555896
 20
5297.1797954632
 30
0.0
 11
6247.0482555896
 21
5296.8380149794
 31
0.0
  0
SPLINE
  5
98
330
1F
100
AcDbEntity
  8
0
  6
Continuous
 62
     7
370
    25
100
AcDbSpline
210
0.0
220
0.0
230
1.0
 70
     8
 71
     3
 72
     9
 73
     5
 74
     0
 42
0.000000001
 43
0.00000001
 40
0.0
 40
0.0
 40
0.0
 40
0.0
 40
0.4999945147659413
 40
1.0
 40
1.0
 40
1.0
 40
1.0
 10
6247.915357884759
 20
5296.152665872646
 30
0.0
 10
6247.772065825272
 20
5296.069881396696
 30
0.0
 10
6247.4854785623
 20
5295.904310628408
 30
0.0
 10
6247.198883967633
 20
5295.738752759653
 30
0.0
 10
6247.055585098261
 20
5295.655972917152
 30
0.0
  0
SPLINE
  5
99
330
1F
100
AcDbEntity
  8
0
  6
Continuous
 62
     7
370
    25
100
AcDbSpline
210
0.0
220
0.0
230
1.0
 70
     8
 71
     3
 72
     9
 73
     5
 74
     0
 42
0.000000001
 43
0.00000001
 40
0.0
 40
0.0
 40
0.0
 40
0.0
 40
0.4999926379494428
 40
1.0
 40
1.0
 40
1.0
 40
1.0
 10
6247.915357884759
 20
5294.565163214279
 30
0.0
 10
6247.772065556336
 20
5294.482381687374
 30
0.0
 10
6247.485476679725
 20
5294.316816195762
 30
0.0
 10
6247.19888369869
 20
5294.151258017396
 30
0.0
 10
6247.055585098261
 20
5294.068477709366
 30
0.0
  0
SPLINE
  5
9A
330
1F
100
AcDbEntity
  8
0
  6
Continuous
 62
     7
370
    25
100
AcDbSpline
210
0.0
220
0.0
230
1.0
 70
     8
 71
     3
 72
     9
 73
     5
 74
     0
 42
0.000000001
 43
0.00000001
 40
0.0
 40
0.0
 40
0.0
 40
0.0
 40
0.4999926379494428
 40
1.0
 40
1.0
 40
1.0
 40
1.0
 10
6247.915357884759
 20
5292.977660555912
 30
0.0
 10
6247.772065556336
 20
5292.894879029007
 30
0.0
 10
6247.485476679725
 20
5292.729313537395
 30
0.0
 10
6247.19888369869
 20
5292.563755359029
 30
0.0
 10
6247.055585098261
 20
5292.480975050998
 30
0.0
  0
SPLINE
  5
9B
330
1F
100
AcDbEntity
  8
0
  6
Continuous
 62
     7
370
    25
100
AcDbSpline
210
0.0
220
0.0
230
1.0
 70
     8
 71
     3
 72
     9
 73
     5
 74
     0
 42
0.000000001
 43
0.00000001
 40
0.0
 40
0.0
 40
0.0
 40
0.0
 40
0.4999907612434785
 40
1.0
 40
1.0
 40
1.0
 40
1.0
 10
6247.915357884759
 20
5291.390165348125
 30
0.0
 10
6247.77206528742
 20
5291.307384286723
 30
0.0
 10
6247.485474797261
 20
5291.141819104684
 30
0.0
 10
6247.19888342976
 20
5290.976255649716
 30
0.0
 10
6247.055585098261
 20
5290.893472392631
 30
0.0
  0
LINE
  5
9C
330
1F
100
AcDbEntity
  8
0
  6
Continuous
 62
     7
370
    25
100
AcDbLine
 10
6247.9153578848
 20
5289.8026626898
 30
0.0
 11
6247.7254034698
 21
5289.6929230881
 31
0.0
  0
SPLINE
  5
9D
330
1F
100
AcDbEntity
  8
0
  6
Continuous
 62
     7
370
    25
100
AcDbSpline
210
0.0
220
0.0
230
1.0
 70
     8
 71
     3
 72
     9
 73
     5
 74
     0
 42
0.000000001
 43
0.00000001
 40
0.0
 40
0.0
 40
0.0
 40
0.0
 40
0.5045984181799462
 40
1.0
 40
1.0
 40
1.0
 40
1.0
 10
6273.481927414233
 20
5294.862225313259
 30
0.0
 10
6273.338627367208
 20
5294.945005266565
 30
0.0
 10
6273.054639067082
 20
5295.10905642155
 30
0.0
 10
6272.770657210423
 20
5295.273118936772
 30
0.0
 10
6272.629972149426
 20
5295.354395766331
 30
0.0
  0
SPLINE
  5
9E
330
1F
100
AcDbEntity
  8
0
  6
Continuous
 62
     7
370
    25
100
AcDbSpline
210
0.0
220
0.0
230
1.0
 70
     8
 71
     3
 72
     9
 73
     5
 74
     0
 42
0.000000001
 43
0.00000001
 40
0.0
 40
0.0
 40
0.0
 40
0.0
 40
0.5045984181799462
 40
1.0
 40
1.0
 40
1.0
 40
1.0
 10
6273.481927414233
 20
5293.274722654892
 30
0.0
 10
6273.338627367208
 20
5293.357502608198
 30
0.0
 10
6273.054639067082
 20
5293.521553763183
 30
0.0
 10
6272.770657210423
 20
5293.685616278405
 30
0.0
 10
6272.629972149426
 20
5293.766893107963
 30
0.0
  0
SPLINE
  5
9F
330
1F
100
AcDbEntity
  8
0
  6
Continuous
 62
     7
370
    25
100
AcDbSpline
210
0.0
220
0.0
230
1.0
 70
     8
 71
     3
 72
     9
 73
     5
 74
     0
 42
0.000000001
 43
0.00000001
 40
0.0
 40
0.0
 40
0.0
 40
0.0
 40
0.5045984181799462
 40
1.0
 40
1.0
 40
1.0
 40
1.0
 10
6273.481927414233
 20
5291.687227447105
 30
0.0
 10
6273.338627367208
 20
5291.770007400411
 30
0.0
 10
6273.054639067082
 20
5291.934058555396
 30
0.0
 10
6272.770657210423
 20
5292.098121070619
 30
0.0
 10
6272.629972149426
 20
5292.179397900177
 30
0.0
  0
SPLINE
  5
A0
330
1F
100
AcDbEntity
  8
0
  6
Continuous
 62
     7
370
    25
100
AcDbSpline
210
0.0
220
0.0
230
1.0
 70
     8
 71
     3
 72
     9
 73
     5
 74
     0
 42
0.000000001
 43
0.00000001
 40
0.0
 40
0.0
 40
0.0
 40
0.0
 40
0.5045984181799462
 40
1.0
 40
1.0
 40
1.0
 40
1.0
 10
6273.481927414233
 20
5290.099724788738
 30
0.0
 10
6273.338627367208
 20
5290.182504742044
 30
0.0
 10
6273.054639067082
 20
5290.346555897029
 30
0.0
 10
6272.770657210423
 20
5290.510618412251
 30
0.0
 10
6272.629972149426
 20
5290.59189524181
 30
0.0
  0
SPLINE
  5
A1
330
1F
100
AcDbEntity
  8
0
  6
Continuous
 62
     7
370
    25
100
AcDbSpline
210
0.0
220
0.0
230
1.0
 70
     8
 71
     3
 72
     9
 73
     5
 74
     0
 42
0.000000001
 43
0.00000001
 40
0.0
 40
0.0
 40
0.0
 40
0.0
 40
0.5045984181799462
 40
1.0
 40
1.0
 40
1.0
 40
1.0
 10
6273.481927414233
 20
5296.449727971626
 30
0.0
 10
6273.338627367208
 20
5296.532507924932
 30
0.0
 10
6273.054639067082
 20
5296.696559079917
 30
0.0
 10
6272.770657210423
 20
5296.860621595139
 30
0.0
 10
6272.629972149426
 20
5296.941898424698
 30
0.0
  0
SPLINE
  5
A2
330
1F
100
AcDbEntity
  8
0
  6
Continuous
 62
     7
370
    25
100
AcDbSpline
210
0.0
220
0.0
230
1.0
 70
     8
 71
     3
 72
     9
 73
     5
 74
     0
 42
0.000000001
 43
0.00000001
 40
0.0
 40
0.0
 40
0.0
 40
0.0
 40
0.6149554575502001
 40
1.0
 40
1.0
 40
1.0
 40
1.0
 10
6247.915357884759
 20
5297.740161080433
 30
0.0
 10
6247.772065413111
 20
5297.65737979746
 30
0.0
 10
6247.539052647895
 20
5297.522766335693
 30
0.0
 10
6247.30603830561
 20
5297.388155773318
 30
0.0
 10
6247.216317404801
 20
5297.336324710918
 30
0.0
  0
SPLINE
  5
A3
330
1F
100
AcDbEntity
  8
0
  6
Continuous
 62
     7
370
    25
100
AcDbSpline
210
0.0
220
0.0
230
1.0
 70
     8
 71
     3
 72
     9
 73
     5
 74
     0
 42
0.000000001
 43
0.00000001
 40
0.0
 40
0.0
 40
0.0
 40
0.0
 40
0.5046088559467143
 40
1.0
 40
1.0
 40
1.0
 40
1.0
 10
6247.055603724712
 20
5296.829491515232
 30
0.0
 10
6247.198902920659
 20
5296.746708685696
 30
0.0
 10
6247.482883659915
 20
5296.582655224164
 30
0.0
 10
6247.766860668099
 20
5296.418595029627
 30
0.0
 10
6247.907540363068
 20
5296.33732106216
 30
0.0
  0
SPLINE
  5
A4
330
1F
100
AcDbEntity
  8
0
  6
Continuous
 62
     7
370
    25
100
AcDbSpline
210
0.0
220
0.0
230
1.0
 70
     8
 71
     3
 72
     9
 73
     5
 74
     0
 42
0.000000001
 43
0.00000001
 40
0.0
 40
0.0
 40
0.0
 40
0.0
 40
0.5046107674494044
 40
1.0
 40
1.0
 40
1.0
 40
1.0
 10
6247.055603724712
 20
5295.241988856865
 30
0.0
 10
6247.198902644197
 20
5295.159205548777
 30
0.0
 10
6247.482881759838
 20
5294.995151760338
 30
0.0
 10
6247.766860401643
 20
5294.831096877085
 30
0.0
 10
6247.907540363068
 20
5294.749825854374
 30
0.0
  0
SPLINE
  5
A5
330
1F
100
AcDbEntity
  8
0
  6
Continuous
 62
     7
370
    25
100
AcDbSpline
210
0.0
220
0.0
230
1.0
 70
     8
 71
     3
 72
     9
 73
     5
 74
     0
 42
0.000000001
 43
0.00000001
 40
0.0
 40
0.0
 40
0.0
 40
0.0
 40
0.5046069794124792
 40
1.0
 40
1.0
 40
1.0
 40
1.0
 10
6247.055603724712
 20
5293.654486198498
 30
0.0
 10
6247.198903192061
 20
5293.571706322294
 30
0.0
 10
6247.482885525233
 20
5293.40765810342
 30
0.0
 10
6247.766860929684
 20
5293.243597616287
 30
0.0
 10
6247.907540363068
 20
5293.162323196007
 30
0.0
  0
SPLINE
  5
A6
330
1F
100
AcDbEntity
  8
0
  6
Continuous
 62
     7
370
    25
100
AcDbSpline
210
0.0
220
0.0
230
1.0
 70
     8
 71
     3
 72
     9
 73
     5
 74
     0
 42
0.000000001
 43
0.00000001
 40
0.0
 40
0.0
 40
0.0
 40
0.0
 40
0.5046088559467143
 40
1.0
 40
1.0
 40
1.0
 40
1.0
 10
6247.055603724712
 20
5292.066990990711
 30
0.0
 10
6247.198902920659
 20
5291.984208161175
 30
0.0
 10
6247.482883659915
 20
5291.820154699643
 30
0.0
 10
6247.766860668099
 20
5291.656094505106
 30
0.0
 10
6247.907540363068
 20
5291.574820537639
 30
0.0
  0
SPLINE
  5
A7
330
1F
100
AcDbEntity
  8
0
  6
Continuous
 62
     7
370
    25
100
AcDbSpline
210
0.0
220
0.0
230
1.0
 70
     8
 71
     3
 72
     9
 73
     5
 74
     0
 42
0.000000001
 43
0.00000001
 40
0.0
 40
0.0
 40
0.0
 40
0.0
 40
0.5046107674494044
 40
1.0
 40
1.0
 40
1.0
 40
1.0
 10
6247.055603724712
 20
5290.479488332344
 30
0.0
 10
6247.198902644197
 20
5290.396705024256
 30
0.0
 10
6247.482881759838
 20
5290.232651235817
 30
0.0
 10
6247.766860401643
 20
5290.068596352564
 30
0.0
 10
6247.907540363068
 20
5289.987325329853
 30
0.0
  0
SPLINE
  5
A8
330
1F
100
AcDbEntity
  8
0
  6
Continuous
 62
     7
370
    25
100
AcDbSpline
210
0.0
220
0.0
230
1.0
 70
     8
 71
     3
 72
     9
 73
     5
 74
     0
 42
0.000000001
 43
0.00000001
 40
0.0
 40
0.0
 40
0.0
 40
0.0
 40
0.4999953096170592
 40
1.0
 40
1.0
 40
1.0
 40
1.0
 10
6272.622130413348
 20
5295.539043505264
 30
0.0
 10
6272.765423135038
 20
5295.621827915419
 30
0.0
 10
6273.052011266833
 20
5295.787398288908
 30
0.0
 10
6273.338606234444
 20
5295.952956552454
 30
0.0
 10
6273.481905062491
 20
5296.035736460758
 30
0.0
  0
SPLINE
  5
A9
330
1F
100
AcDbEntity
  8
0
  6
Continuous
 62
     7
370
    25
100
AcDbSpline
210
0.0
220
0.0
230
1.0
 70
     8
 71
     3
 72
     9
 73
     5
 74
     0
 42
0.000000001
 43
0.00000001
 40
0.0
 40
0.0
 40
0.0
 40
0.0
 40
0.4999934329112404
 40
1.0
 40
1.0
 40
1.0
 40
1.0
 10
6272.622130413348
 20
5293.951540846897
 30
0.0
 10
6272.765423403958
 20
5294.034324791541
 30
0.0
 10
6273.052013149301
 20
5294.199894855456
 30
0.0
 10
6273.338606503372
 20
5294.365458395619
 30
0.0
 10
6273.481905062491
 20
5294.448241252971
 30
0.0
  0
SPLINE
  5
AA
330
1F
100
AcDbEntity
  8
0
  6
Continuous
 62
     7
370
    25
100
AcDbSpline
210
0.0
220
0.0
230
1.0
 70
     8
 71
     3
 72
     9
 73
     5
 74
     0
 42
0.000000001
 43
0.00000001
 40
0.0
 40
0.0
 40
0.0
 40
0.0
 40
0.4999915561068223
 40
1.0
 40
1.0
 40
1.0
 40
1.0
 10
6272.622130413348
 20
5292.36404563911
 30
0.0
 10
6272.76542367289
 20
5292.446826634716
 30
0.0
 10
6273.052015031868
 20
5292.612391421948
 30
0.0
 10
6273.338606772317
 20
5292.777955271717
 30
0.0
 10
6273.481905062491
 20
5292.860738594604
 30
0.0
  0
SPLINE
  5
AB
330
1F
100
AcDbEntity
  8
0
  6
Continuous
 62
     7
370
    25
100
AcDbSpline
210
0.0
220
0.0
230
1.0
 70
     8
 71
     3
 72
     9
 73
     5
 74
     0
 42
0.000000001
 43
0.00000001
 40
0.0
 40
0.0
 40
0.0
 40
0.0
 40
0.4999953096170592
 40
1.0
 40
1.0
 40
1.0
 40
1.0
 10
6272.622130413348
 20
5290.776542980743
 30
0.0
 10
6272.765423135038
 20
5290.859327390898
 30
0.0
 10
6273.052011266833
 20
5291.024897764387
 30
0.0
 10
6273.338606234444
 20
5291.190456027933
 30
0.0
 10
6273.481905062491
 20
5291.273235936237
 30
0.0
  0
SPLINE
  5
AC
330
1F
100
AcDbEntity
  8
0
  6
Continuous
 62
     7
370
    25
100
AcDbSpline
210
0.0
220
0.0
230
1.0
 70
     8
 71
     3
 72
     9
 73
     5
 74
     0
 42
0.000000001
 43
0.00000001
 40
0.0
 40
0.0
 40
0.0
 40
0.0
 40
0.7917029851007552
 40
1.0
 40
1.0
 40
1.0
 40
1.0
 10
6272.622130413348
 20
5297.126546163631
 30
0.0
 10
6272.765424486754
 20
5297.209325763938
 30
0.0
 10
6272.946419223548
 20
5297.313884672853
 30
0.0
 10
6273.127410217116
 20
5297.418449886134
 30
0.0
 10
6273.1651101008
 20
5297.440230507923
 30
0.0
  0
LINE
  5
AD
330
1F
100
AcDbEntity
  8
0
  6
Continuous
 62
     7
370
    25
100
AcDbLine
 10
6247.8410010904
 20
5297.9632612658
 30
0.0
 11
6247.9075403631
 21
5297.9248237205
 31
0.0
  0
LINE
  5
AE
330
1F
100
AcDbEntity
  8
0
  6
Continuous
 62
     7
370
    25
100
AcDbLine
 10
6247.9075403631
 20
5296.3424917651
 30
0.0
 11
6247.9075403631
 21
5296.1481433702
 31
0.0
  0
LINE
  5
AF
330
1F
100
AcDbEntity
  8
0
  6
Continuous
 62
     7
370
    25
100
AcDbLine
 10
6247.9075403631
 20
5294.7549965573
 30
0.0
 11
6247.9075403631
 21
5294.5606481624
 31
0.0
  0
LINE
  5
B0
330
1F
100
AcDbEntity
  8
0
  6
Continuous
 62
     7
370
    25
100
AcDbLine
 10
6247.9075403631
 20
5293.1674938989
 30
0.0
 11
6247.9075403631
 21
5292.9731455041
 31
0.0
  0
LINE
  5
B1
330
1F
100
AcDbEntity
  8
0
  6
Continuous
 62
     7
370
    25
100
AcDbLine
 10
6247.9075403631
 20
5291.5799912406
 30
0.0
 11
6247.9075403631
 21
5291.3856428457
 31
0.0
  0
LINE
  5
B2
330
1F
100
AcDbEntity
  8
0
  6
Continuous
 62
     7
370
    25
100
AcDbLine
 10
6247.9075403631
 20
5289.9924960328
 30
0.0
 11
6247.9075403631
 21
5289.7981476379
 31
0.0
  0
LINE
  5
B3
330
1F
100
AcDbEntity
  8
0
  6
Continuous
 62
     7
370
    25
100
AcDbLine
 10
6272.6299721494
 20
5295.3503053976
 30
0.0
 11
6272.6299721494
 21
5295.5435734583
 31
0.0
  0
LINE
  5
B4
330
1F
100
AcDbEntity
  8
0
  6
Continuous
 62
     7
370
    25
100
AcDbLine
 10
6272.6299721494
 20
5293.7628101898
 30
0.0
 11
6272.6299721494
 21
5293.9560707999
 31
0.0
  0
LINE
  5
B5
330
1F
100
AcDbEntity
  8
0
  6
Continuous
 62
     7
370
    25
100
AcDbLine
 10
6272.6299721494
 20
5292.1753075314
 30
0.0
 11
6272.6299721494
 21
5292.3685755921
 31
0.0
  0
LINE
  5
B6
330
1F
100
AcDbEntity
  8
0
  6
Continuous
 62
     7
370
    25
100
AcDbLine
 10
6272.6299721494
 20
5290.5878048731
 30
0.0
 11
6272.6299721494
 21
5290.7810729337
 31
0.0
  0
LINE
  5
B7
330
1F
100
AcDbEntity
  8
0
  6
Continuous
 62
     7
370
    25
100
AcDbLine
 10
6272.6299721494
 20
5296.9378080559
 30
0.0
 11
6272.6299721494
 21
5297.1310761166
 31
0.0
  0
LINE
  5
B8
330
1F
100
AcDbEntity
  8
0
  6
Continuous
 62
     7
370
    25
100
AcDbLine
 10
6247.9075403631
 20
5297.9299944235
 30
0.0
 11
6247.9075403631
 21
5297.7356460286
 31
0.0
  0
LINE
  5
B9
330
1F
100
AcDbEntity
  8
0
  6
Continuous
 62
     7
370
    25
100
AcDbLine
 10
6247.6478643462
 20
5129.5801844788
 30
0.0
 11
6248.5482549041
 21
5128.6797892643
 31
0.0
  0
LINE
  5
BA
330
1F
100
AcDbEntity
  8
0
  6
Continuous
 62
     7
370
    25
100
AcDbLine
 10
6271.9892557457
 20
5128.6797892643
 30
0.0
 11
6273.4044935301
 21
5130.0950270487
 31
0.0
  0
SPLINE
  5
BB
330
1F
100
AcDbEntity
  8
0
  6
Continuous
 62
     7
370
    25
100
AcDbSpline
210
0.0
220
0.0
230
1.0
 70
     8
 71
     3
 72
     9
 73
     5
 74
     0
 42
0.000000001
 43
0.00000001
 40
0.0
 40
0.0
 40
0.0
 40
0.0
 40
0.5040586987195105
 40
1.0
 40
1.0
 40
1.0
 40
1.0
 10
6273.482799132163
 20
5131.656840105129
 30
0.0
 10
6273.339510574076
 20
5131.739610632692
 30
0.0
 10
6273.05524098712
 20
5131.903818745305
 30
0.0
 10
6272.770974160883
 20
5132.068032239968
 30
0.0
 10
6272.629994501168
 20
5132.149472494198
 30
0.0
  0
SPLINE
  5
BC
330
1F
100
AcDbEntity
  8
0
  6
Continuous
 62
     7
370
    25
100
AcDbSpline
210
0.0
220
0.0
230
1.0
 70
     8
 71
     3
 72
     9
 73
     5
 74
     0
 42
0.000000001
 43
0.00000001
 40
0.0
 40
0.0
 40
0.0
 40
0.0
 40
0.5040586987195105
 40
1.0
 40
1.0
 40
1.0
 40
1.0
 10
6273.482799132163
 20
5133.244342763496
 30
0.0
 10
6273.339510574076
 20
5133.32711329106
 30
0.0
 10
6273.05524098712
 20
5133.491321403672
 30
0.0
 10
6272.770974160883
 20
5133.655534898335
 30
0.0
 10
6272.629994501168
 20
5133.736975152565
 30
0.0
  0
SPLINE
  5
BD
330
1F
100
AcDbEntity
  8
0
  6
Continuous
 62
     7
370
    25
100
AcDbSpline
210
0.0
220
0.0
230
1.0
 70
     8
 71
     3
 72
     9
 73
     5
 74
     0
 42
0.000000001
 43
0.00000001
 40
0.0
 40
0.0
 40
0.0
 40
0.0
 40
0.5040567912967711
 40
1.0
 40
1.0
 40
1.0
 40
1.0
 10
6273.482799132163
 20
5134.831837971283
 30
0.0
 10
6273.339510298532
 20
5134.914608021862
 30
0.0
 10
6273.055239089208
 20
5135.078815809573
 30
0.0
 10
6272.770973894136
 20
5135.243034611417
 30
0.0
 10
6272.629994501168
 20
5135.324477810932
 30
0.0
  0
SPLINE
  5
BE
330
1F
100
AcDbEntity
  8
0
  6
Continuous
 62
     7
370
    25
100
AcDbSpline
210
0.0
220
0.0
230
1.0
 70
     8
 71
     3
 72
     9
 73
     5
 74
     0
 42
0.000000001
 43
0.00000001
 40
0.0
 40
0.0
 40
0.0
 40
0.0
 40
0.5040586987195105
 40
1.0
 40
1.0
 40
1.0
 40
1.0
 10
6273.482799132163
 20
5136.41934062965
 30
0.0
 10
6273.339510574076
 20
5136.502111157213
 30
0.0
 10
6273.05524098712
 20
5136.666319269826
 30
0.0
 10
6272.770974160883
 20
5136.830532764488
 30
0.0
 10
6272.629994501168
 20
5136.911973018719
 30
0.0
  0
SPLINE
  5
BF
330
1F
100
AcDbEntity
  8
0
  6
Continuous
 62
     7
370
    25
100
AcDbSpline
210
0.0
220
0.0
230
1.0
 70
     8
 71
     3
 72
     9
 73
     5
 74
     0
 42
0.000000001
 43
0.00000001
 40
0.0
 40
0.0
 40
0.0
 40
0.0
 40
0.4999937550466421
 40
1.0
 40
1.0
 40
1.0
 40
1.0
 10
6247.914429356152
 20
5131.359718401504
 30
0.0
 10
6247.771145336935
 20
5131.276946901239
 30
0.0
 10
6247.484573719248
 20
5131.111401833064
 30
0.0
 10
6247.197998869541
 20
5130.9458629677
 30
0.0
 10
6247.054709655041
 20
5130.863092501236
 30
0.0
  0
SPLINE
  5
C0
330
1F
100
AcDbEntity
  8
0
  6
Continuous
 62
     7
370
    25
100
AcDbSpline
210
0.0
220
0.0
230
1.0
 70
     8
 71
     3
 72
     9
 73
     5
 74
     0
 42
0.000000001
 43
0.00000001
 40
0.0
 40
0.0
 40
0.0
 40
0.0
 40
0.4999956319160505
 40
1.0
 40
1.0
 40
1.0
 40
1.0
 10
6247.914429356152
 20
5132.947221059871
 30
0.0
 10
6247.771145605862
 20
5132.864446610546
 30
0.0
 10
6247.48457560176
 20
5132.69889626562
 30
0.0
 10
6247.197999138474
 20
5132.533357709945
 30
0.0
 10
6247.054709655041
 20
5132.450587709022
 30
0.0
  0
SPLINE
  5
C1
330
1F
100
AcDbEntity
  8
0
  6
Continuous
 62
     7
370
    25
100
AcDbSpline
210
0.0
220
0.0
230
1.0
 70
     8
 71
     3
 72
     9
 73
     5
 74
     0
 42
0.000000001
 43
0.00000001
 40
0.0
 40
0.0
 40
0.0
 40
0.0
 40
0.4999937550466421
 40
1.0
 40
1.0
 40
1.0
 40
1.0
 10
6247.914429356152
 20
5134.534716267658
 30
0.0
 10
6247.771145336935
 20
5134.451944767393
 30
0.0
 10
6247.484573719248
 20
5134.286399699217
 30
0.0
 10
6247.197998869541
 20
5134.120860833854
 30
0.0
 10
6247.054709655041
 20
5134.038090367389
 30
0.0
  0
SPLINE
  5
C2
330
1F
100
AcDbEntity
  8
0
  6
Continuous
 62
     7
370
    25
100
AcDbSpline
210
0.0
220
0.0
230
1.0
 70
     8
 71
     3
 72
     9
 73
     5
 74
     0
 42
0.000000001
 43
0.00000001
 40
0.0
 40
0.0
 40
0.0
 40
0.0
 40
0.4999937550466421
 40
1.0
 40
1.0
 40
1.0
 40
1.0
 10
6247.914429356152
 20
5136.122218926025
 30
0.0
 10
6247.771145336935
 20
5136.03944742576
 30
0.0
 10
6247.484573719248
 20
5135.873902357584
 30
0.0
 10
6247.197998869541
 20
5135.708363492221
 30
0.0
 10
6247.054709655041
 20
5135.625593025757
 30
0.0
  0
SPLINE
  5
C3
330
1F
100
AcDbEntity
  8
0
  6
Continuous
 62
     7
370
    25
100
AcDbSpline
210
0.0
220
0.0
230
1.0
 70
     8
 71
     3
 72
     9
 73
     5
 74
     0
 42
0.000000001
 43
0.00000001
 40
0.0
 40
0.0
 40
0.0
 40
0.0
 40
0.467934626453923
 40
0.9999999999999999
 40
0.9999999999999999
 40
0.9999999999999999
 40
0.9999999999999999
 10
6247.862626400584
 20
5137.679792602135
 30
0.0
 10
6247.736610102558
 20
5137.606994834698
 30
0.0
 10
6247.46730689031
 20
5137.451422318107
 30
0.0
 10
6247.197999038051
 20
5137.295858405053
 30
0.0
 10
6247.054709655041
 20
5137.213088233543
 30
0.0
  0
LINE
  5
C4
330
1F
100
AcDbEntity
  8
0
  6
Continuous
 62
     7
370
    25
100
AcDbLine
 10
6247.9144293562
 20
5129.7722157431
 30
0.0
 11
6247.6514210671
 21
5129.6202835036
 31
0.0
  0
SPLINE
  5
C5
330
1F
100
AcDbEntity
  8
0
  6
Continuous
 62
     7
370
    25
100
AcDbSpline
210
0.0
220
0.0
230
1.0
 70
     8
 71
     3
 72
     9
 73
     5
 74
     0
 42
0.000000001
 43
0.00000001
 40
0.0
 40
0.0
 40
0.0
 40
0.0
 40
0.4387547820854862
 40
0.9999999999999999
 40
0.9999999999999999
 40
0.9999999999999999
 40
0.9999999999999999
 10
6273.383572299773
 20
5130.126654763294
 30
0.0
 10
6273.273359289536
 20
5130.190319426595
 30
0.0
 10
6273.022164283267
 20
5130.335422490768
 30
0.0
 10
6272.770973901641
 20
5130.480534093382
 30
0.0
 10
6272.629994501168
 20
5130.561977286411
 30
0.0
  0
LINE
  5
C6
330
1F
100
AcDbEntity
  8
0
  6
Continuous
 62
     7
370
    25
100
AcDbLine
 10
6247.0482555896
 20
5130.8554705573
 30
0.0
 11
6247.0482555896
 21
5130.458630283
 31
0.0
  0
LINE
  5
C7
330
1F
100
AcDbEntity
  8
0
  6
Continuous
 62
     7
370
    25
100
AcDbLine
 10
6247.0482555896
 20
5132.4429732157
 30
0.0
 11
6247.0482555896
 21
5132.0461254907
 31
0.0
  0
LINE
  5
C8
330
1F
100
AcDbEntity
  8
0
  6
Continuous
 62
     7
370
    25
100
AcDbLine
 10
6247.0482555896
 20
5134.0304684234
 30
0.0
 11
6247.0482555896
 21
5133.6336281491
 31
0.0
  0
LINE
  5
C9
330
1F
100
AcDbEntity
  8
0
  6
Continuous
 62
     7
370
    25
100
AcDbLine
 10
6247.0482555896
 20
5135.6179710818
 30
0.0
 11
6247.0482555896
 21
5135.2211308075
 31
0.0
  0
LINE
  5
CA
330
1F
100
AcDbEntity
  8
0
  6
Continuous
 62
     7
370
    25
100
AcDbLine
 10
6247.0482555896
 20
5137.2054737402
 30
0.0
 11
6247.0482555896
 21
5136.8086260153
 31
0.0
  0
LINE
  5
CB
330
1F
100
AcDbEntity
  8
0
  6
Continuous
 62
     7
370
    25
100
AcDbLine
 10
6273.4892550602
 20
5137.6023140145
 30
0.0
 11
6273.4892550602
 21
5137.6797926021
 31
0.0
  0
LINE
  5
CC
330
1F
100
AcDbEntity
  8
0
  6
Continuous
 62
     7
370
    25
100
AcDbLine
 10
6273.4892550602
 20
5136.0148113561
 30
0.0
 11
6273.4892550602
 21
5136.4117112351
 31
0.0
  0
LINE
  5
CD
330
1F
100
AcDbEntity
  8
0
  6
Continuous
 62
     7
370
    25
100
AcDbLine
 10
6273.4892550602
 20
5134.4273086978
 30
0.0
 11
6273.4892550602
 21
5134.8242160273
 31
0.0
  0
LINE
  5
CE
330
1F
100
AcDbEntity
  8
0
  6
Continuous
 62
     7
370
    25
100
AcDbLine
 10
6273.4892550602
 20
5132.83981349
 30
0.0
 11
6273.4892550602
 21
5133.236713369
 31
0.0
  0
LINE
  5
CF
330
1F
100
AcDbEntity
  8
0
  6
Continuous
 62
     7
370
    25
100
AcDbLine
 10
6273.4892550602
 20
5131.2523108316
 30
0.0
 11
6273.4892550602
 21
5131.6492107106
 31
0.0
  0
SPLINE
  5
D0
330
1F
100
AcDbEntity
  8
0
  6
Continuous
 62
     7
370
    25
100
AcDbSpline
210
0.0
220
0.0
230
1.0
 70
     8
 71
     3
 72
     9
 73
     5
 74
     0
 42
0.000000001
 43
0.00000001
 40
0.0
 40
0.0
 40
0.0
 40
0.0
 40
0.4999933847311774
 40
1.0
 40
1.0
 40
1.0
 40
1.0
 10
6272.623084087664
 20
5132.335774262024
 30
0.0
 10
6272.766367151005
 20
5132.41854579294
 30
0.0
 10
6273.052937069164
 20
5132.584091045024
 30
0.0
 10
6273.339510513989
 20
5132.749629726482
 30
0.0
 10
6273.482799132163
 20
5132.832400162292
 30
0.0
  0
SPLINE
  5
D1
330
1F
100
AcDbEntity
  8
0
  6
Continuous
 62
     7
370
    25
100
AcDbSpline
210
0.0
220
0.0
230
1.0
 70
     8
 71
     3
 72
     9
 73
     5
 74
     0
 42
0.000000001
 43
0.00000001
 40
0.0
 40
0.0
 40
0.0
 40
0.0
 40
0.4999933847311774
 40
1.0
 40
1.0
 40
1.0
 40
1.0
 10
6272.623084087664
 20
5133.92326946981
 30
0.0
 10
6272.766367151005
 20
5134.006041000726
 30
0.0
 10
6273.052937069164
 20
5134.171586252811
 30
0.0
 10
6273.339510513989
 20
5134.337124934268
 30
0.0
 10
6273.482799132163
 20
5134.419895370079
 30
0.0
  0
SPLINE
  5
D2
330
1F
100
AcDbEntity
  8
0
  6
Continuous
 62
     7
370
    25
100
AcDbSpline
210
0.0
220
0.0
230
1.0
 70
     8
 71
     3
 72
     9
 73
     5
 74
     0
 42
0.000000001
 43
0.00000001
 40
0.0
 40
0.0
 40
0.0
 40
0.0
 40
0.4999933847311774
 40
1.0
 40
1.0
 40
1.0
 40
1.0
 10
6272.623084087664
 20
5135.510772128177
 30
0.0
 10
6272.766367151005
 20
5135.593543659093
 30
0.0
 10
6273.052937069164
 20
5135.759088911178
 30
0.0
 10
6273.339510513989
 20
5135.924627592635
 30
0.0
 10
6273.482799132163
 20
5136.007398028446
 30
0.0
  0
SPLINE
  5
D3
330
1F
100
AcDbEntity
  8
0
  6
Continuous
 62
     7
370
    25
100
AcDbSpline
210
0.0
220
0.0
230
1.0
 70
     8
 71
     3
 72
     9
 73
     5
 74
     0
 42
0.000000001
 43
0.00000001
 40
0.0
 40
0.0
 40
0.0
 40
0.0
 40
0.4999933847311774
 40
1.0
 40
1.0
 40
1.0
 40
1.0
 10
6272.623084087664
 20
5137.098274786545
 30
0.0
 10
6272.766367151005
 20
5137.181046317461
 30
0.0
 10
6273.052937069164
 20
5137.346591569545
 30
0.0
 10
6273.339510513989
 20
5137.512130251002
 30
0.0
 10
6273.482799132163
 20
5137.594900686813
 30
0.0
  0
SPLINE
  5
D4
330
1F
100
AcDbEntity
  8
0
  6
Continuous
 62
     7
370
    25
100
AcDbSpline
210
0.0
220
0.0
230
1.0
 70
     8
 71
     3
 72
     9
 73
     5
 74
     0
 42
0.000000001
 43
0.00000001
 40
0.0
 40
0.0
 40
0.0
 40
0.0
 40
0.5040598944565694
 40
1.0
 40
1.0
 40
1.0
 40
1.0
 10
6247.054711517686
 20
5132.038645107818
 30
0.0
 10
6247.19800045076
 20
5131.955874680042
 30
0.0
 10
6247.482270107304
 20
5131.791667154929
 30
0.0
 10
6247.766536241007
 20
5131.627453069573
 30
0.0
 10
6247.907515217358
 20
5131.54601271875
 30
0.0
  0
SPLINE
  5
D5
330
1F
100
AcDbEntity
  8
0
  6
Continuous
 62
     7
370
    25
100
AcDbSpline
210
0.0
220
0.0
230
1.0
 70
     8
 71
     3
 72
     9
 73
     5
 74
     0
 42
0.000000001
 43
0.00000001
 40
0.0
 40
0.0
 40
0.0
 40
0.0
 40
0.5040598944565694
 40
1.0
 40
1.0
 40
1.0
 40
1.0
 10
6247.054711517686
 20
5133.626147766186
 30
0.0
 10
6247.19800045076
 20
5133.543377338409
 30
0.0
 10
6247.482270107304
 20
5133.379169813296
 30
0.0
 10
6247.766536241007
 20
5133.21495572794
 30
0.0
 10
6247.907515217358
 20
5133.133515377117
 30
0.0
  0
SPLINE
  5
D6
330
1F
100
AcDbEntity
  8
0
  6
Continuous
 62
     7
370
    25
100
AcDbSpline
210
0.0
220
0.0
230
1.0
 70
     8
 71
     3
 72
     9
 73
     5
 74
     0
 42
0.000000001
 43
0.00000001
 40
0.0
 40
0.0
 40
0.0
 40
0.0
 40
0.5040598944565694
 40
1.0
 40
1.0
 40
1.0
 40
1.0
 10
6247.054711517686
 20
5135.213650424553
 30
0.0
 10
6247.19800045076
 20
5135.130879996776
 30
0.0
 10
6247.482270107304
 20
5134.966672471664
 30
0.0
 10
6247.766536241007
 20
5134.802458386307
 30
0.0
 10
6247.907515217358
 20
5134.721018035484
 30
0.0
  0
SPLINE
  5
D7
330
1F
100
AcDbEntity
  8
0
  6
Continuous
 62
     7
370
    25
100
AcDbSpline
210
0.0
220
0.0
230
1.0
 70
     8
 71
     3
 72
     9
 73
     5
 74
     0
 42
0.000000001
 43
0.00000001
 40
0.0
 40
0.0
 40
0.0
 40
0.0
 40
0.5040598944565694
 40
1.0
 40
1.0
 40
1.0
 40
1.0
 10
6247.054711517686
 20
5136.801145632339
 30
0.0
 10
6247.19800045076
 20
5136.718375204563
 30
0.0
 10
6247.482270107304
 20
5136.55416767945
 30
0.0
 10
6247.766536241007
 20
5136.389953594094
 30
0.0
 10
6247.907515217358
 20
5136.308513243271
 30
0.0
  0
SPLINE
  5
D8
330
1F
100
AcDbEntity
  8
0
  6
Continuous
 62
     7
370
    25
100
AcDbSpline
210
0.0
220
0.0
230
1.0
 70
     8
 71
     3
 72
     9
 73
     5
 74
     0
 42
0.000000001
 43
0.00000001
 40
0.0
 40
0.0
 40
0.0
 40
0.0
 40
0.5040598944565694
 40
1.0
 40
1.0
 40
1.0
 40
1.0
 10
6247.054711517686
 20
5130.451149900032
 30
0.0
 10
6247.19800045076
 20
5130.368379472256
 30
0.0
 10
6247.482270107304
 20
5130.204171947143
 30
0.0
 10
6247.766536241007
 20
5130.039957861786
 30
0.0
 10
6247.907515217358
 20
5129.958517510963
 30
0.0
  0
SPLINE
  5
D9
330
1F
100
AcDbEntity
  8
0
  6
Continuous
 62
     7
370
    25
100
AcDbSpline
210
0.0
220
0.0
230
1.0
 70
     8
 71
     3
 72
     9
 73
     5
 74
     0
 42
0.000000001
 43
0.00000001
 40
0.0
 40
0.0
 40
0.0
 40
0.0
 40
0.4999933847311774
 40
1.0
 40
1.0
 40
1.0
 40
1.0
 10
6272.623084087664
 20
5130.748271603657
 30
0.0
 10
6272.766367151005
 20
5130.831043134573
 30
0.0
 10
6273.052937069164
 20
5130.996588386657
 30
0.0
 10
6273.339510513989
 20
5131.162127068114
 30
0.0
 10
6273.482799132163
 20
5131.244897503925
 30
0.0
  0
LINE
  5
DA
330
1F
100
AcDbEntity
  8
0
  6
Continuous
 62
     7
370
    25
100
AcDbLine
 10
6272.6299945012
 20
5132.1452629162
 30
0.0
 11
6272.6299945012
 21
5132.3397677732
 31
0.0
  0
LINE
  5
DB
330
1F
100
AcDbEntity
  8
0
  6
Continuous
 62
     7
370
    25
100
AcDbLine
 10
6272.6299945012
 20
5133.7327655745
 30
0.0
 11
6272.6299945012
 21
5133.927262981
 31
0.0
  0
LINE
  5
DC
330
1F
100
AcDbEntity
  8
0
  6
Continuous
 62
     7
370
    25
100
AcDbLine
 10
6272.6299945012
 20
5135.3202682329
 30
0.0
 11
6272.6299945012
 21
5135.5147656394
 31
0.0
  0
LINE
  5
DD
330
1F
100
AcDbEntity
  8
0
  6
Continuous
 62
     7
370
    25
100
AcDbLine
 10
6272.6299945012
 20
5136.9077634407
 30
0.0
 11
6272.6299945012
 21
5137.1022682977
 31
0.0
  0
LINE
  5
DE
330
1F
100
AcDbEntity
  8
0
  6
Continuous
 62
     7
370
    25
100
AcDbLine
 10
6247.9075152174
 20
5131.5500732852
 30
0.0
 11
6247.9075152174
 21
5131.3557248903
 31
0.0
  0
LINE
  5
DF
330
1F
100
AcDbEntity
  8
0
  6
Continuous
 62
     7
370
    25
100
AcDbLine
 10
6247.9075152174
 20
5133.137568493
 30
0.0
 11
6247.9075152174
 21
5132.9432200981
 31
0.0
  0
LINE
  5
E0
330
1F
100
AcDbEntity
  8
0
  6
Continuous
 62
     7
370
    25
100
AcDbLine
 10
6247.9075152174
 20
5134.7250711513
 30
0.0
 11
6247.9075152174
 21
5134.5307227565
 31
0.0
  0
LINE
  5
E1
330
1F
100
AcDbEntity
  8
0
  6
Continuous
 62
     7
370
    25
100
AcDbLine
 10
6247.9075152174
 20
5136.3125738097
 30
0.0
 11
6247.9075152174
 21
5136.1182254148
 31
0.0
  0
LINE
  5
E2
330
1F
100
AcDbEntity
  8
0
  6
Continuous
 62
     7
370
    25
100
AcDbLine
 10
6247.9075152174
 20
5129.9625706268
 30
0.0
 11
6247.9075152174
 21
5129.7682222319
 31
0.0
  0
LINE
  5
E3
330
1F
100
AcDbEntity
  8
0
  6
Continuous
 62
     7
370
    25
100
AcDbLine
 10
6272.6299945012
 20
5130.5577677084
 30
0.0
 11
6272.6299945012
 21
5130.7522651149
 31
0.0
  0
LINE
  5
E4
330
1F
100
AcDbEntity
  8
0
  6
Continuous
 62
     7
370
    25
100
AcDbLine
 10
6304.3687563136
 20
5143.6797898603
 30
0.0
 11
6307.2687532499
 21
5143.6797898603
 31
0.0
  0
LINE
  5
E5
330
1F
100
AcDbEntity
  8
0
  6
Continuous
 62
     7
370
    25
100
AcDbLine
 10
6304.3687563136
 20
5143.6797898603
 30
0.0
 11
6304.3687563136
 21
5162.8023308111
 31
0.0
  0
LINE
  5
E6
330
1F
100
AcDbEntity
  8
0
  6
Continuous
 62
     7
370
    25
100
AcDbLine
 10
6304.3687563136
 20
5162.8023308111
 30
0.0
 11
6307.2687532499
 21
5162.8023308111
 31
0.0
  0
LINE
  5
E7
330
1F
100
AcDbEntity
  8
0
  6
Continuous
 62
     7
370
    25
100
AcDbLine
 10
6304.3687563136
 20
5264.5572532309
 30
0.0
 11
6304.3687563136
 21
5162.8023308111
 31
0.0
  0
LINE
  5
E8
330
1F
100
AcDbEntity
  8
0
  6
Continuous
 62
     7
370
    25
100
AcDbLine
 10
6304.3687563136
 20
5264.5572532309
 30
0.0
 11
6307.2687532499
 21
5264.5572532309
 31
0.0
  0
LINE
  5
E9
330
1F
100
AcDbEntity
  8
0
  6
Continuous
 62
     7
370
    25
100
AcDbLine
 10
6307.2687532499
 20
5264.5572532309
 30
0.0
 11
6307.2687532499
 21
5162.8023308111
 31
0.0
  0
LINE
  5
EA
330
1F
100
AcDbEntity
  8
0
  6
Continuous
 62
     7
370
    25
100
AcDbLine
 10
6304.3687563136
 20
5283.6797904564
 30
0.0
 11
6304.3687563136
 21
5264.5572532309
 31
0.0
  0
LINE
  5
EB
330
1F
100
AcDbEntity
  8
0
  6
Continuous
 62
     7
370
    25
100
AcDbLine
 10
6304.3687563136
 20
5283.6797904564
 30
0.0
 11
6307.2687532499
 21
5283.6797904564
 31
0.0
  0
LINE
  5
EC
330
1F
100
AcDbEntity
  8
0
  6
Continuous
 62
     7
370
    25
100
AcDbLine
 10
6307.2687532499
 20
5283.5703935815
 30
0.0
 11
6307.2687532499
 21
5266.7092305017
 31
0.0
  0
LINE
  5
ED
330
1F
100
AcDbEntity
  8
0
  6
Continuous
 62
     7
370
    25
100
AcDbLine
 10
6304.3687563136
 20
5159.2508588327
 30
0.0
 11
6234.7687553361
 21
5159.2508588327
 31
0.0
  0
LINE
  5
EE
330
1F
100
AcDbEntity
  8
0
  6
Continuous
 62
     7
370
    25
100
AcDbLine
 10
6234.7687553361
 20
5164.6650728179
 30
0.0
 11
6234.7687553361
 21
5159.2508588327
 31
0.0
  0
LINE
  5
EF
330
1F
100
AcDbEntity
  8
0
  6
Continuous
 62
     7
370
    25
100
AcDbLine
 10
6304.3687563136
 20
5164.6650728179
 30
0.0
 11
6234.7687553361
 21
5164.6650728179
 31
0.0
  0
LINE
  5
F0
330
1F
100
AcDbEntity
  8
0
  6
Continuous
 62
     7
370
    25
100
AcDbLine
 10
6234.7687553361
 20
5155.008218844
 30
0.0
 11
6234.7687553361
 21
5148.1797915293
 31
0.0
  0
LINE
  5
F1
330
1F
100
AcDbEntity
  8
0
  6
Continuous
 62
     7
370
    25
100
AcDbLine
 10
6304.3687563136
 20
5155.008218844
 30
0.0
 11
6234.7687553361
 21
5155.008218844
 31
0.0
  0
LINE
  5
F2
330
1F
100
AcDbEntity
  8
0
  6
Continuous
 62
     7
370
    25
100
AcDbLine
 10
6234.7687553361
 20
5272.351365198
 30
0.0
 11
6234.7687553361
 21
5279.179796238
 31
0.0
  0
LINE
  5
F3
330
1F
100
AcDbEntity
  8
0
  6
Continuous
 62
     7
370
    25
100
AcDbLine
 10
6304.3687563136
 20
5272.351365198
 30
0.0
 11
6234.7687553361
 21
5272.351365198
 31
0.0
  0
LINE
  5
F4
330
1F
100
AcDbEntity
  8
0
  6
Continuous
 62
     7
370
    25
100
AcDbLine
 10
6304.3687563136
 20
5262.6945112241
 30
0.0
 11
6234.7687553361
 21
5262.6945112241
 31
0.0
  0
LINE
  5
F5
330
1F
100
AcDbEntity
  8
0
  6
Continuous
 62
     7
370
    25
100
AcDbLine
 10
6234.7687553361
 20
5164.6650728179
 30
0.0
 11
6234.7687553361
 21
5262.6945112241
 31
0.0
  0
LINE
  5
F6
330
1F
100
AcDbEntity
  8
0
  6
Continuous
 62
     7
370
    25
100
AcDbLine
 10
6304.3687563136
 20
5268.1087252093
 30
0.0
 11
6234.7687553361
 21
5268.1087252093
 31
0.0
  0
LINE
  5
F7
330
1F
100
AcDbEntity
  8
0
  6
Continuous
 62
     7
370
    25
100
AcDbLine
 10
6234.7687553361
 20
5262.6945112241
 30
0.0
 11
6234.7687553361
 21
5268.1087252093
 31
0.0
  0
LINE
  5
F8
330
1F
100
AcDbEntity
  8
0
  6
Continuous
 62
     7
370
    25
100
AcDbLine
 10
6234.7687553361
 20
5268.1087252093
 30
0.0
 11
6234.7687553361
 21
5272.351365198
 31
0.0
  0
LINE
  5
F9
330
1F
100
AcDbEntity
  8
0
  6
Continuous
 62
     7
370
    25
100
AcDbLine
 10
6234.7687553361
 20
5159.2508588327
 30
0.0
 11
6234.7687553361
 21
5155.008218844
 31
0.0
  0
LINE
  5
FA
330
1F
100
AcDbEntity
  8
0
  6
Continuous
 62
     7
370
    25
100
AcDbLine
 10
6304.3687563136
 20
5279.179796238
 30
0.0
 11
6234.7687553361
 21
5279.179796238
 31
0.0
  0
LINE
  5
FB
330
1F
100
AcDbEntity
  8
0
  6
Continuous
 62
     7
370
    25
100
AcDbLine
 10
6304.3687563136
 20
5148.1797915293
 30
0.0
 11
6234.7687553361
 21
5148.1797915293
 31
0.0
  0
LINE
  5
FC
330
1F
100
AcDbEntity
  8
0
  6
Continuous
 62
     7
370
    25
100
AcDbLine
 10
6313.2687579587
 20
5211.3297925206
 30
0.0
 11
6313.2687579587
 21
5186.3297928465
 31
0.0
  0
LINE
  5
FD
330
1F
100
AcDbEntity
  8
0
  6
Continuous
 62
     7
370
    25
100
AcDbLine
 10
6311.7687549189
 20
5184.8297916693
 30
0.0
 11
6311.7687549189
 21
5212.8297925336
 31
0.0
  0
LINE
  5
FE
330
1F
100
AcDbEntity
  8
0
  6
Continuous
 62
     7
370
    25
100
AcDbLine
 10
6308.2687552765
 20
5128.8297918034
 30
0.0
 11
6308.2687552765
 21
5130.8297958565
 31
0.0
  0
LINE
  5
FF
330
1F
100
AcDbEntity
  8
0
  6
Continuous
 62
     7
370
    25
100
AcDbLine
 10
6308.2687552765
 20
5130.8297958565
 30
0.0
 11
6310.268751879
 21
5130.8297958565
 31
0.0
  0
LINE
  5
100
330
1F
100
AcDbEntity
  8
0
  6
Continuous
 62
     7
370
    25
100
AcDbLine
 10
6310.268751879
 20
5128.8297918034
 30
0.0
 11
6310.268751879
 21
5130.8297958565
 31
0.0
  0
LINE
  5
101
330
1F
100
AcDbEntity
  8
0
  6
Continuous
 62
     7
370
    25
100
AcDbLine
 10
6310.268751879
 20
5128.8297918034
 30
0.0
 11
6308.2687552765
 21
5128.8297918034
 31
0.0
  0
LINE
  5
102
330
1F
100
AcDbEntity
  8
0
  6
Continuous
 62
     7
370
    25
100
AcDbLine
 10
6311.2687539056
 20
5297.829791565
 30
0.0
 11
6311.2687539056
 21
5296.8297895385
 31
0.0
  0
LINE
  5
103
330
1F
100
AcDbEntity
  8
0
  6
Continuous
 62
     7
370
    25
100
AcDbLine
 10
6311.2687539056
 20
5296.8297895385
 30
0.0
 11
6310.268751879
 21
5296.8297895385
 31
0.0
  0
LINE
  5
104
330
1F
100
AcDbEntity
  8
0
  6
Continuous
 62
     7
370
    25
100
AcDbLine
 10
6310.268751879
 20
5296.8297895385
 30
0.0
 11
6310.268751879
 21
5298.8297935916
 31
0.0
  0
LINE
  5
105
330
1F
100
AcDbEntity
  8
0
  6
Continuous
 62
     7
370
    25
100
AcDbLine
 10
6311.2687539056
 20
5297.829791565
 30
0.0
 11
6310.268751879
 21
5298.8297935916
 31
0.0
  0
LINE
  5
106
330
1F
100
AcDbEntity
  8
0
  6
Continuous
 62
     7
370
    25
100
AcDbLine
 10
6311.2687539056
 20
5130.8297958565
 30
0.0
 11
6311.2687539056
 21
5129.82979383
 31
0.0
  0
LINE
  5
107
330
1F
100
AcDbEntity
  8
0
  6
Continuous
 62
     7
370
    25
100
AcDbLine
 10
6310.268751879
 20
5128.8297918034
 30
0.0
 11
6311.2687539056
 21
5129.82979383
 31
0.0
  0
LINE
  5
108
330
1F
100
AcDbEntity
  8
0
  6
Continuous
 62
     7
370
    25
100
AcDbLine
 10
6311.2687539056
 20
5130.8297958565
 30
0.0
 11
6310.268751879
 21
5130.8297958565
 31
0.0
  0
LINE
  5
109
330
1F
100
AcDbEntity
  8
0
  6
Continuous
 62
     7
370
    25
100
AcDbLine
 10
6311.2687539056
 20
5296.8297895385
 30
0.0
 11
6311.2687539056
 21
5130.8297958565
 31
0.0
  0
LINE
  5
10A
330
1F
100
AcDbEntity
  8
0
  6
Continuous
 62
     7
370
    25
100
AcDbLine
 10
6310.268751879
 20
5130.8297958565
 30
0.0
 11
6310.268751879
 21
5296.8297895385
 31
0.0
  0
LINE
  5
10B
330
1F
100
AcDbEntity
  8
0
  6
Continuous
 62
     7
370
    25
100
AcDbLine
 10
6308.2687552765
 20
5298.8297935916
 30
0.0
 11
6310.268751879
 21
5298.8297935916
 31
0.0
  0
LINE
  5
10C
330
1F
100
AcDbEntity
  8
0
  6
Continuous
 62
     7
370
    25
100
AcDbLine
 10
6310.268751879
 20
5296.8297895385
 30
0.0
 11
6308.2687552765
 21
5296.8297895385
 31
0.0
  0
LINE
  5
10D
330
1F
100
AcDbEntity
  8
0
  6
Continuous
 62
     7
370
    25
100
AcDbLine
 10
6308.2687552765
 20
5296.8297895385
 30
0.0
 11
6308.2687552765
 21
5298.8297935916
 31
0.0
  0
LINE
  5
10E
330
1F
100
AcDbEntity
  8
0
  6
Continuous
 62
     7
370
    25
100
AcDbLine
 10
6308.2687552765
 20
5296.8297895385
 30
0.0
 11
6308.2687552765
 21
5130.8297958565
 31
0.0
  0
LINE
  5
10F
330
1F
100
AcDbEntity
  8
0
  6
Continuous
 62
     7
370
    25
100
AcDbLine
 10
6281.0964803889
 20
5146.4797925545
 30
0.0
 11
6290.0687563911
 21
5146.4797925545
 31
0.0
  0
LINE
  5
110
330
1F
100
AcDbEntity
  8
0
  6
Continuous
 62
     7
370
    25
100
AcDbLine
 10
6278.4687537447
 20
5146.4797925545
 30
0.0
 11
6281.0964803889
 21
5146.4797925545
 31
0.0
  0
SPLINE
  5
111
330
1F
100
AcDbEntity
  8
0
  6
Continuous
 62
     7
370
    25
100
AcDbSpline
210
0.0
220
0.0
230
1.0
 70
     8
 71
     3
 72
    18
 73
    14
 74
     0
 42
0.000000001
 43
0.00000001
 40
0.0
 40
0.0
 40
0.0
 40
0.0
 40
0.0907448887254123
 40
0.1814897940666838
 40
0.2746720249370888
 40
0.3687536588740263
 40
0.4656166024071805
 40
0.5588440214776594
 40
0.6547749699578004
 40
0.7480037392242515
 40
0.8439747809109375
 40
0.9365482404709653
 40
1.0
 40
1.0
 40
1.0
 40
1.0
 10
6257.471106548602
 20
5297.179795463157
 30
0.0
 10
6258.169146831496
 20
5297.188570883829
 30
0.0
 10
6259.5652275251
 20
5297.20612172678
 30
0.0
 10
6261.710238613314
 20
5297.232618243
 30
0.0
 10
6263.834661933661
 20
5297.257808292651
 30
0.0
 10
6265.903763666224
 20
5297.284156854389
 30
0.0
 10
6267.808010699058
 20
5297.311855588903
 30
0.0
 10
6269.503460908169
 20
5297.339848063146
 30
0.0
 10
6270.912296771654
 20
5297.36705518787
 30
0.0
 10
6272.031212449962
 20
5297.392757388475
 30
0.0
 10
6272.783811276374
 20
5297.419889493955
 30
0.0
 10
6273.183574861452
 20
5297.444815986291
 30
0.0
 10
6273.167013508927
 20
5297.460099533921
 30
0.0
 10
6273.160278399283
 20
5297.466314990593
 30
0.0
  0
SPLINE
  5
112
330
1F
100
AcDbEntity
  8
0
  6
Continuous
 62
     7
370
    25
100
AcDbSpline
210
0.0
220
0.0
230
1.0
 70
     8
 71
     3
 72
    10
 73
     6
 74
     0
 42
0.000000001
 43
0.00000001
 40
0.0
 40
0.0
 40
0.0
 40
0.0
 40
0.3007701590595847
 40
0.6907294541634023
 40
1.0
 40
1.0
 40
1.0
 40
1.0
 10
6247.866198022658
 20
5297.96953465469
 30
0.0
 10
6247.88382634619
 20
5297.976722630356
 30
0.0
 10
6247.924310423232
 20
5297.993230074193
 30
0.0
 10
6248.3553963002
 20
5298.015407105116
 30
0.0
 10
6248.863953713845
 20
5298.031798590045
 30
0.0
 10
6249.088889521355
 20
5298.039048571659
 30
0.0
  0
LINE
  5
113
330
1F
100
AcDbEntity
  8
0
  6
Continuous
 62
     7
370
    25
100
AcDbLine
 10
6257.4711065486
 20
5297.1797954632
 30
0.0
 11
6247.0482555896
 21
5297.1797954632
 31
0.0
  0
SPLINE
  5
114
330
1F
100
AcDbEntity
  8
0
  6
Continuous
 62
     7
370
    25
100
AcDbSpline
210
0.0
220
0.0
230
1.0
 70
     8
 71
     3
 72
    15
 73
    11
 74
     0
 42
0.000000001
 43
0.00000001
 40
0.0
 40
0.0
 40
0.0
 40
0.0
 40
0.1354913685720621
 40
0.2702821571840693
 40
0.4089680798108667
 40
0.5439871090616222
 40
0.6829072854625972
 40
0.8181614475737435
 40
0.9571792030331238
 40
1.0
 40
1.0
 40
1.0
 40
1.0
 10
6256.092395235592
 20
5298.039048571659
 30
0.0
 10
6255.428047684432
 20
5298.00550951976
 30
0.0
 10
6254.102787698209
 20
5297.938604835036
 30
0.0
 10
6252.291392415913
 20
5297.841479912651
 30
0.0
 10
6250.685821359782
 20
5297.738376889372
 30
0.0
 10
6249.329955560841
 20
5297.634786800339
 30
0.0
 10
6248.276212256565
 20
5297.533737063734
 30
0.0
 10
6247.564597529684
 20
5297.439234327792
 30
0.0
 10
6247.225395231463
 20
5297.364591711836
 30
0.0
 10
6247.209351721621
 20
5297.320593765936
 30
0.0
 10
6247.20557366758
 20
5297.310232777668
 30
0.0
  0
SPLINE
  5
115
330
1F
100
AcDbEntity
  8
0
  6
Continuous
 62
     7
370
    25
100
AcDbSpline
210
0.0
220
0.0
230
1.0
 70
    24
 71
     3
 72
    13
 73
     9
 74
     0
 42
0.000000001
 43
0.00000001
 40
0.0
 40
0.0
 40
0.0
 40
0.0
 40
0.0409241016593772
 40
0.2049391970679996
 40
0.4196578532734753
 40
0.6343764297073603
 40
0.817188130824304
 40
1.0
 40
1.0
 40
1.0
 40
1.0
 10
6249.088889521355
 20
5298.039048571659
 30
0.0
 10
6249.146546137795
 20
5298.039048571659
 30
0.0
 10
6249.435278210088
 20
5298.039048571659
 30
0.0
 10
6250.134895406321
 20
5298.039048571659
 30
0.0
 10
6251.356065207333
 20
5298.039048571659
 30
0.0
 10
6252.856548119023
 20
5298.039048571659
 30
0.0
 10
6254.447517333629
 20
5298.039048571659
 30
0.0
 10
6255.544102433589
 20
5298.039048571659
 30
0.0
 10
6256.092395235592
 20
5298.039048571659
 30
0.0
  0
LINE
  5
116
330
1F
100
AcDbEntity
  8
0
  6
Continuous
 62
     7
370
    25
100
AcDbLine
 10
6263.2237836465
 20
5298.6797910524
 30
0.0
 11
6271.9892557457
 21
5298.6797910524
 31
0.0
  0
LINE
  5
117
330
1F
100
AcDbEntity
  8
0
  6
Continuous
 62
     7
370
    25
100
AcDbLine
 10
6248.5482549041
 20
5298.6797910524
 30
0.0
 11
6263.2237836465
 21
5298.6797910524
 31
0.0
  0
LINE
  5
118
330
1F
100
AcDbEntity
  8
0
  6
Continuous
 62
     7
370
    25
100
AcDbLine
 10
6256.9413758561
 20
5289.6797951651
 30
0.0
 11
6256.9413758561
 21
5279.179796238
 31
0.0
  0
LINE
  5
119
330
1F
100
AcDbEntity
  8
0
  6
Continuous
 62
     7
370
    25
100
AcDbLine
 10
6245.9952575833
 20
5289.6797951651
 30
0.0
 11
6245.9952575833
 21
5279.179796238
 31
0.0
  0
LINE
  5
11A
330
1F
100
AcDbEntity
  8
0
  6
Continuous
 62
     7
370
    25
100
AcDbLine
 10
6245.9952575833
 20
5289.6797951651
 30
0.0
 11
6250.1925458878
 21
5289.6797951651
 31
0.0
  0
LINE
  5
11B
330
1F
100
AcDbEntity
  8
0
  6
Continuous
 62
     7
370
    25
100
AcDbLine
 10
6252.7770898983
 20
5289.6797951651
 30
0.0
 11
6256.9413758561
 21
5289.6797951651
 31
0.0
  0
LINE
  5
11C
330
1F
100
AcDbEntity
  8
0
  6
Continuous
 62
     7
370
    25
100
AcDbLine
 10
6271.6795388356
 20
5289.6797951651
 30
0.0
 11
6273.4682518735
 21
5289.6797951651
 31
0.0
  0
SPLINE
  5
11D
330
1F
100
AcDbEntity
  8
0
  6
Continuous
 62
     7
370
    25
100
AcDbSpline
210
0.0
220
0.0
230
1.0
 70
     8
 71
     3
 72
    26
 73
    22
 74
     0
 42
0.000000001
 43
0.00000001
 40
0.0
 40
0.0
 40
0.0
 40
0.0
 40
0.0023742437825006
 40
0.0557455705594699
 40
0.1089511846096376
 40
0.161263619411903
 40
0.2132169380306075
 40
0.2662316376582924
 40
0.3196316439914274
 40
0.372673684504403
 40
0.4418814522888328
 40
0.5122059266990898
 40
0.583306292993368
 40
0.6361363231421958
 40
0.6879465778974932
 40
0.7405175272112416
 40
0.7938242832301599
 40
0.847131060641603
 40
0.899702002261758
 40
0.9515122570257382
 40
1.0
 40
1.0
 40
1.0
 40
1.0
 10
6273.481461752946
 20
5296.44115980394
 30
0.0
 10
6273.484042007079
 20
5296.440531828639
 30
0.0
 10
6273.544624555459
 20
5296.4257874112
 30
0.0
 10
6273.322280481246
 20
5296.395816459076
 30
0.0
 10
6272.790682837855
 20
5296.352905434618
 30
0.0
 10
6271.881448945261
 20
5296.312025071178
 30
0.0
 10
6270.671897407149
 20
5296.272340965715
 30
0.0
 10
6269.167065279593
 20
5296.22960800387
 30
0.0
 10
6267.404646606432
 20
5296.18626853047
 30
0.0
 10
6265.24512723892
 20
5296.138820292053
 30
0.0
 10
6262.673835606333
 20
5296.090678967656
 30
0.0
 10
6259.745898914571
 20
5296.034424079186
 30
0.0
 10
6257.067153635866
 20
5295.981356777594
 30
0.0
 10
6254.770674488968
 20
5295.934330141581
 30
0.0
 10
6252.864382503253
 20
5295.895079012055
 30
0.0
 10
6251.151991199744
 20
5295.853480865218
 30
0.0
 10
6249.675752360446
 20
5295.810255676323
 30
0.0
 10
6248.492167978805
 20
5295.767053531149
 30
0.0
 10
6247.650861870085
 20
5295.725431412577
 30
0.0
 10
6247.135413230289
 20
5295.687334841805
 30
0.0
 10
6247.085898908945
 20
5295.660407510943
 30
0.0
 10
6247.061961863929
 20
5295.647389848305
 30
0.0
  0
SPLINE
  5
11E
330
1F
100
AcDbEntity
  8
0
  6
Continuous
 62
     7
370
    25
100
AcDbSpline
210
0.0
220
0.0
230
1.0
 70
     8
 71
     3
 72
    26
 73
    22
 74
     0
 42
0.000000001
 43
0.00000001
 40
0.0
 40
0.0
 40
0.0
 40
0.0
 40
0.0023742472185079
 40
0.0557455703038681
 40
0.1089511876761532
 40
0.1612636189299275
 40
0.2132169407095264
 40
0.2662316401642487
 40
0.3196316428015299
 40
0.3726736831414537
 40
0.4418814540329881
 40
0.5122059247696413
 40
0.5833062943528502
 40
0.636136324329318
 40
0.6879465789155822
 40
0.7405175280578157
 40
0.7938242803937807
 40
0.8471310611403443
 40
0.8997020025889844
 40
0.9515122571839313
 40
1.0
 40
1.0
 40
1.0
 40
1.0
 10
6273.481461752946
 20
5294.853664596153
 30
0.0
 10
6273.484042007311
 20
5294.853034071997
 30
0.0
 10
6273.54462447318
 20
5294.838229830733
 30
0.0
 10
6273.322280470632
 20
5294.808353119028
 30
0.0
 10
6272.790682903327
 20
5294.76538921979
 30
0.0
 10
6271.881448853324
 20
5294.724537778909
 30
0.0
 10
6270.671897460155
 20
5294.684834722718
 30
0.0
 10
6269.167065344967
 20
5294.642103974071
 30
0.0
 10
6267.40464653703
 20
5294.598775048168
 30
0.0
 10
6265.245127161341
 20
5294.551326952573
 30
0.0
 10
6262.673835811373
 20
5294.503170253818
 30
0.0
 10
6259.745898698037
 20
5294.446935168842
 30
0.0
 10
6257.06715373267
 20
5294.393851544201
 30
0.0
 10
6254.770674479953
 20
5294.346827852284
 30
0.0
 10
6252.864382495921
 20
5294.307577081198
 30
0.0
 10
6251.151991277215
 20
5294.265974844488
 30
0.0
 10
6249.675752237961
 20
5294.222765920174
 30
0.0
 10
6248.492168037717
 20
5294.179547468877
 30
0.0
 10
6247.650861859578
 20
5294.137929644234
 30
0.0
 10
6247.135413232704
 20
5294.09983197876
 30
0.0
 10
6247.085898909732
 20
5294.072904785874
 30
0.0
 10
6247.061961863929
 20
5294.059887189937
 30
0.0
  0
SPLINE
  5
11F
330
1F
100
AcDbEntity
  8
0
  6
Continuous
 62
     7
370
    25
100
AcDbSpline
210
0.0
220
0.0
230
1.0
 70
     8
 71
     3
 72
    26
 73
    22
 74
     0
 42
0.000000001
 43
0.00000001
 40
0.0
 40
0.0
 40
0.0
 40
0.0
 40
0.0023742437825247
 40
0.0557455705600351
 40
0.1089511846107422
 40
0.1612636194135381
 40
0.2132169380327693
 40
0.266231641131563
 40
0.3196316439436054
 40
0.3726736844571188
 40
0.4418814522422503
 40
0.5122059266532203
 40
0.583306296469118
 40
0.6361363231724096
 40
0.6879465779282323
 40
0.7405175306546455
 40
0.7938242831650666
 40
0.8471310640860862
 40
0.8997020057067742
 40
0.9515122604712796
 40
1.0
 40
1.0
 40
1.0
 40
1.0
 10
6273.481461752946
 20
5293.266161937786
 30
0.0
 10
6273.484042007078
 20
5293.265533962508
 30
0.0
 10
6273.544624555451
 20
5293.250789545596
 30
0.0
 10
6273.32228048227
 20
5293.220818521828
 30
0.0
 10
6272.790682834287
 20
5293.177907816179
 30
0.0
 10
6271.881448958239
 20
5293.137026304184
 30
0.0
 10
6270.671897331966
 20
5293.097346464648
 30
0.0
 10
6269.167065429617
 20
5293.054597245992
 30
0.0
 10
6267.404646514451
 20
5293.011274027171
 30
0.0
 10
6265.245127252932
 20
5292.963821400574
 30
0.0
 10
6262.673835620119
 20
5292.915680463628
 30
0.0
 10
6259.745898794568
 20
5292.859429925832
 30
0.0
 10
6257.067153830119
 20
5292.806346096638
 30
0.0
 10
6254.770674404237
 20
5292.759334324206
 30
0.0
 10
6252.864382428183
 20
5292.720083901804
 30
0.0
 10
6251.151991348422
 20
5292.678469581238
 30
0.0
 10
6249.675752227291
 20
5292.635264005671
 30
0.0
 10
6248.49216804054
 20
5292.5920444614
 30
0.0
 10
6247.650861858819
 20
5292.550427634907
 30
0.0
 10
6247.135413244583
 20
5292.512327162809
 30
0.0
 10
6247.085898913011
 20
5292.485406446563
 30
0.0
 10
6247.061961863929
 20
5292.472391982151
 30
0.0
  0
SPLINE
  5
120
330
1F
100
AcDbEntity
  8
0
  6
Continuous
 62
     7
370
    25
100
AcDbSpline
210
0.0
220
0.0
230
1.0
 70
     8
 71
     3
 72
    26
 73
    22
 74
     0
 42
0.000000001
 43
0.00000001
 40
0.0
 40
0.0
 40
0.0
 40
0.0
 40
0.0023742437824309
 40
0.0557455705578337
 40
0.1089511846064396
 40
0.1612636194071695
 40
0.2132169380243491
 40
0.2662316376504779
 40
0.3196316404604114
 40
0.3726736844460852
 40
0.4418814522284836
 40
0.5122059231925091
 40
0.583306293005599
 40
0.6361363231528762
 40
0.6879465779066528
 40
0.740517527218858
 40
0.7938242832362116
 40
0.8471310606460901
 40
0.899702002264702
 40
0.9515122570271614
 40
1.0
 40
1.0
 40
1.0
 40
1.0
 10
6273.481461752946
 20
5291.678659279419
 30
0.0
 10
6273.484042007079
 20
5291.678031304124
 30
0.0
 10
6273.544624555457
 20
5291.663286886823
 30
0.0
 10
6273.322280481551
 20
5291.633315915995
 30
0.0
 10
6272.79068283679
 20
5291.590404974768
 30
0.0
 10
6271.881448949135
 20
5291.549524311478
 30
0.0
 10
6270.671897392672
 20
5291.509841319933
 30
0.0
 10
6269.167065368502
 20
5291.467104114953
 30
0.0
 10
6267.404646440728
 20
5291.423780624011
 30
0.0
 10
6265.245127347313
 20
5291.37631586234
 30
0.0
 10
6262.67383569614
 20
5291.328176382759
 30
0.0
 10
6259.745898716744
 20
5291.271936225715
 30
0.0
 10
6257.067153730054
 20
5291.218853801355
 30
0.0
 10
6254.770674477956
 20
5291.171830177707
 30
0.0
 10
6252.864382506226
 20
5291.132578336179
 30
0.0
 10
6251.151991198929
 20
5291.090980382139
 30
0.0
 10
6249.675752360666
 20
5291.047755140627
 30
0.0
 10
6248.492167978746
 20
5291.004553009578
 30
0.0
 10
6247.6508618701
 20
5290.962930887285
 30
0.0
 10
6247.135413230285
 20
5290.924834317461
 30
0.0
 10
6247.085898908944
 20
5290.89790698648
 30
0.0
 10
6247.061961863929
 20
5290.884889323784
 30
0.0
  0
SPLINE
  5
121
330
1F
100
AcDbEntity
  8
0
  6
Continuous
 62
     7
370
    25
100
AcDbSpline
210
0.0
220
0.0
230
1.0
 70
     8
 71
     3
 72
    18
 73
    14
 74
     0
 42
0.000000001
 43
0.00000001
 40
0.0
 40
0.0
 40
0.0
 40
0.0
 40
0.0045841999502399
 40
0.1076336274592676
 40
0.2103631101387465
 40
0.3113680277737286
 40
0.4116795763185784
 40
0.5140404344077578
 40
0.6171452364369557
 40
0.7195588843466741
 40
0.853185348096546
 40
0.9889679375162813
 40
1.0
 40
1.0
 40
1.0
 40
1.0
 10
6273.481461752946
 20
5290.091164071632
 30
0.0
 10
6273.484042007331
 20
5290.090533547477
 30
0.0
 10
6273.544624473693
 20
5290.075729306219
 30
0.0
 10
6273.322280404329
 20
5290.045852593778
 30
0.0
 10
6272.79068313435
 20
5290.002888697807
 30
0.0
 10
6271.881448013183
 20
5289.962037245156
 30
0.0
 10
6270.671900599317
 20
5289.92233423269
 30
0.0
 10
6269.167053322785
 20
5289.879603317448
 30
0.0
 10
6267.40469160962
 20
5289.836275018916
 30
0.0
 10
6265.24493876369
 20
5289.788824357893
 30
0.0
 10
6262.674788104474
 20
5289.740680193327
 30
0.0
 10
6260.652628982083
 20
5289.701867642048
 30
0.0
 10
6259.602725452581
 20
5289.681337832307
 30
0.0
 10
6259.523832772667
 20
5289.679795165134
 30
0.0
  0
SPLINE
  5
122
330
1F
100
AcDbEntity
  8
0
  6
Continuous
 62
     7
370
    25
100
AcDbSpline
210
0.0
220
0.0
230
1.0
 70
     8
 71
     3
 72
    16
 73
    12
 74
     0
 42
0.000000001
 43
0.00000001
 40
0.0
 40
0.0
 40
0.0
 40
0.0
 40
0.0359511880608481
 40
0.1581770027139033
 40
0.2780434986634433
 40
0.3996699124446954
 40
0.52299866434147
 40
0.6463274657312851
 40
0.7679538617128936
 40
0.8878203576825215
 40
1.0
 40
1.0
 40
1.0
 40
1.0
 10
6257.471106548602
 20
5297.179795463157
 30
0.0
 10
6257.261823891837
 20
5297.175600943764
 30
0.0
 10
6256.341028080827
 20
5297.157146018037
 30
0.0
 10
6254.770706230005
 20
5297.124943402057
 30
0.0
 10
6252.864373934261
 20
5297.085707347856
 30
0.0
 10
6251.151993546012
 20
5297.044105118879
 30
0.0
 10
6249.675751727769
 20
5297.000881044064
 30
0.0
 10
6248.492168145777
 20
5296.957678599834
 30
0.0
 10
6247.650861826438
 20
5296.91605656003
 30
0.0
 10
6247.135413240326
 20
5296.877959969182
 30
0.0
 10
6247.085898912216
 20
5296.85103264085
 30
0.0
 10
6247.061961863929
 20
5296.838014979435
 30
0.0
  0
LINE
  5
123
330
1F
100
AcDbEntity
  8
0
  6
Continuous
 62
     7
370
    25
100
AcDbLine
 10
6247.049489592
 20
5296.83455791
 30
0.0
 11
6247.0749016598
 21
5296.8294393612
 31
0.0
  0
SPLINE
  5
124
330
1F
100
AcDbEntity
  8
0
  6
Continuous
 62
     7
370
    25
100
AcDbSpline
210
0.0
220
0.0
230
1.0
 70
     8
 71
     3
 72
    27
 73
    23
 74
     0
 42
0.000000001
 43
0.00000001
 40
0.0
 40
0.0
 40
0.0
 40
0.0
 40
0.0495849523983481
 40
0.1033072242905053
 40
0.1560746523043533
 40
0.208651467334569
 40
0.2622772418710377
 40
0.3162371805749492
 40
0.3697800103301879
 40
0.4222457168438162
 40
0.4751534481449511
 40
0.5190974423726249
 40
0.5632270282348909
 40
0.5789295354827139
 40
0.6323144677751406
 40
0.6846689134260917
 40
0.7377920436184622
 40
0.7916587055426036
 40
0.8455253961757554
 40
0.8986485185937226
 40
0.9510029642534477
 40
0.9999999999999999
 40
0.9999999999999999
 40
0.9999999999999999
 40
0.9999999999999999
 10
6273.468121488387
 20
5296.035706658436
 30
0.0
 10
6273.420767957848
 20
5296.022410346754
 30
0.0
 10
6273.322109764911
 20
5295.994708292266
 30
0.0
 10
6272.723060699733
 20
5295.952846875573
 30
0.0
 10
6271.805366535018
 20
5295.912309326253
 30
0.0
 10
6270.569501710253
 20
5295.872362307645
 30
0.0
 10
6269.044806030925
 20
5295.829517524466
 30
0.0
 10
6267.265775077205
 20
5295.78620050171
 30
0.0
 10
6265.306501158337
 20
5295.743512172275
 30
0.0
 10
6263.224326567828
 20
5295.703918023062
 30
0.0
 10
6261.192541686454
 20
5295.66548616179
 30
0.0
 10
6259.258091036198
 20
5295.627811949723
 30
0.0
 10
6257.84798514614
 20
5295.59987001436
 30
0.0
 10
6256.342250325479
 20
5295.569653379716
 30
0.0
 10
6254.770249397941
 20
5295.537436752794
 30
0.0
 10
6252.864497253509
 20
5295.498206594041
 30
0.0
 10
6251.151959855551
 20
5295.456598775865
 30
0.0
 10
6249.675760710891
 20
5295.413391374821
 30
0.0
 10
6248.492165801586
 20
5295.370172514627
 30
0.0
 10
6247.650862444105
 20
5295.328554797682
 30
0.0
 10
6247.135413098282
 20
5295.290457104758
 30
0.0
 10
6247.085898865926
 20
5295.263529915332
 30
0.0
 10
6247.061961863929
 20
5295.250512321068
 30
0.0
  0
SPLINE
  5
125
330
1F
100
AcDbEntity
  8
0
  6
Continuous
 62
     7
370
    25
100
AcDbSpline
210
0.0
220
0.0
230
1.0
 70
     8
 71
     3
 72
    27
 73
    23
 74
     0
 42
0.000000001
 43
0.00000001
 40
0.0
 40
0.0
 40
0.0
 40
0.0
 40
0.0495849525678389
 40
0.1033072246436292
 40
0.1560746528378463
 40
0.2086514646723504
 40
0.2622772393921222
 40
0.3162371818385551
 40
0.369780008273444
 40
0.4222457149664101
 40
0.4751534498674505
 40
0.5190974442453332
 40
0.5632270302584426
 40
0.5789295375599397
 40
0.6323144665525783
 40
0.684668912382487
 40
0.7377920462044139
 40
0.7916587083126819
 40
0.8455253991299604
 40
0.8986485217295126
 40
0.9510029675681951
 40
1.0
 40
1.0
 40
1.0
 40
1.0
 10
6273.468121488387
 20
5294.448204000068
 30
0.0
 10
6273.420767958391
 20
5294.434907637769
 30
0.0
 10
6273.322109766593
 20
5294.40720547782
 30
0.0
 10
6272.723060692405
 20
5294.365344897644
 30
0.0
 10
6271.805366581314
 20
5294.32480417808
 30
0.0
 10
6270.569501665564
 20
5294.284868993901
 30
0.0
 10
6269.044805948137
 20
5294.242024953424
 30
0.0
 10
6267.265775243545
 20
5294.198692786937
 30
0.0
 10
6265.306501071529
 20
5294.156019529858
 30
0.0
 10
6263.224326485983
 20
5294.116424677331
 30
0.0
 10
6261.192541771092
 20
5294.077981494768
 30
0.0
 10
6259.258091028262
 20
5294.040309710671
 30
0.0
 10
6257.847985141872
 20
5294.012367593686
 30
0.0
 10
6256.342250382876
 20
5293.982150108081
 30
0.0
 10
6254.770249311389
 20
5293.949943819815
 30
0.0
 10
6252.864497188708
 20
5293.91071325399
 30
0.0
 10
6251.151959925955
 20
5293.869093556605
 30
0.0
 10
6249.675760700437
 20
5293.825889448456
 30
0.0
 10
6248.49216580435
 20
5293.78266951028
 30
0.0
 10
6247.650862443359
 20
5293.741052787538
 30
0.0
 10
6247.135413110157
 20
5293.702952288996
 30
0.0
 10
6247.085898869203
 20
5293.676031576082
 30
0.0
 10
6247.061961863929
 20
5293.663017113281
 30
0.0
  0
SPLINE
  5
126
330
1F
100
AcDbEntity
  8
0
  6
Continuous
 62
     7
370
    25
100
AcDbSpline
210
0.0
220
0.0
230
1.0
 70
     8
 71
     3
 72
    27
 73
    23
 74
     0
 42
0.000000001
 43
0.00000001
 40
0.0
 40
0.0
 40
0.0
 40
0.0
 40
0.0495849559513152
 40
0.1033072278396309
 40
0.1560746524490204
 40
0.2086514674754765
 40
0.2622772420081105
 40
0.3162371842662394
 40
0.3697800105142799
 40
0.4222457170241565
 40
0.4751534517405647
 40
0.5190974459650961
 40
0.563227028266122
 40
0.5789295355128222
 40
0.6323144678014313
 40
0.6846689134486387
 40
0.7377920436372104
 40
0.791658709103395
 40
0.8455253961868017
 40
0.8986485186009702
 40
0.9510029642569514
 40
1.0
 40
1.0
 40
1.0
 40
1.0
 10
6273.468121488387
 20
5292.860708792282
 30
0.0
 10
6273.420767959709
 20
5292.847409567432
 30
0.0
 10
6273.322109774332
 20
5292.819701444565
 30
0.0
 10
6272.723060737541
 20
5292.777839313905
 30
0.0
 10
6271.805366485461
 20
5292.737314244678
 30
0.0
 10
6270.569501730254
 20
5292.69736285584
 30
0.0
 10
6269.044805939178
 20
5292.654523247332
 30
0.0
 10
6267.2657752463
 20
5292.611189855807
 30
0.0
 10
6265.306501069461
 20
5292.568517012247
 30
0.0
 10
6263.224326491463
 20
5292.528921727029
 30
0.0
 10
6261.192541752455
 20
5292.490479799723
 30
0.0
 10
6259.258091133644
 20
5292.452804135218
 30
0.0
 10
6257.847985083159
 20
5292.424872949257
 30
0.0
 10
6256.342250335207
 20
5292.394655010538
 30
0.0
 10
6254.770249391404
 20
5292.362439320385
 30
0.0
 10
6252.86449726504
 20
5292.323207783644
 30
0.0
 10
6251.151959776928
 20
5292.281604331418
 30
0.0
 10
6249.675760833687
 20
5292.238380590446
 30
0.0
 10
6248.492165742592
 20
5292.195178056601
 30
0.0
 10
6247.650862454631
 20
5292.1535560404
 30
0.0
 10
6247.135413095862
 20
5292.115459443536
 30
0.0
 10
6247.085898865136
 20
5292.088532115962
 30
0.0
 10
6247.061961863929
 20
5292.075514454914
 30
0.0
  0
SPLINE
  5
127
330
1F
100
AcDbEntity
  8
0
  6
Continuous
 62
     7
370
    25
100
AcDbSpline
210
0.0
220
0.0
230
1.0
 70
     8
 71
     3
 72
    27
 73
    23
 74
     0
 42
0.000000001
 43
0.00000001
 40
0.0
 40
0.0
 40
0.0
 40
0.0
 40
0.0495849524025287
 40
0.1033072242992155
 40
0.1560746523175124
 40
0.2086514673521611
 40
0.2622772418931511
 40
0.3162371806016121
 40
0.3697800068579957
 40
0.4222457133760475
 40
0.4751534481006999
 40
0.5190974423320788
 40
0.5632270281980655
 40
0.5789295354472124
 40
0.63231446774414
 40
0.6846689133995053
 40
0.7377920435963549
 40
0.7916587055250379
 40
0.8455253961627314
 40
0.8986485185851775
 40
0.9510029642493167
 40
1.0
 40
1.0
 40
1.0
 40
1.0
 10
6273.468121488387
 20
5291.273206133915
 30
0.0
 10
6273.42076795783
 20
5291.259909823199
 30
0.0
 10
6273.322109764859
 20
5291.232207770721
 30
0.0
 10
6272.723060699961
 20
5291.190346338077
 30
0.0
 10
6271.805366534184
 20
5291.149808849224
 30
0.0
 10
6270.569501713383
 20
5291.109861604973
 30
0.0
 10
6269.044806018951
 20
5291.067017681509
 30
0.0
 10
6267.26577516071
 20
5291.023697426871
 30
0.0
 10
6265.306501081824
 20
5290.981021006594
 30
0.0
 10
6263.224326483045
 20
5290.94142699733
 30
0.0
 10
6261.192541772302
 20
5290.902983556455
 30
0.0
 10
6259.25809102627
 20
5290.865311956091
 30
0.0
 10
6257.847985146933
 20
5290.837369447408
 30
0.0
 10
6256.342250324993
 20
5290.807152881167
 30
0.0
 10
6254.770249398123
 20
5290.774936218565
 30
0.0
 10
6252.86449725346
 20
5290.73570607214
 30
0.0
 10
6251.151959855564
 20
5290.694098250627
 30
0.0
 10
6249.675760710888
 20
5290.650890850494
 30
0.0
 10
6248.492165801586
 20
5290.607671990055
 30
0.0
 10
6247.650862444104
 20
5290.566054273175
 30
0.0
 10
6247.135413098282
 20
5290.527956580235
 30
0.0
 10
6247.085898865926
 20
5290.50102939081
 30
0.0
 10
6247.061961863929
 20
5290.488011796547
 30
0.0
  0
SPLINE
  5
128
330
1F
100
AcDbEntity
  8
0
  6
Continuous
 62
     7
370
    25
100
AcDbSpline
210
0.0
220
0.0
230
1.0
 70
     8
 71
     3
 72
     9
 73
     5
 74
     0
 42
0.000000001
 43
0.00000001
 40
0.0
 40
0.0
 40
0.0
 40
0.0
 40
0.3516151024481423
 40
1.0
 40
1.0
 40
1.0
 40
1.0
 10
6273.470121969277
 20
5289.694241840912
 30
0.0
 10
6273.47718346562
 20
5289.692570027068
 30
0.0
 10
6273.497266494745
 20
5289.687815356881
 30
0.0
 10
6273.479664646269
 20
5289.682949872031
 30
0.0
 10
6273.468251873547
 20
5289.679795165134
 30
0.0
  0
SPLINE
  5
129
330
1F
100
AcDbEntity
  8
0
  6
Continuous
 62
     7
370
    25
100
AcDbSpline
210
0.0
220
0.0
230
1.0
 70
    24
 71
     3
 72
    10
 73
     6
 74
     0
 42
0.000000001
 43
0.00000001
 40
0.0
 40
0.0
 40
0.0
 40
0.0
 40
0.0685894636843989
 40
0.5300992923720131
 40
0.9999999999999999
 40
0.9999999999999999
 40
0.9999999999999999
 40
0.9999999999999999
 10
6250.192545887822
 20
5289.679795165134
 30
0.0
 10
6250.2430204679
 20
5289.679795165134
 30
0.0
 10
6250.633117397447
 20
5289.679795165134
 30
0.0
 10
6251.442994108008
 20
5289.679795165134
 30
0.0
 10
6252.32972850116
 20
5289.679795165134
 30
0.0
 10
6252.777089898283
 20
5289.679795165134
 30
0.0
  0
SPLINE
  5
12A
330
1F
100
AcDbEntity
  8
0
  6
Continuous
 62
     7
370
    25
100
AcDbSpline
210
0.0
220
0.0
230
1.0
 70
     8
 71
     3
 72
    14
 73
    10
 74
     0
 42
0.000000001
 43
0.00000001
 40
0.0
 40
0.0
 40
0.0
 40
0.0
 40
0.0991144708835132
 40
0.1967372032490427
 40
0.3818929319189954
 40
0.5696025547770468
 40
0.7552636019539094
 40
0.9379762608985133
 40
1.0
 40
1.0
 40
1.0
 40
1.0
 10
6256.092395235592
 20
5298.039048571659
 30
0.0
 10
6255.640930125562
 20
5298.02913472563
 30
0.0
 10
6254.744794754812
 20
5298.009456243526
 30
0.0
 10
6253.122811083967
 20
5297.973414032937
 30
0.0
 10
6251.328766211852
 20
5297.925944459393
 30
0.0
 10
6249.629873755883
 20
5297.868143677023
 30
0.0
 10
6248.499624683879
 20
5297.811777653522
 30
0.0
 10
6247.943813588564
 20
5297.771403573803
 30
0.0
 10
6247.975210529756
 20
5297.746323442793
 30
0.0
 10
6247.983167481417
 20
5297.739967365337
 30
0.0
  0
SPLINE
  5
12B
330
1F
100
AcDbEntity
  8
0
  6
Continuous
 62
     7
370
    25
100
AcDbSpline
210
0.0
220
0.0
230
1.0
 70
     8
 71
     3
 72
    24
 73
    20
 74
     0
 42
0.000000001
 43
0.00000001
 40
0.0
 40
0.0
 40
0.0
 40
0.0
 40
0.0209934651158906
 40
0.0928824350338121
 40
0.1636012670262302
 40
0.2338695847234243
 40
0.3056486227571523
 40
0.3772305283401381
 40
0.4472272306837106
 40
0.5183533902003492
 40
0.590264415990641
 40
0.6169028982772861
 40
0.6548733683343253
 40
0.6922723537644785
 40
0.7632049760241074
 40
0.8351159877348041
 40
0.9062421960477995
 40
0.9762388815307635
 40
1.0
 40
1.0
 40
1.0
 40
1.0
 10
6272.567003567511
 20
5296.937577087951
 30
0.0
 10
6272.585703967029
 20
5296.932060215129
 30
0.0
 10
6272.66844107754
 20
5296.907651639472
 30
0.0
 10
6272.199114360233
 20
5296.862959915757
 30
0.0
 10
6271.174703787354
 20
5296.808127206075
 30
0.0
 10
6269.58209893108
 20
5296.754576081887
 30
0.0
 10
6267.540816813358
 20
5296.696775755533
 30
0.0
 10
6265.142313164594
 20
5296.639401290174
 30
0.0
 10
6262.51764279824
 20
5296.586742914646
 30
0.0
 10
6259.780151347401
 20
5296.530557636215
 30
0.0
 10
6257.615902254253
 20
5296.484608147151
 30
0.0
 10
6255.949444198493
 20
5296.44850962278
 30
0.0
 10
6254.747218737434
 20
5296.421976468172
 30
0.0
 10
6253.121499174876
 20
5296.385899038296
 30
0.0
 10
6251.32921237244
 20
5296.338445601893
 30
0.0
 10
6249.629754659015
 20
5296.280641419433
 30
0.0
 10
6248.499656829705
 20
5296.224269723603
 30
0.0
 10
6247.943811317472
 20
5296.183915642579
 30
0.0
 10
6247.975210069498
 20
5296.158823762956
 30
0.0
 10
6247.983167481417
 20
5296.15246470697
 30
0.0
  0
SPLINE
  5
12C
330
1F
100
AcDbEntity
  8
0
  6
Continuous
 62
     7
370
    25
100
AcDbSpline
210
0.0
220
0.0
230
1.0
 70
     8
 71
     3
 72
    24
 73
    20
 74
     0
 42
0.000000001
 43
0.00000001
 40
0.0
 40
0.0
 40
0.0
 40
0.0
 40
0.0209934611924085
 40
0.0928824354571733
 40
0.1636012677212668
 40
0.2338695856884056
 40
0.3056486199393755
 40
0.3772305298332947
 40
0.4472272285901482
 40
0.5183533923643663
 40
0.5902644184309134
 40
0.6169029008198936
 40
0.6548733710228012
 40
0.6922723565966273
 40
0.7632049751665275
 40
0.8351159871534795
 40
0.9062421997240518
 40
0.9762388854759169
 40
1.0
 40
1.0
 40
1.0
 40
1.0
 10
6272.567003567511
 20
5295.350074429584
 30
0.0
 10
6272.585703964603
 20
5295.344560472807
 30
0.0
 10
6272.668441080222
 20
5295.320164794084
 30
0.0
 10
6272.19911438745
 20
5295.275451047972
 30
0.0
 10
6271.17470376988
 20
5295.220627088584
 30
0.0
 10
6269.582099024024
 20
5295.167069360788
 30
0.0
 10
6267.5408166185
 20
5295.109287089739
 30
0.0
 10
6265.14231338427
 20
5295.051891708164
 30
0.0
 10
6262.517642576486
 20
5294.99925409513
 30
0.0
 10
6259.780151475647
 20
5294.943051077625
 30
0.0
 10
6257.615902246993
 20
5294.897105861527
 30
0.0
 10
6255.949444200772
 20
5294.861006839278
 30
0.0
 10
6254.747218733031
 20
5294.834474091034
 30
0.0
 10
6253.121499238876
 20
5294.798395076663
 30
0.0
 10
6251.329212297352
 20
5294.750952822474
 30
0.0
 10
6249.62975461874
 20
5294.693147524155
 30
0.0
 10
6248.499656868876
 20
5294.636767000014
 30
0.0
 10
6247.943811322542
 20
5294.596406606724
 30
0.0
 10
6247.975210071328
 20
5294.571325758632
 30
0.0
 10
6247.983167481417
 20
5294.564969499183
 30
0.0
  0
SPLINE
  5
12D
330
1F
100
AcDbEntity
  8
0
  6
Continuous
 62
     7
370
    25
100
AcDbSpline
210
0.0
220
0.0
230
1.0
 70
     8
 71
     3
 72
    24
 73
    20
 74
     0
 42
0.000000001
 43
0.00000001
 40
0.0
 40
0.0
 40
0.0
 40
0.0
 40
0.0209934611966459
 40
0.0928824354759211
 40
0.1636012638163718
 40
0.2338695856845966
 40
0.3056486199500547
 40
0.3772305298584223
 40
0.4472272286294041
 40
0.5183533884336392
 40
0.5902644145147011
 40
0.6169028969090581
 40
0.6548733671196298
 40
0.6922723527010047
 40
0.7632049752474476
 40
0.8351159872489143
 40
0.9062421958495065
 40
0.9762388854711209
 40
1.0
 40
1.0
 40
1.0
 40
1.0
 10
6272.567003567511
 20
5293.762571771217
 30
0.0
 10
6272.585703964215
 20
5293.757057854843
 30
0.0
 10
6272.668441078116
 20
5293.732662354878
 30
0.0
 10
6272.19911443377
 20
5293.687944745546
 30
0.0
 10
6271.174703668891
 20
5293.633137332356
 30
0.0
 10
6269.582099094561
 20
5293.579563221357
 30
0.0
 10
6267.540816613325
 20
5293.521785184754
 30
0.0
 10
6265.142313371501
 20
5293.464389537497
 30
0.0
 10
6262.517642680689
 20
5293.411748805881
 30
0.0
 10
6259.780151366524
 20
5293.355558712832
 30
0.0
 10
6257.615902252572
 20
5293.309610375129
 30
0.0
 10
6255.94944419889
 20
5293.273511732976
 30
0.0
 10
6254.747218737303
 20
5293.246978619213
 30
0.0
 10
6253.121499175017
 20
5293.210901114656
 30
0.0
 10
6251.329212371822
 20
5293.163448149798
 30
0.0
 10
6249.629754661227
 20
5293.105642027401
 30
0.0
 10
6248.499656801187
 20
5293.049277432417
 30
0.0
 10
6247.943811327664
 20
5293.008903027923
 30
0.0
 10
6247.975210072625
 20
5292.983822913954
 30
0.0
 10
6247.983167481417
 20
5292.977466840816
 30
0.0
  0
SPLINE
  5
12E
330
1F
100
AcDbEntity
  8
0
  6
Continuous
 62
     7
370
    25
100
AcDbSpline
210
0.0
220
0.0
230
1.0
 70
     8
 71
     3
 72
    24
 73
    20
 74
     0
 42
0.000000001
 43
0.00000001
 40
0.0
 40
0.0
 40
0.0
 40
0.0
 40
0.0209934652006293
 40
0.092882435408726
 40
0.163601267686596
 40
0.2338695856674236
 40
0.305648623990883
 40
0.3772305298628045
 40
0.4472272324889141
 40
0.5183533922926488
 40
0.5902644183732048
 40
0.6169029007673743
 40
0.654873370977679
 40
0.6922723565587907
 40
0.7632049791047345
 40
0.8351159911056953
 40
0.906242199705787
 40
0.976238885471288
 40
1.0
 40
1.0
 40
1.0
 40
1.0
 10
6272.567003567511
 20
5292.175076563431
 30
0.0
 10
6272.585703967029
 20
5292.169559690608
 30
0.0
 10
6272.66844107754
 20
5292.145151114951
 30
0.0
 10
6272.199114360233
 20
5292.100459391236
 30
0.0
 10
6271.174703787354
 20
5292.045626681554
 30
0.0
 10
6269.58209893108
 20
5291.992075557365
 30
0.0
 10
6267.540816813358
 20
5291.934275231016
 30
0.0
 10
6265.142313164594
 20
5291.876900765637
 30
0.0
 10
6262.517642798241
 20
5291.82424239018
 30
0.0
 10
6259.780151347401
 20
5291.768057111486
 30
0.0
 10
6257.615902254254
 20
5291.722107623207
 30
0.0
 10
6255.949444198493
 20
5291.686009097421
 30
0.0
 10
6254.74721873744
 20
5291.659475948441
 30
0.0
 10
6253.121499174851
 20
5291.623398489759
 30
0.0
 10
6251.329212372633
 20
5291.575945260962
 30
0.0
 10
6249.6297546583
 20
5291.518140216554
 30
0.0
 10
6248.499656832318
 20
5291.461771678462
 30
0.0
 10
6247.94381132417
 20
5291.421408561375
 30
0.0
 10
6247.975210071657
 20
5291.396327856247
 30
0.0
 10
6247.983167481417
 20
5291.38997163303
 30
0.0
  0
SPLINE
  5
12F
330
1F
100
AcDbEntity
  8
0
  6
Continuous
 62
     7
370
    25
100
AcDbSpline
210
0.0
220
0.0
230
1.0
 70
     8
 71
     3
 72
    24
 73
    20
 74
     0
 42
0.000000001
 43
0.00000001
 40
0.0
 40
0.0
 40
0.0
 40
0.0
 40
0.0209934611935578
 40
0.0928824354622583
 40
0.1636012677302233
 40
0.233869585701209
 40
0.3056486199561086
 40
0.3772305298539466
 40
0.4472272286146322
 40
0.5183533923927441
 40
0.59026441439013
 40
0.6169029007989203
 40
0.6548733710039066
 40
0.6922723565797803
 40
0.7632049751535637
 40
0.8351159871444525
 40
0.906242199718919
 40
0.976238885474616
 40
1.0
 40
1.0
 40
1.0
 40
1.0
 10
6272.567003567511
 20
5290.587573905063
 30
0.0
 10
6272.585703964603
 20
5290.582059948311
 30
0.0
 10
6272.668441080219
 20
5290.557664269697
 30
0.0
 10
6272.199114387495
 20
5290.51295052124
 30
0.0
 10
6271.174703769722
 20
5290.458126571885
 30
0.0
 10
6269.582099024612
 20
5290.404568807067
 30
0.0
 10
6267.540816616252
 20
5290.346786676679
 30
0.0
 10
6265.142313392544
 20
5290.289390773104
 30
0.0
 10
6262.517642546162
 20
5290.236755075266
 30
0.0
 10
6259.780151643818
 20
5290.180544806701
 30
0.0
 10
6257.6159019787
 20
5290.134621259538
 30
0.0
 10
6255.949444322826
 20
5290.098502582543
 30
0.0
 10
6254.747218710992
 20
5290.071974668064
 30
0.0
 10
6253.121499250805
 20
5290.03589395595
 30
0.0
 10
6251.329212293294
 20
5289.988452500708
 30
0.0
 10
6249.629754619822
 20
5289.930646945512
 30
0.0
 10
6248.499656868584
 20
5289.874266490088
 30
0.0
 10
6247.943811322563
 20
5289.833906081176
 30
0.0
 10
6247.975210071332
 20
5289.808825233904
 30
0.0
 10
6247.983167481417
 20
5289.802468974663
 30
0.0
  0
SPLINE
  5
130
330
1F
100
AcDbEntity
  8
0
  6
Continuous
 62
     7
370
    25
100
AcDbSpline
210
0.0
220
0.0
230
1.0
 70
     8
 71
     3
 72
    10
 73
     6
 74
     0
 42
0.000000001
 43
0.00000001
 40
0.0
 40
0.0
 40
0.0
 40
0.0
 40
0.2593118768245394
 40
0.7550351274576184
 40
0.9999999999999999
 40
0.9999999999999999
 40
0.9999999999999999
 40
0.9999999999999999
 10
6249.088889521355
 20
5298.039048571659
 30
0.0
 10
6248.905920277887
 20
5298.029510589186
 30
0.0
 10
6248.373171034954
 20
5298.001738965688
 30
0.0
 10
6247.925832896942
 20
5297.967090290503
 30
0.0
 10
6247.969450679921
 20
5297.939051511748
 30
0.0
 10
6247.983876217896
 20
5297.929778356624
 30
0.0
  0
SPLINE
  5
131
330
1F
100
AcDbEntity
  8
0
  6
Continuous
 62
     7
370
    25
100
AcDbSpline
210
0.0
220
0.0
230
1.0
 70
     8
 71
     3
 72
    23
 73
    19
 74
     0
 42
0.000000001
 43
0.00000001
 40
0.0
 40
0.0
 40
0.0
 40
0.0
 40
0.0088429561617696
 40
0.0808338068525273
 40
0.1516528533492086
 40
0.2220207549449869
 40
0.2939015098220403
 40
0.3655848569484334
 40
0.435680754381342
 40
0.506907709585651
 40
0.5789206433285847
 40
0.649953804374377
 40
0.7201586183088199
 40
0.7919514839577027
 40
0.8585987516990369
 40
0.8952657776512546
 40
0.9653616581996608
 40
1.0
 40
1.0
 40
1.0
 40
1.0
 10
6272.589172770077
 20
5297.126397152019
 30
0.0
 10
6272.595769419805
 20
5297.124073548686
 30
0.0
 10
6272.656069652017
 20
5297.102833400078
 30
0.0
 10
6272.189687497422
 20
5297.061356763804
 30
0.0
 10
6271.177193185154
 20
5297.006580227691
 30
0.0
 10
6269.581415336236
 20
5296.952999004556
 30
0.0
 10
6267.541010481032
 20
5296.895218720531
 30
0.0
 10
6265.14222821341
 20
5296.83783921452
 30
0.0
 10
6262.517791476164
 20
5296.785180965374
 30
0.0
 10
6259.779629328719
 20
5296.729000191992
 30
0.0
 10
6257.052868402404
 20
5296.671037184351
 30
0.0
 10
6254.496897939493
 20
5296.615408463622
 30
0.0
 10
6252.2213248289
 20
5296.562447012248
 30
0.0
 10
6250.375008785065
 20
5296.506102529037
 30
0.0
 10
6249.20446557587
 20
5296.459201760747
 30
0.0
 10
6248.387433365523
 20
5296.41429434292
 30
0.0
 10
6247.923848821421
 20
5296.379592347955
 30
0.0
 10
6247.96895757527
 20
5296.351550026207
 30
0.0
 10
6247.983876217896
 20
5296.342275698257
 30
0.0
  0
SPLINE
  5
132
330
1F
100
AcDbEntity
  8
0
  6
Continuous
 62
     7
370
    25
100
AcDbSpline
210
0.0
220
0.0
230
1.0
 70
     8
 71
     3
 72
    23
 73
    19
 74
     0
 42
0.000000001
 43
0.00000001
 40
0.0
 40
0.0
 40
0.0
 40
0.0
 40
0.0088429521885732
 40
0.0808338031617222
 40
0.1516528538796955
 40
0.2220207518590879
 40
0.2939015070181006
 40
0.3655848584673407
 40
0.4356807523141232
 40
0.5069077117878128
 40
0.5789206458132243
 40
0.6499538031698117
 40
0.7201586212530617
 40
0.7919514871835591
 40
0.858598755186324
 40
0.8952657812823717
 40
0.9653616621057359
 40
1.0
 40
1.0
 40
1.0
 40
1.0
 10
6272.589172770077
 20
5295.538894493652
 30
0.0
 10
6272.595769418986
 20
5295.536573519976
 30
0.0
 10
6272.656069668047
 20
5295.515357400595
 30
0.0
 10
6272.189687439687
 20
5295.473857118423
 30
0.0
 10
6271.177193284611
 20
5295.419074477481
 30
0.0
 10
6269.581415282148
 20
5295.365505787217
 30
0.0
 10
6267.541010381819
 20
5295.307726394638
 30
0.0
 10
6265.142228418747
 20
5295.250330658694
 30
0.0
 10
6262.517791262998
 20
5295.197691609337
 30
0.0
 10
6259.779629436517
 20
5295.141494772973
 30
0.0
 10
6257.052868496836
 20
5295.083531981725
 30
0.0
 10
6254.496897759548
 20
5295.027918442867
 30
0.0
 10
6252.221324924561
 20
5294.974940863368
 30
0.0
 10
6250.375008769616
 20
5294.918600848353
 30
0.0
 10
6249.204465577514
 20
5294.871698714169
 30
0.0
 10
6248.387433365662
 20
5294.826792452722
 30
0.0
 10
6247.923848828769
 20
5294.792085279324
 30
0.0
 10
6247.968957577972
 20
5294.764051870094
 30
0.0
 10
6247.983876217896
 20
5294.754780490471
 30
0.0
  0
SPLINE
  5
133
330
1F
100
AcDbEntity
  8
0
  6
Continuous
 62
     7
370
    25
100
AcDbSpline
210
0.0
220
0.0
230
1.0
 70
     8
 71
     3
 72
    23
 73
    19
 74
     0
 42
0.000000001
 43
0.00000001
 40
0.0
 40
0.0
 40
0.0
 40
0.0
 40
0.0088429561629479
 40
0.0808338068632979
 40
0.1516528573129128
 40
0.2220207550256561
 40
0.2939015099122871
 40
0.3655848610898935
 40
0.4356807546710577
 40
0.5069077098848573
 40
0.5789206436373863
 40
0.6499538046926432
 40
0.7201586225098623
 40
0.7919514881683111
 40
0.8585987518610586
 40
0.8952657778181619
 40
0.9653616622369928
 40
0.9999999999999999
 40
0.9999999999999999
 40
0.9999999999999999
 40
0.9999999999999999
 10
6272.589172770077
 20
5293.951399285866
 30
0.0
 10
6272.595769419882
 20
5293.949075674311
 30
0.0
 10
6272.656069652799
 20
5293.927835450539
 30
0.0
 10
6272.189687451153
 20
5293.886362539241
 30
0.0
 10
6271.177193281832
 20
5293.83156967417
 30
0.0
 10
6269.581415281981
 20
5293.778003760381
 30
0.0
 10
6267.541010385413
 20
5293.720223395464
 30
0.0
 10
6265.142228404741
 20
5293.662828717004
 30
0.0
 10
6262.517791363687
 20
5293.610186464671
 30
0.0
 10
6259.779629343099
 20
5293.554001578324
 30
0.0
 10
6257.052868409151
 20
5293.496038869263
 30
0.0
 10
6254.496897852735
 20
5293.440413077406
 30
0.0
 10
6252.221324902946
 20
5293.387439690009
 30
0.0
 10
6250.375008839664
 20
5293.331095044185
 30
0.0
 10
6249.204465543317
 20
5293.284204361802
 30
0.0
 10
6248.387433349767
 20
5293.239298078247
 30
0.0
 10
6247.923848833537
 20
5293.204581469859
 30
0.0
 10
6247.968957579569
 20
5293.176548925387
 30
0.0
 10
6247.983876217896
 20
5293.167277832104
 30
0.0
  0
SPLINE
  5
134
330
1F
100
AcDbEntity
  8
0
  6
Continuous
 62
     7
370
    25
100
AcDbSpline
210
0.0
220
0.0
230
1.0
 70
     8
 71
     3
 72
    23
 73
    19
 74
     0
 42
0.000000001
 43
0.00000001
 40
0.0
 40
0.0
 40
0.0
 40
0.0
 40
0.0088429561617696
 40
0.0808338068525273
 40
0.1516528533492086
 40
0.2220207549449869
 40
0.2939015098220403
 40
0.3655848569484334
 40
0.435680754381342
 40
0.506907709585651
 40
0.5789206433285847
 40
0.649953804374377
 40
0.7201586183088199
 40
0.7919514839577027
 40
0.8585987516990369
 40
0.8952657776512546
 40
0.9653616581996608
 40
1.0
 40
1.0
 40
1.0
 40
1.0
 10
6272.589172770077
 20
5292.363896627498
 30
0.0
 10
6272.595769419805
 20
5292.361573024165
 30
0.0
 10
6272.656069652017
 20
5292.340332875558
 30
0.0
 10
6272.189687497422
 20
5292.298856239283
 30
0.0
 10
6271.177193185154
 20
5292.24407970317
 30
0.0
 10
6269.581415336236
 20
5292.190498480035
 30
0.0
 10
6267.541010481032
 20
5292.132718196011
 30
0.0
 10
6265.14222821341
 20
5292.07533869
 30
0.0
 10
6262.517791476164
 20
5292.022680440853
 30
0.0
 10
6259.779629328719
 20
5291.966499667471
 30
0.0
 10
6257.052868402404
 20
5291.90853665983
 30
0.0
 10
6254.496897939493
 20
5291.852907939101
 30
0.0
 10
6252.2213248289
 20
5291.799946487728
 30
0.0
 10
6250.375008785065
 20
5291.743602004516
 30
0.0
 10
6249.20446557587
 20
5291.696701236227
 30
0.0
 10
6248.387433365523
 20
5291.651793818399
 30
0.0
 10
6247.923848821421
 20
5291.617091823434
 30
0.0
 10
6247.96895757527
 20
5291.589049501687
 30
0.0
 10
6247.983876217896
 20
5291.579775173736
 30
0.0
  0
SPLINE
  5
135
330
1F
100
AcDbEntity
  8
0
  6
Continuous
 62
     7
370
    25
100
AcDbSpline
210
0.0
220
0.0
230
1.0
 70
     8
 71
     3
 72
    23
 73
    19
 74
     0
 42
0.000000001
 43
0.00000001
 40
0.0
 40
0.0
 40
0.0
 40
0.0
 40
0.0088429561610155
 40
0.0808338068456334
 40
0.1516528572797723
 40
0.2220207549771382
 40
0.2939015098480612
 40
0.3655848610100028
 40
0.4356807545758491
 40
0.5069077137640693
 40
0.5789206475008614
 40
0.6499538045727561
 40
0.7201586223746335
 40
0.7919514880173933
 40
0.8585987557530437
 40
0.8952657817021342
 40
0.9653616622445623
 40
0.9999999999999999
 40
0.9999999999999999
 40
0.9999999999999999
 40
0.9999999999999999
 10
6272.589172770077
 20
5290.776401419712
 30
0.0
 10
6272.595769419882
 20
5290.774077808165
 30
0.0
 10
6272.656069652797
 20
5290.752837584469
 30
0.0
 10
6272.189687451229
 20
5290.711364669387
 30
0.0
 10
6271.177193281564
 20
5290.656571820907
 30
0.0
 10
6269.581415282982
 20
5290.60300584617
 30
0.0
 10
6267.541010381595
 20
5290.545225712743
 30
0.0
 10
6265.142228418805
 20
5290.487830175232
 30
0.0
 10
6262.517791262982
 20
5290.435191073726
 30
0.0
 10
6259.779629436522
 20
5290.378994251482
 30
0.0
 10
6257.052868496835
 20
5290.321031456401
 30
0.0
 10
6254.496897759548
 20
5290.265417918558
 30
0.0
 10
6252.221324924561
 20
5290.212440338789
 30
0.0
 10
6250.375008769616
 20
5290.156100323848
 30
0.0
 10
6249.204465577514
 20
5290.109198189646
 30
0.0
 10
6248.387433365662
 20
5290.064291928202
 30
0.0
 10
6247.923848828769
 20
5290.029584754803
 30
0.0
 10
6247.968957577971
 20
5290.001551345573
 30
0.0
 10
6247.983876217896
 20
5289.99227996595
 30
0.0
  0
LINE
  5
136
330
1F
100
AcDbEntity
  8
0
  6
Continuous
 62
     7
370
    25
100
AcDbLine
 10
6270.4035039738
 20
5289.6797951651
 30
0.0
 11
6270.4035039738
 21
5279.179796238
 31
0.0
  0
LINE
  5
137
330
1F
100
AcDbEntity
  8
0
  6
Continuous
 62
     7
370
    25
100
AcDbLine
 10
6256.9413758561
 20
5289.6797951651
 30
0.0
 11
6270.4035039738
 21
5289.6797951651
 31
0.0
  0
LINE
  5
138
330
1F
100
AcDbEntity
  8
0
  6
Continuous
 62
     7
370
    25
100
AcDbLine
 10
6274.5422530666
 20
5289.6797951651
 30
0.0
 11
6274.5422530666
 21
5279.179796238
 31
0.0
  0
LINE
  5
139
330
1F
100
AcDbEntity
  8
0
  6
Continuous
 62
     7
370
    25
100
AcDbLine
 10
6273.4858240679
 20
5289.6797951651
 30
0.0
 11
6274.5422530666
 21
5289.6797951651
 31
0.0
  0
LINE
  5
13A
330
1F
100
AcDbEntity
  8
0
  6
Continuous
 62
     7
370
    25
100
AcDbLine
 10
6270.4035039738
 20
5289.6797951651
 30
0.0
 11
6271.6795388356
 21
5289.6797951651
 31
0.0
  0
LINE
  5
13B
330
1F
100
AcDbEntity
  8
0
  6
Continuous
 62
     7
370
    25
100
AcDbLine
 10
6273.7441356972
 20
5137.6797926021
 30
0.0
 11
6260.2196480825
 21
5137.6797926021
 31
0.0
  0
LINE
  5
13C
330
1F
100
AcDbEntity
  8
0
  6
Continuous
 62
     7
370
    25
100
AcDbLine
 10
6260.2196480825
 20
5137.6797926021
 30
0.0
 11
6260.2196480825
 21
5148.1797915293
 31
0.0
  0
LINE
  5
13D
330
1F
100
AcDbEntity
  8
0
  6
Continuous
 62
     7
370
    25
100
AcDbLine
 10
6273.7441356972
 20
5137.6797926021
 30
0.0
 11
6273.7441356972
 21
5148.1797915293
 31
0.0
  0
LINE
  5
13E
330
1F
100
AcDbEntity
  8
0
  6
Continuous
 62
     7
370
    25
100
AcDbLine
 10
6246.744268176
 20
5137.6797926021
 30
0.0
 11
6246.744268176
 21
5148.1797915293
 31
0.0
  0
LINE
  5
13F
330
1F
100
AcDbEntity
  8
0
  6
Continuous
 62
     7
370
    25
100
AcDbLine
 10
6260.2196480825
 20
5137.6797926021
 30
0.0
 11
6246.744268176
 21
5137.6797926021
 31
0.0
  0
SPLINE
  5
140
330
1F
100
AcDbEntity
  8
0
  6
Continuous
 62
     7
370
    25
100
AcDbSpline
210
0.0
220
0.0
230
1.0
 70
     8
 71
     3
 72
    27
 73
    23
 74
     0
 42
0.000000001
 43
0.00000001
 40
0.0
 40
0.0
 40
0.0
 40
0.0
 40
0.0068740923289445
 40
0.0610607992567155
 40
0.1168494145191682
 40
0.1705441160494423
 40
0.2257959805006731
 40
0.2794914349543571
 40
0.3347663531607862
 40
0.3880844061088233
 40
0.4429573098634119
 40
0.4961357398489376
 40
0.550864494758546
 40
0.6038329058483242
 40
0.6583562825234123
 40
0.7110184458957012
 40
0.7652082715566761
 40
0.8178241369142325
 40
0.8719949462645206
 40
0.924140851640914
 40
0.9777989963274201
 40
1.0
 40
1.0
 40
1.0
 40
1.0
 10
6273.394468773896
 20
5130.105048079563
 30
0.0
 10
6273.399845001893
 20
5130.103953239426
 30
0.0
 10
6273.447600656429
 20
5130.094228055264
 30
0.0
 10
6273.187704671909
 20
5130.075438367708
 30
0.0
 10
6272.588572546083
 20
5130.047730172841
 30
0.0
 10
6271.596980149471
 20
5130.019740511674
 30
0.0
 10
6270.308664911524
 20
5129.992531316038
 30
0.0
 10
6268.721504872111
 20
5129.966834616956
 30
0.0
 10
6266.914015269756
 20
5129.939682244963
 30
0.0
 10
6264.907036058155
 20
5129.911682252138
 30
0.0
 10
6262.797517201814
 20
5129.884012807623
 30
0.0
 10
6260.602733450952
 20
5129.857182917491
 30
0.0
 10
6258.427319799368
 20
5129.831471996099
 30
0.0
 10
6256.292600191794
 20
5129.803613144481
 30
0.0
 10
6254.301801799222
 20
5129.775883839072
 30
0.0
 10
6252.472556811567
 20
5129.748070014081
 30
0.0
 10
6250.887687776481
 20
5129.72239065337
 30
0.0
 10
6249.563903703009
 20
5129.695483739208
 30
0.0
 10
6248.559692673604
 20
5129.667772512368
 30
0.0
 10
6247.909147799
 20
5129.639772457765
 30
0.0
 10
6247.608345596687
 20
5129.617839722729
 30
0.0
 10
6247.655595372429
 20
5129.605384240618
 30
0.0
 10
6247.66942353248
 20
5129.601739008499
 30
0.0
  0
LINE
  5
141
330
1F
100
AcDbEntity
  8
0
  6
Continuous
 62
     7
370
    25
100
AcDbLine
 10
6271.9891961411
 20
5128.6797892643
 30
0.0
 11
6248.5482549041
 21
5128.6797892643
 31
0.0
  0
LINE
  5
142
330
1F
100
AcDbEntity
  8
0
  6
Continuous
 62
     7
370
    25
100
AcDbLine
 10
6247.0677975312
 20
5130.8554705573
 30
0.0
 11
6247.0511212692
 21
5130.8605593038
 31
0.0
  0
SPLINE
  5
143
330
1F
100
AcDbEntity
  8
0
  6
Continuous
 62
     7
370
    25
100
AcDbSpline
210
0.0
220
0.0
230
1.0
 70
     8
 71
     3
 72
    25
 73
    21
 74
     0
 42
0.000000001
 43
0.00000001
 40
0.0
 40
0.0
 40
0.0
 40
0.0
 40
0.04946962684504
 40
0.1032104063466589
 40
0.1571185367843663
 40
0.2104454320876748
 40
0.2802950071482259
 40
0.3516512263488425
 40
0.423400757160919
 40
0.476459267429131
 40
0.5288054566737754
 40
0.5822003909540091
 40
0.6361220122067226
 40
0.6898206077458878
 40
0.7425647710553129
 40
0.795118374130641
 40
0.8487205150162169
 40
0.9026566373313569
 40
0.9561758872486511
 40
0.9999999999999999
 40
0.9999999999999999
 40
0.9999999999999999
 40
0.9999999999999999
 10
6247.065343496198
 20
5130.863167007042
 30
0.0
 10
6247.112438922391
 20
5130.875798380073
 30
0.0
 10
6247.210695941583
 20
5130.90215170486
 30
0.0
 10
6247.807856859543
 20
5130.944389536154
 30
0.0
 10
6248.736613220583
 20
5130.987688223012
 30
0.0
 10
6250.118551988879
 20
5131.034446471203
 30
0.0
 10
6252.033269125594
 20
5131.082472842591
 30
0.0
 10
6254.528454266629
 20
5131.139602360372
 30
0.0
 10
6257.087531095554
 20
5131.192582115204
 30
0.0
 10
6259.49916581503
 20
5131.238735386918
 30
0.0
 10
6261.682010399068
 20
5131.2780317543
 30
0.0
 10
6263.838660030276
 20
5131.320416718858
 30
0.0
 10
6265.914663370185
 20
5131.363736382964
 30
0.0
 10
6267.825434715986
 20
5131.406733348821
 30
0.0
 10
6269.514085011413
 20
5131.447282637954
 30
0.0
 10
6270.952187944382
 20
5131.487216014729
 30
0.0
 10
6272.112116512812
 20
5131.530058830062
 30
0.0
 10
6272.939060457272
 20
5131.573397691171
 30
0.0
 10
6273.420083150445
 20
5131.61374714545
 30
0.0
 10
6273.451155960551
 20
5131.638201380913
 30
0.0
 10
6273.465144981438
 20
5131.649210710598
 30
0.0
  0
LINE
  5
144
330
1F
100
AcDbEntity
  8
0
  6
Continuous
 62
     7
370
    25
100
AcDbLine
 10
6247.0677975312
 20
5132.4429732157
 30
0.0
 11
6247.0511212692
 21
5132.4480619622
 31
0.0
  0
SPLINE
  5
145
330
1F
100
AcDbEntity
  8
0
  6
Continuous
 62
     7
370
    25
100
AcDbSpline
210
0.0
220
0.0
230
1.0
 70
     8
 71
     3
 72
    25
 73
    21
 74
     0
 42
0.000000001
 43
0.00000001
 40
0.0
 40
0.0
 40
0.0
 40
0.0
 40
0.0494696300798185
 40
0.1032104058580557
 40
0.1571185396555057
 40
0.2104454312915799
 40
0.2802950061019031
 40
0.3516512285578461
 40
0.4234007591128883
 40
0.4764592691910244
 40
0.5288054549016931
 40
0.5822003924759708
 40
0.6361220135355162
 40
0.6898206088823126
 40
0.742564768603602
 40
0.7951183748646057
 40
0.8487205155581582
 40
0.9026566376800783
 40
0.956175887405646
 40
1.0
 40
1.0
 40
1.0
 40
1.0
 10
6247.065343496198
 20
5132.450662214828
 30
0.0
 10
6247.112438911769
 20
5132.463297705555
 30
0.0
 10
6247.210695901915
 20
5132.489659619402
 30
0.0
 10
6247.807856937749
 20
5132.531878040941
 30
0.0
 10
6248.736613120936
 20
5132.575196946059
 30
0.0
 10
6250.118552058745
 20
5132.621937318164
 30
0.0
 10
6252.03326919455
 20
5132.669966750359
 30
0.0
 10
6254.5284541732
 20
5132.727107783713
 30
0.0
 10
6257.087531127423
 20
5132.780083014061
 30
0.0
 10
6259.499165703729
 20
5132.826241606945
 30
0.0
 10
6261.68201059474
 20
5132.865521436262
 30
0.0
 10
6263.838659915044
 20
5132.907923157363
 30
0.0
 10
6265.914663400977
 20
5132.95123713936
 30
0.0
 10
6267.825434623352
 20
5132.994239780584
 30
0.0
 10
6269.51408515174
 20
5133.03477234726
 30
0.0
 10
6270.952187872451
 20
5133.074722212769
 30
0.0
 10
6272.112116525735
 20
5133.117560524816
 30
0.0
 10
6272.939060453823
 20
5133.16090060667
 30
0.0
 10
6273.420083151125
 20
5133.201249753094
 30
0.0
 10
6273.451155960762
 20
5133.225704023534
 30
0.0
 10
6273.465144981438
 20
5133.236713368965
 30
0.0
  0
LINE
  5
146
330
1F
100
AcDbEntity
  8
0
  6
Continuous
 62
     7
370
    25
100
AcDbLine
 10
6247.0677975312
 20
5134.0304684234
 30
0.0
 11
6247.0511212692
 21
5134.0355646206
 31
0.0
  0
SPLINE
  5
147
330
1F
100
AcDbEntity
  8
0
  6
Continuous
 62
     7
370
    25
100
AcDbSpline
210
0.0
220
0.0
230
1.0
 70
     8
 71
     3
 72
    25
 73
    21
 74
     0
 42
0.000000001
 43
0.00000001
 40
0.0
 40
0.0
 40
0.0
 40
0.0
 40
0.0494696266897964
 40
0.1032104060227682
 40
0.1571185362913033
 40
0.2104454314272634
 40
0.2802950062686155
 40
0.3516512287562567
 40
0.423400755793221
 40
0.476459265894927
 40
0.5288054549753007
 40
0.5822003890879727
 40
0.6361220101714714
 40
0.6898206055421219
 40
0.7425647686860275
 40
0.7951183749703767
 40
0.8487205156877405
 40
0.9026566342771111
 40
0.9561758840264533
 40
1.0
 40
1.0
 40
1.0
 40
1.0
 10
6247.065343496198
 20
5134.038164873195
 30
0.0
 10
6247.112438922446
 20
5134.05079624304
 30
0.0
 10
6247.210695941757
 20
5134.077149561179
 30
0.0
 10
6247.807856858782
 20
5134.119387445696
 30
0.0
 10
6248.736613223427
 20
5134.162685927085
 30
0.0
 10
6250.11855197702
 20
5134.209445013198
 30
0.0
 10
6252.033269220501
 20
5134.25746726998
 30
0.0
 10
6254.528454081542
 20
5134.314613285689
 30
0.0
 10
6257.087531188212
 20
5134.367577473219
 30
0.0
 10
6259.499165804816
 20
5134.413733832225
 30
0.0
 10
6261.682010401994
 20
5134.453029450588
 30
0.0
 10
6263.838660028918
 20
5134.495414678189
 30
0.0
 10
6265.914663372648
 20
5134.538734048093
 30
0.0
 10
6267.825434707601
 20
5134.58173191659
 30
0.0
 10
6269.5140850777
 20
5134.622277952083
 30
0.0
 10
6270.952187888589
 20
5134.662223454755
 30
0.0
 10
6272.112116479078
 20
5134.705065907659
 30
0.0
 10
6272.939060488354
 20
5134.748393778304
 30
0.0
 10
6273.420083156878
 20
5134.788743015461
 30
0.0
 10
6273.451155962141
 20
5134.813203764681
 30
0.0
 10
6273.465144981438
 20
5134.824216027332
 30
0.0
  0
LINE
  5
148
330
1F
100
AcDbEntity
  8
0
  6
Continuous
 62
     7
370
    25
100
AcDbLine
 10
6247.0677975312
 20
5135.6179710818
 30
0.0
 11
6247.0511212692
 21
5135.6230598284
 31
0.0
  0
SPLINE
  5
149
330
1F
100
AcDbEntity
  8
0
  6
Continuous
 62
     7
370
    25
100
AcDbSpline
210
0.0
220
0.0
230
1.0
 70
     8
 71
     3
 72
    25
 73
    21
 74
     0
 42
0.000000001
 43
0.00000001
 40
0.0
 40
0.0
 40
0.0
 40
0.0
 40
0.0494696268439516
 40
0.1032104028135265
 40
0.1571185368029101
 40
0.2104454321050454
 40
0.2802950071640598
 40
0.3516512263631066
 40
0.4234007571736045
 40
0.4764592674406493
 40
0.528805456684142
 40
0.5822003909632011
 40
0.6361220122147282
 40
0.689820607752712
 40
0.7425647710609767
 40
0.7951183741351486
 40
0.8487205150195453
 40
0.9026566373334987
 40
0.9561758872496153
 40
1.0
 40
1.0
 40
1.0
 40
1.0
 10
6247.065343496198
 20
5135.625667531563
 30
0.0
 10
6247.11243891588
 20
5135.63829984959
 30
0.0
 10
6247.21069591813
 20
5135.664655145054
 30
0.0
 10
6247.8078569296
 20
5135.706877192071
 30
0.0
 10
6248.736613169988
 20
5135.750192126666
 30
0.0
 10
6250.118551997109
 20
5135.796945779156
 30
0.0
 10
6252.033269123084
 20
5135.844973738122
 30
0.0
 10
6254.528454267318
 20
5135.902102782963
 30
0.0
 10
6257.087531095422
 20
5135.9550826593
 30
0.0
 10
6259.49916581506
 20
5136.001235906946
 30
0.0
 10
6261.682010399059
 20
5136.040532280045
 30
0.0
 10
6263.838660030277
 20
5136.082917243044
 30
0.0
 10
6265.914663370184
 20
5136.126236907575
 30
0.0
 10
6267.825434715987
 20
5136.169233873317
 30
0.0
 10
6269.514085011413
 20
5136.209783162481
 30
0.0
 10
6270.952187944382
 20
5136.249716539249
 30
0.0
 10
6272.112116512812
 20
5136.292559354583
 30
0.0
 10
6272.939060457272
 20
5136.335898215691
 30
0.0
 10
6273.420083150445
 20
5136.376247669971
 30
0.0
 10
6273.451155960551
 20
5136.400701905434
 30
0.0
 10
6273.465144981438
 20
5136.411711235119
 30
0.0
  0
LINE
  5
14A
330
1F
100
AcDbEntity
  8
0
  6
Continuous
 62
     7
370
    25
100
AcDbLine
 10
6247.0677975312
 20
5137.2054737402
 30
0.0
 11
6247.0511212692
 21
5137.2105624867
 31
0.0
  0
SPLINE
  5
14B
330
1F
100
AcDbEntity
  8
0
  6
Continuous
 62
     7
370
    25
100
AcDbSpline
210
0.0
220
0.0
230
1.0
 70
     8
 71
     3
 72
    18
 73
    14
 74
     0
 42
0.000000001
 43
0.00000001
 40
0.0
 40
0.0
 40
0.0
 40
0.0
 40
0.0832882607408463
 40
0.1737675252554838
 40
0.2645285577622972
 40
0.3543109969662673
 40
0.4719114235320765
 40
0.592048478363561
 40
0.7128477102072283
 40
0.8021783015494052
 40
0.890309600635823
 40
0.9802066036203246
 40
1.0
 40
1.0
 40
1.0
 40
1.0
 10
6247.065343496198
 20
5137.213162739349
 30
0.0
 10
6247.112438906148
 20
5137.225798229038
 30
0.0
 10
6247.210695884566
 20
5137.252160140719
 30
0.0
 10
6247.807857014292
 20
5137.294378579601
 30
0.0
 10
6248.736612835007
 20
5137.337697417761
 30
0.0
 10
6250.118553251008
 20
5137.384438062932
 30
0.0
 10
6252.033263126636
 20
5137.432466153954
 30
0.0
 10
6254.528477167793
 20
5137.489612562758
 30
0.0
 10
6257.087454213894
 20
5137.54256933849
 30
0.0
 10
6259.499370188534
 20
5137.58874781398
 30
0.0
 10
6261.681244568341
 20
5137.628011200078
 30
0.0
 10
6263.271072346019
 20
5137.659251218557
 30
0.0
 10
6264.123963364501
 20
5137.676652566388
 30
0.0
 10
6264.277865712339
 20
5137.679792602135
 30
0.0
  0
SPLINE
  5
14C
330
1F
100
AcDbEntity
  8
0
  6
Continuous
 62
     7
370
    25
100
AcDbSpline
210
0.0
220
0.0
230
1.0
 70
     8
 71
     3
 72
    22
 73
    18
 74
     0
 42
0.000000001
 43
0.00000001
 40
0.0
 40
0.0
 40
0.0
 40
0.0
 40
0.0271109843702528
 40
0.0985775662909515
 40
0.1704380600870207
 40
0.2409384121673755
 40
0.3114387370487713
 40
0.3832992469915553
 40
0.4547658559252048
 40
0.5247232437714695
 40
0.5960377867446325
 40
0.6679423037127054
 40
0.7386764444513186
 40
0.8089599919792398
 40
0.8807545437541788
 40
0.9523519454786039
 40
1.0
 40
1.0
 40
1.0
 40
1.0
 10
6247.983693678671
 20
5129.772394557071
 30
0.0
 10
6247.977710193253
 20
5129.779221096376
 30
0.0
 10
6247.955953792881
 20
5129.804042903716
 30
0.0
 10
6248.543277965124
 20
5129.84973051263
 30
0.0
 10
6249.715284452257
 20
5129.90759968571
 30
0.0
 10
6251.431798947797
 20
5129.961826316531
 30
0.0
 10
6253.563450319084
 20
5130.016048394075
 30
0.0
 10
6256.035636499283
 20
5130.073931612026
 30
0.0
 10
6258.707995921151
 20
5130.131009356564
 30
0.0
 10
6261.44775151542
 20
5130.183478717182
 30
0.0
 10
6264.137206647879
 20
5130.240143140889
 30
0.0
 10
6266.647301981678
 20
5130.298086732495
 30
0.0
 10
6268.832308730643
 20
5130.353048481758
 30
0.0
 10
6270.609946280538
 20
5130.406566913338
 30
0.0
 10
6271.869559399393
 20
5130.464369845271
 30
0.0
 10
6272.561755037497
 20
5130.515712550024
 30
0.0
 10
6272.565132472616
 20
5130.545686443266
 30
0.0
 10
6272.566482026869
 20
5130.557663400245
 30
0.0
  0
SPLINE
  5
14D
330
1F
100
AcDbEntity
  8
0
  6
Continuous
 62
     7
370
    25
100
AcDbSpline
210
0.0
220
0.0
230
1.0
 70
     8
 71
     3
 72
    22
 73
    18
 74
     0
 42
0.000000001
 43
0.00000001
 40
0.0
 40
0.0
 40
0.0
 40
0.0
 40
0.0271109843665352
 40
0.098577566277434
 40
0.1704380600636492
 40
0.2409384082221342
 40
0.3114387330938626
 40
0.3832992470934854
 40
0.4547658519953186
 40
0.5247232398319904
 40
0.5960377868000262
 40
0.667942303758239
 40
0.738676444487153
 40
0.8089599920054364
 40
0.8807545437705305
 40
0.9523519454851379
 40
1.0
 40
1.0
 40
1.0
 40
1.0
 10
6247.983693678671
 20
5131.359897215439
 30
0.0
 10
6247.977710193094
 20
5131.366723766902
 30
0.0
 10
6247.955953792143
 20
5131.391545618451
 30
0.0
 10
6248.543277974291
 20
5131.437232470002
 30
0.0
 10
6249.715284397537
 20
5131.495104887657
 30
0.0
 10
6251.431799001027
 20
5131.549319694889
 30
0.0
 10
6253.563450416987
 20
5131.603541003067
 30
0.0
 10
6256.035636301977
 20
5131.661439340824
 30
0.0
 10
6258.707996023757
 20
5131.718501973067
 30
0.0
 10
6261.447751602594
 20
5131.770972160279
 30
0.0
 10
6264.137206549086
 20
5131.827648311156
 30
0.0
 10
6266.647301995359
 20
5131.885588727284
 30
0.0
 10
6268.832308727031
 20
5131.940551315328
 30
0.0
 10
6270.609946281526
 20
5131.994069523731
 30
0.0
 10
6271.869559399124
 20
5132.051872516682
 30
0.0
 10
6272.561755037539
 20
5132.103215206368
 30
0.0
 10
6272.565132472628
 20
5132.133189101056
 30
0.0
 10
6272.566482026869
 20
5132.145166058613
 30
0.0
  0
SPLINE
  5
14E
330
1F
100
AcDbEntity
  8
0
  6
Continuous
 62
     7
370
    25
100
AcDbSpline
210
0.0
220
0.0
230
1.0
 70
     8
 71
     3
 72
    22
 73
    18
 74
     0
 42
0.000000001
 43
0.00000001
 40
0.0
 40
0.0
 40
0.0
 40
0.0
 40
0.0271109806319273
 40
0.098577566868401
 40
0.1704380568931528
 40
0.2409384092632934
 40
0.3114387344344748
 40
0.3832992446726354
 40
0.4547658539000423
 40
0.5247232420338609
 40
0.5960377893048081
 40
0.6679423024968835
 40
0.7386764435262435
 40
0.8089599952308021
 40
0.8807545473008465
 40
0.9523519452827507
 40
1.0
 40
1.0
 40
1.0
 40
1.0
 10
6247.983693678671
 20
5132.947399873806
 30
0.0
 10
6247.977710197252
 20
5132.954223321395
 30
0.0
 10
6247.955953808296
 20
5132.979033890591
 30
0.0
 10
6248.543277891217
 20
5133.024743776195
 30
0.0
 10
6249.715284508934
 20
5133.082593509482
 30
0.0
 10
6251.43179894177
 20
5133.136825240741
 30
0.0
 10
6253.563450319545
 20
5133.191046030597
 30
0.0
 10
6256.035636503694
 20
5133.248929311004
 30
0.0
 10
6258.707995903349
 20
5133.306008106804
 30
0.0
 10
6261.447751632827
 20
5133.35847326532
 30
0.0
 10
6264.13720644484
 20
5133.415153736143
 30
0.0
 10
6266.647302082525
 20
5133.473081884316
 30
0.0
 10
6268.832308784706
 20
5133.528044711455
 30
0.0
 10
6270.609946226597
 20
5133.581574029273
 30
0.0
 10
6271.869559373054
 20
5133.639377301795
 30
0.0
 10
6272.561755047585
 20
5133.690708930531
 30
0.0
 10
6272.565132475464
 20
5133.720683884979
 30
0.0
 10
6272.566482026869
 20
5133.732661266399
 30
0.0
  0
SPLINE
  5
14F
330
1F
100
AcDbEntity
  8
0
  6
Continuous
 62
     7
370
    25
100
AcDbSpline
210
0.0
220
0.0
230
1.0
 70
     8
 71
     3
 72
    22
 73
    18
 74
     0
 42
0.000000001
 43
0.00000001
 40
0.0
 40
0.0
 40
0.0
 40
0.0
 40
0.0271109843660645
 40
0.0985775662757224
 40
0.1704380600606899
 40
0.2409384121301532
 40
0.3114387330884535
 40
0.3832992470868287
 40
0.4547658560094374
 40
0.5247232438448944
 40
0.5960377868070401
 40
0.6679423037640045
 40
0.7386764444916901
 40
0.8089599920087533
 40
0.8807545437726009
 40
0.952351945485965
 40
1.0
 40
1.0
 40
1.0
 40
1.0
 10
6247.983693678671
 20
5134.534895081592
 30
0.0
 10
6247.97771019333
 20
5134.541721616405
 30
0.0
 10
6247.955953793237
 20
5134.566543407411
 30
0.0
 10
6248.543277960687
 20
5134.612231296134
 30
0.0
 10
6249.715284468361
 20
5134.670099270113
 30
0.0
 10
6251.431798857529
 20
5134.724330267834
 30
0.0
 10
6253.563450498606
 20
5134.778536014382
 30
0.0
 10
6256.035636387512
 20
5134.836435601774
 30
0.0
 10
6258.707995937017
 20
5134.893508976815
 30
0.0
 10
6261.447751511117
 20
5134.945979486951
 30
0.0
 10
6264.137206649053
 20
5135.002643598516
 30
0.0
 10
6266.647301981367
 20
5135.06058727468
 30
0.0
 10
6268.832308730726
 20
5135.115549001615
 30
0.0
 10
6270.609946280515
 20
5135.169067439137
 30
0.0
 10
6271.8695593994
 20
5135.226870369444
 30
0.0
 10
6272.561755037496
 20
5135.278213074597
 30
0.0
 10
6272.565132472615
 20
5135.308186967803
 30
0.0
 10
6272.566482026869
 20
5135.320163924766
 30
0.0
  0
SPLINE
  5
150
330
1F
100
AcDbEntity
  8
0
  6
Continuous
 62
     7
370
    25
100
AcDbSpline
210
0.0
220
0.0
230
1.0
 70
     8
 71
     3
 72
    22
 73
    18
 74
     0
 42
0.000000001
 43
0.00000001
 40
0.0
 40
0.0
 40
0.0
 40
0.0
 40
0.0271109843680792
 40
0.098577566283048
 40
0.1704380600733557
 40
0.2409384082358556
 40
0.311438733111599
 40
0.3832992471153143
 40
0.4547658520212176
 40
0.5247232398618734
 40
0.5960377868339706
 40
0.6679423037962784
 40
0.7386764405904516
 40
0.8089599920004806
 40
0.8807545437696633
 40
0.9523519454883481
 40
1.0
 40
1.0
 40
1.0
 40
1.0
 10
6247.983693678671
 20
5136.12239773996
 30
0.0
 10
6247.977710193094
 20
5136.129224291421
 30
0.0
 10
6247.955953792143
 20
5136.154046142964
 30
0.0
 10
6248.54327797429
 20
5136.199732994619
 30
0.0
 10
6249.715284397543
 20
5136.257605411828
 30
0.0
 10
6251.431799001008
 20
5136.311820220684
 30
0.0
 10
6253.563450417058
 20
5136.366041522791
 30
0.0
 10
6256.035636301708
 20
5136.423939883593
 30
0.0
 10
6258.707996024744
 20
5136.481002430546
 30
0.0
 10
6261.447751598967
 20
5136.53347293116
 30
0.0
 10
6264.137206562975
 20
5136.590147892388
 30
0.0
 10
6266.647301897232
 20
5136.648092777027
 30
0.0
 10
6268.832308878621
 20
5136.703038955565
 30
0.0
 10
6270.609946207021
 20
5136.75657357496
 30
0.0
 10
6271.86955941315
 20
5136.814372082049
 30
0.0
 10
6272.561755035345
 20
5136.865715879604
 30
0.0
 10
6272.565132472001
 20
5136.895689668036
 30
0.0
 10
6272.566482026869
 20
5136.907666583134
 30
0.0
  0
SPLINE
  5
151
330
1F
100
AcDbEntity
  8
0
  6
Continuous
 62
     7
370
    25
100
AcDbSpline
210
0.0
220
0.0
230
1.0
 70
     8
 71
     3
 72
    27
 73
    23
 74
     0
 42
0.000000001
 43
0.00000001
 40
0.0
 40
0.0
 40
0.0
 40
0.0
 40
0.0028032034264929
 40
0.0550137885532501
 40
0.1081691495033018
 40
0.1615452803776263
 40
0.2144000447852666
 40
0.2662166878136951
 40
0.3187384795210683
 40
0.3720223823599586
 40
0.4253339374501052
 40
0.4779362946244424
 40
0.5297272704258668
 40
0.582514682498402
 40
0.635877466219014
 40
0.6890746120310196
 40
0.7413786404261842
 40
0.7933237123394259
 40
0.8463298375386274
 40
0.8997213642911625
 40
0.9527548606725013
 40
1.0
 40
1.0
 40
1.0
 40
1.0
 10
6247.057239127153
 20
5130.458630282951
 30
0.0
 10
6247.054269942455
 20
5130.459350512587
 30
0.0
 10
6246.995998716896
 20
5130.473485255895
 30
0.0
 10
6247.213201166966
 20
5130.501261705291
 30
0.0
 10
6247.740165796075
 20
5130.544295305452
 30
0.0
 10
6248.659215830021
 20
5130.587605087911
 30
0.0
 10
6249.879458264149
 20
5130.62999260763
 30
0.0
 10
6251.376197493355
 20
5130.669288566707
 30
0.0
 10
6253.116512865269
 20
5130.710772069138
 30
0.0
 10
6255.071442804605
 20
5130.753968720015
 30
0.0
 10
6257.172059383608
 20
5130.79720298697
 30
0.0
 10
6259.337570649544
 20
5130.838923580468
 30
0.0
 10
6261.520563073806
 20
5130.878123530068
 30
0.0
 10
6263.680662389567
 20
5130.920354138307
 30
0.0
 10
6265.765546407195
 20
5130.963644638257
 30
0.0
 10
6267.691251751964
 20
5131.006718813129
 30
0.0
 10
6269.39739049944
 20
5131.047541251411
 30
0.0
 10
6270.854633950639
 20
5131.087252275242
 30
0.0
 10
6272.037804089058
 20
5131.129979522564
 30
0.0
 10
6272.885529864971
 20
5131.173314834563
 30
0.0
 10
6273.421370316236
 20
5131.214810744779
 30
0.0
 10
6273.421511292183
 20
5131.240301263486
 30
0.0
 10
6273.421577711398
 20
5131.252310831619
 30
0.0
  0
SPLINE
  5
152
330
1F
100
AcDbEntity
  8
0
  6
Continuous
 62
     7
370
    25
100
AcDbSpline
210
0.0
220
0.0
230
1.0
 70
     8
 71
     3
 72
    27
 73
    23
 74
     0
 42
0.000000001
 43
0.00000001
 40
0.0
 40
0.0
 40
0.0
 40
0.0
 40
0.0028032067586785
 40
0.0550137917133073
 40
0.1081691489987193
 40
0.1615452796970729
 40
0.2144000473805286
 40
0.2662166869255293
 40
0.3187384818660002
 40
0.3720223810228297
 40
0.4253339359372182
 40
0.4779362929381354
 40
0.5297272718780737
 40
0.582514680335547
 40
0.6358774673971523
 40
0.689074609538636
 40
0.7413786411386454
 40
0.7933237095507765
 40
0.846329838045249
 40
0.8997213646217621
 40
0.9527548608282596
 40
1.0
 40
1.0
 40
1.0
 40
1.0
 10
6247.057239127153
 20
5132.046125490738
 30
0.0
 10
6247.054269942221
 20
5132.046848275119
 30
0.0
 10
6246.995998777984
 20
5132.061033140103
 30
0.0
 10
6247.213201116778
 20
5132.088746337204
 30
0.0
 10
6247.740165823549
 20
5132.131794323833
 30
0.0
 10
6248.659215890554
 20
5132.175095778441
 30
0.0
 10
6249.879458128646
 20
5132.217501827026
 30
0.0
 10
6251.376197657159
 20
5132.256776846015
 30
0.0
 10
6253.116512684336
 20
5132.298281223197
 30
0.0
 10
6255.071442915967
 20
5132.341459908858
 30
0.0
 10
6257.172059348843
 20
5132.384700208859
 30
0.0
 10
6259.337570768225
 20
5132.426414785794
 30
0.0
 10
6261.520562861472
 20
5132.465632661604
 30
0.0
 10
6263.680662614436
 20
5132.507842111972
 30
0.0
 10
6265.765546190622
 20
5132.55115472008
 30
0.0
 10
6267.691251945749
 20
5132.594206658472
 30
0.0
 10
6269.397390334704
 20
5132.635051016443
 30
0.0
 10
6270.854634085523
 20
5132.674741038782
 30
0.0
 10
6272.037804025513
 20
5132.717485965572
 30
0.0
 10
6272.885529876989
 20
5132.760816484029
 30
0.0
 10
6273.421370313618
 20
5132.802313622895
 30
0.0
 10
6273.421511291344
 20
5132.827803992229
 30
0.0
 10
6273.421577711398
 20
5132.839813489986
 30
0.0
  0
SPLINE
  5
153
330
1F
100
AcDbEntity
  8
0
  6
Continuous
 62
     7
370
    25
100
AcDbSpline
210
0.0
220
0.0
230
1.0
 70
     8
 71
     3
 72
    27
 73
    23
 74
     0
 42
0.000000001
 43
0.00000001
 40
0.0
 40
0.0
 40
0.0
 40
0.0
 40
0.0028032034259022
 40
0.0550137885416561
 40
0.1081691494805055
 40
0.1615452803435813
 40
0.2144000447400826
 40
0.2662166877575909
 40
0.3187384794538954
 40
0.3720223822815563
 40
0.4253339373604677
 40
0.4779362945237192
 40
0.5297272703142287
 40
0.5825146823756393
 40
0.6358774696019257
 40
0.6890746119075791
 40
0.7413786436690022
 40
0.793323712241439
 40
0.8463298374294698
 40
0.8997213641707527
 40
0.9527548640146182
 40
0.9999999999999999
 40
0.9999999999999999
 40
0.9999999999999999
 40
0.9999999999999999
 10
6247.057239127153
 20
5133.633628149105
 30
0.0
 10
6247.054269942455
 20
5133.63434837874
 30
0.0
 10
6246.995998716896
 20
5133.648483122049
 30
0.0
 10
6247.213201166966
 20
5133.676259571436
 30
0.0
 10
6247.740165796075
 20
5133.719293171631
 30
0.0
 10
6248.659215830022
 20
5133.762602953966
 30
0.0
 10
6249.879458264143
 20
5133.804990474144
 30
0.0
 10
6251.376197493379
 20
5133.844286431536
 30
0.0
 10
6253.11651286518
 20
5133.885769940342
 30
0.0
 10
6255.07144280494
 20
5133.928966567019
 30
0.0
 10
6257.172059382362
 20
5133.972200924194
 30
0.0
 10
6259.337570654097
 20
5134.013921187023
 30
0.0
 10
6261.520563056962
 20
5134.053122356586
 30
0.0
 10
6263.680662502208
 20
5134.095348325474
 30
0.0
 10
6265.76554620912
 20
5134.138656379221
 30
0.0
 10
6267.691251939193
 20
5134.181709744555
 30
0.0
 10
6269.397390342626
 20
5134.222552959102
 30
0.0
 10
6270.85463402808
 20
5134.262246143019
 30
0.0
 10
6272.037804072454
 20
5134.304979315477
 30
0.0
 10
6272.885529896428
 20
5134.348309049574
 30
0.0
 10
6273.42137029264
 20
5134.389820606647
 30
0.0
 10
6273.42151128463
 20
5134.415302971907
 30
0.0
 10
6273.421577711398
 20
5134.427308697773
 30
0.0
  0
SPLINE
  5
154
330
1F
100
AcDbEntity
  8
0
  6
Continuous
 62
     7
370
    25
100
AcDbSpline
210
0.0
220
0.0
230
1.0
 70
     8
 71
     3
 72
    27
 73
    23
 74
     0
 42
0.000000001
 43
0.00000001
 40
0.0
 40
0.0
 40
0.0
 40
0.0
 40
0.0028032034264929
 40
0.0550137885532501
 40
0.1081691495033018
 40
0.1615452803776263
 40
0.2144000447852666
 40
0.2662166878136951
 40
0.3187384795210683
 40
0.3720223823599586
 40
0.4253339374501052
 40
0.4779362946244424
 40
0.5297272704258668
 40
0.582514682498402
 40
0.635877466219014
 40
0.6890746120310196
 40
0.7413786404261842
 40
0.7933237123394259
 40
0.8463298375386274
 40
0.8997213642911625
 40
0.9527548606725013
 40
1.0
 40
1.0
 40
1.0
 40
1.0
 10
6247.057239127153
 20
5135.221130807472
 30
0.0
 10
6247.054269942455
 20
5135.221851037108
 30
0.0
 10
6246.995998716896
 20
5135.235985780415
 30
0.0
 10
6247.213201166966
 20
5135.263762229812
 30
0.0
 10
6247.740165796075
 20
5135.306795829972
 30
0.0
 10
6248.659215830021
 20
5135.350105612431
 30
0.0
 10
6249.879458264149
 20
5135.392493132151
 30
0.0
 10
6251.376197493355
 20
5135.431789091228
 30
0.0
 10
6253.116512865269
 20
5135.473272593659
 30
0.0
 10
6255.071442804605
 20
5135.516469244536
 30
0.0
 10
6257.172059383608
 20
5135.559703511491
 30
0.0
 10
6259.337570649544
 20
5135.601424104989
 30
0.0
 10
6261.520563073806
 20
5135.640624054588
 30
0.0
 10
6263.680662389567
 20
5135.682854662828
 30
0.0
 10
6265.765546407195
 20
5135.726145162778
 30
0.0
 10
6267.691251751964
 20
5135.76921933765
 30
0.0
 10
6269.39739049944
 20
5135.810041775931
 30
0.0
 10
6270.854633950639
 20
5135.849752799762
 30
0.0
 10
6272.037804089058
 20
5135.892480047085
 30
0.0
 10
6272.885529864971
 20
5135.935815359084
 30
0.0
 10
6273.421370316236
 20
5135.9773112693
 30
0.0
 10
6273.421511292183
 20
5136.002801788007
 30
0.0
 10
6273.421577711398
 20
5136.01481135614
 30
0.0
  0
SPLINE
  5
155
330
1F
100
AcDbEntity
  8
0
  6
Continuous
 62
     7
370
    25
100
AcDbSpline
210
0.0
220
0.0
230
1.0
 70
     8
 71
     3
 72
    27
 73
    23
 74
     0
 42
0.000000001
 43
0.00000001
 40
0.0
 40
0.0
 40
0.0
 40
0.0
 40
0.0028032067586785
 40
0.0550137917133073
 40
0.1081691489987193
 40
0.1615452796970729
 40
0.2144000473805286
 40
0.2662166869255293
 40
0.3187384818660002
 40
0.3720223810228297
 40
0.4253339359372182
 40
0.4779362929381354
 40
0.5297272718780737
 40
0.582514680335547
 40
0.6358774673971523
 40
0.689074609538636
 40
0.7413786411386454
 40
0.7933237095507765
 40
0.846329838045249
 40
0.8997213646217621
 40
0.9527548608282596
 40
1.0
 40
1.0
 40
1.0
 40
1.0
 10
6247.057239127153
 20
5136.808626015259
 30
0.0
 10
6247.054269942221
 20
5136.80934879964
 30
0.0
 10
6246.995998777984
 20
5136.823533664624
 30
0.0
 10
6247.213201116778
 20
5136.851246861725
 30
0.0
 10
6247.740165823549
 20
5136.894294848354
 30
0.0
 10
6248.659215890554
 20
5136.937596302962
 30
0.0
 10
6249.879458128646
 20
5136.980002351547
 30
0.0
 10
6251.376197657159
 20
5137.019277370536
 30
0.0
 10
6253.116512684336
 20
5137.060781747718
 30
0.0
 10
6255.071442915967
 20
5137.103960433379
 30
0.0
 10
6257.172059348843
 20
5137.14720073338
 30
0.0
 10
6259.337570768225
 20
5137.188915310315
 30
0.0
 10
6261.520562861472
 20
5137.228133186125
 30
0.0
 10
6263.680662614436
 20
5137.270342636492
 30
0.0
 10
6265.765546190622
 20
5137.313655244601
 30
0.0
 10
6267.691251945749
 20
5137.356707182993
 30
0.0
 10
6269.397390334704
 20
5137.397551540964
 30
0.0
 10
6270.854634085523
 20
5137.437241563303
 30
0.0
 10
6272.037804025513
 20
5137.479986490093
 30
0.0
 10
6272.885529876989
 20
5137.52331700855
 30
0.0
 10
6273.421370313618
 20
5137.564814147416
 30
0.0
 10
6273.421511291344
 20
5137.59030451675
 30
0.0
 10
6273.421577711398
 20
5137.602314014507
 30
0.0
  0
SPLINE
  5
156
330
1F
100
AcDbEntity
  8
0
  6
Continuous
 62
     7
370
    25
100
AcDbSpline
210
0.0
220
0.0
230
1.0
 70
     8
 71
     3
 72
    22
 73
    18
 74
     0
 42
0.000000001
 43
0.00000001
 40
0.0
 40
0.0
 40
0.0
 40
0.0
 40
0.0379045911972279
 40
0.1093582582828077
 40
0.1812057660593415
 40
0.2516933779134469
 40
0.3221809586620114
 40
0.3940284866483001
 40
0.4654821767206594
 40
0.5354269263101571
 40
0.6067285819233915
 40
0.6786201049164343
 40
0.7493414631804929
 40
0.8196123096612463
 40
0.8913938873331333
 40
0.962978350581793
 40
1.0
 40
1.0
 40
1.0
 40
1.0
 10
6247.979954418534
 20
5129.962630231453
 30
0.0
 10
6247.968438205036
 20
5129.972160818269
 30
0.0
 10
6247.935212861868
 20
5129.99965744445
 30
0.0
 10
6248.537733147661
 20
5130.048145665117
 30
0.0
 10
6249.716742234743
 20
5130.106043722467
 30
0.0
 10
6251.431411673534
 20
5130.160267083914
 30
0.0
 10
6253.563556408669
 20
5130.214473787206
 30
0.0
 10
6256.035608233286
 20
5130.272377227741
 30
0.0
 10
6258.708001950965
 20
5130.329434349127
 30
0.0
 10
6261.447755344656
 20
5130.381921241569
 30
0.0
 10
6264.137184372491
 20
5130.438580774116
 30
0.0
 10
6266.647387232877
 20
5130.496526184843
 30
0.0
 10
6268.831996755845
 20
5130.551485640297
 30
0.0
 10
6270.61111357585
 20
5130.605011435759
 30
0.0
 10
6271.865102615549
 20
5130.662786690646
 30
0.0
 10
6272.536466201616
 20
5130.711362077112
 30
0.0
 10
6272.546802131337
 20
5130.738699502814
 30
0.0
 10
6272.550325442845
 20
5130.748018283916
 30
0.0
  0
SPLINE
  5
157
330
1F
100
AcDbEntity
  8
0
  6
Continuous
 62
     7
370
    25
100
AcDbSpline
210
0.0
220
0.0
230
1.0
 70
     8
 71
     3
 72
    22
 73
    18
 74
     0
 42
0.000000001
 43
0.00000001
 40
0.0
 40
0.0
 40
0.0
 40
0.0
 40
0.0379045910467409
 40
0.1093582618699295
 40
0.1812057652952588
 40
0.2516933768695175
 40
0.3221809612497324
 40
0.3940284889507754
 40
0.4654821787394527
 40
0.5354269242016723
 40
0.6067285835357563
 40
0.6786201062433788
 40
0.7493414602886055
 40
0.8196123103774132
 40
0.8913938877643164
 40
0.9629783507287748
 40
1.0
 40
1.0
 40
1.0
 40
1.0
 10
6247.979954418534
 20
5131.550125439239
 30
0.0
 10
6247.968438207904
 20
5131.559655630979
 30
0.0
 10
6247.935212871787
 20
5131.587151118337
 30
0.0
 10
6248.537733076656
 20
5131.635653797588
 30
0.0
 10
6249.716742279005
 20
5131.693536241631
 30
0.0
 10
6251.43141174485
 20
5131.747760426709
 30
0.0
 10
6253.563556318705
 20
5131.801979222594
 30
0.0
 10
6256.035608262739
 20
5131.859878269588
 30
0.0
 10
6258.708001831015
 20
5131.916940623903
 30
0.0
 10
6261.447755550392
 20
5131.969411209844
 30
0.0
 10
6264.137184267506
 20
5132.026086016327
 30
0.0
 10
6266.647387153728
 20
5132.084031436917
 30
0.0
 10
6268.831996902443
 20
5132.138975659797
 30
0.0
 10
6270.61111350276
 20
5132.192517555609
 30
0.0
 10
6271.865102629328
 20
5132.250288400036
 30
0.0
 10
6272.536466200026
 20
5132.298864845025
 30
0.0
 10
6272.546802130933
 20
5132.32620218903
 30
0.0
 10
6272.550325442845
 20
5132.335520942283
 30
0.0
  0
SPLINE
  5
158
330
1F
100
AcDbEntity
  8
0
  6
Continuous
 62
     7
370
    25
100
AcDbSpline
210
0.0
220
0.0
230
1.0
 70
     8
 71
     3
 72
    22
 73
    18
 74
     0
 42
0.000000001
 43
0.00000001
 40
0.0
 40
0.0
 40
0.0
 40
0.0
 40
0.0379045912027989
 40
0.1093582623145847
 40
0.1812057660301018
 40
0.2516933778890559
 40
0.3221809625539662
 40
0.3940284864792393
 40
0.4654821805778034
 40
0.5354269263225256
 40
0.6067285859445928
 40
0.6786201048717618
 40
0.7493414631406852
 40
0.8196123096262723
 40
0.8913938913617491
 40
0.9629783505792465
 40
1.0
 40
1.0
 40
1.0
 40
1.0
 10
6247.979954418534
 20
5133.137628097606
 30
0.0
 10
6247.968438207861
 20
5133.147158291419
 30
0.0
 10
6247.935212871624
 20
5133.174653784758
 30
0.0
 10
6248.537733077989
 20
5133.223156388136
 30
0.0
 10
6249.716742274115
 20
5133.281039148622
 30
0.0
 10
6251.431411762695
 20
5133.335262177925
 30
0.0
 10
6253.563556210795
 20
5133.389485294908
 30
0.0
 10
6256.035608467566
 20
5133.447367937583
 30
0.0
 10
6258.708001708689
 20
5133.504446915473
 30
0.0
 10
6261.447755585195
 20
5133.556911982646
 30
0.0
 10
6264.137184146456
 20
5133.613592643215
 30
0.0
 10
6266.647387349731
 20
5133.671520120668
 30
0.0
 10
6268.831996729528
 20
5133.726485398116
 30
0.0
 10
6270.611113641258
 20
5133.780005594372
 30
0.0
 10
6271.865102533009
 20
5133.837797773939
 30
0.0
 10
6272.53646621437
 20
5133.88635841866
 30
0.0
 10
6272.546802134481
 20
5133.913696981122
 30
0.0
 10
6272.550325442845
 20
5133.92301615007
 30
0.0
  0
SPLINE
  5
159
330
1F
100
AcDbEntity
  8
0
  6
Continuous
 62
     7
370
    25
100
AcDbSpline
210
0.0
220
0.0
230
1.0
 70
     8
 71
     3
 72
    22
 73
    18
 74
     0
 42
0.000000001
 43
0.00000001
 40
0.0
 40
0.0
 40
0.0
 40
0.0
 40
0.0379045911942289
 40
0.1093582582685687
 40
0.1812057660338005
 40
0.2516933778768178
 40
0.3221809586142943
 40
0.394028486589281
 40
0.4654821766504004
 40
0.5354269223793087
 40
0.606728581985255
 40
0.678620104966989
 40
0.7493414632199228
 40
0.8196123096896222
 40
0.8913938873502176
 40
0.9629783505876167
 40
1.0
 40
1.0
 40
1.0
 40
1.0
 10
6247.979954418534
 20
5134.725130755974
 30
0.0
 10
6247.968438205031
 20
5134.734661342943
 30
0.0
 10
6247.93521286185
 20
5134.762157969561
 30
0.0
 10
6248.537733147759
 20
5134.810646184654
 30
0.0
 10
6249.71674223438
 20
5134.86854426526
 30
0.0
 10
6251.431411674863
 20
5134.922767541769
 30
0.0
 10
6253.563556403667
 20
5134.976974562696
 30
0.0
 10
6256.035608252314
 20
5135.034876797671
 30
0.0
 10
6258.708001832818
 20
5135.091938379661
 30
0.0
 10
6261.447755553262
 20
5135.14440887775
 30
0.0
 10
6264.137184253824
 20
5135.201084812687
 30
0.0
 10
6266.647387251805
 20
5135.259025781156
 30
0.0
 10
6268.831996750847
 20
5135.3139864099
 30
0.0
 10
6270.611113577219
 20
5135.367511893131
 30
0.0
 10
6271.865102615174
 20
5135.42528723357
 30
0.0
 10
6272.53646620166
 20
5135.473862599508
 30
0.0
 10
6272.546802131348
 20
5135.501200026794
 30
0.0
 10
6272.550325442845
 20
5135.510518808437
 30
0.0
  0
SPLINE
  5
15A
330
1F
100
AcDbEntity
  8
0
  6
Continuous
 62
     7
370
    25
100
AcDbSpline
210
0.0
220
0.0
230
1.0
 70
     8
 71
     3
 72
    22
 73
    18
 74
     0
 42
0.000000001
 43
0.00000001
 40
0.0
 40
0.0
 40
0.0
 40
0.0
 40
0.0379045910581141
 40
0.1093582618971557
 40
0.1812057653384254
 40
0.2516933769283228
 40
0.3221809613241764
 40
0.394028484975202
 40
0.4654821788010218
 40
0.5354269242787595
 40
0.6067285836286628
 40
0.6786201063522354
 40
0.7493414604131526
 40
0.8196123105175509
 40
0.8913938879203798
 40
0.9629783468646338
 40
1.0
 40
1.0
 40
1.0
 40
1.0
 10
6247.979954418534
 20
5136.31262596376
 30
0.0
 10
6247.968438207861
 20
5136.322156157562
 30
0.0
 10
6247.935212871625
 20
5136.349651650867
 30
0.0
 10
6248.537733077982
 20
5136.398154254663
 30
0.0
 10
6249.71674227414
 20
5136.456037013406
 30
0.0
 10
6251.431411762606
 20
5136.510260049075
 30
0.0
 10
6253.563556211124
 20
5136.564483142252
 30
0.0
 10
6256.035608466314
 20
5136.62236587528
 30
0.0
 10
6258.708001713291
 20
5136.67944451879
 30
0.0
 10
6261.447755568286
 20
5136.731910814658
 30
0.0
 10
6264.137184262569
 20
5136.788586812278
 30
0.0
 10
6266.647387155242
 20
5136.846531812815
 30
0.0
 10
6268.831996901276
 20
5136.9014765042
 30
0.0
 10
6270.611113505943
 20
5136.955016943652
 30
0.0
 10
6271.865102593816
 20
5137.012793245678
 30
0.0
 10
6272.536466221486
 20
5137.061352580795
 30
0.0
 10
6272.54680213611
 20
5137.088699461646
 30
0.0
 10
6272.550325442845
 20
5137.098021466804
 30
0.0
  0
LINE
  5
15B
330
1F
100
AcDbEntity
  8
0
  6
Continuous
 62
     7
370
    25
100
AcDbLine
 10
6273.7932424739
 20
5137.6797926021
 30
0.0
 11
6273.7932424739
 21
5148.1797915293
 31
0.0
  0
LINE
  5
15C
330
1F
100
AcDbEntity
  8
0
  6
Continuous
 62
     7
370
    25
100
AcDbLine
 10
6273.7932424739
 20
5137.6797926021
 30
0.0
 11
6273.7441356972
 21
5137.6797926021
 31
0.0
  0
LINE
  5
15D
330
1F
100
AcDbEntity
  8
0
  6
Continuous
 62
     7
370
    25
100
AcDbLine
 10
6307.2687532499
 20
5143.6797898603
 30
0.0
 11
6308.2687552765
 21
5143.6797898603
 31
0.0
  0
LINE
  5
15E
330
1F
100
AcDbEntity
  8
0
  6
Continuous
 62
     7
370
    25
100
AcDbLine
 10
6307.2687532499
 20
5158.6797941817
 30
0.0
 11
6307.2687532499
 21
5143.6797898603
 31
0.0
  0
LINE
  5
15F
330
1F
100
AcDbEntity
  8
0
  6
Continuous
 62
     7
370
    25
100
AcDbLine
 10
6307.2687532499
 20
5158.6797941817
 30
0.0
 11
6308.2687552765
 21
5158.6797941817
 31
0.0
  0
LINE
  5
160
330
1F
100
AcDbEntity
  8
0
  6
Continuous
 62
     7
370
    25
100
AcDbLine
 10
6307.2687532499
 20
5266.7092305017
 30
0.0
 11
6308.2687552765
 21
5266.7092305017
 31
0.0
  0
LINE
  5
161
330
1F
100
AcDbEntity
  8
0
  6
Continuous
 62
     7
370
    25
100
AcDbLine
 10
6307.2687532499
 20
5266.7092305017
 30
0.0
 11
6307.2687532499
 21
5158.6797941817
 31
0.0
  0
LINE
  5
162
330
1F
100
AcDbEntity
  8
0
  6
Continuous
 62
     7
370
    25
100
AcDbLine
 10
6307.2687532499
 20
5283.6797904564
 30
0.0
 11
6308.2687552765
 21
5283.6797904564
 31
0.0
  0
LINE
  5
163
330
1F
100
AcDbEntity
  8
0
  6
Continuous
 62
     7
370
    25
100
AcDbLine
 10
6307.2687532499
 20
5283.6797904564
 30
0.0
 11
6307.2687532499
 21
5283.5703935815
 31
0.0
  0
LINE
  5
164
330
1F
100
AcDbEntity
  8
0
  6
Continuous
 62
     8
370
    25
100
AcDbLine
 10
6280.6589226916
 20
5147.2797911955
 30
0.0
 11
6290.8687550321
 21
5147.2797911955
 31
0.0
  0
LINE
  5
165
330
1F
100
AcDbEntity
  8
0
  6
Continuous
 62
     8
370
    25
100
AcDbLine
 10
6277.6687551036
 20
5147.2797911955
 30
0.0
 11
6280.6589226916
 21
5147.2797911955
 31
0.0
  0
LINE
  5
166
330
1F
100
AcDbEntity
  8
0
  6
Continuous
 62
     7
370
    25
100
AcDbLine
 10
5946.625926586
 20
5128.8297918034
 30
0.0
 11
5946.7759263312
 21
5128.6797892643
 31
0.0
  0
LINE
  5
167
330
1F
100
AcDbEntity
  8
0
  6
Continuous
 62
     7
370
    25
100
AcDbLine
 10
5970.2169262414
 20
5128.6797892643
 30
0.0
 11
5970.3669259866
 21
5128.8297918034
 31
0.0
  0
LINE
  5
168
330
1F
100
AcDbEntity
  8
0
  6
Continuous
 62
     7
370
    25
100
AcDbLine
 10
6018.9333865961
 20
5151.1576209558
 30
0.0
 11
6019.107819589
 21
5151.1666659606
 31
0.0
  0
ARC
  5
169
330
1F
100
AcDbEntity
  8
0
  6
Continuous
 62
     7
370
    25
100
AcDbCircle
 10
6019.1337064268
 20
5150.6673352879
 30
0.0
 40
0.5000000000001515
100
AcDbArc
 50
11.9289786304
 51
92.9675830633
  0
LINE
  5
16A
330
1F
100
AcDbEntity
  8
0
  6
Continuous
 62
     7
370
    25
100
AcDbLine
 10
6019.622908028
 20
5150.7706862283
 30
0.0
 11
6019.6590135416
 21
5150.5997848106
 31
0.0
  0
ARC
  5
16B
330
1F
100
AcDbEntity
  8
0
  6
Continuous
 62
     7
370
    25
100
AcDbCircle
 10
6020.0992946574
 20
5150.6928025774
 30
0.0
 40
0.4500000000007949
100
AcDbArc
 50
191.9289786304
 51
332.9675830633
  0
LINE
  5
16C
330
1F
100
AcDbEntity
  8
0
  6
Continuous
 62
     7
370
    25
100
AcDbLine
 10
6020.5001319369
 20
5150.4882794214
 30
0.0
 11
6020.5795178731
 21
5150.643869896
 31
0.0
  0
ARC
  5
16D
330
1F
100
AcDbEntity
  8
0
  6
Continuous
 62
     7
370
    25
100
AcDbCircle
 10
6021.0248927509
 20
5150.4166189734
 30
0.0
 40
0.5000000000005737
100
AcDbArc
 50
71.9289786303
 51
152.9675830633
  0
LINE
  5
16E
330
1F
100
AcDbEntity
  8
0
  6
Continuous
 62
     7
370
    25
100
AcDbLine
 10
6021.1799936911
 20
5150.8919556034
 30
0.0
 11
6021.3460447808
 21
5150.837771256
 31
0.0
  0
ARC
  5
16F
330
1F
100
AcDbEntity
  8
0
  6
Continuous
 62
     7
370
    25
100
AcDbCircle
 10
6021.4856315465
 20
5151.2655765555
 30
0.0
 40
0.4499999999999147
100
AcDbArc
 50
251.9289786303
 51
32.9675830634
  0
LINE
  5
170
330
1F
100
AcDbEntity
  8
0
  6
Continuous
 62
     7
370
    25
100
AcDbLine
 10
6021.8631746789
 20
5151.5104506505
 30
0.0
 11
6021.7681201716
 21
5151.656992395
 31
0.0
  0
ARC
  5
171
330
1F
100
AcDbEntity
  8
0
  6
Continuous
 62
     7
370
    25
100
AcDbCircle
 10
6022.1876126104
 20
5151.9290762161
 30
0.0
 40
0.5000000000006523
100
AcDbArc
 50
131.9289786304
 51
212.9675830633
  0
LINE
  5
172
330
1F
100
AcDbEntity
  8
0
  6
Continuous
 62
     7
370
    25
100
AcDbLine
 10
6021.8535112759
 20
5152.30106156
 30
0.0
 11
6021.9834568521
 21
5152.4177786303
 31
0.0
  0
ARC
  5
173
330
1F
100
AcDbEntity
  8
0
  6
Continuous
 62
     7
370
    25
100
AcDbCircle
 10
6021.6827631754
 20
5152.7525665086
 30
0.0
 40
0.4500000000007293
100
AcDbArc
 50
311.9289786304
 51
92.9675830632
  0
LINE
  5
174
330
1F
100
AcDbEntity
  8
0
  6
Continuous
 62
     7
370
    25
100
AcDbLine
 10
6021.6594683548
 20
5153.201963414
 30
0.0
 11
6021.4850279113
 21
5153.1929221345
 31
0.0
  0
ARC
  5
175
330
1F
100
AcDbEntity
  8
0
  6
Continuous
 62
     7
370
    25
100
AcDbCircle
 10
6021.4591461458
 20
5153.6922497733
 30
0.0
 40
0.5000000000001515
100
AcDbArc
 50
191.9289786304
 51
272.9675830633
  0
LINE
  5
176
330
1F
100
AcDbEntity
  8
0
  6
Continuous
 62
     7
370
    25
100
AcDbLine
 10
6020.9699431976
 20
5153.5889018667
 30
0.0
 11
6020.9338414093
 21
5153.7597958339
 31
0.0
  0
ARC
  5
177
330
1F
100
AcDbEntity
  8
0
  6
Continuous
 62
     7
370
    25
100
AcDbCircle
 10
6020.4935579153
 20
5153.6667824838
 30
0.0
 40
0.4500000000003981
100
AcDbArc
 50
11.9289786304
 51
152.9675830632
  0
LINE
  5
178
330
1F
100
AcDbEntity
  8
0
  6
Continuous
 62
     7
370
    25
100
AcDbLine
 10
6020.0927192887
 20
5153.8713049484
 30
0.0
 11
6020.0133333524
 21
5153.7157181991
 31
0.0
  0
ARC
  5
179
330
1F
100
AcDbEntity
  8
0
  6
Continuous
 62
     7
370
    25
100
AcDbCircle
 10
6019.5679598218
 20
5153.9429660878
 30
0.0
 40
0.500000000000525
100
AcDbArc
 50
251.9289786304
 51
332.9675830633
  0
LINE
  5
17A
330
1F
100
AcDbEntity
  8
0
  6
Continuous
 62
     7
370
    25
100
AcDbLine
 10
6019.4128612598
 20
5153.4676287664
 30
0.0
 11
6019.24681017
 21
5153.5218093885
 31
0.0
  0
ARC
  5
17B
330
1F
100
AcDbEntity
  8
0
  6
Continuous
 62
     7
370
    25
100
AcDbCircle
 10
6019.1072210262
 20
5153.0940085058
 30
0.0
 40
0.4499999999999147
100
AcDbArc
 50
71.9289786303
 51
212.9675830633
  0
LINE
  5
17C
330
1F
100
AcDbEntity
  8
0
  6
Continuous
 62
     7
370
    25
100
AcDbLine
 10
6018.729680272
 20
5152.8491337193
 30
0.0
 11
6018.8247310539
 21
5152.7025919748
 31
0.0
  0
ARC
  5
17D
330
1F
100
AcDbEntity
  8
0
  6
Continuous
 62
     7
370
    25
100
AcDbCircle
 10
6018.4052399622
 20
5152.4305088451
 30
0.0
 40
0.5000000000000454
100
AcDbArc
 50
311.9289786303
 51
32.9675830633
  0
LINE
  5
17E
330
1F
100
AcDbEntity
  8
0
  6
Continuous
 62
     7
370
    25
100
AcDbLine
 10
6018.739343675
 20
5152.0585228098
 30
0.0
 11
6018.6093943735
 21
5151.9418057395
 31
0.0
  0
ARC
  5
17F
330
1F
100
AcDbEntity
  8
0
  6
Continuous
 62
     7
370
    25
100
AcDbCircle
 10
6018.9100893972
 20
5151.6070185526
 30
0.0
 40
0.4500000000007293
100
AcDbArc
 50
131.9289786304
 51
272.9675830632
  0
CIRCLE
  5
180
330
1F
100
AcDbEntity
  8
0
  6
Continuous
 62
     7
370
    25
100
AcDbCircle
 10
6020.2964262863
 20
5152.1797925306
 30
0.0
 40
4.000000000000491
  0
CIRCLE
  5
181
330
1F
100
AcDbEntity
  8
0
  6
Continuous
 62
     7
370
    25
100
AcDbCircle
 10
6020.2964262863
 20
5152.1797925306
 30
0.0
 40
0.5000000000007535
  0
LINE
  5
182
330
1F
100
AcDbEntity
  8
0
  6
Continuous
 62
     7
370
    25
100
AcDbLine
 10
5895.6333892962
 20
5274.457621981
 30
0.0
 11
5895.8078222891
 21
5274.4666632605
 31
0.0
  0
ARC
  5
183
330
1F
100
AcDbEntity
  8
0
  6
Continuous
 62
     7
370
    25
100
AcDbCircle
 10
5895.8337064268
 20
5273.9673352879
 30
0.0
 40
0.500000000000741
100
AcDbArc
 50
11.9289786305
 51
92.9675830632
  0
LINE
  5
184
330
1F
100
AcDbEntity
  8
0
  6
Continuous
 62
     7
370
    25
100
AcDbLine
 10
5896.3229070028
 20
5274.0706835283
 30
0.0
 11
5896.3590125164
 21
5273.8997895611
 31
0.0
  0
ARC
  5
185
330
1F
100
AcDbEntity
  8
0
  6
Continuous
 62
     7
370
    25
100
AcDbCircle
 10
5896.7992946574
 20
5273.9928025774
 30
0.0
 40
0.4499999999999848
100
AcDbArc
 50
191.9289786303
 51
332.9675830633
  0
LINE
  5
186
330
1F
100
AcDbEntity
  8
0
  6
Continuous
 62
     7
370
    25
100
AcDbLine
 10
5897.2001309117
 20
5273.7882804466
 30
0.0
 11
5897.2795168479
 21
5273.9438671959
 31
0.0
  0
ARC
  5
187
330
1F
100
AcDbEntity
  8
0
  6
Continuous
 62
     7
370
    25
100
AcDbCircle
 10
5897.7248927509
 20
5273.7166189734
 30
0.0
 40
0.500000000000525
100
AcDbArc
 50
71.9289786305
 51
152.9675830633
  0
LINE
  5
188
330
1F
100
AcDbEntity
  8
0
  6
Continuous
 62
     7
370
    25
100
AcDbLine
 10
5897.8799889406
 20
5274.1919566286
 30
0.0
 11
5898.0460437556
 21
5274.1377722812
 31
0.0
  0
ARC
  5
189
330
1F
100
AcDbEntity
  8
0
  6
Continuous
 62
     7
370
    25
100
AcDbCircle
 10
5898.1856315465
 20
5274.5655765555
 30
0.0
 40
0.4500000000002842
100
AcDbArc
 50
251.9289786302
 51
32.9675830634
  0
LINE
  5
18A
330
1F
100
AcDbEntity
  8
0
  6
Continuous
 62
     7
370
    25
100
AcDbLine
 10
5898.5631736537
 20
5274.8104516757
 30
0.0
 11
5898.4681228717
 21
5274.9569934202
 31
0.0
  0
ARC
  5
18B
330
1F
100
AcDbEntity
  8
0
  6
Continuous
 62
     7
370
    25
100
AcDbCircle
 10
5898.8876126104
 20
5275.2290762161
 30
0.0
 40
0.5000000000008085
100
AcDbArc
 50
131.9289786303
 51
212.9675830632
  0
LINE
  5
18C
330
1F
100
AcDbEntity
  8
0
  6
Continuous
 62
     7
370
    25
100
AcDbLine
 10
5898.5535065254
 20
5275.6010625852
 30
0.0
 11
5898.6834558269
 21
5275.7177796555
 31
0.0
  0
ARC
  5
18D
330
1F
100
AcDbEntity
  8
0
  6
Continuous
 62
     7
370
    25
100
AcDbCircle
 10
5898.3827631754
 20
5276.0525665086
 30
0.0
 40
0.4500000000007293
100
AcDbArc
 50
311.9289786304
 51
92.9675830632
  0
LINE
  5
18E
330
1F
100
AcDbEntity
  8
0
  6
Continuous
 62
     7
370
    25
100
AcDbLine
 10
5898.3594673296
 20
5276.5019607139
 30
0.0
 11
5898.1850306114
 21
5276.4929231597
 31
0.0
  0
ARC
  5
18F
330
1F
100
AcDbEntity
  8
0
  6
Continuous
 62
     7
370
    25
100
AcDbCircle
 10
5898.1591461458
 20
5276.9922497733
 30
0.0
 40
0.5000000000001515
100
AcDbArc
 50
191.9289786303
 51
272.9675830633
  0
LINE
  5
190
330
1F
100
AcDbEntity
  8
0
  6
Continuous
 62
     7
370
    25
100
AcDbLine
 10
5897.6699421724
 20
5276.8888991667
 30
0.0
 11
5897.6338403841
 21
5277.0598005844
 31
0.0
  0
ARC
  5
191
330
1F
100
AcDbEntity
  8
0
  6
Continuous
 62
     7
370
    25
100
AcDbCircle
 10
5897.1935579153
 20
5276.9667824838
 30
0.0
 40
0.4499999999996355
100
AcDbArc
 50
11.9289786303
 51
152.9675830634
  0
LINE
  5
192
330
1F
100
AcDbEntity
  8
0
  6
Continuous
 62
     7
370
    25
100
AcDbLine
 10
5896.7927219888
 20
5277.1713059736
 30
0.0
 11
5896.7133360525
 21
5277.015715499
 31
0.0
  0
ARC
  5
193
330
1F
100
AcDbEntity
  8
0
  6
Continuous
 62
     7
370
    25
100
AcDbCircle
 10
5896.2679598218
 20
5277.2429660878
 30
0.0
 40
0.4999999999997149
100
AcDbArc
 50
251.9289786303
 51
332.9675830633
  0
LINE
  5
194
330
1F
100
AcDbEntity
  8
0
  6
Continuous
 62
     7
370
    25
100
AcDbLine
 10
5896.1128602346
 20
5276.7676260663
 30
0.0
 11
5895.9468054195
 21
5276.821814139
 31
0.0
  0
ARC
  5
195
330
1F
100
AcDbEntity
  8
0
  6
Continuous
 62
     7
370
    25
100
AcDbCircle
 10
5895.8072210262
 20
5276.3940085058
 30
0.0
 40
0.4500000000007793
100
AcDbArc
 50
71.9289786304
 51
212.9675830633
  0
LINE
  5
196
330
1F
100
AcDbEntity
  8
0
  6
Continuous
 62
     7
370
    25
100
AcDbLine
 10
5895.4296829721
 20
5276.1491310192
 30
0.0
 11
5895.5247300287
 21
5276.002593
 31
0.0
  0
ARC
  5
197
330
1F
100
AcDbEntity
  8
0
  6
Continuous
 62
     7
370
    25
100
AcDbCircle
 10
5895.1052399622
 20
5275.7305088451
 30
0.0
 40
0.5000000000006523
100
AcDbArc
 50
311.9289786304
 51
32.9675830633
  0
LINE
  5
198
330
1F
100
AcDbEntity
  8
0
  6
Continuous
 62
     7
370
    25
100
AcDbLine
 10
5895.4393463751
 20
5275.358523835
 30
0.0
 11
5895.3093933483
 21
5275.2418067647
 31
0.0
  0
ARC
  5
199
330
1F
100
AcDbEntity
  8
0
  6
Continuous
 62
     7
370
    25
100
AcDbCircle
 10
5895.6100893972
 20
5274.9070185526
 30
0.0
 40
0.4500000000001216
100
AcDbArc
 50
131.9289786303
 51
272.9675830633
  0
CIRCLE
  5
19A
330
1F
100
AcDbEntity
  8
0
  6
Continuous
 62
     7
370
    25
100
AcDbCircle
 10
5896.9964262863
 20
5275.4797925306
 30
0.0
 40
3.999999999999303
  0
CIRCLE
  5
19B
330
1F
100
AcDbEntity
  8
0
  6
Continuous
 62
     7
370
    25
100
AcDbCircle
 10
5896.9964262863
 20
5275.4797925306
 30
0.0
 40
0.4999999999995656
  0
LINE
  5
19C
330
1F
100
AcDbEntity
  8
0
  6
Continuous
 62
     7
370
    25
100
AcDbLine
 10
6018.9333865961
 20
5274.457621981
 30
0.0
 11
6019.107819589
 21
5274.4666632605
 31
0.0
  0
ARC
  5
19D
330
1F
100
AcDbEntity
  8
0
  6
Continuous
 62
     7
370
    25
100
AcDbCircle
 10
6019.1337064268
 20
5273.9673352879
 30
0.0
 40
0.5000000000001515
100
AcDbArc
 50
11.9289786305
 51
92.9675830633
  0
LINE
  5
19E
330
1F
100
AcDbEntity
  8
0
  6
Continuous
 62
     7
370
    25
100
AcDbLine
 10
6019.622908028
 20
5274.0706835283
 30
0.0
 11
6019.6590135416
 21
5273.8997895611
 31
0.0
  0
ARC
  5
19F
330
1F
100
AcDbEntity
  8
0
  6
Continuous
 62
     7
370
    25
100
AcDbCircle
 10
6020.0992946574
 20
5273.9928025774
 30
0.0
 40
0.4500000000007949
100
AcDbArc
 50
191.9289786303
 51
332.9675830633
  0
LINE
  5
1A0
330
1F
100
AcDbEntity
  8
0
  6
Continuous
 62
     7
370
    25
100
AcDbLine
 10
6020.5001319369
 20
5273.7882804466
 30
0.0
 11
6020.5795178731
 21
5273.9438671959
 31
0.0
  0
ARC
  5
1A1
330
1F
100
AcDbEntity
  8
0
  6
Continuous
 62
     7
370
    25
100
AcDbCircle
 10
6021.0248927509
 20
5273.7166189734
 30
0.0
 40
0.5000000000005737
100
AcDbArc
 50
71.9289786303
 51
152.9675830633
  0
LINE
  5
1A2
330
1F
100
AcDbEntity
  8
0
  6
Continuous
 62
     7
370
    25
100
AcDbLine
 10
6021.1799936911
 20
5274.1919566286
 30
0.0
 11
6021.3460447808
 21
5274.1377722812
 31
0.0
  0
ARC
  5
1A3
330
1F
100
AcDbEntity
  8
0
  6
Continuous
 62
     7
370
    25
100
AcDbCircle
 10
6021.4856315465
 20
5274.5655765555
 30
0.0
 40
0.4499999999999147
100
AcDbArc
 50
251.9289786303
 51
32.9675830634
  0
LINE
  5
1A4
330
1F
100
AcDbEntity
  8
0
  6
Continuous
 62
     7
370
    25
100
AcDbLine
 10
6021.8631746789
 20
5274.8104516757
 30
0.0
 11
6021.7681201716
 21
5274.9569934202
 31
0.0
  0
ARC
  5
1A5
330
1F
100
AcDbEntity
  8
0
  6
Continuous
 62
     7
370
    25
100
AcDbCircle
 10
6022.1876126104
 20
5275.2290762161
 30
0.0
 40
0.5000000000006523
100
AcDbArc
 50
131.9289786304
 51
212.9675830633
  0
LINE
  5
1A6
330
1F
100
AcDbEntity
  8
0
  6
Continuous
 62
     7
370
    25
100
AcDbLine
 10
6021.8535112759
 20
5275.6010625852
 30
0.0
 11
6021.9834568521
 21
5275.7177796555
 31
0.0
  0
ARC
  5
1A7
330
1F
100
AcDbEntity
  8
0
  6
Continuous
 62
     7
370
    25
100
AcDbCircle
 10
6021.6827631754
 20
5276.0525665086
 30
0.0
 40
0.4500000000007293
100
AcDbArc
 50
311.9289786304
 51
92.9675830632
  0
LINE
  5
1A8
330
1F
100
AcDbEntity
  8
0
  6
Continuous
 62
     7
370
    25
100
AcDbLine
 10
6021.6594683548
 20
5276.5019607139
 30
0.0
 11
6021.4850279113
 21
5276.4929231597
 31
0.0
  0
ARC
  5
1A9
330
1F
100
AcDbEntity
  8
0
  6
Continuous
 62
     7
370
    25
100
AcDbCircle
 10
6021.4591461458
 20
5276.9922497733
 30
0.0
 40
0.5000000000001515
100
AcDbArc
 50
191.9289786303
 51
272.9675830633
  0
LINE
  5
1AA
330
1F
100
AcDbEntity
  8
0
  6
Continuous
 62
     7
370
    25
100
AcDbLine
 10
6020.9699431976
 20
5276.8888991667
 30
0.0
 11
6020.9338414093
 21
5277.0598005844
 31
0.0
  0
ARC
  5
1AB
330
1F
100
AcDbEntity
  8
0
  6
Continuous
 62
     7
370
    25
100
AcDbCircle
 10
6020.4935579153
 20
5276.9667824838
 30
0.0
 40
0.4499999999996355
100
AcDbArc
 50
11.9289786303
 51
152.9675830634
  0
LINE
  5
1AC
330
1F
100
AcDbEntity
  8
0
  6
Continuous
 62
     7
370
    25
100
AcDbLine
 10
6020.0927192887
 20
5277.1713059736
 30
0.0
 11
6020.0133333524
 21
5277.015715499
 31
0.0
  0
ARC
  5
1AD
330
1F
100
AcDbEntity
  8
0
  6
Continuous
 62
     7
370
    25
100
AcDbCircle
 10
6019.5679598218
 20
5277.2429660878
 30
0.0
 40
0.500000000000525
100
AcDbArc
 50
251.9289786304
 51
332.9675830633
  0
LINE
  5
1AE
330
1F
100
AcDbEntity
  8
0
  6
Continuous
 62
     7
370
    25
100
AcDbLine
 10
6019.4128612598
 20
5276.7676260663
 30
0.0
 11
6019.24681017
 21
5276.821814139
 31
0.0
  0
ARC
  5
1AF
330
1F
100
AcDbEntity
  8
0
  6
Continuous
 62
     7
370
    25
100
AcDbCircle
 10
6019.1072210262
 20
5276.3940085058
 30
0.0
 40
0.4500000000007793
100
AcDbArc
 50
71.9289786304
 51
212.9675830633
  0
LINE
  5
1B0
330
1F
100
AcDbEntity
  8
0
  6
Continuous
 62
     7
370
    25
100
AcDbLine
 10
6018.729680272
 20
5276.1491310192
 30
0.0
 11
6018.8247310539
 21
5276.002593
 31
0.0
  0
ARC
  5
1B1
330
1F
100
AcDbEntity
  8
0
  6
Continuous
 62
     7
370
    25
100
AcDbCircle
 10
6018.4052399622
 20
5275.7305088451
 30
0.0
 40
0.5000000000000454
100
AcDbArc
 50
311.9289786303
 51
32.9675830633
  0
LINE
  5
1B2
330
1F
100
AcDbEntity
  8
0
  6
Continuous
 62
     7
370
    25
100
AcDbLine
 10
6018.739343675
 20
5275.358523835
 30
0.0
 11
6018.6093943735
 21
5275.2418067647
 31
0.0
  0
ARC
  5
1B3
330
1F
100
AcDbEntity
  8
0
  6
Continuous
 62
     7
370
    25
100
AcDbCircle
 10
6018.9100893972
 20
5274.9070185526
 30
0.0
 40
0.4500000000007293
100
AcDbArc
 50
131.9289786304
 51
272.9675830632
  0
CIRCLE
  5
1B4
330
1F
100
AcDbEntity
  8
0
  6
Continuous
 62
     7
370
    25
100
AcDbCircle
 10
6020.2964262863
 20
5275.4797925306
 30
0.0
 40
3.999999999999651
  0
CIRCLE
  5
1B5
330
1F
100
AcDbEntity
  8
0
  6
Continuous
 62
     7
370
    25
100
AcDbCircle
 10
6020.2964262863
 20
5275.4797925306
 30
0.0
 40
0.4999999999999129
  0
LINE
  5
1B6
330
1F
100
AcDbEntity
  8
0
  6
Continuous
 62
     7
370
    25
100
AcDbLine
 10
5895.6333892962
 20
5151.1576209558
 30
0.0
 11
5895.8078222891
 21
5151.1666659606
 31
0.0
  0
ARC
  5
1B7
330
1F
100
AcDbEntity
  8
0
  6
Continuous
 62
     7
370
    25
100
AcDbCircle
 10
5895.8337064268
 20
5150.6673352879
 30
0.0
 40
0.500000000000553
100
AcDbArc
 50
11.9289786304
 51
92.9675830632
  0
LINE
  5
1B8
330
1F
100
AcDbEntity
  8
0
  6
Continuous
 62
     7
370
    25
100
AcDbLine
 10
5896.3229070028
 20
5150.7706862283
 30
0.0
 11
5896.3590125164
 21
5150.5997848106
 31
0.0
  0
ARC
  5
1B9
330
1F
100
AcDbEntity
  8
0
  6
Continuous
 62
     7
370
    25
100
AcDbCircle
 10
5896.7992946574
 20
5150.6928025774
 30
0.0
 40
0.4499999999999848
100
AcDbArc
 50
191.9289786304
 51
332.9675830633
  0
LINE
  5
1BA
330
1F
100
AcDbEntity
  8
0
  6
Continuous
 62
     7
370
    25
100
AcDbLine
 10
5897.2001309117
 20
5150.4882794214
 30
0.0
 11
5897.2795168479
 21
5150.643869896
 31
0.0
  0
ARC
  5
1BB
330
1F
100
AcDbEntity
  8
0
  6
Continuous
 62
     7
370
    25
100
AcDbCircle
 10
5897.7248927509
 20
5150.4166189734
 30
0.0
 40
0.500000000000525
100
AcDbArc
 50
71.9289786305
 51
152.9675830633
  0
LINE
  5
1BC
330
1F
100
AcDbEntity
  8
0
  6
Continuous
 62
     7
370
    25
100
AcDbLine
 10
5897.8799889406
 20
5150.8919556034
 30
0.0
 11
5898.0460437556
 21
5150.837771256
 31
0.0
  0
ARC
  5
1BD
330
1F
100
AcDbEntity
  8
0
  6
Continuous
 62
     7
370
    25
100
AcDbCircle
 10
5898.1856315465
 20
5151.2655765555
 30
0.0
 40
0.4500000000002842
100
AcDbArc
 50
251.9289786302
 51
32.9675830634
  0
LINE
  5
1BE
330
1F
100
AcDbEntity
  8
0
  6
Continuous
 62
     7
370
    25
100
AcDbLine
 10
5898.5631736537
 20
5151.5104506505
 30
0.0
 11
5898.4681228717
 21
5151.656992395
 31
0.0
  0
ARC
  5
1BF
330
1F
100
AcDbEntity
  8
0
  6
Continuous
 62
     7
370
    25
100
AcDbCircle
 10
5898.8876126104
 20
5151.9290762161
 30
0.0
 40
0.5000000000008085
100
AcDbArc
 50
131.9289786303
 51
212.9675830632
  0
LINE
  5
1C0
330
1F
100
AcDbEntity
  8
0
  6
Continuous
 62
     7
370
    25
100
AcDbLine
 10
5898.5535065254
 20
5152.30106156
 30
0.0
 11
5898.6834558269
 21
5152.4177786303
 31
0.0
  0
ARC
  5
1C1
330
1F
100
AcDbEntity
  8
0
  6
Continuous
 62
     7
370
    25
100
AcDbCircle
 10
5898.3827631754
 20
5152.7525665086
 30
0.0
 40
0.4500000000007293
100
AcDbArc
 50
311.9289786304
 51
92.9675830632
  0
LINE
  5
1C2
330
1F
100
AcDbEntity
  8
0
  6
Continuous
 62
     7
370
    25
100
AcDbLine
 10
5898.3594673296
 20
5153.201963414
 30
0.0
 11
5898.1850306114
 21
5153.1929221345
 31
0.0
  0
ARC
  5
1C3
330
1F
100
AcDbEntity
  8
0
  6
Continuous
 62
     7
370
    25
100
AcDbCircle
 10
5898.1591461458
 20
5153.6922497733
 30
0.0
 40
0.5000000000001515
100
AcDbArc
 50
191.9289786304
 51
272.9675830633
  0
LINE
  5
1C4
330
1F
100
AcDbEntity
  8
0
  6
Continuous
 62
     7
370
    25
100
AcDbLine
 10
5897.6699421724
 20
5153.5889018667
 30
0.0
 11
5897.6338403841
 21
5153.7597958339
 31
0.0
  0
ARC
  5
1C5
330
1F
100
AcDbEntity
  8
0
  6
Continuous
 62
     7
370
    25
100
AcDbCircle
 10
5897.1935579153
 20
5153.6667824838
 30
0.0
 40
0.4499999999999848
100
AcDbArc
 50
11.9289786304
 51
152.9675830633
  0
LINE
  5
1C6
330
1F
100
AcDbEntity
  8
0
  6
Continuous
 62
     7
370
    25
100
AcDbLine
 10
5896.7927219888
 20
5153.8713049484
 30
0.0
 11
5896.7133360525
 21
5153.7157181991
 31
0.0
  0
ARC
  5
1C7
330
1F
100
AcDbEntity
  8
0
  6
Continuous
 62
     7
370
    25
100
AcDbCircle
 10
5896.2679598218
 20
5153.9429660878
 30
0.0
 40
0.4999999999997149
100
AcDbArc
 50
251.9289786303
 51
332.9675830633
  0
LINE
  5
1C8
330
1F
100
AcDbEntity
  8
0
  6
Continuous
 62
     7
370
    25
100
AcDbLine
 10
5896.1128602346
 20
5153.4676287664
 30
0.0
 11
5895.9468054195
 21
5153.5218093885
 31
0.0
  0
ARC
  5
1C9
330
1F
100
AcDbEntity
  8
0
  6
Continuous
 62
     7
370
    25
100
AcDbCircle
 10
5895.8072210262
 20
5153.0940085058
 30
0.0
 40
0.4499999999999147
100
AcDbArc
 50
71.9289786303
 51
212.9675830633
  0
LINE
  5
1CA
330
1F
100
AcDbEntity
  8
0
  6
Continuous
 62
     7
370
    25
100
AcDbLine
 10
5895.4296829721
 20
5152.8491337193
 30
0.0
 11
5895.5247300287
 21
5152.7025919748
 31
0.0
  0
ARC
  5
1CB
330
1F
100
AcDbEntity
  8
0
  6
Continuous
 62
     7
370
    25
100
AcDbCircle
 10
5895.1052399622
 20
5152.4305088451
 30
0.0
 40
0.5000000000000445
100
AcDbArc
 50
311.9289786303
 51
32.9675830633
  0
LINE
  5
1CC
330
1F
100
AcDbEntity
  8
0
  6
Continuous
 62
     7
370
    25
100
AcDbLine
 10
5895.4393463751
 20
5152.0585228098
 30
0.0
 11
5895.3093933483
 21
5151.9418057395
 31
0.0
  0
ARC
  5
1CD
330
1F
100
AcDbEntity
  8
0
  6
Continuous
 62
     7
370
    25
100
AcDbCircle
 10
5895.6100893972
 20
5151.6070185526
 30
0.0
 40
0.4500000000001216
100
AcDbArc
 50
131.9289786303
 51
272.9675830633
  0
CIRCLE
  5
1CE
330
1F
100
AcDbEntity
  8
0
  6
Continuous
 62
     7
370
    25
100
AcDbCircle
 10
5896.9964262863
 20
5152.1797925306
 30
0.0
 40
4.000000000000144
  0
CIRCLE
  5
1CF
330
1F
100
AcDbEntity
  8
0
  6
Continuous
 62
     7
370
    25
100
AcDbCircle
 10
5896.9964262863
 20
5152.1797925306
 30
0.0
 40
0.5000000000004062
  0
CIRCLE
  5
1D0
330
1F
100
AcDbEntity
  8
0
  6
Continuous
 62
     7
370
    25
100
AcDbCircle
 10
5958.6464262863
 20
5198.8297925306
 30
0.0
 40
12.5
  0
CIRCLE
  5
1D1
330
1F
100
AcDbEntity
  8
0
  6
Continuous
 62
     7
370
    25
100
AcDbCircle
 10
5958.6464262863
 20
5198.8297925306
 30
0.0
 40
14.0
  0
LINE
  5
1D2
330
1F
100
AcDbEntity
  8
0
  6
Continuous
 62
     7
370
    25
100
AcDbLine
 10
5958.256500056
 20
5204.0261865003
 30
0.0
 11
5958.256500056
 21
5207.5719061648
 31
0.0
  0
ARC
  5
1D3
330
1F
100
AcDbEntity
  8
0
  6
Continuous
 62
     7
370
    25
100
AcDbCircle
 10
5956.6394571557
 20
5207.5719059881
 30
0.0
 40
1.617042895245504
100
AcDbArc
 50
0.0
 51
180.0
  0
LINE
  5
1D4
330
1F
100
AcDbEntity
  8
0
  6
Continuous
 62
     7
370
    25
100
AcDbLine
 10
5955.0224142691
 20
5207.5719061648
 30
0.0
 11
5955.0224142691
 21
5200.0334548173
 31
0.0
  0
ARC
  5
1D5
330
1F
100
AcDbEntity
  8
0
  6
Continuous
 62
     7
370
    25
100
AcDbCircle
 10
5953.1773639973
 20
5198.2458256003
 30
0.0
 40
2.569012885872036
100
AcDbArc
 50
44.0944057145
 51
105.4941474424
  0
LINE
  5
1D6
330
1F
100
AcDbEntity
  8
0
  6
Continuous
 62
     7
370
    25
100
AcDbLine
 10
5952.4910781143
 20
5200.7214749572
 30
0.0
 11
5952.4910781143
 21
5195.3003608031
 31
0.0
  0
ARC
  5
1D7
330
1F
100
AcDbEntity
  8
0
  6
Continuous
 62
     7
370
    25
100
AcDbCircle
 10
5958.8136083683
 20
5195.300360201
 30
0.0
 40
6.322530327734057
100
AcDbArc
 50
180.0
 51
270.0
  0
LINE
  5
1D8
330
1F
100
AcDbEntity
  8
0
  6
Continuous
 62
     7
370
    25
100
AcDbLine
 10
5958.8136083581
 20
5188.9778297735
 30
0.0
 11
5961.1808327568
 21
5188.9778297735
 31
0.0
  0
ARC
  5
1D9
330
1F
100
AcDbEntity
  8
0
  6
Continuous
 62
     7
370
    25
100
AcDbCircle
 10
5961.1808327753
 20
5193.5334304239
 30
0.0
 40
4.555600550637791
100
AcDbArc
 50
270.0
 51
0.0
  0
LINE
  5
1DA
330
1F
100
AcDbEntity
  8
0
  6
Continuous
 62
     7
370
    25
100
AcDbLine
 10
5965.7364334521
 20
5193.5334295375
 30
0.0
 11
5965.7364334521
 21
5201.3702007351
 31
0.0
  0
ARC
  5
1DB
330
1F
100
AcDbEntity
  8
0
  6
Continuous
 62
     7
370
    25
100
AcDbCircle
 10
5964.3828220797
 20
5201.3702009522
 30
0.0
 40
1.353611246209766
100
AcDbArc
 50
0.0
 51
90.0
  0
LINE
  5
1DC
330
1F
100
AcDbEntity
  8
0
  6
Continuous
 62
     7
370
    25
100
AcDbLine
 10
5964.3828222138
 20
5202.7238119734
 30
0.0
 11
5963.8885967975
 21
5202.7238119734
 31
0.0
  0
ARC
  5
1DD
330
1F
100
AcDbEntity
  8
0
  6
Continuous
 62
     7
370
    25
100
AcDbCircle
 10
5963.888596615
 20
5201.3702009522
 30
0.0
 40
1.353611246210064
100
AcDbArc
 50
90.0
 51
118.7365577358
  0
ARC
  5
1DE
330
1F
100
AcDbEntity
  8
0
  6
Continuous
 62
     7
370
    25
100
AcDbCircle
 10
5961.9053367453
 20
5202.3187808756
 30
0.0
 40
1.353611246207947
100
AcDbArc
 50
10.1404867648
 51
90.0
  0
LINE
  5
1DF
330
1F
100
AcDbEntity
  8
0
  6
Continuous
 62
     7
370
    25
100
AcDbLine
 10
5961.9053367601
 20
5203.6723919553
 30
0.0
 11
5961.326019427
 21
5203.6723919553
 31
0.0
  0
ARC
  5
1E0
330
1F
100
AcDbEntity
  8
0
  6
Continuous
 62
     7
370
    25
100
AcDbCircle
 10
5961.3260194632
 20
5202.3187808756
 30
0.0
 40
1.353611246207947
100
AcDbArc
 50
90.0
 51
124.744002227
  0
ARC
  5
1E1
330
1F
100
AcDbEntity
  8
0
  6
Continuous
 62
     7
370
    25
100
AcDbCircle
 10
5959.3427595935
 20
5202.8279351108
 30
0.0
 40
1.353611246208188
100
AcDbArc
 50
26.4592691592
 51
90.0
  0
LINE
  5
1E2
330
1F
100
AcDbEntity
  8
0
  6
Continuous
 62
     7
370
    25
100
AcDbLine
 10
5959.3427596224
 20
5204.1815460069
 30
0.0
 11
5958.8861486659
 21
5204.1815460069
 31
0.0
  0
ARC
  5
1E3
330
1F
100
AcDbEntity
  8
0
  6
Continuous
 62
     7
370
    25
100
AcDbCircle
 10
5958.8861486745
 20
5202.8279351108
 30
0.0
 40
1.353611246207992
100
AcDbArc
 50
90.0
 51
117.7207121261
  0
ARC
  5
1E4
330
1F
100
AcDbEntity
  8
0
  6
Continuous
 62
     7
370
    25
100
AcDbCircle
 10
5957.8945187396
 20
5199.901065714
 30
0.0
 40
0.6676186886570576
100
AcDbArc
 50
180.0
 51
0.0
  0
LINE
  5
1E5
330
1F
100
AcDbEntity
  8
0
  6
Continuous
 62
     7
370
    25
100
AcDbLine
 10
5958.5621374313
 20
5202.842097391
 30
0.0
 11
5958.5621374313
 21
5199.9010654507
 31
0.0
  0
ARC
  5
1E6
330
1F
100
AcDbEntity
  8
0
  6
Continuous
 62
     7
370
    25
100
AcDbCircle
 10
5958.8022475445
 20
5202.8420972486
 30
0.0
 40
0.2401101162877239
100
AcDbArc
 50
90.0
 51
180.0
  0
LINE
  5
1E7
330
1F
100
AcDbEntity
  8
0
  6
Continuous
 62
     7
370
    25
100
AcDbLine
 10
5959.4266607269
 20
5203.0822072519
 30
0.0
 11
5958.8022475323
 21
5203.0822072519
 31
0.0
  0
ARC
  5
1E8
330
1F
100
AcDbEntity
  8
0
  6
Continuous
 62
     7
370
    25
100
AcDbCircle
 10
5959.4266607234
 20
5202.8420972486
 30
0.0
 40
0.2401101162877239
100
AcDbArc
 50
0.0
 51
90.0
  0
LINE
  5
1E9
330
1F
100
AcDbEntity
  8
0
  6
Continuous
 62
     7
370
    25
100
AcDbLine
 10
5959.6667708206
 20
5199.9010654507
 30
0.0
 11
5959.6667708206
 21
5202.842097391
 31
0.0
  0
ARC
  5
1EA
330
1F
100
AcDbEntity
  8
0
  6
Continuous
 62
     7
370
    25
100
AcDbCircle
 10
5960.3343895284
 20
5199.901065714
 30
0.0
 40
0.6676186886570576
100
AcDbArc
 50
180.0
 51
0.0
  0
LINE
  5
1EB
330
1F
100
AcDbEntity
  8
0
  6
Continuous
 62
     7
370
    25
100
AcDbLine
 10
5961.0020081123
 20
5202.3329433394
 30
0.0
 11
5961.0020081123
 21
5199.9010654507
 31
0.0
  0
ARC
  5
1EC
330
1F
100
AcDbEntity
  8
0
  6
Continuous
 62
     7
370
    25
100
AcDbCircle
 10
5961.2421183333
 20
5202.3329430134
 30
0.0
 40
0.2401101162886334
100
AcDbArc
 50
90.0
 51
180.0
  0
LINE
  5
1ED
330
1F
100
AcDbEntity
  8
0
  6
Continuous
 62
     7
370
    25
100
AcDbLine
 10
5961.9892379811
 20
5202.5730532003
 30
0.0
 11
5961.2421184388
 21
5202.5730532003
 31
0.0
  0
ARC
  5
1EE
330
1F
100
AcDbEntity
  8
0
  6
Continuous
 62
     7
370
    25
100
AcDbCircle
 10
5961.9892378752
 20
5202.3329430134
 30
0.0
 40
0.2401101162886334
100
AcDbArc
 50
0.0
 51
90.0
  0
LINE
  5
1EF
330
1F
100
AcDbEntity
  8
0
  6
Continuous
 62
     7
370
    25
100
AcDbLine
 10
5962.2293480748
 20
5199.9010654507
 30
0.0
 11
5962.2293480748
 21
5202.3329433394
 31
0.0
  0
ARC
  5
1F0
330
1F
100
AcDbEntity
  8
0
  6
Continuous
 62
     7
370
    25
100
AcDbCircle
 10
5962.8969666802
 20
5199.901065714
 30
0.0
 40
0.6676186886570576
100
AcDbArc
 50
180.0
 51
0.0
  0
LINE
  5
1F1
330
1F
100
AcDbEntity
  8
0
  6
Continuous
 62
     7
370
    25
100
AcDbLine
 10
5963.5645854828
 20
5201.4165927065
 30
0.0
 11
5963.5645854828
 21
5199.9010654507
 31
0.0
  0
ARC
  5
1F2
330
1F
100
AcDbEntity
  8
0
  6
Continuous
 62
     7
370
    25
100
AcDbCircle
 10
5963.8046954851
 20
5201.4165927047
 30
0.0
 40
0.2401101162877239
100
AcDbArc
 50
90.0
 51
180.0
  0
LINE
  5
1F3
330
1F
100
AcDbEntity
  8
0
  6
Continuous
 62
     7
370
    25
100
AcDbLine
 10
5964.4667232019
 20
5201.6567025674
 30
0.0
 11
5963.8046953437
 21
5201.6567025674
 31
0.0
  0
ARC
  5
1F4
330
1F
100
AcDbEntity
  8
0
  6
Continuous
 62
     7
370
    25
100
AcDbCircle
 10
5964.4667232096
 20
5201.4165927047
 30
0.0
 40
0.2401101162877239
100
AcDbArc
 50
0.0
 51
90.0
  0
LINE
  5
1F5
330
1F
100
AcDbEntity
  8
0
  6
Continuous
 62
     7
370
    25
100
AcDbLine
 10
5964.7068335285
 20
5193.5334295375
 30
0.0
 11
5964.7068335285
 21
5201.4165927065
 31
0.0
  0
ARC
  5
1F6
330
1F
100
AcDbEntity
  8
0
  6
Continuous
 62
     7
370
    25
100
AcDbCircle
 10
5961.1808327753
 20
5193.5334304239
 30
0.0
 40
3.526000550637946
100
AcDbArc
 50
270.0
 51
0.0
  0
LINE
  5
1F7
330
1F
100
AcDbEntity
  8
0
  6
Continuous
 62
     7
370
    25
100
AcDbLine
 10
5958.8136083581
 20
5190.0074292315
 30
0.0
 11
5961.1808327568
 21
5190.0074292315
 31
0.0
  0
ARC
  5
1F8
330
1F
100
AcDbEntity
  8
0
  6
Continuous
 62
     7
370
    25
100
AcDbCircle
 10
5958.8136083683
 20
5195.300360201
 30
0.0
 40
5.292930327733302
100
AcDbArc
 50
180.0
 51
270.0
  0
LINE
  5
1F9
330
1F
100
AcDbEntity
  8
0
  6
Continuous
 62
     7
370
    25
100
AcDbLine
 10
5953.5206780379
 20
5199.7464677659
 30
0.0
 11
5953.5206780379
 21
5195.3003608031
 31
0.0
  0
ARC
  5
1FA
330
1F
100
AcDbEntity
  8
0
  6
Continuous
 62
     7
370
    25
100
AcDbCircle
 10
5953.1773639973
 20
5198.2458256003
 30
0.0
 40
1.539412885871721
100
AcDbArc
 50
0.0
 51
77.1137478469
  0
LINE
  5
1FB
330
1F
100
AcDbEntity
  8
0
  6
Continuous
 62
     7
370
    25
100
AcDbLine
 10
5954.7167767847
 20
5196.2914053691
 30
0.0
 11
5954.7167767847
 21
5198.2458258388
 31
0.0
  0
ARC
  5
1FC
330
1F
100
AcDbEntity
  8
0
  6
Continuous
 62
     7
370
    25
100
AcDbCircle
 10
5955.3843955718
 20
5196.2914047183
 30
0.0
 40
0.6676186886570576
100
AcDbArc
 50
180.0
 51
0.0
  0
LINE
  5
1FD
330
1F
100
AcDbEntity
  8
0
  6
Continuous
 62
     7
370
    25
100
AcDbLine
 10
5956.0520141927
 20
5207.5719061648
 30
0.0
 11
5956.0520141927
 21
5196.2914053691
 31
0.0
  0
ARC
  5
1FE
330
1F
100
AcDbEntity
  8
0
  6
Continuous
 62
     7
370
    25
100
AcDbCircle
 10
5956.6394571557
 20
5207.5719059881
 30
0.0
 40
0.5874428952447488
100
AcDbArc
 50
0.0
 51
180.0
  0
LINE
  5
1FF
330
1F
100
AcDbEntity
  8
0
  6
Continuous
 62
     7
370
    25
100
AcDbLine
 10
5957.2269000887
 20
5199.9010654507
 30
0.0
 11
5957.2269000887
 21
5207.5719061648
 31
0.0
  0
ARC
  5
200
330
1F
100
AcDbEntity
  8
0
  6
Continuous
 62
     7
370
    25
100
AcDbCircle
 10
5880.6464262863
 20
5296.8297925306
 30
0.0
 40
1.000000000000909
100
AcDbArc
 50
90.0
 51
180.0
  0
LINE
  5
201
330
1F
100
AcDbEntity
  8
0
  6
Continuous
 62
     7
370
    25
100
AcDbLine
 10
6036.6464229842
 20
5297.829791565
 30
0.0
 11
5880.6464272162
 21
5297.829791565
 31
0.0
  0
ARC
  5
202
330
1F
100
AcDbEntity
  8
0
  6
Continuous
 62
     7
370
    25
100
AcDbCircle
 10
6036.6464262863
 20
5296.8297925306
 30
0.0
 40
1.000000000000909
100
AcDbArc
 50
0.0
 51
90.0
  0
LINE
  5
203
330
1F
100
AcDbEntity
  8
0
  6
Continuous
 62
     7
370
    25
100
AcDbLine
 10
6037.6464250108
 20
5130.8297958565
 30
0.0
 11
6037.6464250108
 21
5296.8297895385
 31
0.0
  0
ARC
  5
204
330
1F
100
AcDbEntity
  8
0
  6
Continuous
 62
     7
370
    25
100
AcDbCircle
 10
6036.6464262863
 20
5130.8297925306
 30
0.0
 40
1.000000000000909
100
AcDbArc
 50
270.0
 51
0.0
  0
LINE
  5
205
330
1F
100
AcDbEntity
  8
0
  6
Continuous
 62
     7
370
    25
100
AcDbLine
 10
5880.6464272162
 20
5129.82979383
 30
0.0
 11
6036.6464229842
 21
5129.82979383
 31
0.0
  0
ARC
  5
206
330
1F
100
AcDbEntity
  8
0
  6
Continuous
 62
     7
370
    25
100
AcDbCircle
 10
5880.6464262863
 20
5130.8297925306
 30
0.0
 40
1.000000000000909
100
AcDbArc
 50
180.0
 51
270.0
  0
LINE
  5
207
330
1F
100
AcDbEntity
  8
0
  6
Continuous
 62
     7
370
    25
100
AcDbLine
 10
5879.6464251896
 20
5296.8297895385
 30
0.0
 11
5879.6464251896
 21
5130.8297958565
 31
0.0
  0
LINE
  5
208
330
1F
100
AcDbEntity
  8
0
  6
Continuous
 62
     7
370
    25
100
AcDbLine
 10
6038.6464270373
 20
5296.8297895385
 30
0.0
 11
6038.6464270373
 21
5130.8297958565
 31
0.0
  0
LINE
  5
209
330
1F
100
AcDbEntity
  8
0
  6
Continuous
 62
     7
370
    25
100
AcDbLine
 10
6038.6464270373
 20
5130.8297958565
 30
0.0
 11
6037.6464250108
 21
5130.8297958565
 31
0.0
  0
LINE
  5
20A
330
1F
100
AcDbEntity
  8
0
  6
Continuous
 62
     7
370
    25
100
AcDbLine
 10
6038.6464270373
 20
5296.8297895385
 30
0.0
 11
6037.6464250108
 21
5296.8297895385
 31
0.0
  0
LINE
  5
20B
330
1F
100
AcDbEntity
  8
0
  6
Continuous
 62
     7
370
    25
100
AcDbLine
 10
6036.6464229842
 20
5297.829791565
 30
0.0
 11
6036.6464229842
 21
5298.8297935916
 31
0.0
  0
ARC
  5
20C
330
1F
100
AcDbEntity
  8
0
  6
Continuous
 62
     7
370
    25
100
AcDbCircle
 10
6036.6464262863
 20
5296.8297925306
 30
0.0
 40
2.0
100
AcDbArc
 50
0.0
 51
90.0
  0
LINE
  5
20D
330
1F
100
AcDbEntity
  8
0
  6
Continuous
 62
     7
370
    25
100
AcDbLine
 10
5880.6464272162
 20
5297.829791565
 30
0.0
 11
5880.6464272162
 21
5298.8297935916
 31
0.0
  0
LINE
  5
20E
330
1F
100
AcDbEntity
  8
0
  6
Continuous
 62
     7
370
    25
100
AcDbLine
 10
5880.6464272162
 20
5298.8297935916
 30
0.0
 11
6036.6464229842
 21
5298.8297935916
 31
0.0
  0
ARC
  5
20F
330
1F
100
AcDbEntity
  8
0
  6
Continuous
 62
     7
370
    25
100
AcDbCircle
 10
6036.6464262863
 20
5130.8297925306
 30
0.0
 40
2.000000000000909
100
AcDbArc
 50
270.0
 51
0.0
  0
LINE
  5
210
330
1F
100
AcDbEntity
  8
0
  6
Continuous
 62
     7
370
    25
100
AcDbLine
 10
6036.6464229842
 20
5128.8297918034
 30
0.0
 11
6036.6464229842
 21
5129.82979383
 31
0.0
  0
LINE
  5
211
330
1F
100
AcDbEntity
  8
0
  6
Continuous
 62
     7
370
    25
100
AcDbLine
 10
6036.6464229842
 20
5128.8297918034
 30
0.0
 11
5880.6464272162
 21
5128.8297918034
 31
0.0
  0
LINE
  5
212
330
1F
100
AcDbEntity
  8
0
  6
Continuous
 62
     7
370
    25
100
AcDbLine
 10
5880.6464272162
 20
5128.8297918034
 30
0.0
 11
5880.6464272162
 21
5129.82979383
 31
0.0
  0
LINE
  5
213
330
1F
100
AcDbEntity
  8
0
  6
Continuous
 62
     7
370
    25
100
AcDbLine
 10
5879.6464251896
 20
5296.8297895385
 30
0.0
 11
5878.646423163
 21
5296.8297895385
 31
0.0
  0
ARC
  5
214
330
1F
100
AcDbEntity
  8
0
  6
Continuous
 62
     7
370
    25
100
AcDbCircle
 10
5880.6464262863
 20
5296.8297925306
 30
0.0
 40
2.000000000000909
100
AcDbArc
 50
90.0
 51
180.0
  0
LINE
  5
215
330
1F
100
AcDbEntity
  8
0
  6
Continuous
 62
     7
370
    25
100
AcDbLine
 10
5879.6464251896
 20
5130.8297958565
 30
0.0
 11
5878.646423163
 21
5130.8297958565
 31
0.0
  0
LINE
  5
216
330
1F
100
AcDbEntity
  8
0
  6
Continuous
 62
     7
370
    25
100
AcDbLine
 10
5878.646423163
 20
5130.8297958565
 30
0.0
 11
5878.646423163
 21
5296.8297895385
 31
0.0
  0
ARC
  5
217
330
1F
100
AcDbEntity
  8
0
  6
Continuous
 62
     7
370
    25
100
AcDbCircle
 10
5880.6464262863
 20
5130.8297925306
 30
0.0
 40
2.000000000000909
100
AcDbArc
 50
180.0
 51
270.0
  0
LINE
  5
218
330
1F
100
AcDbEntity
  8
0
  6
Continuous
 62
     7
370
    25
100
AcDbLine
 10
5958.4595038209
 20
5128.6797892643
 30
0.0
 11
5946.7759263312
 21
5128.6797892643
 31
0.0
  0
LINE
  5
219
330
1F
100
AcDbEntity
  8
0
  6
Continuous
 62
     7
370
    25
100
AcDbLine
 10
5970.2169262414
 20
5128.6797892643
 30
0.0
 11
5958.4595038209
 21
5128.6797892643
 31
0.0
  0
LINE
  5
21A
330
1F
100
AcDbEntity
  8
0
  6
Continuous
 62
     7
370
    25
100
AcDbLine
 10
6023.9964249154
 20
4860.930093402
 30
0.0
 11
6023.9964249154
 21
4930.5300943796
 31
0.0
  0
LINE
  5
21B
330
1F
100
AcDbEntity
  8
0
  6
Continuous
 62
     7
370
    25
100
AcDbLine
 10
5892.9964276572
 20
4930.5300943796
 30
0.0
 11
5892.9964276572
 21
4860.930093402
 31
0.0
  0
LINE
  5
21C
330
1F
100
AcDbEntity
  8
0
  6
Continuous
 62
     7
370
    25
100
AcDbLine
 10
5899.0964266082
 20
4857.0300944392
 30
0.0
 11
5899.0964266082
 21
4858.0300964657
 31
0.0
  0
LINE
  5
21D
330
1F
100
AcDbEntity
  8
0
  6
Continuous
 62
     7
370
    25
100
AcDbLine
 10
5894.896422567
 20
4858.0300964657
 30
0.0
 11
5894.896422567
 21
4857.0300944392
 31
0.0
  0
LINE
  5
21E
330
1F
100
AcDbEntity
  8
0
  6
Continuous
 62
     7
370
    25
100
AcDbLine
 10
5944.6464265307
 20
4854.0300958101
 30
0.0
 11
5944.6464265307
 21
4853.5300947968
 31
0.0
  0
LINE
  5
21F
330
1F
100
AcDbEntity
  8
0
  6
Continuous
 62
     7
370
    25
100
AcDbLine
 10
5972.6464264636
 20
4853.5300947968
 30
0.0
 11
5972.6464264636
 21
4854.0300958101
 31
0.0
  0
LINE
  5
220
330
1F
100
AcDbEntity
  8
0
  6
Continuous
 62
     7
370
    25
100
AcDbLine
 10
5944.6464265307
 20
4853.5300947968
 30
0.0
 11
5946.1464258452
 21
4852.0300917569
 31
0.0
  0
LINE
  5
221
330
1F
100
AcDbEntity
  8
0
  6
Continuous
 62
     7
370
    25
100
AcDbLine
 10
5971.1464262178
 20
4852.0300917569
 30
0.0
 11
5972.6464264636
 21
4853.5300947968
 31
0.0
  0
LINE
  5
222
330
1F
100
AcDbEntity
  8
0
  6
Continuous
 62
     7
370
    25
100
AcDbLine
 10
5907.6189669391
 20
4860.930093402
 30
0.0
 11
5907.6189669391
 21
4858.0300964657
 31
0.0
  0
LINE
  5
223
330
1F
100
AcDbEntity
  8
0
  6
Continuous
 62
     7
370
    25
100
AcDbLine
 10
6009.3738856336
 20
4860.930093402
 30
0.0
 11
6009.3738856336
 21
4858.0300964657
 31
0.0
  0
LINE
  5
224
330
1F
100
AcDbEntity
  8
0
  6
Continuous
 62
     7
370
    25
100
AcDbLine
 10
6009.3738856336
 20
4858.0300964657
 30
0.0
 11
5907.6189669391
 21
4858.0300964657
 31
0.0
  0
LINE
  5
225
330
1F
100
AcDbEntity
  8
0
  6
Continuous
 62
     7
370
    25
100
AcDbLine
 10
6009.3738856336
 20
4860.930093402
 30
0.0
 11
5907.6189669391
 21
4860.930093402
 31
0.0
  0
LINE
  5
226
330
1F
100
AcDbEntity
  8
0
  6
Continuous
 62
     7
370
    25
100
AcDbLine
 10
5888.4964259883
 20
4860.930093402
 30
0.0
 11
5888.4964259883
 21
4858.0300964657
 31
0.0
  0
LINE
  5
227
330
1F
100
AcDbEntity
  8
0
  6
Continuous
 62
     7
370
    25
100
AcDbLine
 10
5905.4669896682
 20
4858.0300964657
 30
0.0
 11
5888.6058303138
 21
4858.0300964657
 31
0.0
  0
LINE
  5
228
330
1F
100
AcDbEntity
  8
0
  6
Continuous
 62
     7
370
    25
100
AcDbLine
 10
5907.6189669391
 20
4860.930093402
 30
0.0
 11
5888.4964259883
 21
4860.930093402
 31
0.0
  0
LINE
  5
229
330
1F
100
AcDbEntity
  8
0
  6
Continuous
 62
     7
370
    25
100
AcDbLine
 10
6028.4964265843
 20
4860.930093402
 30
0.0
 11
6028.4964265843
 21
4858.0300964657
 31
0.0
  0
LINE
  5
22A
330
1F
100
AcDbEntity
  8
0
  6
Continuous
 62
     7
370
    25
100
AcDbLine
 10
6009.3738856336
 20
4860.930093402
 30
0.0
 11
6028.4964265843
 21
4860.930093402
 31
0.0
  0
LINE
  5
22B
330
1F
100
AcDbEntity
  8
0
  6
Continuous
 62
     7
370
    25
100
AcDbLine
 10
6007.5111436268
 20
4860.930093402
 30
0.0
 11
6007.5111436268
 21
4930.5300943796
 31
0.0
  0
LINE
  5
22C
330
1F
100
AcDbEntity
  8
0
  6
Continuous
 62
     7
370
    25
100
AcDbLine
 10
6012.925357612
 20
4930.5300943796
 30
0.0
 11
6007.5111436268
 21
4930.5300943796
 31
0.0
  0
LINE
  5
22D
330
1F
100
AcDbEntity
  8
0
  6
Continuous
 62
     7
370
    25
100
AcDbLine
 10
6012.925357612
 20
4860.930093402
 30
0.0
 11
6012.925357612
 21
4930.5300943796
 31
0.0
  0
LINE
  5
22E
330
1F
100
AcDbEntity
  8
0
  6
Continuous
 62
     7
370
    25
100
AcDbLine
 10
5909.4817089458
 20
4930.5300943796
 30
0.0
 11
6007.5111436268
 21
4930.5300943796
 31
0.0
  0
LINE
  5
22F
330
1F
100
AcDbEntity
  8
0
  6
Continuous
 62
     7
370
    25
100
AcDbLine
 10
5909.4817089458
 20
4860.930093402
 30
0.0
 11
5909.4817089458
 21
4930.5300943796
 31
0.0
  0
LINE
  5
230
330
1F
100
AcDbEntity
  8
0
  6
Continuous
 62
     7
370
    25
100
AcDbLine
 10
5904.0674949606
 20
4930.5300943796
 30
0.0
 11
5909.4817089458
 21
4930.5300943796
 31
0.0
  0
LINE
  5
231
330
1F
100
AcDbEntity
  8
0
  6
Continuous
 62
     7
370
    25
100
AcDbLine
 10
5904.0674949606
 20
4860.930093402
 30
0.0
 11
5904.0674949606
 21
4930.5300943796
 31
0.0
  0
LINE
  5
232
330
1F
100
AcDbEntity
  8
0
  6
Continuous
 62
     7
370
    25
100
AcDbLine
 10
6017.1679976007
 20
4860.930093402
 30
0.0
 11
6017.1679976007
 21
4930.5300943796
 31
0.0
  0
LINE
  5
233
330
1F
100
AcDbEntity
  8
0
  6
Continuous
 62
     7
370
    25
100
AcDbLine
 10
6023.9964249154
 20
4930.5300943796
 30
0.0
 11
6017.1679976007
 21
4930.5300943796
 31
0.0
  0
LINE
  5
234
330
1F
100
AcDbEntity
  8
0
  6
Continuous
 62
     7
370
    25
100
AcDbLine
 10
5899.824854972
 20
4860.930093402
 30
0.0
 11
5899.824854972
 21
4930.5300943796
 31
0.0
  0
LINE
  5
235
330
1F
100
AcDbEntity
  8
0
  6
Continuous
 62
     7
370
    25
100
AcDbLine
 10
5892.9964276572
 20
4930.5300943796
 30
0.0
 11
5899.824854972
 21
4930.5300943796
 31
0.0
  0
LINE
  5
236
330
1F
100
AcDbEntity
  8
0
  6
Continuous
 62
     7
370
    25
100
AcDbLine
 10
5899.824854972
 20
4930.5300943796
 30
0.0
 11
5904.0674949606
 21
4930.5300943796
 31
0.0
  0
LINE
  5
237
330
1F
100
AcDbEntity
  8
0
  6
Continuous
 62
     7
370
    25
100
AcDbLine
 10
6017.1679976007
 20
4930.5300943796
 30
0.0
 11
6012.925357612
 21
4930.5300943796
 31
0.0
  0
LINE
  5
238
330
1F
100
AcDbEntity
  8
0
  6
Continuous
 62
     7
370
    25
100
AcDbLine
 10
6023.9964249154
 20
4860.930093402
 30
0.0
 11
6023.9964249154
 21
4930.5300943796
 31
0.0
  0
LINE
  5
239
330
1F
100
AcDbEntity
  8
0
  6
Continuous
 62
     7
370
    25
100
AcDbLine
 10
5892.9964276572
 20
4860.930093402
 30
0.0
 11
5892.9964276572
 21
4930.5300943796
 31
0.0
  0
LINE
  5
23A
330
1F
100
AcDbEntity
  8
0
  6
Continuous
 62
     7
370
    25
100
AcDbLine
 10
5944.6464265307
 20
4853.5300947968
 30
0.0
 11
5972.6464264636
 21
4853.5300947968
 31
0.0
  0
LINE
  5
23B
330
1F
100
AcDbEntity
  8
0
  6
Continuous
 62
     7
370
    25
100
AcDbLine
 10
5971.1464262178
 20
4852.0300917569
 30
0.0
 11
5946.1464258452
 21
4852.0300917569
 31
0.0
  0
LINE
  5
23C
330
1F
100
AcDbEntity
  8
0
  6
Continuous
 62
     7
370
    25
100
AcDbLine
 10
6036.6464229842
 20
4857.0300944392
 30
0.0
 11
5880.6464272162
 21
4857.0300944392
 31
0.0
  0
LINE
  5
23D
330
1F
100
AcDbEntity
  8
0
  6
Continuous
 62
     7
370
    25
100
AcDbLine
 10
6036.6464229842
 20
4855.0300978366
 30
0.0
 11
6036.6464229842
 21
4857.0300944392
 31
0.0
  0
LINE
  5
23E
330
1F
100
AcDbEntity
  8
0
  6
Continuous
 62
     7
370
    25
100
AcDbLine
 10
5880.6464272162
 20
4855.0300978366
 30
0.0
 11
6036.6464229842
 21
4855.0300978366
 31
0.0
  0
LINE
  5
23F
330
1F
100
AcDbEntity
  8
0
  6
Continuous
 62
     7
370
    25
100
AcDbLine
 10
5880.6464272162
 20
4857.0300944392
 30
0.0
 11
5880.6464272162
 21
4855.0300978366
 31
0.0
  0
LINE
  5
240
330
1F
100
AcDbEntity
  8
0
  6
Continuous
 62
     7
370
    25
100
AcDbLine
 10
6038.6464270373
 20
4857.0300944392
 30
0.0
 11
6038.6464270373
 21
4855.0300978366
 31
0.0
  0
LINE
  5
241
330
1F
100
AcDbEntity
  8
0
  6
Continuous
 62
     7
370
    25
100
AcDbLine
 10
6036.6464229842
 20
4855.0300978366
 30
0.0
 11
6038.6464270373
 21
4855.0300978366
 31
0.0
  0
LINE
  5
242
330
1F
100
AcDbEntity
  8
0
  6
Continuous
 62
     7
370
    25
100
AcDbLine
 10
6036.6464229842
 20
4857.0300944392
 30
0.0
 11
6038.6464270373
 21
4857.0300944392
 31
0.0
  0
LINE
  5
243
330
1F
100
AcDbEntity
  8
0
  6
Continuous
 62
     7
370
    25
100
AcDbLine
 10
5878.646423163
 20
4855.0300978366
 30
0.0
 11
5880.6464272162
 21
4855.0300978366
 31
0.0
  0
LINE
  5
244
330
1F
100
AcDbEntity
  8
0
  6
Continuous
 62
     7
370
    25
100
AcDbLine
 10
5878.646423163
 20
4855.0300978366
 30
0.0
 11
5878.646423163
 21
4857.0300944392
 31
0.0
  0
LINE
  5
245
330
1F
100
AcDbEntity
  8
0
  6
Continuous
 62
     7
370
    25
100
AcDbLine
 10
5878.646423163
 20
4857.0300944392
 30
0.0
 11
5880.6464272162
 21
4857.0300944392
 31
0.0
  0
LINE
  5
246
330
1F
100
AcDbEntity
  8
0
  6
Continuous
 62
     7
370
    25
100
AcDbLine
 10
6036.6464229842
 20
4854.0300958101
 30
0.0
 11
5880.6464272162
 21
4854.0300958101
 31
0.0
  0
LINE
  5
247
330
1F
100
AcDbEntity
  8
0
  6
Continuous
 62
     7
370
    25
100
AcDbLine
 10
5880.6464272162
 20
4854.0300958101
 30
0.0
 11
5880.6464272162
 21
4855.0300978366
 31
0.0
  0
LINE
  5
248
330
1F
100
AcDbEntity
  8
0
  6
Continuous
 62
     7
370
    25
100
AcDbLine
 10
6036.6464229842
 20
4854.0300958101
 30
0.0
 11
6036.6464229842
 21
4855.0300978366
 31
0.0
  0
LINE
  5
249
330
1F
100
AcDbEntity
  8
0
  6
Continuous
 62
     7
370
    25
100
AcDbLine
 10
6037.6464250108
 20
4854.0300958101
 30
0.0
 11
6036.6464229842
 21
4854.0300958101
 31
0.0
  0
LINE
  5
24A
330
1F
100
AcDbEntity
  8
0
  6
Continuous
 62
     7
370
    25
100
AcDbLine
 10
6038.6464270373
 20
4855.0300978366
 30
0.0
 11
6037.6464250108
 21
4854.0300958101
 31
0.0
  0
LINE
  5
24B
330
1F
100
AcDbEntity
  8
0
  6
Continuous
 62
     7
370
    25
100
AcDbLine
 10
5880.6464272162
 20
4854.0300958101
 30
0.0
 11
5879.6464251896
 21
4854.0300958101
 31
0.0
  0
LINE
  5
24C
330
1F
100
AcDbEntity
  8
0
  6
Continuous
 62
     7
370
    25
100
AcDbLine
 10
5879.6464251896
 20
4854.0300958101
 30
0.0
 11
5878.646423163
 21
4855.0300978366
 31
0.0
  0
LINE
  5
24D
330
1F
100
AcDbEntity
  8
0
  6
Continuous
 62
     7
370
    25
100
AcDbLine
 10
5965.7749762369
 20
4903.7472240869
 30
0.0
 11
5965.2856058051
 21
4901.7086502407
 31
0.0
  0
SPLINE
  5
24E
330
1F
100
AcDbEntity
  8
0
  6
Continuous
 62
     7
370
    25
100
AcDbSpline
210
0.0
220
0.0
230
1.0
 70
     8
 71
     3
 72
    12
 73
     8
 74
     0
 42
0.000000001
 43
0.00000001
 40
0.0
 40
0.0
 40
0.0
 40
0.0
 40
0.0684904521048834
 40
0.3439657881421572
 40
0.5587717002642032
 40
0.7735775137539617
 40
1.0
 40
1.0
 40
1.0
 40
1.0
 10
5962.736012468257
 20
4898.976255977521
 30
0.0
 10
5962.84311209549
 20
4899.053990339562
 30
0.0
 10
5963.380976959264
 20
4899.44437995276
 30
0.0
 10
5964.159225117975
 20
4900.209377468311
 30
0.0
 10
5964.933609468905
 20
4901.334846283736
 30
0.0
 10
5965.485781426196
 20
4902.486475973505
 30
0.0
 10
5965.676900701861
 20
4903.319662660533
 30
0.0
 10
5965.774976236889
 20
4903.74722408689
 30
0.0
  0
CIRCLE
  5
24F
330
1F
100
AcDbEntity
  8
0
  6
Continuous
 62
     7
370
    25
100
AcDbCircle
 10
5958.4964262863
 20
4905.0300943796
 30
0.0
 40
7.25
  0
SPLINE
  5
250
330
1F
100
AcDbEntity
  8
0
  6
Continuous
 62
     7
370
    25
100
AcDbSpline
210
0.0
220
0.0
230
1.0
 70
     8
 71
     3
 72
    14
 73
    10
 74
     0
 42
0.000000001
 43
0.00000001
 40
0.0
 40
0.0
 40
0.0
 40
0.0
 40
0.0984465325410735
 40
0.2479490763127506
 40
0.3974516819543887
 40
0.5470197746730907
 40
0.6965749020419367
 40
0.8482875355282218
 40
1.0
 40
1.0
 40
1.0
 40
1.0
 10
5954.694867188254
 20
4898.508791649709
 30
0.0
 10
5954.938982817644
 20
4898.37201641261
 30
0.0
 10
5955.553816507144
 20
4898.027532022699
 30
0.0
 10
5956.643873821758
 20
4897.703107649555
 30
0.0
 10
5957.905872952523
 20
4897.514009554608
 30
0.0
 10
5959.185625340057
 20
4897.551787797301
 30
0.0
 10
5960.443936508128
 20
4897.804922797398
 30
0.0
 10
5961.654243065484
 20
4898.265725863922
 30
0.0
 10
5962.375422801238
 20
4898.739412694273
 30
0.0
 10
5962.736012468257
 20
4898.976255977521
 30
0.0
  0
CIRCLE
  5
251
330
1F
100
AcDbEntity
  8
0
  6
Continuous
 62
     7
370
    25
100
AcDbCircle
 10
5958.4964262863
 20
4905.0300943796
 30
0.0
 40
6.250000000000909
  0
CIRCLE
  5
252
330
1F
100
AcDbEntity
  8
0
  6
Continuous
 62
     7
370
    25
100
AcDbCircle
 10
5958.4964262863
 20
4905.0300943796
 30
0.0
 40
3.650000000000546
  0
SPLINE
  5
253
330
1F
100
AcDbEntity
  8
0
  6
Continuous
 62
     7
370
    25
100
AcDbSpline
210
0.0
220
0.0
230
1.0
 70
     8
 71
     3
 72
    39
 73
    35
 74
     0
 42
0.000000001
 43
0.00000001
 40
0.0
 40
0.0
 40
0.0
 40
0.0
 40
0.0308463630216908
 40
0.0621059475587126
 40
0.0933651321343214
 40
0.1258167787821194
 40
0.1582684400312326
 40
0.1904165735718292
 40
0.2225647221769899
 40
0.2547204271646524
 40
0.2868744394687359
 40
0.3187995980404642
 40
0.3507247615270718
 40
0.3825674241070181
 40
0.4144079615611914
 40
0.4461267655388508
 40
0.4778456102651053
 40
0.5093762638026925
 40
0.5409061068033744
 40
0.5724168303825715
 40
0.6039275816418934
 40
0.635148431736465
 40
0.6663692864628934
 40
0.697598362053356
 40
0.7288259384134942
 40
0.7598088573123234
 40
0.7907917673653287
 40
0.8217076555007448
 40
0.8526213500871369
 40
0.883397975146152
 40
0.9141746045069874
 40
0.9447783197533387
 40
0.975380943615796
 40
1.0
 40
1.0
 40
1.0
 40
1.0
 10
5945.575328597942
 20
4907.827743167052
 30
0.0
 10
5945.466484102986
 20
4907.129689873102
 30
0.0
 10
5945.247337019389
 20
4905.724232080987
 30
0.0
 10
5945.356274158292
 20
4903.57926103618
 30
0.0
 10
5945.787375078563
 20
4901.44439506811
 30
0.0
 10
5946.590042796701
 20
4899.386295417529
 30
0.0
 10
5947.732155952733
 20
4897.472782785018
 30
0.0
 10
5949.182393587142
 20
4895.789875539556
 30
0.0
 10
5950.884241439006
 20
4894.37263342068
 30
0.0
 10
5952.804180694555
 20
4893.268169123652
 30
0.0
 10
5954.875927245846
 20
4892.498847535762
 30
0.0
 10
5957.044018150355
 20
4892.099847259698
 30
0.0
 10
5959.241038548096
 20
4892.063858210275
 30
0.0
 10
5961.409782334274
 20
4892.404609908353
 30
0.0
 10
5963.488221203174
 20
4893.097211851872
 30
0.0
 10
5965.413103201702
 20
4894.137264864997
 30
0.0
 10
5967.133843141359
 20
4895.476959116882
 30
0.0
 10
5968.595825899968
 20
4897.089025640915
 30
0.0
 10
5969.770377090417
 20
4898.915583953432
 30
0.0
 10
5970.61212427987
 20
4900.917036825246
 30
0.0
 10
5971.108224259398
 20
4903.023593806492
 30
0.0
 10
5971.233859860248
 20
4905.177217996949
 30
0.0
 10
5971.004476377839
 20
4907.315800788318
 30
0.0
 10
5970.411396354757
 20
4909.383535576319
 30
0.0
 10
5969.485900663875
 20
4911.319472120019
 30
0.0
 10
5968.24343571736
 20
4913.061762523575
 30
0.0
 10
5966.735911919502
 20
4914.570404338444
 30
0.0
 10
5964.993480036437
 20
4915.797451609946
 30
0.0
 10
5963.076354612405
 20
4916.717986635807
 30
0.0
 10
5961.032300998952
 20
4917.291901429546
 30
0.0
 10
5958.927818172034
 20
4917.520601551997
 30
0.0
 10
5956.822328416325
 20
4917.379618454393
 30
0.0
 10
5954.896050310903
 20
4916.944694727217
 30
0.0
 10
5953.738767979914
 20
4916.436517108184
 30
0.0
 10
5953.222825711736
 20
4916.209960194299
 30
0.0
  0
ARC
  5
254
330
1F
100
AcDbEntity
  8
0
  6
Continuous
 62
     7
370
    25
100
AcDbCircle
 10
5958.4964262863
 20
4905.0300943796
 30
0.0
 40
13.22050000000062
100
AcDbArc
 50
77.7830172522
 51
167.7830161819
  0
SPLINE
  5
255
330
1F
100
AcDbEntity
  8
0
  6
Continuous
 62
     7
370
    25
100
AcDbSpline
210
0.0
220
0.0
230
1.0
 70
     8
 71
     3
 72
    16
 73
    12
 74
     0
 42
0.000000001
 43
0.00000001
 40
0.0
 40
0.0
 40
0.0
 40
0.0
 40
0.1148327995066092
 40
0.2307153512010734
 40
0.3466032739456055
 40
0.4626832312143815
 40
0.5787631648326655
 40
0.6949736441802962
 40
0.8112108798678195
 40
0.9056054485966281
 40
1.0
 40
1.0
 40
1.0
 40
1.0
 10
5946.862068081417
 20
4909.206454480061
 30
0.0
 10
5947.101857116978
 20
4909.870868223687
 30
0.0
 10
5947.58362723659
 20
4911.205769496334
 30
0.0
 10
5948.731342423303
 20
4913.014723195152
 30
0.0
 10
5950.140847070435
 20
4914.627560256744
 30
0.0
 10
5951.812710128343
 20
4915.973681590784
 30
0.0
 10
5953.683137336462
 20
4917.02819510579
 30
0.0
 10
5955.708398442017
 20
4917.748166024076
 30
0.0
 10
5957.689999472792
 20
4918.103121949149
 30
0.0
 10
5959.568273098333
 20
4918.173805244021
 30
0.0
 10
5960.718808242062
 20
4918.025396773312
 30
0.0
 10
5961.294075761133
 20
4917.951192544768
 30
0.0
  0
SPLINE
  5
256
330
1F
100
AcDbEntity
  8
0
  6
Continuous
 62
     7
370
    25
100
AcDbSpline
210
0.0
220
0.0
230
1.0
 70
     8
 71
     3
 72
    13
 73
     9
 74
     0
 42
0.000000001
 43
0.00000001
 40
0.0
 40
0.0
 40
0.0
 40
0.0
 40
0.0409241016593772
 40
0.2049391970679996
 40
0.4196578532734753
 40
0.6343764297073603
 40
0.817188130824304
 40
1.0
 40
1.0
 40
1.0
 40
1.0
 10
5953.222825711736
 20
4916.209960194299
 30
0.0
 10
5953.103735040949
 20
4916.152303577859
 30
0.0
 10
5952.507354290736
 20
4915.863571505566
 30
0.0
 10
5951.33981397667
 20
4915.163954309333
 30
0.0
 10
5949.847876151806
 20
4913.942784508321
 30
0.0
 10
5948.544526298506
 20
4912.442301596631
 30
0.0
 10
5947.532081733715
 20
4910.851332382026
 30
0.0
 10
5947.085406033954
 20
4909.754747282065
 30
0.0
 10
5946.862068081417
 20
4909.206454480061
 30
0.0
  0
CIRCLE
  5
257
330
1F
100
AcDbEntity
  8
0
  6
Continuous
 62
     7
370
    25
100
AcDbCircle
 10
5958.4964262863
 20
4905.0300943796
 30
0.0
 40
11.7205000000001
  0
CIRCLE
  5
258
330
1F
100
AcDbEntity
  8
0
  6
Continuous
 62
     7
370
    25
100
AcDbCircle
 10
5958.4964262863
 20
4905.0300943796
 30
0.0
 40
7.625000000000274
  0
SPLINE
  5
259
330
1F
100
AcDbEntity
  8
0
  6
Continuous
 62
     7
370
    25
100
AcDbSpline
210
0.0
220
0.0
230
1.0
 70
     8
 71
     3
 72
    34
 73
    30
 74
     0
 42
0.000000001
 43
0.00000001
 40
0.0
 40
0.0
 40
0.0
 40
0.0
 40
0.0280700585732177
 40
0.0656249336625923
 40
0.1028660317148245
 40
0.140871723742783
 40
0.179173450594954
 40
0.2172379867267517
 40
0.2545579663575798
 40
0.2920132542130434
 40
0.3301462951093539
 40
0.3684377087004426
 40
0.4063551201074225
 40
0.4435278203617137
 40
0.4812063014929168
 40
0.5194315773293599
 40
0.5576766658518799
 40
0.5954130110284076
 40
0.6325672461514777
 40
0.670436350005198
 40
0.7087182028517754
 40
0.7468811943058166
 40
0.784403531712101
 40
0.8216682844990006
 40
0.8596943380451962
 40
0.8979967619851892
 40
0.9360424264312932
 40
0.985683343046222
 40
1.0
 40
1.0
 40
1.0
 40
1.0
 10
5961.294075761133
 20
4917.951192544768
 30
0.0
 10
5961.819016589813
 20
4917.817470977269
 30
0.0
 10
5963.046274700767
 20
4917.504843592703
 30
0.0
 10
5964.863357147842
 20
4916.680020303242
 30
0.0
 10
5966.688579346869
 20
4915.48392021069
 30
0.0
 10
5968.301989007267
 20
4913.988934940363
 30
0.0
 10
5969.654624777585
 20
4912.235241375236
 30
0.0
 10
5970.690083465627
 20
4910.292279367054
 30
0.0
 10
5971.386905323905
 20
4908.22161082298
 30
0.0
 10
5971.737143263899
 20
4906.063646587352
 30
0.0
 10
5971.726982451211
 20
4903.858311933492
 30
0.0
 10
5971.348097158811
 20
4901.676585421937
 30
0.0
 10
5970.618333504062
 20
4899.605803932304
 30
0.0
 10
5969.565414613586
 20
4897.693134569638
 30
0.0
 10
5968.210687974065
 20
4895.972975066373
 30
0.0
 10
5966.574485110842
 20
4894.486486036744
 30
0.0
 10
5964.712473341443
 20
4893.292870265855
 30
0.0
 10
5962.697807854373
 20
4892.432338473517
 30
0.0
 10
5960.577082177904
 20
4891.914011463483
 30
0.0
 10
5958.389217162542
 20
4891.748622935819
 30
0.0
 10
5956.184610780273
 20
4891.950455333847
 30
0.0
 10
5954.050939065694
 20
4892.515023295044
 30
0.0
 10
5952.05804798068
 20
4893.415600500448
 30
0.0
 10
5950.240330942162
 20
4894.627412229457
 30
0.0
 10
5948.637091261181
 20
4896.13178154148
 30
0.0
 10
5947.288574756612
 20
4897.893744894964
 30
0.0
 10
5946.182257754716
 20
4900.055773731129
 30
0.0
 10
5945.512157922997
 20
4901.945369728253
 30
0.0
 10
5945.45007183601
 20
4903.178620466062
 30
0.0
 10
5945.436174104133
 20
4903.454678902397
 30
0.0
  0
SPLINE
  5
25A
330
1F
100
AcDbEntity
  8
0
  6
Continuous
 62
     7
370
    25
100
AcDbSpline
210
0.0
220
0.0
230
1.0
 70
     8
 71
     3
 72
    12
 73
     8
 74
     0
 42
0.000000001
 43
0.00000001
 40
0.0
 40
0.0
 40
0.0
 40
0.0
 40
0.168954795899866
 40
0.335366710073227
 40
0.6509911397681493
 40
0.9709690474915945
 40
1.0
 40
1.0
 40
1.0
 40
1.0
 10
5946.862068081417
 20
4909.206454480061
 30
0.0
 10
5947.041911380117
 20
4909.657645083978
 30
0.0
 10
5947.398891216604
 20
4910.553235573999
 30
0.0
 10
5948.338445102457
 20
4912.180459916045
 30
0.0
 10
5949.830926540694
 20
4913.936008141939
 30
0.0
 10
5951.293026362012
 20
4915.233681410433
 30
0.0
 10
5952.205074419792
 20
4915.651262328509
 30
0.0
 10
5952.280939610818
 20
4915.685997182498
 30
0.0
  0
LINE
  5
25B
330
1F
100
AcDbEntity
  8
0
  6
Continuous
 62
     7
370
    25
100
AcDbLine
 10
5969.8065836524
 20
4915.1648421083
 30
0.0
 11
5965.0929109735
 21
4916.4629129935
 31
0.0
  0
LINE
  5
25C
330
1F
100
AcDbEntity
  8
0
  6
Continuous
 62
     7
370
    25
100
AcDbLine
 10
5958.6028805966
 20
4918.2501657177
 30
0.0
 11
5954.777586328
 21
4919.3035921324
 31
0.0
  0
LINE
  5
25D
330
1F
100
AcDbEntity
  8
0
  6
Continuous
 62
     7
370
    25
100
AcDbLine
 10
5973.3140273561
 20
4901.7027158532
 30
0.0
 11
5969.8065836524
 21
4915.1648421083
 31
0.0
  0
LINE
  5
25E
330
1F
100
AcDbEntity
  8
0
  6
Continuous
 62
     7
370
    25
100
AcDbLine
 10
5969.7961593588
 20
4898.233228201
 30
0.0
 11
5973.3140273561
 21
4901.7027158532
 31
0.0
  0
LINE
  5
25F
330
1F
100
AcDbEntity
  8
0
  6
Continuous
 62
     7
370
    25
100
AcDbLine
 10
5954.777586328
 20
4919.3035921324
 30
0.0
 11
5951.9526456093
 21
4916.5175024662
 31
0.0
  0
LINE
  5
260
330
1F
100
AcDbEntity
  8
0
  6
Continuous
 62
     7
370
    25
100
AcDbLine
 10
5947.1862689202
 20
4894.8953457419
 30
0.0
 11
5951.8199293484
 21
4893.6193108801
 31
0.0
  0
LINE
  5
261
330
1F
100
AcDbEntity
  8
0
  6
Continuous
 62
     7
370
    25
100
AcDbLine
 10
5943.6788252165
 20
4908.3574738596
 30
0.0
 11
5947.1862689202
 21
4894.8953457419
 31
0.0
  0
LINE
  5
262
330
1F
100
AcDbEntity
  8
0
  6
Continuous
 62
     7
370
    25
100
AcDbLine
 10
5947.1007353236
 20
4911.7323223744
 30
0.0
 11
5943.6788252165
 21
4908.3574738596
 31
0.0
  0
LINE
  5
263
330
1F
100
AcDbEntity
  8
0
  6
Continuous
 62
     7
370
    25
100
AcDbLine
 10
5958.3176580305
 20
4891.8299384657
 30
0.0
 11
5962.2152662446
 21
4890.7565966491
 31
0.0
  0
LINE
  5
264
330
1F
100
AcDbEntity
  8
0
  6
Continuous
 62
     7
370
    25
100
AcDbLine
 10
5962.2152662446
 20
4890.7565966491
 30
0.0
 11
5965.1375422796
 21
4893.6386823896
 31
0.0
  0
LINE
  5
265
330
1F
100
AcDbEntity
  8
0
  6
Continuous
 62
     7
370
    25
100
AcDbLine
 10
6013.4964259883
 20
4858.0300964657
 30
0.0
 11
6013.4964259883
 21
4857.0300944392
 31
0.0
  0
LINE
  5
266
330
1F
100
AcDbEntity
  8
0
  6
Continuous
 62
     7
370
    25
100
AcDbLine
 10
5905.4669896682
 20
4858.0300964657
 30
0.0
 11
5905.4669896682
 21
4857.0300944392
 31
0.0
  0
LINE
  5
267
330
1F
100
AcDbEntity
  8
0
  6
Continuous
 62
     7
370
    25
100
AcDbLine
 10
6013.4964259883
 20
4858.0300964657
 30
0.0
 11
5905.4669896682
 21
4858.0300964657
 31
0.0
  0
LINE
  5
268
330
1F
100
AcDbEntity
  8
0
  6
Continuous
 62
     7
370
    25
100
AcDbLine
 10
6028.4964265843
 20
4858.0300964657
 30
0.0
 11
6028.4964265843
 21
4857.0300944392
 31
0.0
  0
LINE
  5
269
330
1F
100
AcDbEntity
  8
0
  6
Continuous
 62
     7
370
    25
100
AcDbLine
 10
6028.4964265843
 20
4858.0300964657
 30
0.0
 11
6013.4964259883
 21
4858.0300964657
 31
0.0
  0
LINE
  5
26A
330
1F
100
AcDbEntity
  8
0
  6
Continuous
 62
     7
370
    25
100
AcDbLine
 10
5888.4964259883
 20
4858.0300964657
 30
0.0
 11
5888.4964259883
 21
4857.0300944392
 31
0.0
  0
LINE
  5
26B
330
1F
100
AcDbEntity
  8
0
  6
Continuous
 62
     7
370
    25
100
AcDbLine
 10
5888.6058303138
 20
4858.0300964657
 30
0.0
 11
5888.4964259883
 21
4858.0300964657
 31
0.0
  0
ENDSEC
  0
SECTION
  2
OBJECTS
  0
DICTIONARY
  5
C
330
0
100
AcDbDictionary
281
     1
  3
ACAD_GROUP
350
D
  3
ACAD_LAYOUT
350
1A
  3
ACAD_MLINESTYLE
350
17
  3
ACAD_PLOTSETTINGS
350
19
  3
ACAD_PLOTSTYLENAME
350
E
  3
ACAD_SCALELIST
350
47
  0
DICTIONARY
  5
D
102
{ACAD_REACTORS
330
C
102
}
330
C
100
AcDbDictionary
281
     1
  0
DICTIONARY
  5
1A
102
{ACAD_REACTORS
330
C
102
}
330
C
100
AcDbDictionary
281
     1
  3
Layout1
350
1E
  3
Layout2
350
26
  3
Model
350
22
  0
DICTIONARY
  5
17
102
{ACAD_REACTORS
330
C
102
}
330
C
100
AcDbDictionary
281
     1
  3
Standard
350
18
  0
DICTIONARY
  5
19
102
{ACAD_REACTORS
330
C
102
}
330
C
100
AcDbDictionary
281
     1
  0
ACDBDICTIONARYWDFLT
  5
E
102
{ACAD_REACTORS
330
C
102
}
330
C
100
AcDbDictionary
281
     1
  3
Normal
350
F
100
AcDbDictionaryWithDefault
340
F
  0
DICTIONARY
  5
47
102
{ACAD_REACTORS
330
C
102
}
330
C
100
AcDbDictionary
281
     1
  3
A0
350
48
  3
A1
350
49
  3
A2
350
4A
  3
A3
350
4B
  3
A4
350
4C
  3
A5
350
4D
  3
A6
350
4E
  3
A7
350
4F
  3
A8
350
50
  3
A9
350
51
  3
B0
350
52
  3
B1
350
53
  3
B2
350
54
  3
B3
350
55
  3
B4
350
56
  3
B5
350
57
  3
B6
350
58
  3
B7
350
59
  3
B8
350
5A
  3
B9
350
5B
  3
C0
350
5C
  3
C1
350
5D
  3
C2
350
5E
  3
C3
350
5F
  3
C4
350
60
  3
C5
350
61
  3
C6
350
62
  3
C7
350
63
  3
C8
350
64
  3
C9
350
65
  3
D0
350
66
  3
D1
350
67
  3
D2
350
68
  0
LAYOUT
  5
1E
102
{ACAD_REACTORS
330
1A
102
}
330
1A
100
AcDbPlotSettings
  1

  2
none_device
  4

  6

 40
0.0
 41
0.0
 42
0.0
 43
0.0
 44
0.0
 45
0.0
 46
0.0
 47
0.0
 48
0.0
 49
0.0
140
0.0
141
0.0
142
1.0
143
1.0
 70
   688
 72
     1
 73
     0
 74
     5
  7

 75
    16
147
1.0
148
0.0
149
0.0
100
AcDbLayout
  1
Layout1
 70
     1
 71
     1
 10
0.0
 20
0.0
 11
420.0
 21
297.0
 12
0.0
 22
0.0
 32
0.0
 14
1.0000000000E+20
 24
1.0000000000E+20
 34
1.0000000000E+20
 15
-1.0000000000E+20
 25
-1.0000000000E+20
 35
-1.0000000000E+20
146
0.0
 13
0.0
 23
0.0
 33
0.0
 16
1.0
 26
0.0
 36
0.0
 17
0.0
 27
1.0
 37
0.0
 76
     0
330
1B
  0
LAYOUT
  5
26
102
{ACAD_REACTORS
330
1A
102
}
330
1A
100
AcDbPlotSettings
  1

  2
none_device
  4

  6

 40
0.0
 41
0.0
 42
0.0
 43
0.0
 44
0.0
 45
0.0
 46
0.0
 47
0.0
 48
0.0
 49
0.0
140
0.0
141
0.0
142
1.0
143
1.0
 70
   688
 72
     1
 73
     0
 74
     5
  7

 75
    16
147
1.0
148
0.0
149
0.0
100
AcDbLayout
  1
Layout2
 70
     1
 71
     2
 10
0.0
 20
0.0
 11
0.0
 21
0.0
 12
0.0
 22
0.0
 32
0.0
 14
0.0
 24
0.0
 34
0.0
 15
0.0
 25
0.0
 35
0.0
146
0.0
 13
0.0
 23
0.0
 33
0.0
 16
1.0
 26
0.0
 36
0.0
 17
0.0
 27
1.0
 37
0.0
 76
     0
330
23
  0
LAYOUT
  5
22
102
{ACAD_REACTORS
330
1A
102
}
330
1A
100
AcDbPlotSettings
  1

  2
none_device
  4
Letter_(8.50_x_11.00_Inches)
  6

 40
6.35
 41
6.35
 42
6.35000508
 43
6.35000508
 44
215.9
 45
279.4
 46
0.0
 47
0.0
 48
0.0
 49
0.0
140
0.0
141
0.0
142
1.0
143
1.0
 70
  1712
 72
     1
 73
     0
 74
     0
  7

 75
     0
147
1.0
148
0.0
149
0.0
100
AcDbLayout
  1
Model
 70
     1
 71
     0
 10
0.0
 20
0.0
 11
20000.0
 21
10000.0
 12
0.0
 22
0.0
 32
0.0
 14
0.0
 24
0.0
 34
0.0
 15
20000.0
 25
10000.0
 35
0.0
146
0.0
 13
0.0
 23
0.0
 33
0.0
 16
1.0
 26
0.0
 36
0.0
 17
0.0
 27
1.0
 37
0.0
 76
     0
330
1F
331
29
  0
MLINESTYLE
  5
18
102
{ACAD_REACTORS
330
17
102
}
330
17
100
AcDbMlineStyle
  2
Standard
 70
     0
  3

 62
   256
 51
90.0
 52
90.0
 71
     2
 49
0.5
 62
   256
  6
BYLAYER
 49
-0.5
 62
   256
  6
BYLAYER
  0
ACDBPLACEHOLDER
  5
F
102
{ACAD_REACTORS
330
E
102
}
330
E
  0
SCALE
  5
48
102
{ACAD_REACTORS
330
47
102
}
330
47
100
AcDbScale
 70
     0
300
1:1
140
1.0
141
1.0
290
     1
  0
SCALE
  5
49
102
{ACAD_REACTORS
330
47
102
}
330
47
100
AcDbScale
 70
     0
300
1:2
140
1.0
141
2.0
290
     0
  0
SCALE
  5
4A
102
{ACAD_REACTORS
330
47
102
}
330
47
100
AcDbScale
 70
     0
300
1:4
140
1.0
141
4.0
290
     0
  0
SCALE
  5
4B
102
{ACAD_REACTORS
330
47
102
}
330
47
100
AcDbScale
 70
     0
300
1:5
140
1.0
141
5.0
290
     0
  0
SCALE
  5
4C
102
{ACAD_REACTORS
330
47
102
}
330
47
100
AcDbScale
 70
     0
300
1:8
140
1.0
141
8.0
290
     0
  0
SCALE
  5
4D
102
{ACAD_REACTORS
330
47
102
}
330
47
100
AcDbScale
 70
     0
300
1:10
140
1.0
141
10.0
290
     0
  0
SCALE
  5
4E
102
{ACAD_REACTORS
330
47
102
}
330
47
100
AcDbScale
 70
     0
300
1:16
140
1.0
141
16.0
290
     0
  0
SCALE
  5
4F
102
{ACAD_REACTORS
330
47
102
}
330
47
100
AcDbScale
 70
     0
300
1:20
140
1.0
141
20.0
290
     0
  0
SCALE
  5
50
102
{ACAD_REACTORS
330
47
102
}
330
47
100
AcDbScale
 70
     0
300
1:30
140
1.0
141
30.0
290
     0
  0
SCALE
  5
51
102
{ACAD_REACTORS
330
47
102
}
330
47
100
AcDbScale
 70
     0
300
1:40
140
1.0
141
40.0
290
     0
  0
SCALE
  5
52
102
{ACAD_REACTORS
330
47
102
}
330
47
100
AcDbScale
 70
     0
300
1:50
140
1.0
141
50.0
290
     0
  0
SCALE
  5
53
102
{ACAD_REACTORS
330
47
102
}
330
47
100
AcDbScale
 70
     0
300
1:100
140
1.0
141
100.0
290
     0
  0
SCALE
  5
54
102
{ACAD_REACTORS
330
47
102
}
330
47
100
AcDbScale
 70
     0
300
2:1
140
2.0
141
1.0
290
     0
  0
SCALE
  5
55
102
{ACAD_REACTORS
330
47
102
}
330
47
100
AcDbScale
 70
     0
300
4:1
140
4.0
141
1.0
290
     0
  0
SCALE
  5
56
102
{ACAD_REACTORS
330
47
102
}
330
47
100
AcDbScale
 70
     0
300
8:1
140
8.0
141
1.0
290
     0
  0
SCALE
  5
57
102
{ACAD_REACTORS
330
47
102
}
330
47
100
AcDbScale
 70
     0
300
10:1
140
10.0
141
1.0
290
     0
  0
SCALE
  5
58
102
{ACAD_REACTORS
330
47
102
}
330
47
100
AcDbScale
 70
     0
300
100:1
140
100.0
141
1.0
290
     0
  0
SCALE
  5
59
102
{ACAD_REACTORS
330
47
102
}
330
47
100
AcDbScale
 70
     0
300
1/128" = 1'-0"
140
0.0078125
141
12.0
290
     0
  0
SCALE
  5
5A
102
{ACAD_REACTORS
330
47
102
}
330
47
100
AcDbScale
 70
     0
300
1/64" = 1'-0"
140
0.015625
141
12.0
290
     0
  0
SCALE
  5
5B
102
{ACAD_REACTORS
330
47
102
}
330
47
100
AcDbScale
 70
     0
300
1/32" = 1'-0"
140
0.03125
141
12.0
290
     0
  0
SCALE
  5
5C
102
{ACAD_REACTORS
330
47
102
}
330
47
100
AcDbScale
 70
     0
300
1/16" = 1'-0"
140
0.0625
141
12.0
290
     0
  0
SCALE
  5
5D
102
{ACAD_REACTORS
330
47
102
}
330
47
100
AcDbScale
 70
     0
300
3/32" = 1'-0"
140
0.09375
141
12.0
290
     0
  0
SCALE
  5
5E
102
{ACAD_REACTORS
330
47
102
}
330
47
100
AcDbScale
 70
     0
300
1/8" = 1'-0"
140
0.125
141
12.0
290
     0
  0
SCALE
  5
5F
102
{ACAD_REACTORS
330
47
102
}
330
47
100
AcDbScale
 70
     0
300
3/16" = 1'-0"
140
0.1875
141
12.0
290
     0
  0
SCALE
  5
60
102
{ACAD_REACTORS
330
47
102
}
330
47
100
AcDbScale
 70
     0
300
1/4" = 1'-0"
140
0.25
141
12.0
290
     0
  0
SCALE
  5
61
102
{ACAD_REACTORS
330
47
102
}
330
47
100
AcDbScale
 70
     0
300
3/8" = 1'-0"
140
0.375
141
12.0
290
     0
  0
SCALE
  5
62
102
{ACAD_REACTORS
330
47
102
}
330
47
100
AcDbScale
 70
     0
300
1/2" = 1'-0"
140
0.5
141
12.0
290
     0
  0
SCALE
  5
63
102
{ACAD_REACTORS
330
47
102
}
330
47
100
AcDbScale
 70
     0
300
3/4" = 1'-0"
140
0.75
141
12.0
290
     0
  0
SCALE
  5
64
102
{ACAD_REACTORS
330
47
102
}
330
47
100
AcDbScale
 70
     0
300
1" = 1'-0"
140
1.0
141
12.0
290
     0
  0
SCALE
  5
65
102
{ACAD_REACTORS
330
47
102
}
330
47
100
AcDbScale
 70
     0
300
1-1/2" = 1'-0"
140
1.5
141
12.0
290
     0
  0
SCALE
  5
66
102
{ACAD_REACTORS
330
47
102
}
330
47
100
AcDbScale
 70
     0
300
3" = 1'-0"
140
3.0
141
12.0
290
     0
  0
SCALE
  5
67
102
{ACAD_REACTORS
330
47
102
}
330
47
100
AcDbScale
 70
     0
300
6" = 1'-0"
140
6.0
141
12.0
290
     0
  0
SCALE
  5
68
102
{ACAD_REACTORS
330
47
102
}
330
47
100
AcDbScale
 70
     0
300
1'-0" = 1'-0"
140
12.0
141
12.0
290
     0
  0
ENDSEC
  0
EOF
