  0
SECTION
  2
HEADER
  9
$ACADVER
  1
AC1015
  9
$ACADMAINTVER
 70
     6
  9
$DWGCODEPAGE
  3
ANSI_1250
  9
$INSBASE
 10
0.0
 20
0.0
 30
0.0
  9
$EXTMIN
 10
0.0
 20
0.0
 30
0.0
  9
$EXTMAX
 10
20000.0
 20
10000.0
 30
0.0
  9
$LIMMIN
 10
0.0
 20
0.0
  9
$LIMMAX
 10
20000.0
 20
10000.0
  9
$ORTHOMODE
 70
     0
  9
$REGENMODE
 70
     1
  9
$FILLMODE
 70
     1
  9
$QTEXTMODE
 70
     0
  9
$MIRRTEXT
 70
     1
  9
$LTSCALE
 40
1.0
  9
$ATTMODE
 70
     1
  9
$TEXTSIZE
 40
2.0
  9
$TRACEWID
 40
1.0
  9
$TEXTSTYLE
  7
Standard
  9
$CLAYER
  8
0
  9
$CELTYPE
  6
ByLayer
  9
$CECOLOR
 62
   256
  9
$CELTSCALE
 40
1.0
  9
$DISPSILH
 70
     0
  9
$DIMSCALE
 40
1.0
  9
$DIMASZ
 40
2.0
  9
$DIMEXO
 40
1.0
  9
$DIMDLI
 40
3.75
  9
$DIMRND
 40
0.0
  9
$DIMDLE
 40
0.0
  9
$DIMEXE
 40
1.0
  9
$DIMTP
 40
0.0
  9
$DIMTM
 40
0.0
  9
$DIMTXT
 40
2.0
  9
$DIMCEN
 40
2.5
  9
$DIMTSZ
 40
0.0
  9
$DIMTOL
 70
     0
  9
$DIMLIM
 70
     0
  9
$DIMTIH
 70
     1
  9
$DIMTOH
 70
     1
  9
$DIMSE1
 70
     0
  9
$DIMSE2
 70
     0
  9
$DIMTAD
 70
     1
  9
$DIMZIN
 70
     0
  9
$DIMBLK
  1

  9
$DIMASO
 70
     1
  9
$DIMSHO
 70
     1
  9
$DIMPOST
  1

  9
$DIMAPOST
  1

  9
$DIMALT
 70
     0
  9
$DIMALTD
 70
     3
  9
$DIMALTF
 40
0.0393700787
  9
$DIMLFAC
 40
1.0
  9
$DIMTOFL
 70
     1
  9
$DIMTVP
 40
0.0
  9
$DIMTIX
 70
     0
  9
$DIMSOXD
 70
     0
  9
$DIMSAH
 70
     0
  9
$DIMBLK1
  1

  9
$DIMBLK2
  1

  9
$DIMSTYLE
  2
ISO-25
  9
$DIMCLRD
 70
     0
  9
$DIMCLRE
 70
     0
  9
$DIMCLRT
 70
     0
  9
$DIMTFAC
 40
1.0
  9
$DIMGAP
 40
1.524
  9
$DIMJUST
 70
     0
  9
$DIMSD1
 70
     0
  9
$DIMSD2
 70
     0
  9
$DIMTOLJ
 70
     0
  9
$DIMTZIN
 70
     0
  9
$DIMALTZ
 70
     0
  9
$DIMALTTZ
 70
     0
  9
$DIMUPT
 70
     0
  9
$DIMDEC
 70
     2
  9
$DIMTDEC
 70
     0
  9
$DIMALTU
 70
     2
  9
$DIMALTTD
 70
     3
  9
$DIMTXSTY
  7
Standard
  9
$DIMAUNIT
 70
     0
  9
$DIMADEC
 70
     2
  9
$DIMALTRND
 40
0.0
  9
$DIMAZIN
 70
     0
  9
$DIMDSEP
 70
    44
  9
$DIMATFIT
 70
     3
  9
$DIMFRAC
 70
     0
  9
$DIMLDRBLK
  1

  9
$DIMLUNIT
 70
     2
  9
$DIMLWD
 70
    -2
  9
$DIMLWE
 70
    -2
  9
$DIMTMOVE
 70
     0
  9
$LUNITS
 70
     2
  9
$LUPREC
 70
     3
  9
$SKETCHINC
 40
1.0
  9
$FILLETRAD
 40
10.0
  9
$AUNITS
 70
     0
  9
$AUPREC
 70
     2
  9
$MENU
  1
.
  9
$ELEVATION
 40
0.0
  9
$PELEVATION
 40
0.0
  9
$THICKNESS
 40
0.0
  9
$LIMCHECK
 70
     0
  9
$CHAMFERA
 40
0.0
  9
$CHAMFERB
 40
0.0
  9
$CHAMFERC
 40
0.0
  9
$CHAMFERD
 40
0.0
  9
$SKPOLY
 70
     0
  9
$TDCREATE
 40
2459345.441624155
  9
$TDUCREATE
 40
2459345.358290822
  9
$TDUPDATE
 40
2459345.441624328
  9
$TDUUPDATE
 40
2459345.358290995
  9
$TDINDWG
 40
0.0000000116
  9
$TDUSRTIMER
 40
0.0000000116
  9
$USRTIMER
 70
     1
  9
$ANGBASE
 50
0.0
  9
$ANGDIR
 70
     0
  9
$PDMODE
 70
     0
  9
$PDSIZE
 40
-1.0
  9
$PLINEWID
 40
0.0
  9
$SPLFRAME
 70
     0
  9
$SPLINETYPE
 70
     6
  9
$SPLINESEGS
 70
     8
  9
$HANDSEED
  5
150
  9
$SURFTAB1
 70
     6
  9
$SURFTAB2
 70
     6
  9
$SURFTYPE
 70
     6
  9
$SURFU
 70
     6
  9
$SURFV
 70
     6
  9
$UCSBASE
  2

  9
$UCSNAME
  2

  9
$UCSORG
 10
0.0
 20
0.0
 30
0.0
  9
$UCSXDIR
 10
1.0
 20
0.0
 30
0.0
  9
$UCSYDIR
 10
0.0
 20
1.0
 30
0.0
  9
$UCSORTHOREF
  2

  9
$UCSORTHOVIEW
 70
     0
  9
$UCSORGTOP
 10
0.0
 20
0.0
 30
0.0
  9
$UCSORGBOTTOM
 10
0.0
 20
0.0
 30
0.0
  9
$UCSORGLEFT
 10
0.0
 20
0.0
 30
0.0
  9
$UCSORGRIGHT
 10
0.0
 20
0.0
 30
0.0
  9
$UCSORGFRONT
 10
0.0
 20
0.0
 30
0.0
  9
$UCSORGBACK
 10
0.0
 20
0.0
 30
0.0
  9
$PUCSBASE
  2

  9
$PUCSNAME
  2

  9
$PUCSORG
 10
0.0
 20
0.0
 30
0.0
  9
$PUCSXDIR
 10
1.0
 20
0.0
 30
0.0
  9
$PUCSYDIR
 10
0.0
 20
1.0
 30
0.0
  9
$PUCSORTHOREF
  2

  9
$PUCSORTHOVIEW
 70
     0
  9
$PUCSORGTOP
 10
0.0
 20
0.0
 30
0.0
  9
$PUCSORGBOTTOM
 10
0.0
 20
0.0
 30
0.0
  9
$PUCSORGLEFT
 10
0.0
 20
0.0
 30
0.0
  9
$PUCSORGRIGHT
 10
0.0
 20
0.0
 30
0.0
  9
$PUCSORGFRONT
 10
0.0
 20
0.0
 30
0.0
  9
$PUCSORGBACK
 10
0.0
 20
0.0
 30
0.0
  9
$USERI1
 70
     0
  9
$USERI2
 70
     0
  9
$USERI3
 70
     0
  9
$USERI4
 70
     0
  9
$USERI5
 70
     0
  9
$USERR1
 40
0.0
  9
$USERR2
 40
0.0
  9
$USERR3
 40
0.0
  9
$USERR4
 40
0.0
  9
$USERR5
 40
0.0
  9
$WORLDVIEW
 70
     1
  9
$SHADEDGE
 70
     3
  9
$SHADEDIF
 70
    70
  9
$TILEMODE
 70
     1
  9
$MAXACTVP
 70
    64
  9
$PINSBASE
 10
0.0
 20
0.0
 30
0.0
  9
$PLIMCHECK
 70
     0
  9
$PEXTMIN
 10
1.0000000000E+20
 20
1.0000000000E+20
 30
1.0000000000E+20
  9
$PEXTMAX
 10
-1.0000000000E+20
 20
-1.0000000000E+20
 30
-1.0000000000E+20
  9
$PLIMMIN
 10
0.0
 20
0.0
  9
$PLIMMAX
 10
420.0
 20
297.0
  9
$UNITMODE
 70
     0
  9
$VISRETAIN
 70
     1
  9
$PLINEGEN
 70
     0
  9
$PSLTSCALE
 70
     1
  9
$TREEDEPTH
 70
  3020
  9
$CMLSTYLE
  2
Standard
  9
$CMLJUST
 70
     0
  9
$CMLSCALE
 40
20.0
  9
$PROXYGRAPHICS
 70
     1
  9
$MEASUREMENT
 70
     1
  9
$CELWEIGHT
370
    -1
  9
$ENDCAPS
280
     0
  9
$JOINSTYLE
280
     0
  9
$LWDISPLAY
290
     1
  9
$INSUNITS
 70
     4
  9
$HYPERLINKBASE
  1

  9
$STYLESHEET
  1

  9
$XEDIT
290
     1
  9
$CEPSNTYPE
380
     0
  9
$PSTYLEMODE
290
     1
  9
$FINGERPRINTGUID
  2
{b8b1f664-7f7e-4ed1-8476-cd337de30b43}
  9
$VERSIONGUID
  2
{FAEB1C32-E019-11D5-929B-00C0DF256EC4}
  9
$EXTNAMES
290
     1
  9
$PSVPSCALE
 40
0.0
  9
$OLESTARTUP
290
     0
  0
ENDSEC
  0
SECTION
  2
CLASSES
  0
CLASS
  1
ACDBDICTIONARYWDFLT
  2
AcDbDictionaryWithDefault
  3
ObjectDBX Classes
 90
        0
280
     0
281
     0
  0
CLASS
  1
VISUALSTYLE
  2
AcDbVisualStyle
  3
ObjectDBX Classes
 90
     4095
280
     0
281
     0
  0
CLASS
  1
MATERIAL
  2
AcDbMaterial
  3
ObjectDBX Classes
 90
     1153
280
     0
281
     0
  0
CLASS
  1
SCALE
  2
AcDbScale
  3
ObjectDBX Classes
 90
     1153
280
     0
281
     0
  0
CLASS
  1
TABLESTYLE
  2
AcDbTableStyle
  3
ObjectDBX Classes
 90
     4095
280
     0
281
     0
  0
CLASS
  1
MLEADERSTYLE
  2
AcDbMLeaderStyle
  3
ACDB_MLEADERSTYLE_CLASS
 90
     4095
280
     0
281
     0
  0
CLASS
  1
SUN
  2
AcDbSun
  3
SCENEOE
 90
     1153
280
     0
281
     0
  0
CLASS
  1
ACDBPLACEHOLDER
  2
AcDbPlaceHolder
  3
ObjectDBX Classes
 90
        0
280
     0
281
     0
  0
CLASS
  1
LAYOUT
  2
AcDbLayout
  3
ObjectDBX Classes
 90
        0
280
     0
281
     0
  0
ENDSEC
  0
SECTION
  2
TABLES
  0
TABLE
  2
VPORT
  5
8
330
0
100
AcDbSymbolTable
 70
     1
  0
VPORT
  5
29
330
8
100
AcDbSymbolTableRecord
100
AcDbViewportTableRecord
  2
*Active
 70
     0
 10
0.0
 20
0.0
 11
1.0
 21
1.0
 12
10000.0
 22
5000.0
 13
0.0
 23
0.0
 14
10.0
 24
10.0
 15
10.0
 25
10.0
 16
0.0
 26
0.0
 36
1.0
 17
0.0
 27
0.0
 37
0.0
 40
10000.0
 41
2.0
 42
50.0
 43
0.0
 44
0.0
 50
0.0
 51
0.0
 71
     0
 72
  2000
 73
     1
 74
     3
 75
     0
 76
     0
 77
     0
 78
     0
281
     0
 65
     1
110
0.0
120
0.0
130
0.0
111
1.0
121
0.0
131
0.0
112
0.0
122
1.0
132
0.0
 79
     0
146
0.0
  0
ENDTAB
  0
TABLE
  2
LTYPE
  5
5
330
0
100
AcDbSymbolTable
 70
     6
  0
LTYPE
  5
14
330
5
100
AcDbSymbolTableRecord
100
AcDbLinetypeTableRecord
  2
ByBlock
 70
     0
  3

 72
    65
 73
     0
 40
0.0
  0
LTYPE
  5
15
330
5
100
AcDbSymbolTableRecord
100
AcDbLinetypeTableRecord
  2
ByLayer
 70
     0
  3

 72
    65
 73
     0
 40
0.0
  0
LTYPE
  5
16
330
5
100
AcDbSymbolTableRecord
100
AcDbLinetypeTableRecord
  2
Continuous
 70
     0
  3
Solid line
 72
    65
 73
     0
 40
0.0
  0
LTYPE
  5
6E
330
5
100
AcDbSymbolTableRecord
100
AcDbLinetypeTableRecord
  2
HIDDEN
 70
     0
  3
Hidden __ __ __ __ __ __ __ __ __ __ __ __ __ __
 72
    65
 73
     2
 40
1.905
 49
1.27
 74
     0
 49
-0.635
 74
     0
  0
LTYPE
  5
6F
330
5
100
AcDbSymbolTableRecord
100
AcDbLinetypeTableRecord
  2
PHANTOM
 70
     0
  3
Phantom ______  __  __  ______  __  __  ______
 72
    65
 73
     6
 40
12.7
 49
6.35
 74
     0
 49
-1.27
 74
     0
 49
1.27
 74
     0
 49
-1.27
 74
     0
 49
1.27
 74
     0
 49
-1.27
 74
     0
  0
LTYPE
  5
70
330
5
100
AcDbSymbolTableRecord
100
AcDbLinetypeTableRecord
  2
CENTER
 70
     0
  3
Center ____ _ ____ _ ____ _ ____ _ ____ _ ____
 72
    65
 73
     4
 40
10.16
 49
6.35
 74
     0
 49
-1.27
 74
     0
 49
1.27
 74
     0
 49
-1.27
 74
     0
  0
LTYPE
  5
71
330
5
100
AcDbSymbolTableRecord
100
AcDbLinetypeTableRecord
  2
CENTERX2
 70
     0
  3
Center (2x) ________  __  ________  __  _____
 72
    65
 73
     4
 40
20.32
 49
12.7
 74
     0
 49
-2.54
 74
     0
 49
2.54
 74
     0
 49
-2.54
 74
     0
  0
LTYPE
  5
72
330
5
100
AcDbSymbolTableRecord
100
AcDbLinetypeTableRecord
  2
DOT2
 70
     0
  3
Dot (.5x) ........................................
 72
    65
 73
     2
 40
0.635
 49
0.0
 74
     0
 49
-0.635
 74
     0
  0
ENDTAB
  0
TABLE
  2
LAYER
  5
2
330
0
100
AcDbSymbolTable
 70
    13
  0
LAYER
  5
10
330
2
100
AcDbSymbolTableRecord
100
AcDbLayerTableRecord
  2
0
 70
     0
 62
     7
  6
Continuous
370
    -3
390
F
  0
LAYER
  5
73
330
2
100
AcDbSymbolTableRecord
100
AcDbLayerTableRecord
  2
FORMAT
 70
     0
 62
     7
  6
Continuous
370
    -3
390
F
  0
LAYER
  5
74
330
2
100
AcDbSymbolTableRecord
100
AcDbLayerTableRecord
  2
OSA
 70
     0
 62
     7
  6
CENTER
370
    -3
390
F
  0
LAYER
  5
75
330
2
100
AcDbSymbolTableRecord
100
AcDbLayerTableRecord
  2
0_35
 70
     0
 62
     7
  6
Continuous
370
    35
390
F
  0
LAYER
  5
76
330
2
100
AcDbSymbolTableRecord
100
AcDbLayerTableRecord
  2
0_5
 70
     0
 62
     7
  6
Continuous
370
    50
390
F
  0
LAYER
  5
77
330
2
100
AcDbSymbolTableRecord
100
AcDbLayerTableRecord
  2
0_25
 70
     0
 62
     7
  6
Continuous
370
    25
390
F
  0
LAYER
  5
78
330
2
100
AcDbSymbolTableRecord
100
AcDbLayerTableRecord
  2
0_18
 70
     0
 62
     7
  6
Continuous
370
    -3
390
F
  0
LAYER
  5
79
330
2
100
AcDbSymbolTableRecord
100
AcDbLayerTableRecord
  2
SLD-0
 70
     0
 62
   179
  6
Continuous
370
    -3
390
F
  0
LAYER
  5
7A
330
2
100
AcDbSymbolTableRecord
100
AcDbLayerTableRecord
  2
KOTY
 70
     0
 62
     7
  6
Continuous
370
    -3
390
F
  0
LAYER
  5
7B
330
2
100
AcDbSymbolTableRecord
100
AcDbLayerTableRecord
  2
SILNA
 70
     0
 62
   179
  6
Continuous
370
    -3
390
F
  0
LAYER
  5
7C
330
2
100
AcDbSymbolTableRecord
100
AcDbLayerTableRecord
  2
0_18_1
 70
     0
 62
   179
  6
Continuous
370
    -3
390
F
  0
LAYER
  5
7D
330
2
100
AcDbSymbolTableRecord
100
AcDbLayerTableRecord
  2
0_35_1
 70
     0
 62
   179
  6
Continuous
370
    35
390
F
  0
LAYER
  5
7E
330
2
100
AcDbSymbolTableRecord
100
AcDbLayerTableRecord
  2
0_5_1
 70
     0
 62
   179
  6
Continuous
370
    50
390
F
  0
ENDTAB
  0
TABLE
  2
STYLE
  5
3
330
0
100
AcDbSymbolTable
 70
     1
  0
STYLE
  5
11
330
3
100
AcDbSymbolTableRecord
100
AcDbTextStyleTableRecord
  2
Standard
 70
     0
 40
0.0
 41
1.0
 50
0.0
 71
     0
 42
2.0
  3
txt
  4

  0
ENDTAB
  0
TABLE
  2
VIEW
  5
6
330
0
100
AcDbSymbolTable
 70
     0
  0
ENDTAB
  0
TABLE
  2
UCS
  5
7
330
0
100
AcDbSymbolTable
 70
     0
  0
ENDTAB
  0
TABLE
  2
APPID
  5
9
330
0
100
AcDbSymbolTable
 70
     1
  0
APPID
  5
12
330
9
100
AcDbSymbolTableRecord
100
AcDbRegAppTableRecord
  2
ACAD
 70
     0
  0
ENDTAB
  0
TABLE
  2
DIMSTYLE
  5
A
330
0
100
AcDbSymbolTable
 70
     1
100
AcDbDimStyleTable
  0
DIMSTYLE
105
27
330
A
100
AcDbSymbolTableRecord
100
AcDbDimStyleTableRecord
  2
ISO-25
 70
     0
 41
2.5
 42
0.625
 43
3.75
 44
1.25
 73
     0
 74
     0
 77
     1
 78
     8
140
2.5
141
2.5
143
0.0393700787
147
0.625
171
     3
172
     1
178
     0
271
     2
272
     2
274
     3
278
    44
283
     0
284
     8
340
11
  0
ENDTAB
  0
TABLE
  2
BLOCK_RECORD
  5
1
330
0
100
AcDbSymbolTable
 70
     1
  0
BLOCK_RECORD
  5
1F
330
1
100
AcDbSymbolTableRecord
100
AcDbBlockTableRecord
  2
*Model_Space
340
22
  0
BLOCK_RECORD
  5
1B
330
1
100
AcDbSymbolTableRecord
100
AcDbBlockTableRecord
  2
*Paper_Space
340
1E
  0
BLOCK_RECORD
  5
23
330
1
100
AcDbSymbolTableRecord
100
AcDbBlockTableRecord
  2
*Paper_Space0
340
26
  0
ENDTAB
  0
ENDSEC
  0
SECTION
  2
BLOCKS
  0
BLOCK
  5
20
330
1F
100
AcDbEntity
  8
0
100
AcDbBlockBegin
  2
*Model_Space
 70
     0
 10
0.0
 20
0.0
 30
0.0
  3
*Model_Space
  1

  0
ENDBLK
  5
21
330
1F
100
AcDbEntity
  8
0
100
AcDbBlockEnd
  0
BLOCK
  5
1C
330
1B
100
AcDbEntity
 67
     1
  8
0
100
AcDbBlockBegin
  2
*Paper_Space
 70
     0
 10
0.0
 20
0.0
 30
0.0
  3
*Paper_Space
  1

  0
ENDBLK
  5
1D
330
1B
100
AcDbEntity
 67
     1
  8
0
100
AcDbBlockEnd
  0
BLOCK
  5
24
330
23
100
AcDbEntity
  8
0
100
AcDbBlockBegin
  2
*Paper_Space0
 70
     0
 10
0.0
 20
0.0
 30
0.0
  3
*Paper_Space0
  1

  0
ENDBLK
  5
25
330
23
100
AcDbEntity
  8
0
100
AcDbBlockEnd
  0
ENDSEC
  0
SECTION
  2
ENTITIES
  0
LINE
  5
7F
330
1F
100
AcDbEntity
  8
0
  6
Continuous
 62
     7
370
    25
100
AcDbLine
 10
6352.5346594414
 20
5091.3358898225
 30
0.0
 11
6352.5346594414
 21
5090.9823364319
 31
0.0
  0
LINE
  5
80
330
1F
100
AcDbEntity
  8
0
  6
Continuous
 62
     7
370
    25
100
AcDbLine
 10
6371.0346594414
 20
5090.9823364319
 30
0.0
 11
6371.0346594414
 21
5091.3358898225
 31
0.0
  0
LINE
  5
81
330
1F
100
AcDbEntity
  8
0
  6
Continuous
 62
     7
370
    25
100
AcDbLine
 10
6369.2846594414
 20
5090.9823364319
 30
0.0
 11
6369.2846594414
 21
5091.6894432131
 31
0.0
  0
LINE
  5
82
330
1F
100
AcDbEntity
  8
0
  6
Continuous
 62
     7
370
    25
100
AcDbLine
 10
6354.2846594414
 20
5091.6894432131
 30
0.0
 11
6354.2846594414
 21
5090.9823364319
 31
0.0
  0
LINE
  5
83
330
1F
100
AcDbEntity
  8
0
  6
Continuous
 62
     7
370
    25
100
AcDbLine
 10
6386.6846594414
 20
5135.9247245874
 30
0.0
 11
6385.6846594414
 21
5136.9247245874
 31
0.0
  0
LINE
  5
84
330
1F
100
AcDbEntity
  8
0
  6
Continuous
 62
     7
370
    25
100
AcDbLine
 10
6337.8846594414
 20
5136.9247245874
 30
0.0
 11
6336.8846594414
 21
5135.9247245874
 31
0.0
  0
LINE
  5
85
330
1F
100
AcDbEntity
  8
0
  6
Continuous
 62
     7
370
    25
100
AcDbLine
 10
6336.8846594414
 20
5134.2247245874
 30
0.0
 11
6337.1846594414
 21
5133.9247245874
 31
0.0
  0
LINE
  5
86
330
1F
100
AcDbEntity
  8
0
  6
Continuous
 62
     7
370
    25
100
AcDbLine
 10
6386.3846594414
 20
5133.9247245874
 30
0.0
 11
6386.6846594414
 21
5134.2247245874
 31
0.0
  0
LINE
  5
87
330
1F
100
AcDbEntity
  8
0
  6
Continuous
 62
     7
370
    25
100
AcDbLine
 10
6336.8846594414
 20
5135.9247245874
 30
0.0
 11
6336.8846594414
 21
5134.2247245874
 31
0.0
  0
LINE
  5
88
330
1F
100
AcDbEntity
  8
0
  6
Continuous
 62
     7
370
    25
100
AcDbLine
 10
6386.6846594414
 20
5134.2247245874
 30
0.0
 11
6386.6846594414
 21
5135.9247245874
 31
0.0
  0
LINE
  5
89
330
1F
100
AcDbEntity
  8
0
  6
Continuous
 62
     7
370
    25
100
AcDbLine
 10
6337.0346594414
 20
5133.7247245874
 30
0.0
 11
6337.0346594414
 21
5001.1247245874
 31
0.0
  0
LINE
  5
8A
330
1F
100
AcDbEntity
  8
0
  6
Continuous
 62
     7
370
    25
100
AcDbLine
 10
6386.5346594414
 20
5001.1247245874
 30
0.0
 11
6386.5346594414
 21
5133.7247245874
 31
0.0
  0
LINE
  5
8B
330
1F
100
AcDbEntity
  8
0
  6
Continuous
 62
     7
370
    25
100
AcDbLine
 10
6337.0346594414
 20
5001.1247245874
 30
0.0
 11
6337.2346594414
 21
5000.9247245874
 31
0.0
  0
LINE
  5
8C
330
1F
100
AcDbEntity
  8
0
  6
Continuous
 62
     7
370
    25
100
AcDbLine
 10
6386.3346594414
 20
5000.9247245874
 30
0.0
 11
6386.5346594414
 21
5001.1247245874
 31
0.0
  0
LINE
  5
8D
330
1F
100
AcDbEntity
  8
0
  6
Continuous
 62
     7
370
    25
100
AcDbLine
 10
6386.5346594414
 20
5133.7247245874
 30
0.0
 11
6386.3346594414
 21
5133.9247245874
 31
0.0
  0
LINE
  5
8E
330
1F
100
AcDbEntity
  8
0
  6
Continuous
 62
     7
370
    25
100
AcDbLine
 10
6337.2346594414
 20
5133.9247245874
 30
0.0
 11
6337.0346594414
 21
5133.7247245874
 31
0.0
  0
LINE
  5
8F
330
1F
100
AcDbEntity
  8
0
  6
Continuous
 62
     7
370
    25
100
AcDbLine
 10
6391.7846594414
 20
4996.9247245874
 30
0.0
 11
6391.7846594414
 21
4998.985051521
 31
0.0
  0
LINE
  5
90
330
1F
100
AcDbEntity
  8
0
  6
Continuous
 62
     7
370
    25
100
AcDbLine
 10
6331.7846594414
 20
4998.985051521
 30
0.0
 11
6331.7846594414
 21
4996.9247245874
 31
0.0
  0
LINE
  5
91
330
1F
100
AcDbEntity
  8
0
  6
Continuous
 62
     7
370
    25
100
AcDbLine
 10
6391.7846594414
 20
4998.985051521
 30
0.0
 11
6391.3016965282
 21
4999.8215678247
 31
0.0
  0
LINE
  5
92
330
1F
100
AcDbEntity
  8
0
  6
Continuous
 62
     7
370
    25
100
AcDbLine
 10
6332.2676223545
 20
4999.8215678247
 30
0.0
 11
6331.7846594414
 21
4998.985051521
 31
0.0
  0
LINE
  5
93
330
1F
100
AcDbEntity
  8
0
  6
Continuous
 62
     7
370
    25
100
AcDbLine
 10
6391.3016965282
 20
4999.8215678247
 30
0.0
 11
6387.1846594414
 21
5000.9247245874
 31
0.0
  0
LINE
  5
94
330
1F
100
AcDbEntity
  8
0
  6
Continuous
 62
     7
370
    25
100
AcDbLine
 10
6336.3846594414
 20
5000.9247245874
 30
0.0
 11
6332.2676223545
 21
4999.8215678247
 31
0.0
  0
CIRCLE
  5
95
330
1F
100
AcDbEntity
  8
0
  6
Continuous
 62
     7
370
    25
100
AcDbCircle
 10
6361.7846594414
 20
5030.1327641534
 30
0.0
 40
10.99999999999727
  0
ARC
  5
96
330
1F
100
AcDbEntity
  8
0
  6
Continuous
 62
     7
370
    25
100
AcDbCircle
 10
6357.2764263507
 20
5091.3266126701
 30
0.0
 40
4.741775984529276
100
AcDbArc
 50
161.8291098023
 51
179.8879023342
  0
ARC
  5
97
330
1F
100
AcDbEntity
  8
0
  6
Continuous
 62
     7
370
    25
100
AcDbCircle
 10
6366.2982145146
 20
5091.3274690671
 30
0.0
 40
4.736452412278698
100
AcDbArc
 50
0.1018640023
 51
18.1811238612
  0
ARC
  5
98
330
1F
100
AcDbEntity
  8
0
  6
Continuous
 62
     7
370
    25
100
AcDbCircle
 10
6361.7774192734
 20
5097.2474501454
 30
0.0
 40
12.80655589295238
100
AcDbArc
 50
255.8536949078
 51
272.9335791868
  0
ARC
  5
99
330
1F
100
AcDbEntity
  8
0
  6
Continuous
 62
     7
370
    25
100
AcDbCircle
 10
6361.8454265635
 20
5096.192769271
 30
0.0
 40
12.45578059467319
100
AcDbArc
 50
273.2728416264
 51
286.8978847609
  0
LINE
  5
9A
330
1F
100
AcDbEntity
  8
0
  6
Continuous
 62
     7
370
    25
100
AcDbLine
 10
6365.4659093207
 20
5084.9818823105
 30
0.0
 11
6365.4659093207
 21
5084.2747755293
 31
0.0
  0
ARC
  5
9B
330
1F
100
AcDbEntity
  8
0
  6
Continuous
 62
     7
370
    25
100
AcDbCircle
 10
6362.5822047877
 20
5094.6294078667
 30
0.0
 40
10.06928503867411
100
AcDbArc
 50
286.6417277582
 51
305.3861985819
  0
ARC
  5
9C
330
1F
100
AcDbEntity
  8
0
  6
Continuous
 62
     7
370
    25
100
AcDbCircle
 10
6364.6800103353
 20
5091.1391227919
 30
0.0
 40
6.576558404985588
100
AcDbArc
 50
309.3327489519
 51
330.2215658006
  0
LINE
  5
9D
330
1F
100
AcDbEntity
  8
0
  6
Continuous
 62
     7
370
    25
100
AcDbLine
 10
6370.3881503157
 20
5088.5799995721
 30
0.0
 11
6370.3881503157
 21
5087.8728927909
 31
0.0
  0
ARC
  5
9E
330
1F
100
AcDbEntity
  8
0
  6
Continuous
 62
     7
370
    25
100
AcDbCircle
 10
6366.1932826524
 20
5090.9920631305
 30
0.0
 40
4.838901251553522
100
AcDbArc
 50
330.100947763
 51
6.3605162396
  0
LINE
  5
9F
330
1F
100
AcDbEntity
  8
0
  6
Continuous
 62
     7
370
    25
100
AcDbLine
 10
6371.0023980417
 20
5091.5281363482
 30
0.0
 11
6371.0023980417
 21
5090.821029567
 31
0.0
  0
ARC
  5
A0
330
1F
100
AcDbEntity
  8
0
  6
Continuous
 62
     7
370
    25
100
AcDbCircle
 10
6365.9689918348
 20
5090.1892919625
 30
0.0
 40
5.072895666557923
100
AcDbArc
 50
7.1537274672
 51
32.0099799123
  0
LINE
  5
A1
330
1F
100
AcDbEntity
  8
0
  6
Continuous
 62
     7
370
    25
100
AcDbLine
 10
6370.2705830403
 20
5093.5853731848
 30
0.0
 11
6370.2705830403
 21
5092.8782664036
 31
0.0
  0
ARC
  5
A2
330
1F
100
AcDbEntity
  8
0
  6
Continuous
 62
     7
370
    25
100
AcDbCircle
 10
6364.4757547105
 20
5089.9403566493
 30
0.0
 40
6.845887883699091
100
AcDbArc
 50
32.1703853281
 51
52.8521803245
  0
LINE
  5
A3
330
1F
100
AcDbEntity
  8
0
  6
Continuous
 62
     7
370
    25
100
AcDbLine
 10
6367.7567849966
 20
5095.9047497117
 30
0.0
 11
6367.7567849966
 21
5095.2700377728
 31
0.0
  0
ARC
  5
A4
330
1F
100
AcDbEntity
  8
0
  6
Continuous
 62
     7
370
    25
100
AcDbCircle
 10
6362.3955241397
 20
5086.1805851486
 30
0.0
 40
10.55278479753487
100
AcDbArc
 50
59.4664851876
 51
74.6889829521
  0
LINE
  5
A5
330
1F
100
AcDbEntity
  8
0
  6
Continuous
 62
     7
370
    25
100
AcDbLine
 10
6365.1820768099
 20
5096.8898661149
 30
0.0
 11
6365.1820768099
 21
5096.3588163898
 31
0.0
  0
LINE
  5
A6
330
1F
100
AcDbEntity
  8
0
  6
Continuous
 62
     7
370
    25
100
AcDbLine
 10
6361.0127817975
 20
5097.2914067004
 30
0.0
 11
6361.0127817975
 21
5096.7931551222
 31
0.0
  0
ARC
  5
A7
330
1F
100
AcDbEntity
  8
0
  6
Continuous
 62
     7
370
    25
100
AcDbCircle
 10
6361.7238923193
 20
5084.3576900304
 30
0.0
 40
12.4557805946834
100
AcDbArc
 50
93.2728416264
 51
106.8978847609
  0
LINE
  5
A8
330
1F
100
AcDbEntity
  8
0
  6
Continuous
 62
     7
370
    25
100
AcDbLine
 10
6358.1034095621
 20
5096.8134891748
 30
0.0
 11
6358.1034095621
 21
5096.2756837722
 31
0.0
  0
LINE
  5
A9
330
1F
100
AcDbEntity
  8
0
  6
Continuous
 62
     7
370
    25
100
AcDbLine
 10
6354.7209340537
 20
5095.2052669101
 30
0.0
 11
6354.9595142395
 21
5095.3970783821
 31
0.0
  0
LINE
  5
AA
330
1F
100
AcDbEntity
  8
0
  6
Continuous
 62
     7
370
    25
100
AcDbLine
 10
6354.7209340537
 20
5095.2052669101
 30
0.0
 11
6354.7209340537
 21
5094.4981601289
 31
0.0
  0
ARC
  5
AB
330
1F
100
AcDbEntity
  8
0
  6
Continuous
 62
     7
370
    25
100
AcDbCircle
 10
6358.8893085474
 20
5089.4113365096
 30
0.0
 40
6.576558404990775
100
AcDbArc
 50
129.332748952
 51
150.2215658006
  0
LINE
  5
AC
330
1F
100
AcDbEntity
  8
0
  6
Continuous
 62
     7
370
    25
100
AcDbLine
 10
6353.1811685671
 20
5093.3846732917
 30
0.0
 11
6353.1811685671
 21
5092.6775665105
 31
0.0
  0
ARC
  5
AD
330
1F
100
AcDbEntity
  8
0
  6
Continuous
 62
     7
370
    25
100
AcDbCircle
 10
6357.3760362304
 20
5090.9726097334
 30
0.0
 40
4.838901251565222
100
AcDbArc
 50
150.1009477631
 51
186.3605162396
  0
LINE
  5
AE
330
1F
100
AcDbEntity
  8
0
  6
Continuous
 62
     7
370
    25
100
AcDbLine
 10
6352.5669208411
 20
5090.4365365157
 30
0.0
 11
6352.5669208411
 21
5089.7294297345
 31
0.0
  0
ARC
  5
AF
330
1F
100
AcDbEntity
  8
0
  6
Continuous
 62
     7
370
    25
100
AcDbCircle
 10
6357.6003270479
 20
5090.361167339
 30
0.0
 40
5.072895666539646
100
AcDbArc
 50
187.1537274671
 51
212.0099799123
  0
ARC
  5
B0
330
1F
100
AcDbEntity
  8
0
  6
Continuous
 62
     7
370
    25
100
AcDbCircle
 10
6359.6137305943
 20
5092.546844495
 30
0.0
 40
7.581142739145942
100
AcDbArc
 50
219.2415880113
 51
239.9072309028
  0
LINE
  5
B1
330
1F
100
AcDbEntity
  8
0
  6
Continuous
 62
     7
370
    25
100
AcDbLine
 10
6355.8125338862
 20
5085.9875283098
 30
0.0
 11
6355.8125338862
 21
5085.2804215286
 31
0.0
  0
ARC
  5
B2
330
1F
100
AcDbEntity
  8
0
  6
Continuous
 62
     7
370
    25
100
AcDbCircle
 10
6361.173794743
 20
5094.3698741527
 30
0.0
 40
10.55278479736746
100
AcDbArc
 50
239.4664851875
 51
254.6889829522
  0
ARC
  5
B3
330
1F
100
AcDbEntity
  8
0
  6
Continuous
 62
     7
370
    25
100
AcDbCircle
 10
6357.9362186515
 20
5090.9841182074
 30
0.0
 40
4.389988946866556
100
AcDbArc
 50
142.8706663065
 51
198.9391016612
  0
ARC
  5
B4
330
1F
100
AcDbEntity
  8
0
  6
Continuous
 62
     7
370
    25
100
AcDbCircle
 10
6360.7786751076
 20
5088.3333780488
 30
0.0
 40
8.31221023941708
100
AcDbArc
 50
108.6074780033
 51
132.5643853029
  0
ARC
  5
B5
330
1F
100
AcDbEntity
  8
0
  6
Continuous
 62
     7
370
    25
100
AcDbCircle
 10
6361.7964210973
 20
5085.4827897701
 30
0.0
 40
11.33437355800022
100
AcDbArc
 50
73.9936466238
 51
93.3379076722
  0
LWPOLYLINE
  5
B6
330
1F
100
AcDbEntity
  8
0
  6
Continuous
 62
     7
370
    25
100
AcDbPolyline
 90
       30
 70
   128
 43
0.0
 10
6367.6188473574
 20
5095.1069425562
 10
6368.0178467027
 20
5094.803977216
 10
6368.6825958574
 20
5094.1824124623
 10
6369.2242511734
 20
5093.503742276
 10
6369.6331467987
 20
5092.7800775426
 10
6369.9019859811
 20
5092.0243320766
 10
6370.0259712792
 20
5091.2499921736
 10
6370.0028901723
 20
5090.4708759475
 10
6369.8331545432
 20
5089.7008867459
 10
6369.5197933284
 20
5088.9537650443
 10
6369.0683984662
 20
5088.2428432472
 10
6368.4870251085
 20
5087.5808077708
 10
6367.7860478767
 20
5086.979472654
 10
6366.9779757261
 20
5086.4495687362
 10
6366.0772287233
 20
5086.0005521652
 10
6365.09988072
 20
5085.6404356525
 10
6364.0633725145
 20
5085.3756454858
 10
6362.9862006202
 20
5085.2109068518
 10
6361.8875871951
 20
5085.1491595155
 10
6360.7871370218
 20
5085.1915053593
 10
6359.7044876597
 20
5085.3371887209
 10
6358.6589590123
 20
5085.5836098771
 10
6357.6692085631
 20
5085.9263714366
 10
6356.7528984324
 20
5086.3593568112
 10
6355.926380196
 20
5086.8748393666
 10
6355.2044030916
 20
5087.4636203045
 10
6354.5998508176
 20
5088.115192815
 10
6354.1235116238
 20
5088.8179295713
 10
6353.7838857942
 20
5089.5592902193
 10
6353.7838857942
 20
5089.5592902193
  0
LINE
  5
B7
330
1F
100
AcDbEntity
  8
0
  6
Continuous
 62
     7
370
    25
100
AcDbLine
 10
6369.9529402615
 20
5088.7640388366
 30
0.0
 11
6370.3881503157
 21
5088.5799995721
 31
0.0
  0
ARC
  5
B8
330
1F
100
AcDbEntity
  8
0
  6
Continuous
 62
     7
370
    25
100
AcDbCircle
 10
6364.5203290498
 20
5091.7972406185
 30
0.0
 40
6.22202359586773
100
AcDbArc
 50
308.7303444163
 51
330.8239703362
  0
LINE
  5
B9
330
1F
100
AcDbEntity
  8
0
  6
Continuous
 62
     7
370
    25
100
AcDbLine
 10
6365.4659093207
 20
5084.9818823105
 30
0.0
 11
6365.3422086046
 21
5085.3296227495
 31
0.0
  0
ARC
  5
BA
330
1F
100
AcDbEntity
  8
0
  6
Continuous
 62
     7
370
    25
100
AcDbCircle
 10
6361.8414286289
 20
5096.5746131475
 30
0.0
 40
11.777320131972
100
AcDbArc
 50
272.8783648797
 51
287.2923615076
  0
ARC
  5
BB
330
1F
100
AcDbEntity
  8
0
  6
Continuous
 62
     7
370
    25
100
AcDbCircle
 10
6361.208435165
 20
5094.8511574943
 30
0.0
 40
9.978874698143196
100
AcDbArc
 50
239.0259192753
 51
255.1295488645
  0
LINE
  5
BC
330
1F
100
AcDbEntity
  8
0
  6
Continuous
 62
     7
370
    25
100
AcDbLine
 10
6356.07280471
 20
5086.2952682904
 30
0.0
 11
6355.8125338862
 21
5085.9875283098
 31
0.0
  0
ARC
  5
BD
330
1F
100
AcDbEntity
  8
0
  6
Continuous
 62
     7
370
    25
100
AcDbCircle
 10
6357.8303226534
 20
5091.0626201868
 30
0.0
 40
4.801925345760826
100
AcDbArc
 50
186.4402066723
 51
212.723500707
  0
LINE
  5
BE
330
1F
100
AcDbEntity
  8
0
  6
Continuous
 62
     7
370
    25
100
AcDbLine
 10
6352.5669208411
 20
5090.4365365157
 30
0.0
 11
6353.0587000861
 21
5090.5240061308
 31
0.0
  0
LINE
  5
BF
330
1F
100
AcDbEntity
  8
0
  6
Continuous
 62
     7
370
    25
100
AcDbLine
 10
6355.1561441078
 20
5095.0212276456
 30
0.0
 11
6354.7209340537
 21
5095.2052669101
 31
0.0
  0
LINE
  5
C0
330
1F
100
AcDbEntity
  8
0
  6
Continuous
 62
     7
370
    25
100
AcDbLine
 10
6361.0857178868
 20
5097.2952281046
 30
0.0
 11
6361.1364825135
 21
5097.1525214644
 31
0.0
  0
LINE
  5
C1
330
1F
100
AcDbEntity
  8
0
  6
Continuous
 62
     7
370
    25
100
AcDbLine
 10
6364.9218059861
 20
5096.7581831905
 30
0.0
 11
6365.0593005463
 21
5096.9207545177
 31
0.0
  0
LINE
  5
C2
330
1F
100
AcDbEntity
  8
0
  6
Continuous
 62
     7
370
    25
100
AcDbLine
 10
6370.2705830403
 20
5093.5853731848
 30
0.0
 11
6369.7788037953
 21
5093.4979035696
 31
0.0
  0
LINE
  5
C3
330
1F
100
AcDbEntity
  8
0
  6
Continuous
 62
     7
370
    25
100
AcDbLine
 10
6361.0127817975
 20
5096.7931551222
 30
0.0
 11
6361.1364825135
 21
5096.4454146832
 31
0.0
  0
ARC
  5
C4
330
1F
100
AcDbEntity
  8
0
  6
Continuous
 62
     7
370
    25
100
AcDbCircle
 10
6361.7278902539
 20
5084.682952935
 30
0.0
 40
11.7773201320894
100
AcDbArc
 50
92.8783648797
 51
107.2923615075
  0
LINE
  5
C5
330
1F
100
AcDbEntity
  8
0
  6
Continuous
 62
     7
370
    25
100
AcDbLine
 10
6358.1034095621
 20
5096.2756837722
 30
0.0
 11
6358.2271102782
 21
5095.9279433332
 31
0.0
  0
LINE
  5
C6
330
1F
100
AcDbEntity
  8
0
  6
Continuous
 62
     7
370
    25
100
AcDbLine
 10
6361.1364825135
 20
5097.1525214644
 30
0.0
 11
6361.1364825135
 21
5096.4454146832
 31
0.0
  0
LINE
  5
C7
330
1F
100
AcDbEntity
  8
0
  6
Continuous
 62
     7
370
    25
100
AcDbLine
 10
6367.4965141728
 20
5094.9622977923
 30
0.0
 11
6367.7567849966
 21
5095.2700377728
 31
0.0
  0
ARC
  5
C8
330
1F
100
AcDbEntity
  8
0
  6
Continuous
 62
     7
370
    25
100
AcDbCircle
 10
6362.3608837177
 20
5086.4064085882
 30
0.0
 40
9.978874698296318
100
AcDbArc
 50
59.0259192754
 51
75.1295488644
  0
LINE
  5
C9
330
1F
100
AcDbEntity
  8
0
  6
Continuous
 62
     7
370
    25
100
AcDbLine
 10
6364.9218059861
 20
5096.0510764093
 30
0.0
 11
6365.1820768099
 21
5096.3588163898
 31
0.0
  0
LWPOLYLINE
  5
CA
330
1F
100
AcDbEntity
  8
0
  6
Continuous
 62
     7
370
    25
100
AcDbPolyline
 90
        3
 70
   128
 43
0.0
 10
6353.7838857942
 20
5090.2663970005
 10
6353.5870339599
 20
5091.0331519419
 10
6353.5498248954
 20
5091.3358898225
  0
ARC
  5
CB
330
1F
100
AcDbEntity
  8
0
  6
Continuous
 62
     7
370
    25
100
AcDbCircle
 10
6364.4854138193
 20
5092.1675190286
 30
0.0
 40
5.596217512182113
100
AcDbArc
 50
296.5061651594
 51
351.4538728853
  0
ARC
  5
CC
330
1F
100
AcDbEntity
  8
0
  6
Continuous
 62
     7
370
    25
100
AcDbCircle
 10
6359.3966693864
 20
5092.5118925047
 30
0.0
 40
6.045294840847824
100
AcDbArc
 50
201.8047716281
 51
242.2976877656
  0
LINE
  5
CD
330
1F
100
AcDbEntity
  8
0
  6
Continuous
 62
     7
370
    25
100
AcDbLine
 10
6364.9218059861
 20
5096.7581831905
 30
0.0
 11
6364.9218059861
 21
5096.0510764093
 31
0.0
  0
LWPOLYLINE
  5
CE
330
1F
100
AcDbEntity
  8
0
  6
Continuous
 62
     7
370
    25
100
AcDbPolyline
 90
        3
 70
   128
 43
0.0
 10
6352.5651149841
 20
5091.8662199084
 10
6352.5501756646
 20
5092.0178618797
 10
6352.5441073949
 20
5092.1010014569
  0
LWPOLYLINE
  5
CF
330
1F
100
AcDbEntity
  8
0
  6
Continuous
 62
     7
370
    25
100
AcDbPolyline
 90
        3
 70
   128
 43
0.0
 10
6371.0252114879
 20
5092.1010014569
 10
6371.0134482507
 20
5091.9538553404
 10
6371.0042038987
 20
5091.8662199084
  0
LWPOLYLINE
  5
D0
330
1F
100
AcDbEntity
  8
0
  6
Continuous
 62
     7
370
    25
100
AcDbPolyline
 90
       46
 70
   128
 43
0.0
 10
6354.511228853
 20
5089.6886580568
 10
6354.3273909719
 20
5090.4170281207
 10
6354.2887003389
 20
5091.1564012679
 10
6354.3959100234
 20
5091.892386441
 10
6354.6469333107
 20
5092.6106585259
 10
6355.0368843181
 20
5093.2972371734
 10
6355.5581730928
 20
5093.9387589111
 10
6356.2006533418
 20
5094.5227372482
 10
6356.9518199177
 20
5095.0378057105
 10
6357.7970522178
 20
5095.4739390763
 10
6358.7198987565
 20
5095.8226485058
 10
6359.702397376
 20
5096.0771467665
 10
6360.7254248579
 20
5096.2324803393
 10
6361.7690691362
 20
5096.285625833
 10
6362.813016862
 20
5096.2355488308
 10
6363.8369487804
 20
5096.0832240247
 10
6364.8209352213
 20
5095.8316162438
 10
6365.7458240078
 20
5095.4856227474
 10
6366.5936132317
 20
5095.0519779052
 10
6367.3478016403
 20
5094.5391221209
 10
6367.9937098139
 20
5093.957037549
 10
6368.5187658847
 20
5093.3170538034
 10
6368.9127502336
 20
5092.63162744
 10
6369.1679944032
 20
5091.9140995031
 10
6369.2795303562
 20
5091.1784358579
 10
6369.2451871722
 20
5090.4389553604
 10
6369.0656333021
 20
5089.7100511574
 10
6368.7443635578
 20
5089.0059105401
 10
6368.2876310894
 20
5088.3402388046
 10
6367.7043256749
 20
5087.725992494
 10
6367.0058006907
 20
5087.1751272142
 10
6366.205652131
 20
5086.6983649312
 10
6365.3194539775
 20
5086.3049852805
 10
6364.364455069
 20
5086.0026449495
 10
6363.3592433732
 20
5085.797228649
 10
6362.3233841921
 20
5085.6927345734
 10
6361.2770393466
 20
5085.6911965812
 10
6360.2405747488
 20
5085.7926446076
 10
6359.2341640032
 20
5085.9951040822
 10
6358.2773957502
 20
5086.2946343616
 10
6357.3888923954
 20
5086.6854054296
 10
6356.5859476461
 20
5087.1598113719
 10
6355.8841899084
 20
5087.7086184164
 10
6355.2972780985
 20
5088.3211446583
 10
6354.8366357872
 20
5088.9854679709
 10
6354.511228853
 20
5089.6886580568
  0
ARC
  5
D1
330
1F
100
AcDbEntity
  8
0
  6
Continuous
 62
     7
370
    25
100
AcDbCircle
 10
6359.0935238495
 20
5091.3983647207
 30
0.0
 40
4.817665781698541
100
AcDbArc
 50
121.3599836415
 51
176.5361373397
  0
ARC
  5
D2
330
1F
100
AcDbEntity
  8
0
  6
Continuous
 62
     7
370
    25
100
AcDbCircle
 10
6364.804265482
 20
5091.5355800752
 30
0.0
 40
4.483035121019438
100
AcDbArc
 50
1.9668460861
 51
51.7867872969
  0
LINE
  5
D3
330
1F
100
AcDbEntity
  8
0
  6
Continuous
 62
     7
370
    25
100
AcDbLine
 10
6355.1561441078
 20
5095.0212276456
 30
0.0
 11
6355.1561441078
 21
5094.3141208645
 31
0.0
  0
LINE
  5
D4
330
1F
100
AcDbEntity
  8
0
  6
Continuous
 62
     7
370
    25
100
AcDbLine
 10
6355.1561441078
 20
5094.3141208645
 30
0.0
 11
6354.7209340537
 21
5094.4981601289
 31
0.0
  0
ARC
  5
D5
330
1F
100
AcDbEntity
  8
0
  6
Continuous
 62
     7
370
    25
100
AcDbCircle
 10
6359.0489898329
 20
5089.4603254642
 30
0.0
 40
6.222023595836443
100
AcDbArc
 50
128.7303444162
 51
150.8239703363
  0
LINE
  5
D6
330
1F
100
AcDbEntity
  8
0
  6
Continuous
 62
     7
370
    25
100
AcDbLine
 10
6353.6163786212
 20
5092.4935272461
 30
0.0
 11
6353.1811685671
 21
5092.6775665105
 31
0.0
  0
LINE
  5
D7
330
1F
100
AcDbEntity
  8
0
  6
Continuous
 62
     7
370
    25
100
AcDbLine
 10
6370.2705830403
 20
5092.8782664036
 30
0.0
 11
6369.7788037953
 21
5092.7907967884
 31
0.0
  0
LINE
  5
D8
330
1F
100
AcDbEntity
  8
0
  6
Continuous
 62
     7
370
    25
100
AcDbLine
 10
6371.0023980417
 20
5090.821029567
 30
0.0
 11
6370.5106187967
 21
5090.7335599518
 31
0.0
  0
ARC
  5
D9
330
1F
100
AcDbEntity
  8
0
  6
Continuous
 62
     7
370
    25
100
AcDbCircle
 10
6365.7389962293
 20
5090.1949458959
 30
0.0
 40
4.801925345778055
100
AcDbArc
 50
6.4402066724
 51
32.723500707
  0
LINE
  5
DA
330
1F
100
AcDbEntity
  8
0
  6
Continuous
 62
     7
370
    25
100
AcDbLine
 10
6369.7788037953
 20
5093.4979035696
 30
0.0
 11
6369.7788037953
 21
5092.7907967884
 31
0.0
  0
LINE
  5
DB
330
1F
100
AcDbEntity
  8
0
  6
Continuous
 62
     7
370
    25
100
AcDbLine
 10
6352.5669208411
 20
5089.7294297345
 30
0.0
 11
6353.0587000861
 21
5089.8168993496
 31
0.0
  0
ARC
  5
DC
330
1F
100
AcDbEntity
  8
0
  6
Continuous
 62
     7
370
    25
100
AcDbCircle
 10
6357.8303226534
 20
5090.3555134056
 30
0.0
 40
4.801925345757219
100
AcDbArc
 50
186.4402066723
 51
212.7235007071
  0
LINE
  5
DD
330
1F
100
AcDbEntity
  8
0
  6
Continuous
 62
     7
370
    25
100
AcDbLine
 10
6353.2987358425
 20
5087.6721928979
 30
0.0
 11
6353.7905150875
 21
5087.759662513
 31
0.0
  0
LINE
  5
DE
330
1F
100
AcDbEntity
  8
0
  6
Continuous
 62
     7
370
    25
100
AcDbLine
 10
6353.0587000861
 20
5090.5240061308
 30
0.0
 11
6353.0587000861
 21
5089.8168993496
 31
0.0
  0
LINE
  5
DF
330
1F
100
AcDbEntity
  8
0
  6
Continuous
 62
     7
370
    25
100
AcDbLine
 10
6353.7905150875
 20
5088.4667692942
 30
0.0
 11
6353.7905150875
 21
5087.759662513
 31
0.0
  0
LINE
  5
E0
330
1F
100
AcDbEntity
  8
0
  6
Continuous
 62
     7
370
    25
100
AcDbLine
 10
6369.9529402615
 20
5088.7640388366
 30
0.0
 11
6369.9529402615
 21
5088.0569320554
 31
0.0
  0
LINE
  5
E1
330
1F
100
AcDbEntity
  8
0
  6
Continuous
 62
     7
370
    25
100
AcDbLine
 10
6369.9529402615
 20
5088.0569320554
 30
0.0
 11
6370.3881503157
 21
5087.8728927909
 31
0.0
  0
ARC
  5
E2
330
1F
100
AcDbEntity
  8
0
  6
Continuous
 62
     7
370
    25
100
AcDbCircle
 10
6364.5203290498
 20
5091.0901338373
 30
0.0
 40
6.222023595861766
100
AcDbArc
 50
308.7303444163
 51
330.8239703363
  0
LINE
  5
E3
330
1F
100
AcDbEntity
  8
0
  6
Continuous
 62
     7
370
    25
100
AcDbLine
 10
6368.413174775
 20
5086.236338437
 30
0.0
 11
6368.8483848291
 21
5086.0522991726
 31
0.0
  0
LINE
  5
E4
330
1F
100
AcDbEntity
  8
0
  6
Continuous
 62
     7
370
    25
100
AcDbLine
 10
6368.413174775
 20
5086.9434452182
 30
0.0
 11
6368.413174775
 21
5086.236338437
 31
0.0
  0
LINE
  5
E5
330
1F
100
AcDbEntity
  8
0
  6
Continuous
 62
     7
370
    25
100
AcDbLine
 10
6356.07280471
 20
5086.2952682904
 30
0.0
 11
6356.07280471
 21
5085.5881615092
 31
0.0
  0
LINE
  5
E6
330
1F
100
AcDbEntity
  8
0
  6
Continuous
 62
     7
370
    25
100
AcDbLine
 10
6358.6475128967
 20
5085.2064896734
 30
0.0
 11
6358.6475128967
 21
5084.4993828922
 31
0.0
  0
ARC
  5
E7
330
1F
100
AcDbEntity
  8
0
  6
Continuous
 62
     7
370
    25
100
AcDbCircle
 10
6361.208435165
 20
5094.1440507131
 30
0.0
 40
9.978874698108102
100
AcDbArc
 50
239.0259192753
 51
255.1295488645
  0
LINE
  5
E8
330
1F
100
AcDbEntity
  8
0
  6
Continuous
 62
     7
370
    25
100
AcDbLine
 10
6356.07280471
 20
5085.5881615092
 30
0.0
 11
6355.8125338862
 21
5085.2804215286
 31
0.0
  0
LINE
  5
E9
330
1F
100
AcDbEntity
  8
0
  6
Continuous
 62
     7
370
    25
100
AcDbLine
 10
6358.6475128967
 20
5084.4993828922
 30
0.0
 11
6358.3872420729
 21
5084.1916429116
 31
0.0
  0
LINE
  5
EA
330
1F
100
AcDbEntity
  8
0
  6
Continuous
 62
     7
370
    25
100
AcDbLine
 10
6365.3422086046
 20
5085.3296227495
 30
0.0
 11
6365.3422086046
 21
5084.6225159683
 31
0.0
  0
ARC
  5
EB
330
1F
100
AcDbEntity
  8
0
  6
Continuous
 62
     7
370
    25
100
AcDbCircle
 10
6361.8414286289
 20
5095.8675063664
 30
0.0
 40
11.77732013196475
100
AcDbArc
 50
272.8783648797
 51
287.2923615076
  0
LINE
  5
EC
330
1F
100
AcDbEntity
  8
0
  6
Continuous
 62
     7
370
    25
100
AcDbLine
 10
6362.4328363692
 20
5084.8121513994
 30
0.0
 11
6362.4328363692
 21
5084.1050446183
 31
0.0
  0
LINE
  5
ED
330
1F
100
AcDbEntity
  8
0
  6
Continuous
 62
     7
370
    25
100
AcDbLine
 10
6365.4659093207
 20
5084.2747755293
 30
0.0
 11
6365.3422086046
 21
5084.6225159683
 31
0.0
  0
LINE
  5
EE
330
1F
100
AcDbEntity
  8
0
  6
Continuous
 62
     7
370
    25
100
AcDbLine
 10
6362.5565370853
 20
5083.7573041793
 30
0.0
 11
6362.4328363692
 21
5084.1050446183
 31
0.0
  0
LINE
  5
EF
330
1F
100
AcDbEntity
  8
0
  6
Continuous
 62
     7
370
    25
100
AcDbLine
 10
6337.8846594414
 20
5136.9247245874
 30
0.0
 11
6385.6846594414
 21
5136.9247245874
 31
0.0
  0
LINE
  5
F0
330
1F
100
AcDbEntity
  8
0
  6
Continuous
 62
     7
370
    25
100
AcDbLine
 10
6336.8846594414
 20
5135.9247245874
 30
0.0
 11
6386.6846594414
 21
5135.9247245874
 31
0.0
  0
LINE
  5
F1
330
1F
100
AcDbEntity
  8
0
  6
Continuous
 62
     7
370
    25
100
AcDbLine
 10
6336.8846594414
 20
5134.2247245874
 30
0.0
 11
6386.6846594414
 21
5134.2247245874
 31
0.0
  0
LINE
  5
F2
330
1F
100
AcDbEntity
  8
0
  6
Continuous
 62
     7
370
    25
100
AcDbLine
 10
6337.1846594414
 20
5133.9247245874
 30
0.0
 11
6386.3846594414
 21
5133.9247245874
 31
0.0
  0
ARC
  5
F3
330
1F
100
AcDbEntity
  8
0
  6
Continuous
 62
     7
370
    25
100
AcDbCircle
 10
6361.7846594414
 20
5094.4247245874
 30
0.0
 40
13.94999999999986
100
AcDbArc
 50
160.0925511025
 51
19.9074488975
  0
LINE
  5
F4
330
1F
100
AcDbEntity
  8
0
  6
Continuous
 62
     7
370
    25
100
AcDbLine
 10
6350.1812116779
 20
5100.1747245874
 30
0.0
 11
6348.6682574957
 21
5099.1747245874
 31
0.0
  0
LINE
  5
F5
330
1F
100
AcDbEntity
  8
0
  6
Continuous
 62
     7
370
    25
100
AcDbLine
 10
6350.1812116779
 20
5100.1747245874
 30
0.0
 11
6373.3881072049
 21
5100.1747245874
 31
0.0
  0
LINE
  5
F6
330
1F
100
AcDbEntity
  8
0
  6
Continuous
 62
     7
370
    25
100
AcDbLine
 10
6374.901061387
 20
5099.1747245874
 30
0.0
 11
6373.3881072049
 21
5100.1747245874
 31
0.0
  0
LWPOLYLINE
  5
F7
330
1F
100
AcDbEntity
  8
0
  6
Continuous
 62
     7
370
    25
100
AcDbPolyline
 90
       53
 70
   128
 43
0.0
 10
6361.7846594414
 20
5083.2378552867
 10
6362.9842827036
 20
5083.2891656692
 10
6364.1664127573
 20
5083.4423485958
 10
6365.3138114844
 20
5083.6951703145
 10
6366.4097472278
 20
5084.0439441153
 10
6367.4382387764
 20
5084.4835840908
 10
6368.3842884076
 20
5085.0076793003
 10
6369.2341005874
 20
5085.6085872554
 10
6369.9752831407
 20
5086.277545365
 10
6370.5970279567
 20
5087.0047987134
 10
6371.090268596
 20
5087.7797423093
 10
6371.4478124994
 20
5088.59107573
 10
6371.6644458717
 20
5089.4269679072
 10
6371.7370097106
 20
5090.2752296507
 10
6371.6644458717
 20
5091.1234913943
 10
6371.4478124994
 20
5091.9593835715
 10
6371.090268596
 20
5092.7707169922
 10
6370.5970279567
 20
5093.5456605881
 10
6369.9752831407
 20
5094.2729139365
 10
6369.2341005874
 20
5094.9418720461
 10
6368.3842884076
 20
5095.5427800012
 10
6367.4382387764
 20
5096.0668752106
 10
6366.4097472278
 20
5096.5065151862
 10
6365.3138114844
 20
5096.855288987
 10
6364.1664127573
 20
5097.1081107057
 10
6362.9842827036
 20
5097.2612936323
 10
6361.7846594414
 20
5097.3126040148
 10
6360.5850361792
 20
5097.2612936323
 10
6359.4029061255
 20
5097.1081107057
 10
6358.2555073984
 20
5096.855288987
 10
6357.159571655
 20
5096.5065151862
 10
6356.1310801063
 20
5096.0668752106
 10
6355.1850304751
 20
5095.5427800012
 10
6354.3352182953
 20
5094.9418720461
 10
6353.5940357421
 20
5094.2729139365
 10
6352.9722909261
 20
5093.5456605881
 10
6352.4790502868
 20
5092.7707169922
 10
6352.1215063834
 20
5091.9593835715
 10
6351.904873011
 20
5091.1234913943
 10
6351.8323091722
 20
5090.2752296507
 10
6351.904873011
 20
5089.4269679072
 10
6352.1215063834
 20
5088.59107573
 10
6352.4790502868
 20
5087.7797423093
 10
6352.9722909261
 20
5087.0047987134
 10
6353.5940357421
 20
5086.277545365
 10
6354.3352182953
 20
5085.6085872554
 10
6355.1850304751
 20
5085.0076793003
 10
6356.1310801063
 20
5084.4835840908
 10
6357.159571655
 20
5084.0439441153
 10
6358.2555073984
 20
5083.6951703145
 10
6359.4029061255
 20
5083.4423485958
 10
6360.5850361792
 20
5083.2891656692
 10
6361.7846594414
 20
5083.2378552867
  0
ARC
  5
F8
330
1F
100
AcDbEntity
  8
0
  6
Continuous
 62
     7
370
    25
100
AcDbCircle
 10
6361.7846594414
 20
5094.4247245874
 30
0.0
 40
12.95000000000022
100
AcDbArc
 50
26.3603643512
 51
153.6396356488
  0
ARC
  5
F9
330
1F
100
AcDbEntity
  8
0
  6
Continuous
 62
     7
370
    25
100
AcDbCircle
 10
6361.7846594414
 20
5094.4247245874
 30
0.0
 40
13.94999999999986
100
AcDbArc
 50
19.9074488975
 51
160.0925511025
  0
LINE
  5
FA
330
1F
100
AcDbEntity
  8
0
  6
Continuous
 62
     7
370
    25
100
AcDbLine
 10
6361.7846594414
 20
5084.3532103583
 30
0.0
 11
6362.4328363692
 21
5084.3690735583
 31
0.0
  0
ARC
  5
FB
330
1F
100
AcDbEntity
  8
0
  6
Continuous
 62
     7
370
    25
100
AcDbCircle
 10
6362.6280515977
 20
5094.6101683503
 30
0.0
 40
10.13013211687099
100
AcDbArc
 50
286.2685753195
 51
304.8256223133
  0
ARC
  5
FC
330
1F
100
AcDbEntity
  8
0
  6
Continuous
 62
     7
370
    25
100
AcDbCircle
 10
6366.0445813492
 20
5090.9985077333
 30
0.0
 40
5.087957525390756
100
AcDbArc
 50
328.6159712308
 51
44.6463461013
  0
ARC
  5
FD
330
1F
100
AcDbEntity
  8
0
  6
Continuous
 62
     7
370
    25
100
AcDbCircle
 10
6357.5592831852
 20
5090.9686787185
 30
0.0
 40
5.133497915951371
100
AcDbArc
 50
135.3877416032
 51
193.466329585
  0
ARC
  5
FE
330
1F
100
AcDbEntity
  8
0
  6
Continuous
 62
     7
370
    25
100
AcDbCircle
 10
6359.6915919976
 20
5092.6881521997
 30
0.0
 40
7.842354919387629
100
AcDbArc
 50
219.226771776
 51
240.3546945376
  0
ARC
  5
FF
330
1F
100
AcDbEntity
  8
0
  6
Continuous
 62
     7
370
    25
100
AcDbCircle
 10
6361.7643191603
 20
5097.2534088087
 30
0.0
 40
12.90021448602975
100
AcDbArc
 50
256.018483273
 51
270.090340571
  0
LINE
  5
100
330
1F
100
AcDbEntity
  8
0
  6
Continuous
 62
     7
370
    25
100
AcDbLine
 10
6371.0252114879
 20
5091.63143836
 30
0.0
 11
6371.0759524085
 21
5091.8662199084
 31
0.0
  0
LINE
  5
101
330
1F
100
AcDbEntity
  8
0
  6
Continuous
 62
     7
370
    25
100
AcDbLine
 10
6352.4933664743
 20
5091.8662199084
 30
0.0
 11
6352.5441073949
 21
5091.63143836
 31
0.0
  0
CIRCLE
  5
102
330
1F
100
AcDbEntity
  8
0
  6
Continuous
 62
     7
370
    25
100
AcDbCircle
 10
6361.7846594414
 20
5029.9247245874
 30
0.0
 40
11.05000000000473
  0
ARC
  5
103
330
1F
100
AcDbEntity
  8
0
  6
Continuous
 62
     7
370
    25
100
AcDbCircle
 10
6361.7396817099
 20
5094.3803260439
 30
0.0
 40
13.9556739361112
100
AcDbArc
 50
125.026737212
 51
270.1846588462
  0
ARC
  5
104
330
1F
100
AcDbEntity
  8
0
  6
Continuous
 62
     7
370
    25
100
AcDbCircle
 10
6361.8367719197
 20
5094.3612773571
 30
0.0
 40
13.93665020065999
100
AcDbArc
 50
269.7857568365
 51
31.9803012644
  0
LINE
  5
105
330
1F
100
AcDbEntity
  8
0
  6
Continuous
 62
     7
370
    25
100
AcDbLine
 10
6361.7846594414
 20
5133.7247245874
 30
0.0
 11
6337.0346594414
 21
5133.7247245874
 31
0.0
  0
LINE
  5
106
330
1F
100
AcDbEntity
  8
0
  6
Continuous
 62
     7
370
    25
100
AcDbLine
 10
6386.5346594414
 20
5133.7247245874
 30
0.0
 11
6361.7846594414
 21
5133.7247245874
 31
0.0
  0
LINE
  5
107
330
1F
100
AcDbEntity
  8
0
  6
Continuous
 62
     7
370
    25
100
AcDbLine
 10
6337.0346594414
 20
5001.1247245874
 30
0.0
 11
6386.5346594414
 21
5001.1247245874
 31
0.0
  0
LINE
  5
108
330
1F
100
AcDbEntity
  8
0
  6
Continuous
 62
     7
370
    25
100
AcDbLine
 10
6353.8002997301
 20
5105.9247245874
 30
0.0
 11
6353.8882995205
 21
5105.9247245874
 31
0.0
  0
LINE
  5
109
330
1F
100
AcDbEntity
  8
0
  6
Continuous
 62
     7
370
    25
100
AcDbLine
 10
6369.6810193623
 20
5105.9247245874
 30
0.0
 11
6369.7690191527
 21
5105.9247245874
 31
0.0
  0
LINE
  5
10A
330
1F
100
AcDbEntity
  8
0
  6
Continuous
 62
     7
370
    25
100
AcDbLine
 10
6391.7846594414
 20
4998.985051521
 30
0.0
 11
6331.7846594414
 21
4998.985051521
 31
0.0
  0
LINE
  5
10B
330
1F
100
AcDbEntity
  8
0
  6
Continuous
 62
     7
370
    25
100
AcDbLine
 10
6391.7846594414
 20
4996.9247245874
 30
0.0
 11
6331.7846594414
 21
4996.9247245874
 31
0.0
  0
LINE
  5
10C
330
1F
100
AcDbEntity
  8
0
  6
Continuous
 62
     7
370
    25
100
AcDbLine
 10
6391.2802699688
 20
4999.8215678247
 30
0.0
 11
6391.3016965282
 21
4999.8215678247
 31
0.0
  0
LINE
  5
10D
330
1F
100
AcDbEntity
  8
0
  6
Continuous
 62
     7
370
    25
100
AcDbLine
 10
6332.2676223545
 20
4999.8215678247
 30
0.0
 11
6391.2802699688
 21
4999.8215678247
 31
0.0
  0
LINE
  5
10E
330
1F
100
AcDbEntity
  8
0
  6
Continuous
 62
     7
370
    25
100
AcDbLine
 10
6387.1846594414
 20
5000.9247245874
 30
0.0
 11
6336.3846594414
 21
5000.9247245874
 31
0.0
  0
LINE
  5
10F
330
1F
100
AcDbEntity
  8
0
  6
Continuous
 62
     7
370
    25
100
AcDbLine
 10
6599.3621256539
 20
5019.1327641534
 30
0.0
 11
6599.4888428379
 21
5019.1327641534
 31
0.0
  0
LINE
  5
110
330
1F
100
AcDbEntity
  8
0
  6
Continuous
 62
     7
370
    25
100
AcDbLine
 10
6599.4888428379
 20
5041.1327641534
 30
0.0
 11
6599.4756513884
 21
5041.1327641534
 31
0.0
  0
LINE
  5
111
330
1F
100
AcDbEntity
  8
0
  6
Continuous
 62
     7
370
    25
100
AcDbLine
 10
6599.4888428379
 20
5019.1327641534
 30
0.0
 11
6599.4888428379
 21
5041.1327641534
 31
0.0
  0
LINE
  5
112
330
1F
100
AcDbEntity
  8
0
  6
Continuous
 62
     7
370
    25
100
AcDbLine
 10
6549.8256513884
 20
5135.9247245874
 30
0.0
 11
6549.8256513884
 21
5134.2247245874
 31
0.0
  0
LINE
  5
113
330
1F
100
AcDbEntity
  8
0
  6
Continuous
 62
     7
370
    25
100
AcDbLine
 10
6599.6256513884
 20
5134.2247245874
 30
0.0
 11
6599.6256513884
 21
5135.9247245874
 31
0.0
  0
LINE
  5
114
330
1F
100
AcDbEntity
  8
0
  6
Continuous
 62
     7
370
    25
100
AcDbLine
 10
6599.6256513884
 20
5135.9247245874
 30
0.0
 11
6598.6256513884
 21
5136.9247245874
 31
0.0
  0
LINE
  5
115
330
1F
100
AcDbEntity
  8
0
  6
Continuous
 62
     7
370
    25
100
AcDbLine
 10
6550.8256513884
 20
5136.9247245874
 30
0.0
 11
6549.8256513884
 21
5135.9247245874
 31
0.0
  0
LINE
  5
116
330
1F
100
AcDbEntity
  8
0
  6
Continuous
 62
     7
370
    25
100
AcDbLine
 10
6549.8256513884
 20
5134.2247245874
 30
0.0
 11
6550.1256513884
 21
5133.9247245874
 31
0.0
  0
LINE
  5
117
330
1F
100
AcDbEntity
  8
0
  6
Continuous
 62
     7
370
    25
100
AcDbLine
 10
6599.3256513884
 20
5133.9247245874
 30
0.0
 11
6599.6256513884
 21
5134.2247245874
 31
0.0
  0
LINE
  5
118
330
1F
100
AcDbEntity
  8
0
  6
Continuous
 62
     7
370
    25
100
AcDbLine
 10
6599.4474808505
 20
5080.4747245874
 30
0.0
 11
6670.0256513884
 21
5080.4747245874
 31
0.0
  0
LINE
  5
119
330
1F
100
AcDbEntity
  8
0
  6
Continuous
 62
     7
370
    25
100
AcDbLine
 10
6688.7256513884
 20
5108.3747245874
 30
0.0
 11
6599.4474811576
 21
5108.3747245874
 31
0.0
  0
LINE
  5
11A
330
1F
100
AcDbEntity
  8
0
  6
Continuous
 62
     7
370
    25
100
AcDbLine
 10
6689.7256513884
 20
5107.3747245874
 30
0.0
 11
6688.7256513884
 21
5108.3747245874
 31
0.0
  0
LINE
  5
11B
330
1F
100
AcDbEntity
  8
0
  6
Continuous
 62
     7
370
    25
100
AcDbLine
 10
6549.9756513884
 20
5001.1247245874
 30
0.0
 11
6550.1756513884
 21
5000.9247245874
 31
0.0
  0
LINE
  5
11C
330
1F
100
AcDbEntity
  8
0
  6
Continuous
 62
     7
370
    25
100
AcDbLine
 10
6599.2756513884
 20
5000.9247245874
 30
0.0
 11
6599.4756513884
 21
5001.1247245874
 31
0.0
  0
LINE
  5
11D
330
1F
100
AcDbEntity
  8
0
  6
Continuous
 62
     7
370
    25
100
AcDbLine
 10
6549.9756513884
 20
5129.4900652688
 30
0.0
 11
6549.9756513884
 21
5001.1247245874
 31
0.0
  0
LINE
  5
11E
330
1F
100
AcDbEntity
  8
0
  6
Continuous
 62
     7
370
    25
100
AcDbLine
 10
6549.9756513884
 20
5133.7247245874
 30
0.0
 11
6549.9756513884
 21
5131.9747245874
 31
0.0
  0
LINE
  5
11F
330
1F
100
AcDbEntity
  8
0
  6
Continuous
 62
     7
370
    25
100
AcDbLine
 10
6599.4756513884
 20
5108.4191142641
 30
0.0
 11
6599.4756513884
 21
5133.7247245874
 31
0.0
  0
LINE
  5
120
330
1F
100
AcDbEntity
  8
0
  6
Continuous
 62
     7
370
    25
100
AcDbLine
 10
6599.4756513884
 20
5041.1327641534
 30
0.0
 11
6599.4756513884
 21
5080.4247245874
 31
0.0
  0
LINE
  5
121
330
1F
100
AcDbEntity
  8
0
  6
Continuous
 62
     7
370
    25
100
AcDbLine
 10
6599.4756513884
 20
5001.1247245874
 30
0.0
 11
6599.4756513884
 21
5018.8747245873
 31
0.0
  0
LINE
  5
122
330
1F
100
AcDbEntity
  8
0
  6
Continuous
 62
     7
370
    25
100
AcDbLine
 10
6599.4756513884
 20
5133.7247245874
 30
0.0
 11
6599.2756513884
 21
5133.9247245874
 31
0.0
  0
LINE
  5
123
330
1F
100
AcDbEntity
  8
0
  6
Continuous
 62
     7
370
    25
100
AcDbLine
 10
6550.1756513884
 20
5133.9247245874
 30
0.0
 11
6549.9756513884
 21
5133.7247245874
 31
0.0
  0
LINE
  5
124
330
1F
100
AcDbEntity
  8
0
  6
Continuous
 62
     7
370
    25
100
AcDbLine
 10
6604.7256513884
 20
4998.985051521
 30
0.0
 11
6604.2426884753
 21
4999.8215678247
 31
0.0
  0
LINE
  5
125
330
1F
100
AcDbEntity
  8
0
  6
Continuous
 62
     7
370
    25
100
AcDbLine
 10
6545.2086143016
 20
4999.8215678247
 30
0.0
 11
6544.7256513884
 21
4998.985051521
 31
0.0
  0
LINE
  5
126
330
1F
100
AcDbEntity
  8
0
  6
Continuous
 62
     7
370
    25
100
AcDbLine
 10
6604.7256513884
 20
4996.9247245874
 30
0.0
 11
6604.7256513884
 21
4998.985051521
 31
0.0
  0
LINE
  5
127
330
1F
100
AcDbEntity
  8
0
  6
Continuous
 62
     7
370
    25
100
AcDbLine
 10
6544.7256513884
 20
4998.985051521
 30
0.0
 11
6544.7256513884
 21
4996.9247245874
 31
0.0
  0
LINE
  5
128
330
1F
100
AcDbEntity
  8
0
  6
Continuous
 62
     7
370
    25
100
AcDbLine
 10
6604.2426884753
 20
4999.8215678247
 30
0.0
 11
6600.1256513884
 21
5000.9247245874
 31
0.0
  0
LINE
  5
129
330
1F
100
AcDbEntity
  8
0
  6
Continuous
 62
     7
370
    25
100
AcDbLine
 10
6549.3256513884
 20
5000.9247245874
 30
0.0
 11
6545.2086143016
 21
4999.8215678247
 31
0.0
  0
ARC
  5
12A
330
1F
100
AcDbEntity
  8
0
  6
Continuous
 62
     7
370
    25
100
AcDbCircle
 10
6622.1749359183
 20
5030.1974313005
 30
0.0
 40
25.18401452918079
100
AcDbArc
 50
154.3507610351
 51
155.26408169
  0
ARC
  5
12B
330
1F
100
AcDbEntity
  8
0
  6
Continuous
 62
     7
370
    25
100
AcDbCircle
 10
6630.528167642
 20
5034.0526196296
 30
0.0
 40
34.43895718118622
100
AcDbArc
 50
199.8469321571
 51
205.6724721538
  0
LINE
  5
12C
330
1F
100
AcDbEntity
  8
0
  6
Continuous
 62
     7
370
    25
100
AcDbLine
 10
6549.8256513884
 20
5135.9247245874
 30
0.0
 11
6599.6256513884
 21
5135.9247245874
 31
0.0
  0
LINE
  5
12D
330
1F
100
AcDbEntity
  8
0
  6
Continuous
 62
     7
370
    25
100
AcDbLine
 10
6549.8256513884
 20
5134.2247245874
 30
0.0
 11
6599.6256513884
 21
5134.2247245874
 31
0.0
  0
LINE
  5
12E
330
1F
100
AcDbEntity
  8
0
  6
Continuous
 62
     7
370
    25
100
AcDbLine
 10
6550.8256513884
 20
5136.9247245874
 30
0.0
 11
6598.6256513884
 21
5136.9247245874
 31
0.0
  0
LINE
  5
12F
330
1F
100
AcDbEntity
  8
0
  6
Continuous
 62
     7
370
    25
100
AcDbLine
 10
6550.1256513884
 20
5133.9247245874
 30
0.0
 11
6599.3256513884
 21
5133.9247245874
 31
0.0
  0
LINE
  5
130
330
1F
100
AcDbEntity
  8
0
  6
Continuous
 62
     7
370
    25
100
AcDbLine
 10
6688.7256513884
 20
5099.1747245874
 30
0.0
 11
6688.7256513884
 21
5108.3747245874
 31
0.0
  0
LINE
  5
131
330
1F
100
AcDbEntity
  8
0
  6
Continuous
 62
     7
370
    25
100
AcDbLine
 10
6688.7256513884
 20
5099.1747245874
 30
0.0
 11
6670.0256513884
 21
5080.4747245874
 31
0.0
  0
LINE
  5
132
330
1F
100
AcDbEntity
  8
0
  6
Continuous
 62
     7
370
    25
100
AcDbLine
 10
6689.7256513884
 20
5100.1747245874
 30
0.0
 11
6689.7256513884
 21
5107.3747245874
 31
0.0
  0
LINE
  5
133
330
1F
100
AcDbEntity
  8
0
  6
Continuous
 62
     7
370
    25
100
AcDbLine
 10
6689.7256513884
 20
5100.1747245874
 30
0.0
 11
6688.7256513884
 21
5099.1747245874
 31
0.0
  0
LINE
  5
134
330
1F
100
AcDbEntity
  8
0
  6
Continuous
 62
     7
370
    25
100
AcDbLine
 10
6549.9756513884
 20
5001.1247245874
 30
0.0
 11
6599.4756513884
 21
5001.1247245874
 31
0.0
  0
ARC
  5
135
330
1F
100
AcDbEntity
  8
0
  6
Continuous
 62
     7
370
    25
100
AcDbCircle
 10
6622.4711322211
 20
5029.9097866752
 30
0.0
 40
25.50617050849904
100
AcDbArc
 50
155.3552717051
 51
205.6353988062
  0
LWPOLYLINE
  5
136
330
1F
100
AcDbEntity
  8
0
  6
Continuous
 62
     7
370
    25
100
AcDbPolyline
 90
       21
 70
   128
 43
0.0
 10
6599.4756513884
 20
5080.4247245874
 10
6599.3838906724
 20
5080.587591048
 10
6599.1065364902
 20
5081.0881186343
 10
6598.686373712
 20
5081.872684344
 10
6598.1383098799
 20
5082.9534527469
 10
6597.4865290761
 20
5084.3502492604
 10
6596.7941497346
 20
5086.0309102426
 10
6596.0960096491
 20
5088.089922918
 10
6595.5188712279
 20
5090.4503703893
 10
6595.2395832282
 20
5092.3610144509
 10
6595.1355525904
 20
5094.3851382764
 10
6595.2267026166
 20
5096.3562010843
 10
6595.5054853954
 20
5098.3284409396
 10
6595.9225067041
 20
5100.146977227
 10
6596.4513542025
 20
5101.8707747326
 10
6597.1160921936
 20
5103.6317512219
 10
6597.8044026471
 20
5105.1981297899
 10
6598.4839817826
 20
5106.585964784
 10
6599.0424908508
 20
5107.6438842216
 10
6599.3630594998
 20
5108.2247020673
 10
6599.4724929384
 20
5108.4191142641
  0
ARC
  5
137
330
1F
100
AcDbEntity
  8
0
  6
Continuous
 62
     7
370
    25
100
AcDbCircle
 10
6525.2437792514
 20
5130.7247593695
 30
0.0
 40
24.76343902710441
100
AcDbArc
 50
357.1420728552
 51
2.8933048533
  0
LINE
  5
138
330
1F
100
AcDbEntity
  8
0
  6
Continuous
 62
     7
370
    25
100
AcDbLine
 10
6599.4756513884
 20
5133.7247245874
 30
0.0
 11
6549.9756513884
 21
5133.7247245874
 31
0.0
  0
LINE
  5
139
330
1F
100
AcDbEntity
  8
0
  6
Continuous
 62
     7
370
    25
100
AcDbLine
 10
6604.7256513884
 20
4998.985051521
 30
0.0
 11
6544.7256513884
 21
4998.985051521
 31
0.0
  0
LINE
  5
13A
330
1F
100
AcDbEntity
  8
0
  6
Continuous
 62
     7
370
    25
100
AcDbLine
 10
6545.2086143016
 20
4999.8215678247
 30
0.0
 11
6604.2426884753
 21
4999.8215678247
 31
0.0
  0
LINE
  5
13B
330
1F
100
AcDbEntity
  8
0
  6
Continuous
 62
     7
370
    25
100
AcDbLine
 10
6573.5827802555
 20
4996.9247245874
 30
0.0
 11
6544.7256513884
 21
4996.9247245874
 31
0.0
  0
LINE
  5
13C
330
1F
100
AcDbEntity
  8
0
  6
Continuous
 62
     7
370
    25
100
AcDbLine
 10
6604.7256513884
 20
4996.9247245874
 30
0.0
 11
6573.5827802555
 21
4996.9247245874
 31
0.0
  0
LINE
  5
13D
330
1F
100
AcDbEntity
  8
0
  6
Continuous
 62
     7
370
    25
100
AcDbLine
 10
6573.7580204959
 20
5000.9247245874
 30
0.0
 11
6549.3256513884
 21
5000.9247245874
 31
0.0
  0
LINE
  5
13E
330
1F
100
AcDbEntity
  8
0
  6
Continuous
 62
     7
370
    25
100
AcDbLine
 10
6600.1256513884
 20
5000.9247245874
 30
0.0
 11
6573.7580204959
 21
5000.9247245874
 31
0.0
  0
LINE
  5
13F
330
1F
100
AcDbEntity
  8
0
  6
Continuous
 62
     7
370
    25
100
AcDbLine
 10
6347.8346594414
 20
4822.5089932049
 30
0.0
 11
6347.8346594414
 21
4733.8844022917
 31
0.0
  0
LINE
  5
140
330
1F
100
AcDbEntity
  8
0
  6
Continuous
 62
     7
370
    25
100
AcDbLine
 10
6375.7346594414
 20
4733.8844022917
 30
0.0
 11
6375.7346594414
 21
4822.5089932049
 31
0.0
  0
CIRCLE
  5
141
330
1F
100
AcDbEntity
  8
0
  6
Continuous
 62
     7
370
    25
100
AcDbCircle
 10
6361.7846594414
 20
4843.1344022917
 30
0.0
 40
23.90000000000055
  0
CIRCLE
  5
142
330
1F
100
AcDbEntity
  8
0
  6
Continuous
 62
     7
370
    25
100
AcDbCircle
 10
6361.7846594414
 20
4843.1344022917
 30
0.0
 40
24.89999999999964
  0
LINE
  5
143
330
1F
100
AcDbEntity
  8
0
  6
Continuous
 62
     7
370
    25
100
AcDbLine
 10
6348.6682574957
 20
4729.1344022917
 30
0.0
 11
6374.901061387
 21
4729.1344022917
 31
0.0
  0
ARC
  5
144
330
1F
100
AcDbEntity
  8
0
  6
Continuous
 62
     7
370
    25
100
AcDbCircle
 10
6361.7846594414
 20
4733.8844022917
 30
0.0
 40
13.94999999999982
100
AcDbArc
 50
180.0
 51
199.9074488975
  0
ARC
  5
145
330
1F
100
AcDbEntity
  8
0
  6
Continuous
 62
     7
370
    25
100
AcDbCircle
 10
6361.7846594414
 20
4733.8844022917
 30
0.0
 40
13.95000000000073
100
AcDbArc
 50
340.0925511025
 51
0.0
  0
LINE
  5
146
330
1F
100
AcDbEntity
  8
0
  6
Continuous
 62
     7
370
    25
100
AcDbLine
 10
6350.1812116779
 20
4728.1344022917
 30
0.0
 11
6373.3881072049
 21
4728.1344022917
 31
0.0
  0
LINE
  5
147
330
1F
100
AcDbEntity
  8
0
  6
Continuous
 62
     7
370
    25
100
AcDbLine
 10
6350.1812116779
 20
4728.1344022917
 30
0.0
 11
6348.6682574957
 21
4729.1344022917
 31
0.0
  0
LINE
  5
148
330
1F
100
AcDbEntity
  8
0
  6
Continuous
 62
     7
370
    25
100
AcDbLine
 10
6374.901061387
 20
4729.1344022917
 30
0.0
 11
6373.3881072049
 21
4728.1344022917
 31
0.0
  0
ARC
  5
149
330
1F
100
AcDbEntity
  8
0
  6
Continuous
 62
     7
370
    25
100
AcDbCircle
 10
6361.7846594414
 20
4843.1344022917
 30
0.0
 40
25.40000000000061
100
AcDbArc
 50
303.3130106878
 51
177.8167486155
  0
ARC
  5
14A
330
1F
100
AcDbEntity
  8
0
  6
Continuous
 62
     7
370
    25
100
AcDbCircle
 10
6361.7846594414
 20
4843.1344022917
 30
0.0
 40
25.40000000000011
100
AcDbArc
 50
177.8167486155
 51
236.6869893122
  0
ARC
  5
14B
330
1F
100
AcDbEntity
  8
0
  6
Continuous
 62
     7
370
    25
100
AcDbCircle
 10
6361.7846594414
 20
4843.1344022917
 30
0.0
 40
29.51703708685545
100
AcDbArc
 50
357.8167486155
 51
241.7962522017
  0
ARC
  5
14C
330
1F
100
AcDbEntity
  8
0
  6
Continuous
 62
     7
370
    25
100
AcDbCircle
 10
6361.7846594414
 20
4843.1344022917
 30
0.0
 40
29.51703708685588
100
AcDbArc
 50
298.2037477983
 51
357.8167486155
  0
ARC
  5
14D
330
1F
100
AcDbEntity
  8
0
  6
Continuous
 62
     7
370
    25
100
AcDbCircle
 10
6361.7846594414
 20
4843.1344022917
 30
0.0
 40
30.00000000000033
100
AcDbArc
 50
297.7102220493
 51
357.8167486155
  0
ARC
  5
14E
330
1F
100
AcDbEntity
  8
0
  6
Continuous
 62
     7
370
    25
100
AcDbCircle
 10
6361.7846594414
 20
4843.1344022917
 30
0.0
 40
30.00000000000041
100
AcDbArc
 50
357.8167486155
 51
242.2897779508
  0
ENDSEC
  0
SECTION
  2
OBJECTS
  0
DICTIONARY
  5
C
330
0
100
AcDbDictionary
281
     1
  3
ACAD_GROUP
350
D
  3
ACAD_LAYOUT
350
1A
  3
ACAD_MLINESTYLE
350
17
  3
ACAD_PLOTSETTINGS
350
19
  3
ACAD_PLOTSTYLENAME
350
E
  3
ACAD_SCALELIST
350
47
  3
DWGPROPS
350
14F
  0
DICTIONARY
  5
D
102
{ACAD_REACTORS
330
C
102
}
330
C
100
AcDbDictionary
281
     1
  0
DICTIONARY
  5
1A
102
{ACAD_REACTORS
330
C
102
}
330
C
100
AcDbDictionary
281
     1
  3
Layout1
350
1E
  3
Layout2
350
26
  3
Model
350
22
  0
DICTIONARY
  5
17
102
{ACAD_REACTORS
330
C
102
}
330
C
100
AcDbDictionary
281
     1
  3
Standard
350
18
  0
DICTIONARY
  5
19
102
{ACAD_REACTORS
330
C
102
}
330
C
100
AcDbDictionary
281
     1
  0
ACDBDICTIONARYWDFLT
  5
E
102
{ACAD_REACTORS
330
C
102
}
330
C
100
AcDbDictionary
281
     1
  3
Normal
350
F
100
AcDbDictionaryWithDefault
340
F
  0
DICTIONARY
  5
47
102
{ACAD_REACTORS
330
C
102
}
330
C
100
AcDbDictionary
281
     1
  3
A0
350
48
  3
A1
350
49
  3
A2
350
4A
  3
A3
350
4B
  3
A4
350
4C
  3
A5
350
4D
  3
A6
350
4E
  3
A7
350
4F
  3
A8
350
50
  3
A9
350
51
  3
B0
350
52
  3
B1
350
53
  3
B2
350
54
  3
B3
350
55
  3
B4
350
56
  3
B5
350
57
  3
B6
350
58
  3
B7
350
59
  3
B8
350
5A
  3
B9
350
5B
  3
C0
350
5C
  3
C1
350
5D
  3
C2
350
5E
  3
C3
350
5F
  3
C4
350
60
  3
C5
350
61
  3
C6
350
62
  3
C7
350
63
  3
C8
350
64
  3
C9
350
65
  3
D0
350
66
  3
D1
350
67
  3
D2
350
68
  0
XRECORD
  5
14F
102
{ACAD_REACTORS
330
C
102
}
330
C
100
AcDbXrecord
280
     1
  1
DWGPROPS COOKIE
  2

  3

  4

  6

  7

  8
radek.stransky
  9

300
=
301
=
302
=
303
=
304
=
305
=
306
=
307
=
308
=
309
=
 40
0.0
 41
2459345.358290822
 42
2459345.358290995
  1

 90
        0
  0
LAYOUT
  5
1E
102
{ACAD_REACTORS
330
1A
102
}
330
1A
100
AcDbPlotSettings
  1

  2
none_device
  4

  6

 40
0.0
 41
0.0
 42
0.0
 43
0.0
 44
0.0
 45
0.0
 46
0.0
 47
0.0
 48
0.0
 49
0.0
140
0.0
141
0.0
142
1.0
143
1.0
 70
   688
 72
     1
 73
     0
 74
     5
  7

 75
    16
147
1.0
148
0.0
149
0.0
100
AcDbLayout
  1
Layout1
 70
     1
 71
     1
 10
0.0
 20
0.0
 11
420.0
 21
297.0
 12
0.0
 22
0.0
 32
0.0
 14
1.0000000000E+20
 24
1.0000000000E+20
 34
1.0000000000E+20
 15
-1.0000000000E+20
 25
-1.0000000000E+20
 35
-1.0000000000E+20
146
0.0
 13
0.0
 23
0.0
 33
0.0
 16
1.0
 26
0.0
 36
0.0
 17
0.0
 27
1.0
 37
0.0
 76
     0
330
1B
  0
LAYOUT
  5
26
102
{ACAD_REACTORS
330
1A
102
}
330
1A
100
AcDbPlotSettings
  1

  2
none_device
  4

  6

 40
0.0
 41
0.0
 42
0.0
 43
0.0
 44
0.0
 45
0.0
 46
0.0
 47
0.0
 48
0.0
 49
0.0
140
0.0
141
0.0
142
1.0
143
1.0
 70
   688
 72
     1
 73
     0
 74
     5
  7

 75
    16
147
1.0
148
0.0
149
0.0
100
AcDbLayout
  1
Layout2
 70
     1
 71
     2
 10
0.0
 20
0.0
 11
0.0
 21
0.0
 12
0.0
 22
0.0
 32
0.0
 14
0.0
 24
0.0
 34
0.0
 15
0.0
 25
0.0
 35
0.0
146
0.0
 13
0.0
 23
0.0
 33
0.0
 16
1.0
 26
0.0
 36
0.0
 17
0.0
 27
1.0
 37
0.0
 76
     0
330
23
  0
LAYOUT
  5
22
102
{ACAD_REACTORS
330
1A
102
}
330
1A
100
AcDbPlotSettings
  1

  2
none_device
  4
Letter_(8.50_x_11.00_Inches)
  6

 40
6.35
 41
6.35
 42
6.35000508
 43
6.35000508
 44
215.9
 45
279.4
 46
0.0
 47
0.0
 48
0.0
 49
0.0
140
0.0
141
0.0
142
1.0
143
1.0
 70
  1712
 72
     1
 73
     0
 74
     0
  7

 75
     0
147
1.0
148
0.0
149
0.0
100
AcDbLayout
  1
Model
 70
     1
 71
     0
 10
0.0
 20
0.0
 11
20000.0
 21
10000.0
 12
0.0
 22
0.0
 32
0.0
 14
0.0
 24
0.0
 34
0.0
 15
20000.0
 25
10000.0
 35
0.0
146
0.0
 13
0.0
 23
0.0
 33
0.0
 16
1.0
 26
0.0
 36
0.0
 17
0.0
 27
1.0
 37
0.0
 76
     0
330
1F
331
29
  0
MLINESTYLE
  5
18
102
{ACAD_REACTORS
330
17
102
}
330
17
100
AcDbMlineStyle
  2
Standard
 70
     0
  3

 62
   256
 51
90.0
 52
90.0
 71
     2
 49
0.5
 62
   256
  6
BYLAYER
 49
-0.5
 62
   256
  6
BYLAYER
  0
ACDBPLACEHOLDER
  5
F
102
{ACAD_REACTORS
330
E
102
}
330
E
  0
SCALE
  5
48
102
{ACAD_REACTORS
330
47
102
}
330
47
100
AcDbScale
 70
     0
300
1:1
140
1.0
141
1.0
290
     1
  0
SCALE
  5
49
102
{ACAD_REACTORS
330
47
102
}
330
47
100
AcDbScale
 70
     0
300
1:2
140
1.0
141
2.0
290
     0
  0
SCALE
  5
4A
102
{ACAD_REACTORS
330
47
102
}
330
47
100
AcDbScale
 70
     0
300
1:4
140
1.0
141
4.0
290
     0
  0
SCALE
  5
4B
102
{ACAD_REACTORS
330
47
102
}
330
47
100
AcDbScale
 70
     0
300
1:5
140
1.0
141
5.0
290
     0
  0
SCALE
  5
4C
102
{ACAD_REACTORS
330
47
102
}
330
47
100
AcDbScale
 70
     0
300
1:8
140
1.0
141
8.0
290
     0
  0
SCALE
  5
4D
102
{ACAD_REACTORS
330
47
102
}
330
47
100
AcDbScale
 70
     0
300
1:10
140
1.0
141
10.0
290
     0
  0
SCALE
  5
4E
102
{ACAD_REACTORS
330
47
102
}
330
47
100
AcDbScale
 70
     0
300
1:16
140
1.0
141
16.0
290
     0
  0
SCALE
  5
4F
102
{ACAD_REACTORS
330
47
102
}
330
47
100
AcDbScale
 70
     0
300
1:20
140
1.0
141
20.0
290
     0
  0
SCALE
  5
50
102
{ACAD_REACTORS
330
47
102
}
330
47
100
AcDbScale
 70
     0
300
1:30
140
1.0
141
30.0
290
     0
  0
SCALE
  5
51
102
{ACAD_REACTORS
330
47
102
}
330
47
100
AcDbScale
 70
     0
300
1:40
140
1.0
141
40.0
290
     0
  0
SCALE
  5
52
102
{ACAD_REACTORS
330
47
102
}
330
47
100
AcDbScale
 70
     0
300
1:50
140
1.0
141
50.0
290
     0
  0
SCALE
  5
53
102
{ACAD_REACTORS
330
47
102
}
330
47
100
AcDbScale
 70
     0
300
1:100
140
1.0
141
100.0
290
     0
  0
SCALE
  5
54
102
{ACAD_REACTORS
330
47
102
}
330
47
100
AcDbScale
 70
     0
300
2:1
140
2.0
141
1.0
290
     0
  0
SCALE
  5
55
102
{ACAD_REACTORS
330
47
102
}
330
47
100
AcDbScale
 70
     0
300
4:1
140
4.0
141
1.0
290
     0
  0
SCALE
  5
56
102
{ACAD_REACTORS
330
47
102
}
330
47
100
AcDbScale
 70
     0
300
8:1
140
8.0
141
1.0
290
     0
  0
SCALE
  5
57
102
{ACAD_REACTORS
330
47
102
}
330
47
100
AcDbScale
 70
     0
300
10:1
140
10.0
141
1.0
290
     0
  0
SCALE
  5
58
102
{ACAD_REACTORS
330
47
102
}
330
47
100
AcDbScale
 70
     0
300
100:1
140
100.0
141
1.0
290
     0
  0
SCALE
  5
59
102
{ACAD_REACTORS
330
47
102
}
330
47
100
AcDbScale
 70
     0
300
1/128" = 1'-0"
140
0.0078125
141
12.0
290
     0
  0
SCALE
  5
5A
102
{ACAD_REACTORS
330
47
102
}
330
47
100
AcDbScale
 70
     0
300
1/64" = 1'-0"
140
0.015625
141
12.0
290
     0
  0
SCALE
  5
5B
102
{ACAD_REACTORS
330
47
102
}
330
47
100
AcDbScale
 70
     0
300
1/32" = 1'-0"
140
0.03125
141
12.0
290
     0
  0
SCALE
  5
5C
102
{ACAD_REACTORS
330
47
102
}
330
47
100
AcDbScale
 70
     0
300
1/16" = 1'-0"
140
0.0625
141
12.0
290
     0
  0
SCALE
  5
5D
102
{ACAD_REACTORS
330
47
102
}
330
47
100
AcDbScale
 70
     0
300
3/32" = 1'-0"
140
0.09375
141
12.0
290
     0
  0
SCALE
  5
5E
102
{ACAD_REACTORS
330
47
102
}
330
47
100
AcDbScale
 70
     0
300
1/8" = 1'-0"
140
0.125
141
12.0
290
     0
  0
SCALE
  5
5F
102
{ACAD_REACTORS
330
47
102
}
330
47
100
AcDbScale
 70
     0
300
3/16" = 1'-0"
140
0.1875
141
12.0
290
     0
  0
SCALE
  5
60
102
{ACAD_REACTORS
330
47
102
}
330
47
100
AcDbScale
 70
     0
300
1/4" = 1'-0"
140
0.25
141
12.0
290
     0
  0
SCALE
  5
61
102
{ACAD_REACTORS
330
47
102
}
330
47
100
AcDbScale
 70
     0
300
3/8" = 1'-0"
140
0.375
141
12.0
290
     0
  0
SCALE
  5
62
102
{ACAD_REACTORS
330
47
102
}
330
47
100
AcDbScale
 70
     0
300
1/2" = 1'-0"
140
0.5
141
12.0
290
     0
  0
SCALE
  5
63
102
{ACAD_REACTORS
330
47
102
}
330
47
100
AcDbScale
 70
     0
300
3/4" = 1'-0"
140
0.75
141
12.0
290
     0
  0
SCALE
  5
64
102
{ACAD_REACTORS
330
47
102
}
330
47
100
AcDbScale
 70
     0
300
1" = 1'-0"
140
1.0
141
12.0
290
     0
  0
SCALE
  5
65
102
{ACAD_REACTORS
330
47
102
}
330
47
100
AcDbScale
 70
     0
300
1-1/2" = 1'-0"
140
1.5
141
12.0
290
     0
  0
SCALE
  5
66
102
{ACAD_REACTORS
330
47
102
}
330
47
100
AcDbScale
 70
     0
300
3" = 1'-0"
140
3.0
141
12.0
290
     0
  0
SCALE
  5
67
102
{ACAD_REACTORS
330
47
102
}
330
47
100
AcDbScale
 70
     0
300
6" = 1'-0"
140
6.0
141
12.0
290
     0
  0
SCALE
  5
68
102
{ACAD_REACTORS
330
47
102
}
330
47
100
AcDbScale
 70
     0
300
1'-0" = 1'-0"
140
12.0
141
12.0
290
     0
  0
ENDSEC
  0
EOF
