  0
SECTION
  2
HEADER
  9
$ACADVER
  1
AC1015
  9
$ACADMAINTVER
 70
     6
  9
$DWGCODEPAGE
  3
ANSI_1250
  9
$INSBASE
 10
0.0
 20
0.0
 30
0.0
  9
$EXTMIN
 10
0.0
 20
0.0
 30
0.0
  9
$EXTMAX
 10
20000.0
 20
10000.0
 30
0.0
  9
$LIMMIN
 10
0.0
 20
0.0
  9
$LIMMAX
 10
20000.0
 20
10000.0
  9
$ORTHOMODE
 70
     0
  9
$REGENMODE
 70
     1
  9
$FILLMODE
 70
     1
  9
$QTEXTMODE
 70
     0
  9
$MIRRTEXT
 70
     1
  9
$LTSCALE
 40
1.0
  9
$ATTMODE
 70
     1
  9
$TEXTSIZE
 40
2.0
  9
$TRACEWID
 40
1.0
  9
$TEXTSTYLE
  7
Standard
  9
$CLAYER
  8
0
  9
$CELTYPE
  6
ByLayer
  9
$CECOLOR
 62
   256
  9
$CELTSCALE
 40
1.0
  9
$DISPSILH
 70
     0
  9
$DIMSCALE
 40
1.0
  9
$DIMASZ
 40
2.0
  9
$DIMEXO
 40
1.0
  9
$DIMDLI
 40
3.75
  9
$DIMRND
 40
0.0
  9
$DIMDLE
 40
0.0
  9
$DIMEXE
 40
1.0
  9
$DIMTP
 40
0.0
  9
$DIMTM
 40
0.0
  9
$DIMTXT
 40
2.0
  9
$DIMCEN
 40
2.5
  9
$DIMTSZ
 40
0.0
  9
$DIMTOL
 70
     0
  9
$DIMLIM
 70
     0
  9
$DIMTIH
 70
     1
  9
$DIMTOH
 70
     1
  9
$DIMSE1
 70
     0
  9
$DIMSE2
 70
     0
  9
$DIMTAD
 70
     1
  9
$DIMZIN
 70
     0
  9
$DIMBLK
  1

  9
$DIMASO
 70
     1
  9
$DIMSHO
 70
     1
  9
$DIMPOST
  1

  9
$DIMAPOST
  1

  9
$DIMALT
 70
     0
  9
$DIMALTD
 70
     3
  9
$DIMALTF
 40
0.0393700787
  9
$DIMLFAC
 40
1.0
  9
$DIMTOFL
 70
     1
  9
$DIMTVP
 40
0.0
  9
$DIMTIX
 70
     0
  9
$DIMSOXD
 70
     0
  9
$DIMSAH
 70
     0
  9
$DIMBLK1
  1

  9
$DIMBLK2
  1

  9
$DIMSTYLE
  2
ISO-25
  9
$DIMCLRD
 70
     0
  9
$DIMCLRE
 70
     0
  9
$DIMCLRT
 70
     0
  9
$DIMTFAC
 40
1.0
  9
$DIMGAP
 40
1.524
  9
$DIMJUST
 70
     0
  9
$DIMSD1
 70
     0
  9
$DIMSD2
 70
     0
  9
$DIMTOLJ
 70
     0
  9
$DIMTZIN
 70
     0
  9
$DIMALTZ
 70
     0
  9
$DIMALTTZ
 70
     0
  9
$DIMUPT
 70
     0
  9
$DIMDEC
 70
     2
  9
$DIMTDEC
 70
     0
  9
$DIMALTU
 70
     2
  9
$DIMALTTD
 70
     3
  9
$DIMTXSTY
  7
Standard
  9
$DIMAUNIT
 70
     0
  9
$DIMADEC
 70
     2
  9
$DIMALTRND
 40
0.0
  9
$DIMAZIN
 70
     0
  9
$DIMDSEP
 70
    44
  9
$DIMATFIT
 70
     3
  9
$DIMFRAC
 70
     0
  9
$DIMLDRBLK
  1

  9
$DIMLUNIT
 70
     2
  9
$DIMLWD
 70
    -2
  9
$DIMLWE
 70
    -2
  9
$DIMTMOVE
 70
     0
  9
$LUNITS
 70
     2
  9
$LUPREC
 70
     3
  9
$SKETCHINC
 40
1.0
  9
$FILLETRAD
 40
10.0
  9
$AUNITS
 70
     0
  9
$AUPREC
 70
     2
  9
$MENU
  1
.
  9
$ELEVATION
 40
0.0
  9
$PELEVATION
 40
0.0
  9
$THICKNESS
 40
0.0
  9
$LIMCHECK
 70
     0
  9
$CHAMFERA
 40
0.0
  9
$CHAMFERB
 40
0.0
  9
$CHAMFERC
 40
0.0
  9
$CHAMFERD
 40
0.0
  9
$SKPOLY
 70
     0
  9
$TDCREATE
 40
2459342.521140891
  9
$TDUCREATE
 40
2459342.437807558
  9
$TDUPDATE
 40
2459342.521141262
  9
$TDUUPDATE
 40
2459342.437807928
  9
$TDINDWG
 40
0.0000000116
  9
$TDUSRTIMER
 40
0.0000000116
  9
$USRTIMER
 70
     1
  9
$ANGBASE
 50
0.0
  9
$ANGDIR
 70
     0
  9
$PDMODE
 70
     0
  9
$PDSIZE
 40
-1.0
  9
$PLINEWID
 40
0.0
  9
$SPLFRAME
 70
     0
  9
$SPLINETYPE
 70
     6
  9
$SPLINESEGS
 70
     8
  9
$HANDSEED
  5
151
  9
$SURFTAB1
 70
     6
  9
$SURFTAB2
 70
     6
  9
$SURFTYPE
 70
     6
  9
$SURFU
 70
     6
  9
$SURFV
 70
     6
  9
$UCSBASE
  2

  9
$UCSNAME
  2

  9
$UCSORG
 10
0.0
 20
0.0
 30
0.0
  9
$UCSXDIR
 10
1.0
 20
0.0
 30
0.0
  9
$UCSYDIR
 10
0.0
 20
1.0
 30
0.0
  9
$UCSORTHOREF
  2

  9
$UCSORTHOVIEW
 70
     0
  9
$UCSORGTOP
 10
0.0
 20
0.0
 30
0.0
  9
$UCSORGBOTTOM
 10
0.0
 20
0.0
 30
0.0
  9
$UCSORGLEFT
 10
0.0
 20
0.0
 30
0.0
  9
$UCSORGRIGHT
 10
0.0
 20
0.0
 30
0.0
  9
$UCSORGFRONT
 10
0.0
 20
0.0
 30
0.0
  9
$UCSORGBACK
 10
0.0
 20
0.0
 30
0.0
  9
$PUCSBASE
  2

  9
$PUCSNAME
  2

  9
$PUCSORG
 10
0.0
 20
0.0
 30
0.0
  9
$PUCSXDIR
 10
1.0
 20
0.0
 30
0.0
  9
$PUCSYDIR
 10
0.0
 20
1.0
 30
0.0
  9
$PUCSORTHOREF
  2

  9
$PUCSORTHOVIEW
 70
     0
  9
$PUCSORGTOP
 10
0.0
 20
0.0
 30
0.0
  9
$PUCSORGBOTTOM
 10
0.0
 20
0.0
 30
0.0
  9
$PUCSORGLEFT
 10
0.0
 20
0.0
 30
0.0
  9
$PUCSORGRIGHT
 10
0.0
 20
0.0
 30
0.0
  9
$PUCSORGFRONT
 10
0.0
 20
0.0
 30
0.0
  9
$PUCSORGBACK
 10
0.0
 20
0.0
 30
0.0
  9
$USERI1
 70
     0
  9
$USERI2
 70
     0
  9
$USERI3
 70
     0
  9
$USERI4
 70
     0
  9
$USERI5
 70
     0
  9
$USERR1
 40
0.0
  9
$USERR2
 40
0.0
  9
$USERR3
 40
0.0
  9
$USERR4
 40
0.0
  9
$USERR5
 40
0.0
  9
$WORLDVIEW
 70
     1
  9
$SHADEDGE
 70
     3
  9
$SHADEDIF
 70
    70
  9
$TILEMODE
 70
     1
  9
$MAXACTVP
 70
    64
  9
$PINSBASE
 10
0.0
 20
0.0
 30
0.0
  9
$PLIMCHECK
 70
     0
  9
$PEXTMIN
 10
1.0000000000E+20
 20
1.0000000000E+20
 30
1.0000000000E+20
  9
$PEXTMAX
 10
-1.0000000000E+20
 20
-1.0000000000E+20
 30
-1.0000000000E+20
  9
$PLIMMIN
 10
0.0
 20
0.0
  9
$PLIMMAX
 10
420.0
 20
297.0
  9
$UNITMODE
 70
     0
  9
$VISRETAIN
 70
     1
  9
$PLINEGEN
 70
     0
  9
$PSLTSCALE
 70
     1
  9
$TREEDEPTH
 70
  3020
  9
$CMLSTYLE
  2
Standard
  9
$CMLJUST
 70
     0
  9
$CMLSCALE
 40
20.0
  9
$PROXYGRAPHICS
 70
     1
  9
$MEASUREMENT
 70
     1
  9
$CELWEIGHT
370
    -1
  9
$ENDCAPS
280
     0
  9
$JOINSTYLE
280
     0
  9
$LWDISPLAY
290
     1
  9
$INSUNITS
 70
     4
  9
$HYPERLINKBASE
  1

  9
$STYLESHEET
  1

  9
$XEDIT
290
     1
  9
$CEPSNTYPE
380
     0
  9
$PSTYLEMODE
290
     1
  9
$FINGERPRINTGUID
  2
{4d14899e-276b-434f-9e44-b9cccba04fec}
  9
$VERSIONGUID
  2
{FAEB1C32-E019-11D5-929B-00C0DF256EC4}
  9
$EXTNAMES
290
     1
  9
$PSVPSCALE
 40
0.0
  9
$OLESTARTUP
290
     0
  0
ENDSEC
  0
SECTION
  2
CLASSES
  0
CLASS
  1
ACDBDICTIONARYWDFLT
  2
AcDbDictionaryWithDefault
  3
ObjectDBX Classes
 90
        0
280
     0
281
     0
  0
CLASS
  1
VISUALSTYLE
  2
AcDbVisualStyle
  3
ObjectDBX Classes
 90
     4095
280
     0
281
     0
  0
CLASS
  1
MATERIAL
  2
AcDbMaterial
  3
ObjectDBX Classes
 90
     1153
280
     0
281
     0
  0
CLASS
  1
SCALE
  2
AcDbScale
  3
ObjectDBX Classes
 90
     1153
280
     0
281
     0
  0
CLASS
  1
TABLESTYLE
  2
AcDbTableStyle
  3
ObjectDBX Classes
 90
     4095
280
     0
281
     0
  0
CLASS
  1
MLEADERSTYLE
  2
AcDbMLeaderStyle
  3
ACDB_MLEADERSTYLE_CLASS
 90
     4095
280
     0
281
     0
  0
CLASS
  1
SUN
  2
AcDbSun
  3
SCENEOE
 90
     1153
280
     0
281
     0
  0
CLASS
  1
ACDBPLACEHOLDER
  2
AcDbPlaceHolder
  3
ObjectDBX Classes
 90
        0
280
     0
281
     0
  0
CLASS
  1
LAYOUT
  2
AcDbLayout
  3
ObjectDBX Classes
 90
        0
280
     0
281
     0
  0
ENDSEC
  0
SECTION
  2
TABLES
  0
TABLE
  2
VPORT
  5
8
330
0
100
AcDbSymbolTable
 70
     1
  0
VPORT
  5
29
330
8
100
AcDbSymbolTableRecord
100
AcDbViewportTableRecord
  2
*Active
 70
     0
 10
0.0
 20
0.0
 11
1.0
 21
1.0
 12
10000.0
 22
5000.0
 13
0.0
 23
0.0
 14
10.0
 24
10.0
 15
10.0
 25
10.0
 16
0.0
 26
0.0
 36
1.0
 17
0.0
 27
0.0
 37
0.0
 40
10000.0
 41
2.0
 42
50.0
 43
0.0
 44
0.0
 50
0.0
 51
0.0
 71
     0
 72
  2000
 73
     1
 74
     3
 75
     0
 76
     0
 77
     0
 78
     0
281
     0
 65
     1
110
0.0
120
0.0
130
0.0
111
1.0
121
0.0
131
0.0
112
0.0
122
1.0
132
0.0
 79
     0
146
0.0
  0
ENDTAB
  0
TABLE
  2
LTYPE
  5
5
330
0
100
AcDbSymbolTable
 70
     6
  0
LTYPE
  5
14
330
5
100
AcDbSymbolTableRecord
100
AcDbLinetypeTableRecord
  2
ByBlock
 70
     0
  3

 72
    65
 73
     0
 40
0.0
  0
LTYPE
  5
15
330
5
100
AcDbSymbolTableRecord
100
AcDbLinetypeTableRecord
  2
ByLayer
 70
     0
  3

 72
    65
 73
     0
 40
0.0
  0
LTYPE
  5
16
330
5
100
AcDbSymbolTableRecord
100
AcDbLinetypeTableRecord
  2
Continuous
 70
     0
  3
Solid line
 72
    65
 73
     0
 40
0.0
  0
LTYPE
  5
6E
330
5
100
AcDbSymbolTableRecord
100
AcDbLinetypeTableRecord
  2
HIDDEN
 70
     0
  3
Hidden __ __ __ __ __ __ __ __ __ __ __ __ __ __
 72
    65
 73
     2
 40
1.905
 49
1.27
 74
     0
 49
-0.635
 74
     0
  0
LTYPE
  5
6F
330
5
100
AcDbSymbolTableRecord
100
AcDbLinetypeTableRecord
  2
PHANTOM
 70
     0
  3
Phantom ______  __  __  ______  __  __  ______
 72
    65
 73
     6
 40
12.7
 49
6.35
 74
     0
 49
-1.27
 74
     0
 49
1.27
 74
     0
 49
-1.27
 74
     0
 49
1.27
 74
     0
 49
-1.27
 74
     0
  0
LTYPE
  5
70
330
5
100
AcDbSymbolTableRecord
100
AcDbLinetypeTableRecord
  2
CENTER
 70
     0
  3
Center ____ _ ____ _ ____ _ ____ _ ____ _ ____
 72
    65
 73
     4
 40
10.16
 49
6.35
 74
     0
 49
-1.27
 74
     0
 49
1.27
 74
     0
 49
-1.27
 74
     0
  0
LTYPE
  5
71
330
5
100
AcDbSymbolTableRecord
100
AcDbLinetypeTableRecord
  2
CENTERX2
 70
     0
  3
Center (2x) ________  __  ________  __  _____
 72
    65
 73
     4
 40
20.32
 49
12.7
 74
     0
 49
-2.54
 74
     0
 49
2.54
 74
     0
 49
-2.54
 74
     0
  0
LTYPE
  5
72
330
5
100
AcDbSymbolTableRecord
100
AcDbLinetypeTableRecord
  2
DOT2
 70
     0
  3
Dot (.5x) ........................................
 72
    65
 73
     2
 40
0.635
 49
0.0
 74
     0
 49
-0.635
 74
     0
  0
ENDTAB
  0
TABLE
  2
LAYER
  5
2
330
0
100
AcDbSymbolTable
 70
    13
  0
LAYER
  5
10
330
2
100
AcDbSymbolTableRecord
100
AcDbLayerTableRecord
  2
0
 70
     0
 62
     7
  6
Continuous
370
    -3
390
F
  0
LAYER
  5
73
330
2
100
AcDbSymbolTableRecord
100
AcDbLayerTableRecord
  2
FORMAT
 70
     0
 62
     7
  6
Continuous
370
    -3
390
F
  0
LAYER
  5
74
330
2
100
AcDbSymbolTableRecord
100
AcDbLayerTableRecord
  2
OSA
 70
     0
 62
     7
  6
CENTER
370
    -3
390
F
  0
LAYER
  5
75
330
2
100
AcDbSymbolTableRecord
100
AcDbLayerTableRecord
  2
0_35
 70
     0
 62
     7
  6
Continuous
370
    35
390
F
  0
LAYER
  5
76
330
2
100
AcDbSymbolTableRecord
100
AcDbLayerTableRecord
  2
0_5
 70
     0
 62
     7
  6
Continuous
370
    50
390
F
  0
LAYER
  5
77
330
2
100
AcDbSymbolTableRecord
100
AcDbLayerTableRecord
  2
0_25
 70
     0
 62
     7
  6
Continuous
370
    25
390
F
  0
LAYER
  5
78
330
2
100
AcDbSymbolTableRecord
100
AcDbLayerTableRecord
  2
0_18
 70
     0
 62
     7
  6
Continuous
370
    -3
390
F
  0
LAYER
  5
79
330
2
100
AcDbSymbolTableRecord
100
AcDbLayerTableRecord
  2
SLD-0
 70
     0
 62
   179
  6
Continuous
370
    -3
390
F
  0
LAYER
  5
7A
330
2
100
AcDbSymbolTableRecord
100
AcDbLayerTableRecord
  2
KOTY
 70
     0
 62
     7
  6
Continuous
370
    -3
390
F
  0
LAYER
  5
7B
330
2
100
AcDbSymbolTableRecord
100
AcDbLayerTableRecord
  2
SILNA
 70
     0
 62
   179
  6
Continuous
370
    -3
390
F
  0
LAYER
  5
7C
330
2
100
AcDbSymbolTableRecord
100
AcDbLayerTableRecord
  2
0_18_1
 70
     0
 62
   179
  6
Continuous
370
    -3
390
F
  0
LAYER
  5
7D
330
2
100
AcDbSymbolTableRecord
100
AcDbLayerTableRecord
  2
0_35_1
 70
     0
 62
   179
  6
Continuous
370
    35
390
F
  0
LAYER
  5
7E
330
2
100
AcDbSymbolTableRecord
100
AcDbLayerTableRecord
  2
0_5_1
 70
     0
 62
   179
  6
Continuous
370
    50
390
F
  0
ENDTAB
  0
TABLE
  2
STYLE
  5
3
330
0
100
AcDbSymbolTable
 70
     1
  0
STYLE
  5
11
330
3
100
AcDbSymbolTableRecord
100
AcDbTextStyleTableRecord
  2
Standard
 70
     0
 40
0.0
 41
1.0
 50
0.0
 71
     0
 42
2.0
  3
txt
  4

  0
ENDTAB
  0
TABLE
  2
VIEW
  5
6
330
0
100
AcDbSymbolTable
 70
     0
  0
ENDTAB
  0
TABLE
  2
UCS
  5
7
330
0
100
AcDbSymbolTable
 70
     0
  0
ENDTAB
  0
TABLE
  2
APPID
  5
9
330
0
100
AcDbSymbolTable
 70
     1
  0
APPID
  5
12
330
9
100
AcDbSymbolTableRecord
100
AcDbRegAppTableRecord
  2
ACAD
 70
     0
  0
ENDTAB
  0
TABLE
  2
DIMSTYLE
  5
A
330
0
100
AcDbSymbolTable
 70
     1
100
AcDbDimStyleTable
  0
DIMSTYLE
105
27
330
A
100
AcDbSymbolTableRecord
100
AcDbDimStyleTableRecord
  2
ISO-25
 70
     0
 41
2.5
 42
0.625
 43
3.75
 44
1.25
 73
     0
 74
     0
 77
     1
 78
     8
140
2.5
141
2.5
143
0.0393700787
147
0.625
171
     3
172
     1
178
     0
271
     2
272
     2
274
     3
278
    44
283
     0
284
     8
340
11
  0
ENDTAB
  0
TABLE
  2
BLOCK_RECORD
  5
1
330
0
100
AcDbSymbolTable
 70
     1
  0
BLOCK_RECORD
  5
1F
330
1
100
AcDbSymbolTableRecord
100
AcDbBlockTableRecord
  2
*Model_Space
340
22
  0
BLOCK_RECORD
  5
1B
330
1
100
AcDbSymbolTableRecord
100
AcDbBlockTableRecord
  2
*Paper_Space
340
1E
  0
BLOCK_RECORD
  5
23
330
1
100
AcDbSymbolTableRecord
100
AcDbBlockTableRecord
  2
*Paper_Space0
340
26
  0
ENDTAB
  0
ENDSEC
  0
SECTION
  2
BLOCKS
  0
BLOCK
  5
20
330
1F
100
AcDbEntity
  8
0
100
AcDbBlockBegin
  2
*Model_Space
 70
     0
 10
0.0
 20
0.0
 30
0.0
  3
*Model_Space
  1

  0
ENDBLK
  5
21
330
1F
100
AcDbEntity
  8
0
100
AcDbBlockEnd
  0
BLOCK
  5
1C
330
1B
100
AcDbEntity
 67
     1
  8
0
100
AcDbBlockBegin
  2
*Paper_Space
 70
     0
 10
0.0
 20
0.0
 30
0.0
  3
*Paper_Space
  1

  0
ENDBLK
  5
1D
330
1B
100
AcDbEntity
 67
     1
  8
0
100
AcDbBlockEnd
  0
BLOCK
  5
24
330
23
100
AcDbEntity
  8
0
100
AcDbBlockBegin
  2
*Paper_Space0
 70
     0
 10
0.0
 20
0.0
 30
0.0
  3
*Paper_Space0
  1

  0
ENDBLK
  5
25
330
23
100
AcDbEntity
  8
0
100
AcDbBlockEnd
  0
ENDSEC
  0
SECTION
  2
ENTITIES
  0
LINE
  5
7F
330
1F
100
AcDbEntity
  8
0
  6
Continuous
 62
     7
370
    25
100
AcDbLine
 10
6211.5471600225
 20
5279.6899911667
 30
0.0
 11
6211.5471600225
 21
5279.3364377761
 31
0.0
  0
LINE
  5
80
330
1F
100
AcDbEntity
  8
0
  6
Continuous
 62
     7
370
    25
100
AcDbLine
 10
6230.0471600225
 20
5279.3364377761
 30
0.0
 11
6230.0471600225
 21
5279.6899911667
 31
0.0
  0
LINE
  5
81
330
1F
100
AcDbEntity
  8
0
  6
Continuous
 62
     7
370
    25
100
AcDbLine
 10
6228.2971600225
 20
5279.3364377761
 30
0.0
 11
6228.2971600225
 21
5280.0435445572
 31
0.0
  0
LINE
  5
82
330
1F
100
AcDbEntity
  8
0
  6
Continuous
 62
     7
370
    25
100
AcDbLine
 10
6213.2971600225
 20
5280.0435445572
 30
0.0
 11
6213.2971600225
 21
5279.3364377761
 31
0.0
  0
LINE
  5
83
330
1F
100
AcDbEntity
  8
0
  6
Continuous
 62
     7
370
    25
100
AcDbLine
 10
6195.8971600225
 20
5324.2788259315
 30
0.0
 11
6195.8971600225
 21
5322.5788259315
 31
0.0
  0
LINE
  5
84
330
1F
100
AcDbEntity
  8
0
  6
Continuous
 62
     7
370
    25
100
AcDbLine
 10
6245.6971600225
 20
5322.5788259315
 30
0.0
 11
6245.6971600225
 21
5324.2788259315
 31
0.0
  0
LINE
  5
85
330
1F
100
AcDbEntity
  8
0
  6
Continuous
 62
     7
370
    25
100
AcDbLine
 10
6195.8971600225
 20
5322.5788259315
 30
0.0
 11
6196.1971600225
 21
5322.2788259315
 31
0.0
  0
LINE
  5
86
330
1F
100
AcDbEntity
  8
0
  6
Continuous
 62
     7
370
    25
100
AcDbLine
 10
6245.3971600225
 20
5322.2788259315
 30
0.0
 11
6245.6971600225
 21
5322.5788259315
 31
0.0
  0
LINE
  5
87
330
1F
100
AcDbEntity
  8
0
  6
Continuous
 62
     7
370
    25
100
AcDbLine
 10
6245.6971600225
 20
5324.2788259315
 30
0.0
 11
6244.6971600225
 21
5325.2788259315
 31
0.0
  0
LINE
  5
88
330
1F
100
AcDbEntity
  8
0
  6
Continuous
 62
     7
370
    25
100
AcDbLine
 10
6196.8971600225
 20
5325.2788259315
 30
0.0
 11
6195.8971600225
 21
5324.2788259315
 31
0.0
  0
LINE
  5
89
330
1F
100
AcDbEntity
  8
0
  6
Continuous
 62
     7
370
    25
100
AcDbLine
 10
6196.0471600225
 20
5322.0788259315
 30
0.0
 11
6196.0471600225
 21
5189.4788259315
 31
0.0
  0
LINE
  5
8A
330
1F
100
AcDbEntity
  8
0
  6
Continuous
 62
     7
370
    25
100
AcDbLine
 10
6245.5471600225
 20
5189.4788259315
 30
0.0
 11
6245.5471600225
 21
5322.0788259315
 31
0.0
  0
LINE
  5
8B
330
1F
100
AcDbEntity
  8
0
  6
Continuous
 62
     7
370
    25
100
AcDbLine
 10
6245.5471600225
 20
5322.0788259315
 30
0.0
 11
6245.3471600225
 21
5322.2788259315
 31
0.0
  0
LINE
  5
8C
330
1F
100
AcDbEntity
  8
0
  6
Continuous
 62
     7
370
    25
100
AcDbLine
 10
6196.2471600225
 20
5322.2788259315
 30
0.0
 11
6196.0471600225
 21
5322.0788259315
 31
0.0
  0
LINE
  5
8D
330
1F
100
AcDbEntity
  8
0
  6
Continuous
 62
     7
370
    25
100
AcDbLine
 10
6196.0471600225
 20
5189.4788259315
 30
0.0
 11
6196.2471600225
 21
5189.2788259315
 31
0.0
  0
LINE
  5
8E
330
1F
100
AcDbEntity
  8
0
  6
Continuous
 62
     7
370
    25
100
AcDbLine
 10
6245.3471600225
 20
5189.2788259315
 30
0.0
 11
6245.5471600225
 21
5189.4788259315
 31
0.0
  0
LINE
  5
8F
330
1F
100
AcDbEntity
  8
0
  6
Continuous
 62
     7
370
    25
100
AcDbLine
 10
6250.7971600225
 20
5185.2788259315
 30
0.0
 11
6250.7971600225
 21
5187.3391528651
 31
0.0
  0
LINE
  5
90
330
1F
100
AcDbEntity
  8
0
  6
Continuous
 62
     7
370
    25
100
AcDbLine
 10
6190.7971600225
 20
5187.3391528651
 30
0.0
 11
6190.7971600225
 21
5185.2788259315
 31
0.0
  0
LINE
  5
91
330
1F
100
AcDbEntity
  8
0
  6
Continuous
 62
     7
370
    25
100
AcDbLine
 10
6250.7971600225
 20
5187.3391528651
 30
0.0
 11
6250.3141971093
 21
5188.1756691689
 31
0.0
  0
LINE
  5
92
330
1F
100
AcDbEntity
  8
0
  6
Continuous
 62
     7
370
    25
100
AcDbLine
 10
6191.2801229356
 20
5188.1756691689
 30
0.0
 11
6190.7971600225
 21
5187.3391528651
 31
0.0
  0
LINE
  5
93
330
1F
100
AcDbEntity
  8
0
  6
Continuous
 62
     7
370
    25
100
AcDbLine
 10
6250.3141971093
 20
5188.1756691689
 30
0.0
 11
6246.1971600225
 21
5189.2788259315
 31
0.0
  0
LINE
  5
94
330
1F
100
AcDbEntity
  8
0
  6
Continuous
 62
     7
370
    25
100
AcDbLine
 10
6195.3971600225
 20
5189.2788259315
 30
0.0
 11
6191.2801229356
 21
5188.1756691689
 31
0.0
  0
CIRCLE
  5
95
330
1F
100
AcDbEntity
  8
0
  6
Continuous
 62
     7
370
    25
100
AcDbCircle
 10
6220.7971600225
 20
5218.4868654976
 30
0.0
 40
11.00000000000273
  0
LWPOLYLINE
  5
96
330
1F
100
AcDbEntity
  8
0
  6
Continuous
 62
     7
370
    25
100
AcDbPolyline
 90
        3
 70
   128
 43
0.0
 10
6211.5471600225
 20
5279.6899911667
 10
6211.6093956506
 20
5280.4474493658
 10
6211.7836204023
 20
5281.1594474463
  0
ARC
  5
97
330
1F
100
AcDbEntity
  8
0
  6
Continuous
 62
     7
370
    25
100
AcDbCircle
 10
6225.3371526291
 20
5279.6858246577
 30
0.0
 40
4.710009236274299
100
AcDbArc
 50
0.0506842761
 51
18.2323035874
  0
ARC
  5
98
330
1F
100
AcDbEntity
  8
0
  6
Continuous
 62
     7
370
    25
100
AcDbCircle
 10
6220.7899198545
 20
5285.6015514895
 30
0.0
 40
12.80655589293304
100
AcDbArc
 50
255.8536949078
 51
272.9335791868
  0
ARC
  5
99
330
1F
100
AcDbEntity
  8
0
  6
Continuous
 62
     7
370
    25
100
AcDbCircle
 10
6220.8579271446
 20
5284.5468706151
 30
0.0
 40
12.45578059459507
100
AcDbArc
 50
273.2728416264
 51
286.8978847609
  0
LINE
  5
9A
330
1F
100
AcDbEntity
  8
0
  6
Continuous
 62
     7
370
    25
100
AcDbLine
 10
6224.4784099017
 20
5273.3359836547
 30
0.0
 11
6224.4784099017
 21
5272.6288768735
 31
0.0
  0
ARC
  5
9B
330
1F
100
AcDbEntity
  8
0
  6
Continuous
 62
     7
370
    25
100
AcDbCircle
 10
6221.5947053687
 20
5282.9835092108
 30
0.0
 40
10.06928503873073
100
AcDbArc
 50
286.6417277583
 51
305.3861985818
  0
ARC
  5
9C
330
1F
100
AcDbEntity
  8
0
  6
Continuous
 62
     7
370
    25
100
AcDbCircle
 10
6223.6925109164
 20
5279.493224136
 30
0.0
 40
6.576558405031503
100
AcDbArc
 50
309.332748952
 51
330.2215658006
  0
LINE
  5
9D
330
1F
100
AcDbEntity
  8
0
  6
Continuous
 62
     7
370
    25
100
AcDbLine
 10
6229.4006508968
 20
5276.9341009163
 30
0.0
 11
6229.4006508968
 21
5276.2269941351
 31
0.0
  0
ARC
  5
9E
330
1F
100
AcDbEntity
  8
0
  6
Continuous
 62
     7
370
    25
100
AcDbCircle
 10
6225.2057832334
 20
5279.3461644746
 30
0.0
 40
4.838901251550586
100
AcDbArc
 50
330.100947763
 51
6.3605162397
  0
LINE
  5
9F
330
1F
100
AcDbEntity
  8
0
  6
Continuous
 62
     7
370
    25
100
AcDbLine
 10
6230.0148986227
 20
5279.8822376923
 30
0.0
 11
6230.0148986227
 21
5279.1751309111
 31
0.0
  0
ARC
  5
A0
330
1F
100
AcDbEntity
  8
0
  6
Continuous
 62
     7
370
    25
100
AcDbCircle
 10
6224.9814924159
 20
5278.5433933066
 30
0.0
 40
5.072895666566221
100
AcDbArc
 50
7.1537274672
 51
32.0099799123
  0
LINE
  5
A1
330
1F
100
AcDbEntity
  8
0
  6
Continuous
 62
     7
370
    25
100
AcDbLine
 10
6229.2830836214
 20
5281.9394745289
 30
0.0
 11
6229.2830836214
 21
5281.2323677478
 31
0.0
  0
ARC
  5
A2
330
1F
100
AcDbEntity
  8
0
  6
Continuous
 62
     7
370
    25
100
AcDbCircle
 10
6223.4882552915
 20
5278.2944579934
 30
0.0
 40
6.845887883726317
100
AcDbArc
 50
32.1703853282
 51
52.8521803244
  0
LINE
  5
A3
330
1F
100
AcDbEntity
  8
0
  6
Continuous
 62
     7
370
    25
100
AcDbLine
 10
6226.7692855777
 20
5284.2588510558
 30
0.0
 11
6226.7692855777
 21
5283.624139117
 31
0.0
  0
ARC
  5
A4
330
1F
100
AcDbEntity
  8
0
  6
Continuous
 62
     7
370
    25
100
AcDbCircle
 10
6221.4080247208
 20
5274.5346864929
 30
0.0
 40
10.55278479744615
100
AcDbArc
 50
59.4664851876
 51
74.6889829522
  0
LINE
  5
A5
330
1F
100
AcDbEntity
  8
0
  6
Continuous
 62
     7
370
    25
100
AcDbLine
 10
6224.194577391
 20
5285.243967459
 30
0.0
 11
6224.194577391
 21
5284.712917734
 31
0.0
  0
LINE
  5
A6
330
1F
100
AcDbEntity
  8
0
  6
Continuous
 62
     7
370
    25
100
AcDbLine
 10
6220.0252823785
 20
5285.6455080445
 30
0.0
 11
6220.0252823785
 21
5285.1472564663
 31
0.0
  0
ARC
  5
A7
330
1F
100
AcDbEntity
  8
0
  6
Continuous
 62
     7
370
    25
100
AcDbCircle
 10
6220.7363929003
 20
5272.7117913747
 30
0.0
 40
12.45578059453866
100
AcDbArc
 50
93.2728416264
 51
106.8978847609
  0
LINE
  5
A8
330
1F
100
AcDbEntity
  8
0
  6
Continuous
 62
     7
370
    25
100
AcDbLine
 10
6217.1159101432
 20
5285.1675905189
 30
0.0
 11
6217.1159101432
 21
5284.6297851163
 31
0.0
  0
LINE
  5
A9
330
1F
100
AcDbEntity
  8
0
  6
Continuous
 62
     7
370
    25
100
AcDbLine
 10
6213.7334346348
 20
5283.5593682542
 30
0.0
 11
6213.9720148206
 21
5283.7511797262
 31
0.0
  0
LINE
  5
AA
330
1F
100
AcDbEntity
  8
0
  6
Continuous
 62
     7
370
    25
100
AcDbLine
 10
6213.7334346348
 20
5283.5593682542
 30
0.0
 11
6213.7334346348
 21
5282.852261473
 31
0.0
  0
ARC
  5
AB
330
1F
100
AcDbEntity
  8
0
  6
Continuous
 62
     7
370
    25
100
AcDbCircle
 10
6217.9018091285
 20
5277.7654378538
 30
0.0
 40
6.576558404968664
100
AcDbArc
 50
129.3327489519
 51
150.2215658006
  0
LINE
  5
AC
330
1F
100
AcDbEntity
  8
0
  6
Continuous
 62
     7
370
    25
100
AcDbLine
 10
6212.1936691482
 20
5281.7387746359
 30
0.0
 11
6212.1936691482
 21
5281.0316678547
 31
0.0
  0
ARC
  5
AD
330
1F
100
AcDbEntity
  8
0
  6
Continuous
 62
     7
370
    25
100
AcDbCircle
 10
6216.3885368115
 20
5279.3267110775
 30
0.0
 40
4.83890125156241
100
AcDbArc
 50
150.100947763
 51
186.3605162396
  0
LINE
  5
AE
330
1F
100
AcDbEntity
  8
0
  6
Continuous
 62
     7
370
    25
100
AcDbLine
 10
6211.5794214222
 20
5278.7906378598
 30
0.0
 11
6211.5794214222
 21
5278.0835310786
 31
0.0
  0
ARC
  5
AF
330
1F
100
AcDbEntity
  8
0
  6
Continuous
 62
     7
370
    25
100
AcDbCircle
 10
6216.612827629
 20
5278.7152686831
 30
0.0
 40
5.072895666555616
100
AcDbArc
 50
187.1537274671
 51
212.0099799123
  0
ARC
  5
B0
330
1F
100
AcDbEntity
  8
0
  6
Continuous
 62
     7
370
    25
100
AcDbCircle
 10
6218.6262311753
 20
5280.9009458391
 30
0.0
 40
7.581142739023271
100
AcDbArc
 50
219.2415880112
 51
239.907230903
  0
LINE
  5
B1
330
1F
100
AcDbEntity
  8
0
  6
Continuous
 62
     7
370
    25
100
AcDbLine
 10
6214.8250344673
 20
5274.341629654
 30
0.0
 11
6214.8250344673
 21
5273.6345228728
 31
0.0
  0
ARC
  5
B2
330
1F
100
AcDbEntity
  8
0
  6
Continuous
 62
     7
370
    25
100
AcDbCircle
 10
6220.1862953241
 20
5282.7239754969
 30
0.0
 40
10.55278479745617
100
AcDbArc
 50
239.4664851876
 51
254.6889829522
  0
ARC
  5
B3
330
1F
100
AcDbEntity
  8
0
  6
Continuous
 62
     7
370
    25
100
AcDbCircle
 10
6216.9365858621
 20
5279.3401619418
 30
0.0
 40
4.37914666378338
100
AcDbArc
 50
142.7951038027
 51
199.0146641651
  0
ARC
  5
B4
330
1F
100
AcDbEntity
  8
0
  6
Continuous
 62
     7
370
    25
100
AcDbCircle
 10
6219.7308347296
 20
5276.7895675841
 30
0.0
 40
8.19624170629362
100
AcDbArc
 50
108.4354267552
 51
132.736436551
  0
ARC
  5
B5
330
1F
100
AcDbEntity
  8
0
  6
Continuous
 62
     7
370
    25
100
AcDbCircle
 10
6220.8113867189
 20
5273.8590975565
 30
0.0
 40
11.31234893726264
100
AcDbArc
 50
73.9746339544
 51
93.3569203417
  0
LWPOLYLINE
  5
B6
330
1F
100
AcDbEntity
  8
0
  6
Continuous
 62
     7
370
    25
100
AcDbPolyline
 90
       31
 70
   128
 43
0.0
 10
6226.6313479385
 20
5283.4610439003
 10
6227.1324207676
 20
5283.0732125412
 10
6227.7561877001
 20
5282.4696816049
 10
6228.2656875905
 20
5281.8147028915
 10
6228.6525544648
 20
5281.1190311335
 10
6228.9104359795
 20
5280.3940892418
 10
6229.0350977272
 20
5279.6517807422
 10
6229.0244927656
 20
5278.9042943199
 10
6228.8787952278
 20
5278.1639036812
 10
6228.6003974634
 20
5277.4427660199
 10
6228.1938707559
 20
5276.7527223965
 10
6227.6658902627
 20
5276.1051033082
 10
6227.0251254088
 20
5275.5105426425
 10
6226.2820975355
 20
5274.9788030691
 10
6225.4490071398
 20
5274.5186157372
 10
6224.5395335431
 20
5274.1375369099
 10
6223.5686102767
 20
5273.8418238911
 10
6222.5521798736
 20
5273.6363322805
 10
6221.5069320932
 20
5273.5244362444
 10
6220.4500298749
 20
5273.5079731128
 10
6219.3988275241
 20
5273.5872132099
 10
6218.3705857543
 20
5273.7608554154
 10
6217.3821882668
 20
5274.0260485291
 10
6216.4498645212
 20
5274.3784380874
 10
6215.5889232475
 20
5274.8122378636
 10
6214.8135010777
 20
5275.3203248772
 10
6214.1363304223
 20
5275.8943563536
 10
6213.5685304048
 20
5276.5249067118
 10
6213.1194242858
 20
5277.2016223323
 10
6212.7963863753
 20
5277.9133915635
 10
6212.7963863753
 20
5277.9133915635
  0
LINE
  5
B7
330
1F
100
AcDbEntity
  8
0
  6
Continuous
 62
     7
370
    25
100
AcDbLine
 10
6228.9654408426
 20
5277.1181401807
 30
0.0
 11
6229.4006508968
 21
5276.9341009163
 31
0.0
  0
ARC
  5
B8
330
1F
100
AcDbEntity
  8
0
  6
Continuous
 62
     7
370
    25
100
AcDbCircle
 10
6223.5328296309
 20
5280.1513419626
 30
0.0
 40
6.22202359585139
100
AcDbArc
 50
308.7303444163
 51
330.8239703363
  0
LINE
  5
B9
330
1F
100
AcDbEntity
  8
0
  6
Continuous
 62
     7
370
    25
100
AcDbLine
 10
6224.4784099017
 20
5273.3359836547
 30
0.0
 11
6224.3547091857
 21
5273.6837240936
 31
0.0
  0
ARC
  5
BA
330
1F
100
AcDbEntity
  8
0
  6
Continuous
 62
     7
370
    25
100
AcDbCircle
 10
6220.8539292099
 20
5284.9287144917
 30
0.0
 40
11.77732013203913
100
AcDbArc
 50
272.8783648797
 51
287.2923615076
  0
ARC
  5
BB
330
1F
100
AcDbEntity
  8
0
  6
Continuous
 62
     7
370
    25
100
AcDbCircle
 10
6220.2209357461
 20
5283.2052588384
 30
0.0
 40
9.978874698132302
100
AcDbArc
 50
239.0259192753
 51
255.1295488645
  0
LINE
  5
BC
330
1F
100
AcDbEntity
  8
0
  6
Continuous
 62
     7
370
    25
100
AcDbLine
 10
6215.0853052911
 20
5274.6493696345
 30
0.0
 11
6214.8250344673
 21
5274.341629654
 31
0.0
  0
ARC
  5
BD
330
1F
100
AcDbEntity
  8
0
  6
Continuous
 62
     7
370
    25
100
AcDbCircle
 10
6216.8428232345
 20
5279.4167215309
 30
0.0
 40
4.801925345763832
100
AcDbArc
 50
186.4402066723
 51
212.723500707
  0
LINE
  5
BE
330
1F
100
AcDbEntity
  8
0
  6
Continuous
 62
     7
370
    25
100
AcDbLine
 10
6211.5794214222
 20
5278.7906378598
 30
0.0
 11
6212.0712006672
 21
5278.878107475
 31
0.0
  0
LINE
  5
BF
330
1F
100
AcDbEntity
  8
0
  6
Continuous
 62
     7
370
    25
100
AcDbLine
 10
6214.1686446889
 20
5283.3753289898
 30
0.0
 11
6213.7334346348
 21
5283.5593682542
 31
0.0
  0
LINE
  5
C0
330
1F
100
AcDbEntity
  8
0
  6
Continuous
 62
     7
370
    25
100
AcDbLine
 10
6220.0982184679
 20
5285.6493294487
 30
0.0
 11
6220.1489830946
 21
5285.5066228085
 31
0.0
  0
LINE
  5
C1
330
1F
100
AcDbEntity
  8
0
  6
Continuous
 62
     7
370
    25
100
AcDbLine
 10
6223.9343065672
 20
5285.1122845346
 30
0.0
 11
6224.0718011273
 21
5285.2748558618
 31
0.0
  0
LINE
  5
C2
330
1F
100
AcDbEntity
  8
0
  6
Continuous
 62
     7
370
    25
100
AcDbLine
 10
6229.2830836214
 20
5281.9394745289
 30
0.0
 11
6228.7913043764
 21
5281.8520049138
 31
0.0
  0
LINE
  5
C3
330
1F
100
AcDbEntity
  8
0
  6
Continuous
 62
     7
370
    25
100
AcDbLine
 10
6220.0252823785
 20
5285.1472564663
 30
0.0
 11
6220.1489830946
 21
5284.7995160274
 31
0.0
  0
ARC
  5
C4
330
1F
100
AcDbEntity
  8
0
  6
Continuous
 62
     7
370
    25
100
AcDbCircle
 10
6220.740390835
 20
5273.0370542793
 30
0.0
 40
11.77732013197667
100
AcDbArc
 50
92.8783648797
 51
107.2923615076
  0
LINE
  5
C5
330
1F
100
AcDbEntity
  8
0
  6
Continuous
 62
     7
370
    25
100
AcDbLine
 10
6217.1159101432
 20
5284.6297851163
 30
0.0
 11
6217.2396108593
 21
5284.2820446773
 31
0.0
  0
LINE
  5
C6
330
1F
100
AcDbEntity
  8
0
  6
Continuous
 62
     7
370
    25
100
AcDbLine
 10
6220.1489830946
 20
5285.5066228085
 30
0.0
 11
6220.1489830946
 21
5284.7995160274
 31
0.0
  0
LINE
  5
C7
330
1F
100
AcDbEntity
  8
0
  6
Continuous
 62
     7
370
    25
100
AcDbLine
 10
6226.5090147539
 20
5283.3163991364
 30
0.0
 11
6226.7692855777
 21
5283.624139117
 31
0.0
  0
ARC
  5
C8
330
1F
100
AcDbEntity
  8
0
  6
Continuous
 62
     7
370
    25
100
AcDbCircle
 10
6221.3733842988
 20
5274.7605099325
 30
0.0
 40
9.978874698111042
100
AcDbArc
 50
59.0259192753
 51
75.1295488645
  0
LINE
  5
C9
330
1F
100
AcDbEntity
  8
0
  6
Continuous
 62
     7
370
    25
100
AcDbLine
 10
6223.9343065672
 20
5284.4051777534
 30
0.0
 11
6224.194577391
 21
5284.712917734
 31
0.0
  0
LWPOLYLINE
  5
CA
330
1F
100
AcDbEntity
  8
0
  6
Continuous
 62
     7
370
    25
100
AcDbPolyline
 90
        3
 70
   128
 43
0.0
 10
6212.7963863753
 20
5278.6204983446
 10
6212.6047209469
 20
5279.3556339552
 10
6212.5623254765
 20
5279.6899911667
  0
ARC
  5
CB
330
1F
100
AcDbEntity
  8
0
  6
Continuous
 62
     7
370
    25
100
AcDbCircle
 10
6223.5436445653
 20
5280.4883710911
 30
0.0
 40
5.546115420843751
100
AcDbArc
 50
296.2366921887
 51
351.7233458559
  0
ARC
  5
CC
330
1F
100
AcDbEntity
  8
0
  6
Continuous
 62
     7
370
    25
100
AcDbCircle
 10
6218.5291343608
 20
5280.974204655
 30
0.0
 40
6.197122950242521
100
AcDbArc
 50
202.3216846723
 51
241.7807747215
  0
LINE
  5
CD
330
1F
100
AcDbEntity
  8
0
  6
Continuous
 62
     7
370
    25
100
AcDbLine
 10
6223.9343065672
 20
5285.1122845346
 30
0.0
 11
6223.9343065672
 21
5284.4051777534
 31
0.0
  0
LINE
  5
CE
330
1F
100
AcDbEntity
  8
0
  6
Continuous
 62
     7
370
    25
100
AcDbLine
 10
6211.5776155652
 20
5280.2203212525
 30
0.0
 11
6211.556607976
 21
5280.455102801
 31
0.0
  0
LINE
  5
CF
330
1F
100
AcDbEntity
  8
0
  6
Continuous
 62
     7
370
    25
100
AcDbLine
 10
6230.037712069
 20
5280.455102801
 30
0.0
 11
6230.0167044798
 21
5280.2203212525
 31
0.0
  0
LWPOLYLINE
  5
D0
330
1F
100
AcDbEntity
  8
0
  6
Continuous
 62
     7
370
    25
100
AcDbPolyline
 90
       48
 70
   128
 43
0.0
 10
6213.5237294341
 20
5278.042759401
 10
6213.3447732211
 20
5278.7398093477
 10
6213.2988050272
 20
5279.4475061428
 10
6213.3866451557
 20
5280.1532209203
 10
6213.6067260976
 20
5280.8443601833
 10
6213.9551205033
 20
5281.5085905352
 10
6214.4256112662
 20
5282.1340587696
 10
6215.0098024677
 20
5282.7096033911
 10
6215.6972692018
 20
5283.2249537923
 10
6216.4757436085
 20
5283.6709135331
 10
6217.3313337934
 20
5284.0395244513
 10
6218.2487717295
 20
5284.3242086764
 10
6219.211685715
 20
5284.5198860116
 10
6220.2028925272
 20
5284.6230645902
 10
6221.2047040568
 20
5284.6319031881
 10
6222.1992429535
 20
5284.5462440803
 10
6223.1687616471
 20
5284.3676158555
 10
6224.0959590535
 20
5284.0992061387
 10
6224.9642893131
 20
5283.7458047077
 10
6225.7582570517
 20
5283.3137180193
 10
6226.4636938964
 20
5282.8106566707
 10
6227.0680113098
 20
5282.2455978037
 10
6227.5604252334
 20
5281.628624907
 10
6227.9321485291
 20
5280.9707478767
 10
6228.1765477859
 20
5280.2837065439
 10
6228.2892616932
 20
5279.5797611776
 10
6228.2682788687
 20
5278.8714736993
 10
6228.1139737514
 20
5278.171483516
 10
6227.8290999198
 20
5277.4922819691
 10
6227.4187409541
 20
5276.8459894263
 10
6226.8902197198
 20
5276.2441389933
 10
6226.2529676909
 20
5275.6974707052
 10
6225.5183566449
 20
5275.2157398708
 10
6224.6994957333
 20
5274.8075429882
 10
6223.8109975485
 20
5274.4801643403
 10
6222.8687173617
 20
5274.2394460069
 10
6221.889470185
 20
5274.0896836124
 10
6220.8907307076
 20
5274.0335496702
 10
6219.8903214592
 20
5274.0720458919
 10
6218.9060947664
 20
5274.2044853115
 10
6217.9556141778
 20
5274.4285045444
 10
6217.0558410422
 20
5274.7401059621
 10
6216.2228318325
 20
5275.1337290299
 10
6215.4714516176
 20
5275.6023495349
 10
6214.8151087954
 20
5276.1376049329
 10
6214.2655158191
 20
5276.7299435789
 10
6213.8324801883
 20
5277.3687951755
 10
6213.5237294341
 20
5278.042759401
  0
ARC
  5
D1
330
1F
100
AcDbEntity
  8
0
  6
Continuous
 62
     7
370
    25
100
AcDbCircle
 10
6218.0663650462
 20
5279.7763447854
 30
0.0
 40
4.77668423458309
100
AcDbArc
 50
121.1028254308
 51
176.7932955504
  0
ARC
  5
D2
330
1F
100
AcDbEntity
  8
0
  6
Continuous
 62
     7
370
    25
100
AcDbCircle
 10
6223.822881141
 20
5279.8927806648
 30
0.0
 40
4.476818207217024
100
AcDbArc
 50
1.9298903684
 51
51.8237430146
  0
LINE
  5
D3
330
1F
100
AcDbEntity
  8
0
  6
Continuous
 62
     7
370
    25
100
AcDbLine
 10
6214.1686446889
 20
5283.3753289898
 30
0.0
 11
6214.1686446889
 21
5282.6682222086
 31
0.0
  0
LINE
  5
D4
330
1F
100
AcDbEntity
  8
0
  6
Continuous
 62
     7
370
    25
100
AcDbLine
 10
6214.1686446889
 20
5282.6682222086
 30
0.0
 11
6213.7334346348
 21
5282.852261473
 31
0.0
  0
ARC
  5
D5
330
1F
100
AcDbEntity
  8
0
  6
Continuous
 62
     7
370
    25
100
AcDbCircle
 10
6218.061490414
 20
5277.8144268083
 30
0.0
 40
6.222023595853933
100
AcDbArc
 50
128.7303444163
 51
150.8239703363
  0
LINE
  5
D6
330
1F
100
AcDbEntity
  8
0
  6
Continuous
 62
     7
370
    25
100
AcDbLine
 10
6212.6288792023
 20
5280.8476285902
 30
0.0
 11
6212.1936691482
 21
5281.0316678547
 31
0.0
  0
LINE
  5
D7
330
1F
100
AcDbEntity
  8
0
  6
Continuous
 62
     7
370
    25
100
AcDbLine
 10
6229.2830836214
 20
5281.2323677478
 30
0.0
 11
6228.7913043764
 21
5281.1448981326
 31
0.0
  0
LINE
  5
D8
330
1F
100
AcDbEntity
  8
0
  6
Continuous
 62
     7
370
    25
100
AcDbLine
 10
6230.0148986227
 20
5279.1751309111
 30
0.0
 11
6229.5231193778
 21
5279.087661296
 31
0.0
  0
ARC
  5
D9
330
1F
100
AcDbEntity
  8
0
  6
Continuous
 62
     7
370
    25
100
AcDbCircle
 10
6224.7514968104
 20
5278.54904724
 30
0.0
 40
4.801925345794934
100
AcDbArc
 50
6.4402066724
 51
32.723500707
  0
LINE
  5
DA
330
1F
100
AcDbEntity
  8
0
  6
Continuous
 62
     7
370
    25
100
AcDbLine
 10
6228.7913043764
 20
5281.8520049138
 30
0.0
 11
6228.7913043764
 21
5281.1448981326
 31
0.0
  0
LINE
  5
DB
330
1F
100
AcDbEntity
  8
0
  6
Continuous
 62
     7
370
    25
100
AcDbLine
 10
6211.5794214222
 20
5278.0835310786
 30
0.0
 11
6212.0712006672
 21
5278.1710006938
 31
0.0
  0
ARC
  5
DC
330
1F
100
AcDbEntity
  8
0
  6
Continuous
 62
     7
370
    25
100
AcDbCircle
 10
6216.8428232345
 20
5278.7096147497
 30
0.0
 40
4.8019253457711
100
AcDbArc
 50
186.4402066724
 51
212.7235007071
  0
LINE
  5
DD
330
1F
100
AcDbEntity
  8
0
  6
Continuous
 62
     7
370
    25
100
AcDbLine
 10
6212.3112364236
 20
5276.026294242
 30
0.0
 11
6212.8030156685
 21
5276.1137638572
 31
0.0
  0
LINE
  5
DE
330
1F
100
AcDbEntity
  8
0
  6
Continuous
 62
     7
370
    25
100
AcDbLine
 10
6212.0712006672
 20
5278.878107475
 30
0.0
 11
6212.0712006672
 21
5278.1710006938
 31
0.0
  0
LINE
  5
DF
330
1F
100
AcDbEntity
  8
0
  6
Continuous
 62
     7
370
    25
100
AcDbLine
 10
6212.8030156685
 20
5276.8208706384
 30
0.0
 11
6212.8030156685
 21
5276.1137638572
 31
0.0
  0
LINE
  5
E0
330
1F
100
AcDbEntity
  8
0
  6
Continuous
 62
     7
370
    25
100
AcDbLine
 10
6228.9654408426
 20
5277.1181401807
 30
0.0
 11
6228.9654408426
 21
5276.4110333995
 31
0.0
  0
LINE
  5
E1
330
1F
100
AcDbEntity
  8
0
  6
Continuous
 62
     7
370
    25
100
AcDbLine
 10
6228.9654408426
 20
5276.4110333995
 30
0.0
 11
6229.4006508968
 21
5276.2269941351
 31
0.0
  0
ARC
  5
E2
330
1F
100
AcDbEntity
  8
0
  6
Continuous
 62
     7
370
    25
100
AcDbCircle
 10
6223.5328296309
 20
5279.4442351814
 30
0.0
 40
6.222023595877796
100
AcDbArc
 50
308.7303444163
 51
330.8239703362
  0
LINE
  5
E3
330
1F
100
AcDbEntity
  8
0
  6
Continuous
 62
     7
370
    25
100
AcDbLine
 10
6227.425675356
 20
5274.5904397812
 30
0.0
 11
6227.8608854102
 21
5274.4064005167
 31
0.0
  0
LINE
  5
E4
330
1F
100
AcDbEntity
  8
0
  6
Continuous
 62
     7
370
    25
100
AcDbLine
 10
6227.425675356
 20
5275.2975465623
 30
0.0
 11
6227.425675356
 21
5274.5904397812
 31
0.0
  0
LINE
  5
E5
330
1F
100
AcDbEntity
  8
0
  6
Continuous
 62
     7
370
    25
100
AcDbLine
 10
6215.0853052911
 20
5274.6493696345
 30
0.0
 11
6215.0853052911
 21
5273.9422628533
 31
0.0
  0
LINE
  5
E6
330
1F
100
AcDbEntity
  8
0
  6
Continuous
 62
     7
370
    25
100
AcDbLine
 10
6217.6600134777
 20
5273.5605910175
 30
0.0
 11
6217.6600134777
 21
5272.8534842363
 31
0.0
  0
ARC
  5
E7
330
1F
100
AcDbEntity
  8
0
  6
Continuous
 62
     7
370
    25
100
AcDbCircle
 10
6220.2209357461
 20
5282.4981520573
 30
0.0
 40
9.978874698145066
100
AcDbArc
 50
239.0259192753
 51
255.1295488645
  0
LINE
  5
E8
330
1F
100
AcDbEntity
  8
0
  6
Continuous
 62
     7
370
    25
100
AcDbLine
 10
6215.0853052911
 20
5273.9422628533
 30
0.0
 11
6214.8250344673
 21
5273.6345228728
 31
0.0
  0
LINE
  5
E9
330
1F
100
AcDbEntity
  8
0
  6
Continuous
 62
     7
370
    25
100
AcDbLine
 10
6217.6600134777
 20
5272.8534842363
 30
0.0
 11
6217.3997426539
 21
5272.5457442558
 31
0.0
  0
LINE
  5
EA
330
1F
100
AcDbEntity
  8
0
  6
Continuous
 62
     7
370
    25
100
AcDbLine
 10
6224.3547091857
 20
5273.6837240936
 30
0.0
 11
6224.3547091857
 21
5272.9766173124
 31
0.0
  0
ARC
  5
EB
330
1F
100
AcDbEntity
  8
0
  6
Continuous
 62
     7
370
    25
100
AcDbCircle
 10
6220.8539292099
 20
5284.2216077106
 30
0.0
 40
11.77732013203009
100
AcDbArc
 50
272.8783648797
 51
287.2923615076
  0
LINE
  5
EC
330
1F
100
AcDbEntity
  8
0
  6
Continuous
 62
     7
370
    25
100
AcDbLine
 10
6221.4453369503
 20
5273.1662527436
 30
0.0
 11
6221.4453369503
 21
5272.4591459624
 31
0.0
  0
LINE
  5
ED
330
1F
100
AcDbEntity
  8
0
  6
Continuous
 62
     7
370
    25
100
AcDbLine
 10
6224.4784099017
 20
5272.6288768735
 30
0.0
 11
6224.3547091857
 21
5272.9766173124
 31
0.0
  0
LINE
  5
EE
330
1F
100
AcDbEntity
  8
0
  6
Continuous
 62
     7
370
    25
100
AcDbLine
 10
6221.5690376664
 20
5272.1114055234
 30
0.0
 11
6221.4453369503
 21
5272.4591459624
 31
0.0
  0
LINE
  5
EF
330
1F
100
AcDbEntity
  8
0
  6
Continuous
 62
     7
370
    25
100
AcDbLine
 10
6195.8971600225
 20
5324.2788259315
 30
0.0
 11
6245.6971600225
 21
5324.2788259315
 31
0.0
  0
LINE
  5
F0
330
1F
100
AcDbEntity
  8
0
  6
Continuous
 62
     7
370
    25
100
AcDbLine
 10
6195.8971600225
 20
5322.5788259315
 30
0.0
 11
6245.6971600225
 21
5322.5788259315
 31
0.0
  0
LINE
  5
F1
330
1F
100
AcDbEntity
  8
0
  6
Continuous
 62
     7
370
    25
100
AcDbLine
 10
6196.1971600225
 20
5322.2788259315
 30
0.0
 11
6245.3971600225
 21
5322.2788259315
 31
0.0
  0
LINE
  5
F2
330
1F
100
AcDbEntity
  8
0
  6
Continuous
 62
     7
370
    25
100
AcDbLine
 10
6196.8971600225
 20
5325.2788259315
 30
0.0
 11
6244.6971600225
 21
5325.2788259315
 31
0.0
  0
ARC
  5
F3
330
1F
100
AcDbEntity
  8
0
  6
Continuous
 62
     7
370
    25
100
AcDbCircle
 10
6220.7971600225
 20
5282.7788259315
 30
0.0
 40
12.95000000000022
100
AcDbArc
 50
26.3603643512
 51
153.6396356488
  0
LINE
  5
F4
330
1F
100
AcDbEntity
  8
0
  6
Continuous
 62
     7
370
    25
100
AcDbLine
 10
6209.193712259
 20
5288.5288259315
 30
0.0
 11
6207.6807580768
 21
5287.5288259315
 31
0.0
  0
ARC
  5
F5
330
1F
100
AcDbEntity
  8
0
  6
Continuous
 62
     7
370
    25
100
AcDbCircle
 10
6220.7971600225
 20
5282.7788259315
 30
0.0
 40
13.94999999999986
100
AcDbArc
 50
19.9074488975
 51
160.0925511025
  0
LINE
  5
F6
330
1F
100
AcDbEntity
  8
0
  6
Continuous
 62
     7
370
    25
100
AcDbLine
 10
6233.9135619681
 20
5287.5288259315
 30
0.0
 11
6232.400607786
 21
5288.5288259315
 31
0.0
  0
LINE
  5
F7
330
1F
100
AcDbEntity
  8
0
  6
Continuous
 62
     7
370
    25
100
AcDbLine
 10
6209.193712259
 20
5288.5288259315
 30
0.0
 11
6232.400607786
 21
5288.5288259315
 31
0.0
  0
ARC
  5
F8
330
1F
100
AcDbEntity
  8
0
  6
Continuous
 62
     7
370
    25
100
AcDbCircle
 10
6220.7971600225
 20
5282.7788259315
 30
0.0
 40
13.94999999999986
100
AcDbArc
 50
160.0925511025
 51
19.9074488975
  0
LWPOLYLINE
  5
F9
330
1F
100
AcDbEntity
  8
0
  6
Continuous
 62
     7
370
    25
100
AcDbPolyline
 90
       55
 70
   128
 43
0.0
 10
6220.7971600225
 20
5271.5919566308
 10
6221.9525573676
 20
5271.6395408387
 10
6223.0923299457
 20
5271.7816499676
 10
6224.201064288
 20
5272.0163622352
 10
6225.2637666644
 20
5272.340503561
 10
6226.2660658483
 20
5272.7496904893
 10
6227.1944074628
 20
5273.2383894691
 10
6228.03623728
 20
5273.799991685
 10
6228.7801709958
 20
5274.4269024303
 10
6229.416148183
 20
5275.1106438128
 10
6229.935568341
 20
5275.8419694032
 10
6230.3314072032
 20
5276.6109892775
 10
6230.5983117283
 20
5277.407303761
 10
6230.7326724902
 20
5278.2201440665
 10
6230.7326724902
 20
5279.0385179233
 10
6230.5983117283
 20
5279.8513582288
 10
6230.3314072032
 20
5280.6476727123
 10
6229.935568341
 20
5281.4166925865
 10
6229.416148183
 20
5282.1480181769
 10
6228.7801709958
 20
5282.8317595594
 10
6228.03623728
 20
5283.4586703048
 10
6227.1944074628
 20
5284.0202725206
 10
6226.2660658483
 20
5284.5089715004
 10
6225.2637666644
 20
5284.9181584288
 10
6224.201064288
 20
5285.2422997545
 10
6223.0923299457
 20
5285.4770120222
 10
6221.9525573676
 20
5285.6191211511
 10
6220.7971600225
 20
5285.666705359
 10
6219.6417626773
 20
5285.6191211511
 10
6218.5019900992
 20
5285.4770120222
 10
6217.393255757
 20
5285.2422997545
 10
6216.3305533806
 20
5284.9181584288
 10
6215.3282541966
 20
5284.5089715004
 10
6214.3999125822
 20
5284.0202725206
 10
6213.558082765
 20
5283.4586703048
 10
6212.8141490491
 20
5282.8317595594
 10
6212.178171862
 20
5282.1480181769
 10
6211.658751704
 20
5281.4166925865
 10
6211.2629128417
 20
5280.6476727123
 10
6210.9960083167
 20
5279.8513582288
 10
6210.8616475548
 20
5279.0385179233
 10
6210.8616475548
 20
5278.2201440665
 10
6210.9960083167
 20
5277.407303761
 10
6211.2629128417
 20
5276.6109892775
 10
6211.658751704
 20
5275.8419694032
 10
6212.178171862
 20
5275.1106438128
 10
6212.8141490491
 20
5274.4269024303
 10
6213.558082765
 20
5273.799991685
 10
6214.3999125822
 20
5273.2383894691
 10
6215.3282541966
 20
5272.7496904893
 10
6216.3305533806
 20
5272.340503561
 10
6217.393255757
 20
5272.0163622352
 10
6218.5019900992
 20
5271.7816499676
 10
6219.6417626773
 20
5271.6395408387
 10
6220.7971600225
 20
5271.5919566308
  0
LINE
  5
FA
330
1F
100
AcDbEntity
  8
0
  6
Continuous
 62
     7
370
    25
100
AcDbLine
 10
6220.7971600225
 20
5272.7073117024
 30
0.0
 11
6221.4453369503
 21
5272.7231749025
 31
0.0
  0
ARC
  5
FB
330
1F
100
AcDbEntity
  8
0
  6
Continuous
 62
     7
370
    25
100
AcDbCircle
 10
6221.6108352746
 20
5283.0264409044
 30
0.0
 40
10.19814488762757
100
AcDbArc
 50
286.3309961345
 51
304.7632014982
  0
ARC
  5
FC
330
1F
100
AcDbEntity
  8
0
  6
Continuous
 62
     7
370
    25
100
AcDbCircle
 10
6225.0919094329
 20
5279.3566579517
 30
0.0
 40
5.060380037540987
100
AcDbArc
 50
328.3714775855
 51
44.8908397467
  0
ARC
  5
FD
330
1F
100
AcDbEntity
  8
0
  6
Continuous
 62
     7
370
    25
100
AcDbCircle
 10
6216.5162287584
 20
5279.3382630455
 30
0.0
 40
5.08315295637678
100
AcDbArc
 50
135.0721930292
 51
193.7818781589
  0
ARC
  5
FE
330
1F
100
AcDbEntity
  8
0
  6
Continuous
 62
     7
370
    25
100
AcDbCircle
 10
6218.763653108
 20
5281.1127107946
 30
0.0
 40
7.933068014755548
100
AcDbArc
 50
219.3489321138
 51
240.2325341998
  0
ARC
  5
FF
330
1F
100
AcDbEntity
  8
0
  6
Continuous
 62
     7
370
    25
100
AcDbCircle
 10
6220.7778773866
 20
5285.6161921365
 30
0.0
 40
12.90889483576461
100
AcDbArc
 50
256.0232383561
 51
270.0855854879
  0
LINE
  5
100
330
1F
100
AcDbEntity
  8
0
  6
Continuous
 62
     7
370
    25
100
AcDbLine
 10
6230.037712069
 20
5279.9855397041
 30
0.0
 11
6230.0884529895
 21
5280.2203212525
 31
0.0
  0
LINE
  5
101
330
1F
100
AcDbEntity
  8
0
  6
Continuous
 62
     7
370
    25
100
AcDbLine
 10
6211.5058670554
 20
5280.2203212525
 30
0.0
 11
6211.556607976
 21
5279.9855397041
 31
0.0
  0
ARC
  5
102
330
1F
100
AcDbEntity
  8
0
  6
Continuous
 62
     7
370
    25
100
AcDbCircle
 10
6220.7522757058
 20
5282.7392492371
 30
0.0
 40
13.9604954594454
100
AcDbArc
 50
115.289622768
 51
270.1842116816
  0
ARC
  5
103
330
1F
100
AcDbEntity
  8
0
  6
Continuous
 62
     7
370
    25
100
AcDbCircle
 10
6220.8315982578
 20
5282.7560366266
 30
0.0
 40
13.97725312101727
100
AcDbArc
 50
269.8588300921
 51
115.0142536029
  0
LINE
  5
104
330
1F
100
AcDbEntity
  8
0
  6
Continuous
 62
     7
370
    25
100
AcDbLine
 10
6220.7971600225
 20
5322.0788259315
 30
0.0
 11
6196.0471600225
 21
5322.0788259315
 31
0.0
  0
LINE
  5
105
330
1F
100
AcDbEntity
  8
0
  6
Continuous
 62
     7
370
    25
100
AcDbLine
 10
6245.5471600225
 20
5322.0788259315
 30
0.0
 11
6220.7971600225
 21
5322.0788259315
 31
0.0
  0
LINE
  5
106
330
1F
100
AcDbEntity
  8
0
  6
Continuous
 62
     7
370
    25
100
AcDbLine
 10
6196.0471600225
 20
5189.4788259315
 30
0.0
 11
6245.5471600225
 21
5189.4788259315
 31
0.0
  0
CIRCLE
  5
107
330
1F
100
AcDbEntity
  8
0
  6
Continuous
 62
     7
370
    25
100
AcDbCircle
 10
6220.7971600225
 20
5218.2788259315
 30
0.0
 40
11.04999999999836
  0
LINE
  5
108
330
1F
100
AcDbEntity
  8
0
  6
Continuous
 62
     7
370
    25
100
AcDbLine
 10
6212.8128003111
 20
5294.2788259315
 30
0.0
 11
6212.9008001016
 21
5294.2788259315
 31
0.0
  0
LINE
  5
109
330
1F
100
AcDbEntity
  8
0
  6
Continuous
 62
     7
370
    25
100
AcDbLine
 10
6228.6935199433
 20
5294.2788259315
 30
0.0
 11
6228.7815197338
 21
5294.2788259315
 31
0.0
  0
LINE
  5
10A
330
1F
100
AcDbEntity
  8
0
  6
Continuous
 62
     7
370
    25
100
AcDbLine
 10
6250.7971600225
 20
5185.2788259315
 30
0.0
 11
6190.7971600225
 21
5185.2788259315
 31
0.0
  0
LINE
  5
10B
330
1F
100
AcDbEntity
  8
0
  6
Continuous
 62
     7
370
    25
100
AcDbLine
 10
6250.7971600225
 20
5187.3391528651
 30
0.0
 11
6190.7971600225
 21
5187.3391528651
 31
0.0
  0
LINE
  5
10C
330
1F
100
AcDbEntity
  8
0
  6
Continuous
 62
     7
370
    25
100
AcDbLine
 10
6250.2927705499
 20
5188.1756691689
 30
0.0
 11
6250.3141971093
 21
5188.1756691689
 31
0.0
  0
LINE
  5
10D
330
1F
100
AcDbEntity
  8
0
  6
Continuous
 62
     7
370
    25
100
AcDbLine
 10
6191.2801229356
 20
5188.1756691689
 30
0.0
 11
6250.2927705499
 21
5188.1756691689
 31
0.0
  0
LINE
  5
10E
330
1F
100
AcDbEntity
  8
0
  6
Continuous
 62
     7
370
    25
100
AcDbLine
 10
6246.1971600225
 20
5189.2788259315
 30
0.0
 11
6195.3971600225
 21
5189.2788259315
 31
0.0
  0
LINE
  5
10F
330
1F
100
AcDbEntity
  8
0
  6
Continuous
 62
     7
370
    25
100
AcDbLine
 10
6465.2396861258
 20
5207.4868654976
 30
0.0
 11
6465.3664033098
 21
5207.4868654976
 31
0.0
  0
LINE
  5
110
330
1F
100
AcDbEntity
  8
0
  6
Continuous
 62
     7
370
    25
100
AcDbLine
 10
6465.3664033098
 20
5229.4868654976
 30
0.0
 11
6465.3532118604
 21
5229.4868654976
 31
0.0
  0
LINE
  5
111
330
1F
100
AcDbEntity
  8
0
  6
Continuous
 62
     7
370
    25
100
AcDbLine
 10
6465.3664033098
 20
5207.4868654976
 30
0.0
 11
6465.3664033098
 21
5229.4868654976
 31
0.0
  0
LINE
  5
112
330
1F
100
AcDbEntity
  8
0
  6
Continuous
 62
     7
370
    25
100
AcDbLine
 10
6415.7032118604
 20
5324.2788259315
 30
0.0
 11
6415.7032118604
 21
5322.5788259315
 31
0.0
  0
LINE
  5
113
330
1F
100
AcDbEntity
  8
0
  6
Continuous
 62
     7
370
    25
100
AcDbLine
 10
6465.5032118604
 20
5322.5788259315
 30
0.0
 11
6465.5032118604
 21
5324.2788259315
 31
0.0
  0
LINE
  5
114
330
1F
100
AcDbEntity
  8
0
  6
Continuous
 62
     7
370
    25
100
AcDbLine
 10
6415.7032118604
 20
5322.5788259315
 30
0.0
 11
6416.0032118604
 21
5322.2788259315
 31
0.0
  0
LINE
  5
115
330
1F
100
AcDbEntity
  8
0
  6
Continuous
 62
     7
370
    25
100
AcDbLine
 10
6465.2032118604
 20
5322.2788259315
 30
0.0
 11
6465.5032118604
 21
5322.5788259315
 31
0.0
  0
LINE
  5
116
330
1F
100
AcDbEntity
  8
0
  6
Continuous
 62
     7
370
    25
100
AcDbLine
 10
6465.5032118604
 20
5324.2788259315
 30
0.0
 11
6464.5032118604
 21
5325.2788259315
 31
0.0
  0
LINE
  5
117
330
1F
100
AcDbEntity
  8
0
  6
Continuous
 62
     7
370
    25
100
AcDbLine
 10
6416.7032118604
 20
5325.2788259315
 30
0.0
 11
6415.7032118604
 21
5324.2788259315
 31
0.0
  0
LINE
  5
118
330
1F
100
AcDbEntity
  8
0
  6
Continuous
 62
     7
370
    25
100
AcDbLine
 10
6465.3250413225
 20
5268.8288259315
 30
0.0
 11
6510.9032118604
 21
5268.8288259315
 31
0.0
  0
LINE
  5
119
330
1F
100
AcDbEntity
  8
0
  6
Continuous
 62
     7
370
    25
100
AcDbLine
 10
6529.6032118604
 20
5296.7288259315
 30
0.0
 11
6465.3250416296
 21
5296.7288259315
 31
0.0
  0
LINE
  5
11A
330
1F
100
AcDbEntity
  8
0
  6
Continuous
 62
     7
370
    25
100
AcDbLine
 10
6530.6032118604
 20
5295.7288259315
 30
0.0
 11
6529.6032118604
 21
5296.7288259315
 31
0.0
  0
LINE
  5
11B
330
1F
100
AcDbEntity
  8
0
  6
Continuous
 62
     7
370
    25
100
AcDbLine
 10
6465.3532118604
 20
5322.0788259315
 30
0.0
 11
6465.1532118604
 21
5322.2788259315
 31
0.0
  0
LINE
  5
11C
330
1F
100
AcDbEntity
  8
0
  6
Continuous
 62
     7
370
    25
100
AcDbLine
 10
6416.0532118604
 20
5322.2788259315
 30
0.0
 11
6415.8532118604
 21
5322.0788259315
 31
0.0
  0
LINE
  5
11D
330
1F
100
AcDbEntity
  8
0
  6
Continuous
 62
     7
370
    25
100
AcDbLine
 10
6415.8532118604
 20
5189.4788259315
 30
0.0
 11
6416.0532118604
 21
5189.2788259315
 31
0.0
  0
LINE
  5
11E
330
1F
100
AcDbEntity
  8
0
  6
Continuous
 62
     7
370
    25
100
AcDbLine
 10
6465.1532118604
 20
5189.2788259315
 30
0.0
 11
6465.3532118604
 21
5189.4788259315
 31
0.0
  0
LINE
  5
11F
330
1F
100
AcDbEntity
  8
0
  6
Continuous
 62
     7
370
    25
100
AcDbLine
 10
6415.8532118604
 20
5317.8441666129
 30
0.0
 11
6415.8532118604
 21
5189.4788259315
 31
0.0
  0
LINE
  5
120
330
1F
100
AcDbEntity
  8
0
  6
Continuous
 62
     7
370
    25
100
AcDbLine
 10
6415.8532118604
 20
5322.0788259315
 30
0.0
 11
6415.8532118604
 21
5320.3288259315
 31
0.0
  0
LINE
  5
121
330
1F
100
AcDbEntity
  8
0
  6
Continuous
 62
     7
370
    25
100
AcDbLine
 10
6465.3532118604
 20
5296.7732156082
 30
0.0
 11
6465.3532118604
 21
5322.0788259315
 31
0.0
  0
LINE
  5
122
330
1F
100
AcDbEntity
  8
0
  6
Continuous
 62
     7
370
    25
100
AcDbLine
 10
6465.3532118604
 20
5229.4868654976
 30
0.0
 11
6465.3532118604
 21
5268.7788259315
 31
0.0
  0
LINE
  5
123
330
1F
100
AcDbEntity
  8
0
  6
Continuous
 62
     7
370
    25
100
AcDbLine
 10
6465.3532118604
 20
5189.4788259315
 30
0.0
 11
6465.3532118604
 21
5207.2288259315
 31
0.0
  0
LINE
  5
124
330
1F
100
AcDbEntity
  8
0
  6
Continuous
 62
     7
370
    25
100
AcDbLine
 10
6470.6032118604
 20
5187.3391528651
 30
0.0
 11
6470.1202489473
 21
5188.1756691689
 31
0.0
  0
LINE
  5
125
330
1F
100
AcDbEntity
  8
0
  6
Continuous
 62
     7
370
    25
100
AcDbLine
 10
6411.0861747735
 20
5188.1756691689
 30
0.0
 11
6410.6032118604
 21
5187.3391528651
 31
0.0
  0
LINE
  5
126
330
1F
100
AcDbEntity
  8
0
  6
Continuous
 62
     7
370
    25
100
AcDbLine
 10
6470.6032118604
 20
5185.2788259315
 30
0.0
 11
6470.6032118604
 21
5187.3391528651
 31
0.0
  0
LINE
  5
127
330
1F
100
AcDbEntity
  8
0
  6
Continuous
 62
     7
370
    25
100
AcDbLine
 10
6410.6032118604
 20
5187.3391528651
 30
0.0
 11
6410.6032118604
 21
5185.2788259315
 31
0.0
  0
LINE
  5
128
330
1F
100
AcDbEntity
  8
0
  6
Continuous
 62
     7
370
    25
100
AcDbLine
 10
6470.1202489473
 20
5188.1756691689
 30
0.0
 11
6466.0032118604
 21
5189.2788259315
 31
0.0
  0
LINE
  5
129
330
1F
100
AcDbEntity
  8
0
  6
Continuous
 62
     7
370
    25
100
AcDbLine
 10
6415.2032118604
 20
5189.2788259315
 30
0.0
 11
6411.0861747735
 21
5188.1756691689
 31
0.0
  0
LINE
  5
12A
330
1F
100
AcDbEntity
  8
0
  6
Continuous
 62
     7
370
    25
100
AcDbLine
 10
6415.8532118604
 20
5318.0788259315
 30
0.0
 11
6415.8532118604
 21
5320.0788259315
 31
0.0
  0
ARC
  5
12B
330
1F
100
AcDbEntity
  8
0
  6
Continuous
 62
     7
370
    25
100
AcDbCircle
 10
6488.0524963924
 20
5218.5515326436
 30
0.0
 40
25.18401453159014
100
AcDbArc
 50
154.3507610351
 51
155.2640816899
  0
ARC
  5
12C
330
1F
100
AcDbEntity
  8
0
  6
Continuous
 62
     7
370
    25
100
AcDbCircle
 10
6496.405728114
 20
5222.4067209737
 30
0.0
 40
34.43895718118537
100
AcDbArc
 50
199.8469321571
 51
205.6724721539
  0
LINE
  5
12D
330
1F
100
AcDbEntity
  8
0
  6
Continuous
 62
     7
370
    25
100
AcDbLine
 10
6415.7032118604
 20
5324.2788259315
 30
0.0
 11
6465.5032118604
 21
5324.2788259315
 31
0.0
  0
LINE
  5
12E
330
1F
100
AcDbEntity
  8
0
  6
Continuous
 62
     7
370
    25
100
AcDbLine
 10
6415.7032118604
 20
5322.5788259315
 30
0.0
 11
6465.5032118604
 21
5322.5788259315
 31
0.0
  0
LINE
  5
12F
330
1F
100
AcDbEntity
  8
0
  6
Continuous
 62
     7
370
    25
100
AcDbLine
 10
6416.0032118604
 20
5322.2788259315
 30
0.0
 11
6465.2032118604
 21
5322.2788259315
 31
0.0
  0
LINE
  5
130
330
1F
100
AcDbEntity
  8
0
  6
Continuous
 62
     7
370
    25
100
AcDbLine
 10
6416.7032118604
 20
5325.2788259315
 30
0.0
 11
6464.5032118604
 21
5325.2788259315
 31
0.0
  0
LINE
  5
131
330
1F
100
AcDbEntity
  8
0
  6
Continuous
 62
     7
370
    25
100
AcDbLine
 10
6529.6032118604
 20
5287.5288259315
 30
0.0
 11
6529.6032118604
 21
5296.7288259315
 31
0.0
  0
LINE
  5
132
330
1F
100
AcDbEntity
  8
0
  6
Continuous
 62
     7
370
    25
100
AcDbLine
 10
6529.6032118604
 20
5287.5288259315
 30
0.0
 11
6510.9032118604
 21
5268.8288259315
 31
0.0
  0
LINE
  5
133
330
1F
100
AcDbEntity
  8
0
  6
Continuous
 62
     7
370
    25
100
AcDbLine
 10
6530.6032118604
 20
5288.5288259315
 30
0.0
 11
6530.6032118604
 21
5295.7288259315
 31
0.0
  0
LINE
  5
134
330
1F
100
AcDbEntity
  8
0
  6
Continuous
 62
     7
370
    25
100
AcDbLine
 10
6530.6032118604
 20
5288.5288259315
 30
0.0
 11
6529.6032118604
 21
5287.5288259315
 31
0.0
  0
LINE
  5
135
330
1F
100
AcDbEntity
  8
0
  6
Continuous
 62
     7
370
    25
100
AcDbLine
 10
6465.3532118604
 20
5322.0788259315
 30
0.0
 11
6415.8532118604
 21
5322.0788259315
 31
0.0
  0
LINE
  5
136
330
1F
100
AcDbEntity
  8
0
  6
Continuous
 62
     7
370
    25
100
AcDbLine
 10
6415.8532118604
 20
5189.4788259315
 30
0.0
 11
6465.3532118604
 21
5189.4788259315
 31
0.0
  0
ARC
  5
137
330
1F
100
AcDbEntity
  8
0
  6
Continuous
 62
     7
370
    25
100
AcDbCircle
 10
6488.3486926931
 20
5218.2638880194
 30
0.0
 40
25.50617050850054
100
AcDbArc
 50
155.3552717051
 51
205.6353988062
  0
LWPOLYLINE
  5
138
330
1F
100
AcDbEntity
  8
0
  6
Continuous
 62
     7
370
    25
100
AcDbPolyline
 90
       22
 70
   128
 43
0.0
 10
6465.3532118604
 20
5268.7788259315
 10
6465.2614511444
 20
5268.9416923921
 10
6464.9840969622
 20
5269.4422199785
 10
6464.563934184
 20
5270.2267856882
 10
6464.0158703518
 20
5271.3075540911
 10
6463.3640895481
 20
5272.7043506045
 10
6462.6717102066
 20
5274.3850115867
 10
6461.9735701211
 20
5276.4440242621
 10
6461.6617664298
 20
5277.5922836776
 10
6461.3964316999
 20
5278.8044717334
 10
6461.1171437002
 20
5280.715115795
 10
6461.0131130624
 20
5282.7392396206
 10
6461.1042630885
 20
5284.7103024284
 10
6461.3830458674
 20
5286.6825422838
 10
6461.800067176
 20
5288.5010785712
 10
6462.3289146745
 20
5290.2248760768
 10
6462.9936526656
 20
5291.9858525661
 10
6463.6819631191
 20
5293.5522311341
 10
6464.3615422546
 20
5294.9400661281
 10
6464.9200513227
 20
5295.9979855658
 10
6465.2406199718
 20
5296.5788034114
 10
6465.3500534104
 20
5296.7732156082
  0
ARC
  5
139
330
1F
100
AcDbEntity
  8
0
  6
Continuous
 62
     7
370
    25
100
AcDbCircle
 10
6391.1213397231
 20
5319.0788607137
 30
0.0
 40
24.76343902736784
100
AcDbArc
 50
357.1420728552
 51
2.8933048532
  0
LINE
  5
13A
330
1F
100
AcDbEntity
  8
0
  6
Continuous
 62
     7
370
    25
100
AcDbLine
 10
6470.6032118604
 20
5187.3391528651
 30
0.0
 11
6410.6032118604
 21
5187.3391528651
 31
0.0
  0
LINE
  5
13B
330
1F
100
AcDbEntity
  8
0
  6
Continuous
 62
     7
370
    25
100
AcDbLine
 10
6411.0861747735
 20
5188.1756691689
 30
0.0
 11
6470.1202489473
 21
5188.1756691689
 31
0.0
  0
LINE
  5
13C
330
1F
100
AcDbEntity
  8
0
  6
Continuous
 62
     7
370
    25
100
AcDbLine
 10
6439.4603407275
 20
5185.2788259315
 30
0.0
 11
6410.6032118604
 21
5185.2788259315
 31
0.0
  0
LINE
  5
13D
330
1F
100
AcDbEntity
  8
0
  6
Continuous
 62
     7
370
    25
100
AcDbLine
 10
6470.6032118604
 20
5185.2788259315
 30
0.0
 11
6439.4603407275
 21
5185.2788259315
 31
0.0
  0
LINE
  5
13E
330
1F
100
AcDbEntity
  8
0
  6
Continuous
 62
     7
370
    25
100
AcDbLine
 10
6439.6355809679
 20
5189.2788259315
 30
0.0
 11
6415.2032118604
 21
5189.2788259315
 31
0.0
  0
LINE
  5
13F
330
1F
100
AcDbEntity
  8
0
  6
Continuous
 62
     7
370
    25
100
AcDbLine
 10
6466.0032118604
 20
5189.2788259315
 30
0.0
 11
6439.6355809679
 21
5189.2788259315
 31
0.0
  0
LINE
  5
140
330
1F
100
AcDbEntity
  8
0
  6
Continuous
 62
     7
370
    25
100
AcDbLine
 10
6206.8471600225
 20
4994.6332368275
 30
0.0
 11
6206.8471600225
 21
4931.0086459143
 31
0.0
  0
LINE
  5
141
330
1F
100
AcDbEntity
  8
0
  6
Continuous
 62
     7
370
    25
100
AcDbLine
 10
6234.7471600225
 20
4931.0086459143
 30
0.0
 11
6234.7471600225
 21
4994.6332368275
 31
0.0
  0
CIRCLE
  5
142
330
1F
100
AcDbEntity
  8
0
  6
Continuous
 62
     7
370
    25
100
AcDbCircle
 10
6220.7971600225
 20
5015.2586459143
 30
0.0
 40
23.90000000000055
  0
CIRCLE
  5
143
330
1F
100
AcDbEntity
  8
0
  6
Continuous
 62
     7
370
    25
100
AcDbCircle
 10
6220.7971600225
 20
5015.2586459143
 30
0.0
 40
24.89999999999964
  0
LINE
  5
144
330
1F
100
AcDbEntity
  8
0
  6
Continuous
 62
     7
370
    25
100
AcDbLine
 10
6207.6807580768
 20
4926.2586459143
 30
0.0
 11
6233.9135619681
 21
4926.2586459143
 31
0.0
  0
ARC
  5
145
330
1F
100
AcDbEntity
  8
0
  6
Continuous
 62
     7
370
    25
100
AcDbCircle
 10
6220.7971600225
 20
4931.0086459143
 30
0.0
 40
13.95000000000073
100
AcDbArc
 50
180.0
 51
199.9074488975
  0
ARC
  5
146
330
1F
100
AcDbEntity
  8
0
  6
Continuous
 62
     7
370
    25
100
AcDbCircle
 10
6220.7971600225
 20
4931.0086459143
 30
0.0
 40
13.95000000000073
100
AcDbArc
 50
340.0925511025
 51
0.0
  0
LINE
  5
147
330
1F
100
AcDbEntity
  8
0
  6
Continuous
 62
     7
370
    25
100
AcDbLine
 10
6209.193712259
 20
4925.2586459143
 30
0.0
 11
6232.400607786
 21
4925.2586459143
 31
0.0
  0
LINE
  5
148
330
1F
100
AcDbEntity
  8
0
  6
Continuous
 62
     7
370
    25
100
AcDbLine
 10
6209.193712259
 20
4925.2586459143
 30
0.0
 11
6207.6807580768
 21
4926.2586459143
 31
0.0
  0
LINE
  5
149
330
1F
100
AcDbEntity
  8
0
  6
Continuous
 62
     7
370
    25
100
AcDbLine
 10
6233.9135619681
 20
4926.2586459143
 30
0.0
 11
6232.400607786
 21
4925.2586459143
 31
0.0
  0
ARC
  5
14A
330
1F
100
AcDbEntity
  8
0
  6
Continuous
 62
     7
370
    25
100
AcDbCircle
 10
6220.7971600225
 20
5015.2586459143
 30
0.0
 40
25.40000000000061
100
AcDbArc
 50
303.3130106878
 51
177.8167486155
  0
ARC
  5
14B
330
1F
100
AcDbEntity
  8
0
  6
Continuous
 62
     7
370
    25
100
AcDbCircle
 10
6220.7971600225
 20
5015.2586459143
 30
0.0
 40
25.40000000000061
100
AcDbArc
 50
177.8167486155
 51
236.6869893122
  0
ARC
  5
14C
330
1F
100
AcDbEntity
  8
0
  6
Continuous
 62
     7
370
    25
100
AcDbCircle
 10
6220.7971600225
 20
5015.2586459143
 30
0.0
 40
29.51703708685531
100
AcDbArc
 50
357.8167486155
 51
241.7962522017
  0
ARC
  5
14D
330
1F
100
AcDbEntity
  8
0
  6
Continuous
 62
     7
370
    25
100
AcDbCircle
 10
6220.7971600225
 20
5015.2586459143
 30
0.0
 40
29.51703708685531
100
AcDbArc
 50
298.2037477983
 51
357.8167486155
  0
ARC
  5
14E
330
1F
100
AcDbEntity
  8
0
  6
Continuous
 62
     7
370
    25
100
AcDbCircle
 10
6220.7971600225
 20
5015.2586459143
 30
0.0
 40
30.00000000000033
100
AcDbArc
 50
297.7102220493
 51
357.8167486155
  0
ARC
  5
14F
330
1F
100
AcDbEntity
  8
0
  6
Continuous
 62
     7
370
    25
100
AcDbCircle
 10
6220.7971600225
 20
5015.2586459143
 30
0.0
 40
30.00000000000033
100
AcDbArc
 50
357.8167486155
 51
242.2897779507
  0
ENDSEC
  0
SECTION
  2
OBJECTS
  0
DICTIONARY
  5
C
330
0
100
AcDbDictionary
281
     1
  3
ACAD_GROUP
350
D
  3
ACAD_LAYOUT
350
1A
  3
ACAD_MLINESTYLE
350
17
  3
ACAD_PLOTSETTINGS
350
19
  3
ACAD_PLOTSTYLENAME
350
E
  3
ACAD_SCALELIST
350
47
  3
DWGPROPS
350
150
  0
DICTIONARY
  5
D
102
{ACAD_REACTORS
330
C
102
}
330
C
100
AcDbDictionary
281
     1
  0
DICTIONARY
  5
1A
102
{ACAD_REACTORS
330
C
102
}
330
C
100
AcDbDictionary
281
     1
  3
Layout1
350
1E
  3
Layout2
350
26
  3
Model
350
22
  0
DICTIONARY
  5
17
102
{ACAD_REACTORS
330
C
102
}
330
C
100
AcDbDictionary
281
     1
  3
Standard
350
18
  0
DICTIONARY
  5
19
102
{ACAD_REACTORS
330
C
102
}
330
C
100
AcDbDictionary
281
     1
  0
ACDBDICTIONARYWDFLT
  5
E
102
{ACAD_REACTORS
330
C
102
}
330
C
100
AcDbDictionary
281
     1
  3
Normal
350
F
100
AcDbDictionaryWithDefault
340
F
  0
DICTIONARY
  5
47
102
{ACAD_REACTORS
330
C
102
}
330
C
100
AcDbDictionary
281
     1
  3
A0
350
48
  3
A1
350
49
  3
A2
350
4A
  3
A3
350
4B
  3
A4
350
4C
  3
A5
350
4D
  3
A6
350
4E
  3
A7
350
4F
  3
A8
350
50
  3
A9
350
51
  3
B0
350
52
  3
B1
350
53
  3
B2
350
54
  3
B3
350
55
  3
B4
350
56
  3
B5
350
57
  3
B6
350
58
  3
B7
350
59
  3
B8
350
5A
  3
B9
350
5B
  3
C0
350
5C
  3
C1
350
5D
  3
C2
350
5E
  3
C3
350
5F
  3
C4
350
60
  3
C5
350
61
  3
C6
350
62
  3
C7
350
63
  3
C8
350
64
  3
C9
350
65
  3
D0
350
66
  3
D1
350
67
  3
D2
350
68
  0
XRECORD
  5
150
102
{ACAD_REACTORS
330
C
102
}
330
C
100
AcDbXrecord
280
     1
  1
DWGPROPS COOKIE
  2

  3

  4

  6

  7

  8
radek.stransky
  9

300
=
301
=
302
=
303
=
304
=
305
=
306
=
307
=
308
=
309
=
 40
0.0
 41
2459342.437807558
 42
2459342.437807928
  1

 90
        0
  0
LAYOUT
  5
1E
102
{ACAD_REACTORS
330
1A
102
}
330
1A
100
AcDbPlotSettings
  1

  2
none_device
  4

  6

 40
0.0
 41
0.0
 42
0.0
 43
0.0
 44
0.0
 45
0.0
 46
0.0
 47
0.0
 48
0.0
 49
0.0
140
0.0
141
0.0
142
1.0
143
1.0
 70
   688
 72
     1
 73
     0
 74
     5
  7

 75
    16
147
1.0
148
0.0
149
0.0
100
AcDbLayout
  1
Layout1
 70
     1
 71
     1
 10
0.0
 20
0.0
 11
420.0
 21
297.0
 12
0.0
 22
0.0
 32
0.0
 14
1.0000000000E+20
 24
1.0000000000E+20
 34
1.0000000000E+20
 15
-1.0000000000E+20
 25
-1.0000000000E+20
 35
-1.0000000000E+20
146
0.0
 13
0.0
 23
0.0
 33
0.0
 16
1.0
 26
0.0
 36
0.0
 17
0.0
 27
1.0
 37
0.0
 76
     0
330
1B
  0
LAYOUT
  5
26
102
{ACAD_REACTORS
330
1A
102
}
330
1A
100
AcDbPlotSettings
  1

  2
none_device
  4

  6

 40
0.0
 41
0.0
 42
0.0
 43
0.0
 44
0.0
 45
0.0
 46
0.0
 47
0.0
 48
0.0
 49
0.0
140
0.0
141
0.0
142
1.0
143
1.0
 70
   688
 72
     1
 73
     0
 74
     5
  7

 75
    16
147
1.0
148
0.0
149
0.0
100
AcDbLayout
  1
Layout2
 70
     1
 71
     2
 10
0.0
 20
0.0
 11
0.0
 21
0.0
 12
0.0
 22
0.0
 32
0.0
 14
0.0
 24
0.0
 34
0.0
 15
0.0
 25
0.0
 35
0.0
146
0.0
 13
0.0
 23
0.0
 33
0.0
 16
1.0
 26
0.0
 36
0.0
 17
0.0
 27
1.0
 37
0.0
 76
     0
330
23
  0
LAYOUT
  5
22
102
{ACAD_REACTORS
330
1A
102
}
330
1A
100
AcDbPlotSettings
  1

  2
none_device
  4
Letter_(8.50_x_11.00_Inches)
  6

 40
6.35
 41
6.35
 42
6.35000508
 43
6.35000508
 44
215.9
 45
279.4
 46
0.0
 47
0.0
 48
0.0
 49
0.0
140
0.0
141
0.0
142
1.0
143
1.0
 70
  1712
 72
     1
 73
     0
 74
     0
  7

 75
     0
147
1.0
148
0.0
149
0.0
100
AcDbLayout
  1
Model
 70
     1
 71
     0
 10
0.0
 20
0.0
 11
20000.0
 21
10000.0
 12
0.0
 22
0.0
 32
0.0
 14
0.0
 24
0.0
 34
0.0
 15
20000.0
 25
10000.0
 35
0.0
146
0.0
 13
0.0
 23
0.0
 33
0.0
 16
1.0
 26
0.0
 36
0.0
 17
0.0
 27
1.0
 37
0.0
 76
     0
330
1F
331
29
  0
MLINESTYLE
  5
18
102
{ACAD_REACTORS
330
17
102
}
330
17
100
AcDbMlineStyle
  2
Standard
 70
     0
  3

 62
   256
 51
90.0
 52
90.0
 71
     2
 49
0.5
 62
   256
  6
BYLAYER
 49
-0.5
 62
   256
  6
BYLAYER
  0
ACDBPLACEHOLDER
  5
F
102
{ACAD_REACTORS
330
E
102
}
330
E
  0
SCALE
  5
48
102
{ACAD_REACTORS
330
47
102
}
330
47
100
AcDbScale
 70
     0
300
1:1
140
1.0
141
1.0
290
     1
  0
SCALE
  5
49
102
{ACAD_REACTORS
330
47
102
}
330
47
100
AcDbScale
 70
     0
300
1:2
140
1.0
141
2.0
290
     0
  0
SCALE
  5
4A
102
{ACAD_REACTORS
330
47
102
}
330
47
100
AcDbScale
 70
     0
300
1:4
140
1.0
141
4.0
290
     0
  0
SCALE
  5
4B
102
{ACAD_REACTORS
330
47
102
}
330
47
100
AcDbScale
 70
     0
300
1:5
140
1.0
141
5.0
290
     0
  0
SCALE
  5
4C
102
{ACAD_REACTORS
330
47
102
}
330
47
100
AcDbScale
 70
     0
300
1:8
140
1.0
141
8.0
290
     0
  0
SCALE
  5
4D
102
{ACAD_REACTORS
330
47
102
}
330
47
100
AcDbScale
 70
     0
300
1:10
140
1.0
141
10.0
290
     0
  0
SCALE
  5
4E
102
{ACAD_REACTORS
330
47
102
}
330
47
100
AcDbScale
 70
     0
300
1:16
140
1.0
141
16.0
290
     0
  0
SCALE
  5
4F
102
{ACAD_REACTORS
330
47
102
}
330
47
100
AcDbScale
 70
     0
300
1:20
140
1.0
141
20.0
290
     0
  0
SCALE
  5
50
102
{ACAD_REACTORS
330
47
102
}
330
47
100
AcDbScale
 70
     0
300
1:30
140
1.0
141
30.0
290
     0
  0
SCALE
  5
51
102
{ACAD_REACTORS
330
47
102
}
330
47
100
AcDbScale
 70
     0
300
1:40
140
1.0
141
40.0
290
     0
  0
SCALE
  5
52
102
{ACAD_REACTORS
330
47
102
}
330
47
100
AcDbScale
 70
     0
300
1:50
140
1.0
141
50.0
290
     0
  0
SCALE
  5
53
102
{ACAD_REACTORS
330
47
102
}
330
47
100
AcDbScale
 70
     0
300
1:100
140
1.0
141
100.0
290
     0
  0
SCALE
  5
54
102
{ACAD_REACTORS
330
47
102
}
330
47
100
AcDbScale
 70
     0
300
2:1
140
2.0
141
1.0
290
     0
  0
SCALE
  5
55
102
{ACAD_REACTORS
330
47
102
}
330
47
100
AcDbScale
 70
     0
300
4:1
140
4.0
141
1.0
290
     0
  0
SCALE
  5
56
102
{ACAD_REACTORS
330
47
102
}
330
47
100
AcDbScale
 70
     0
300
8:1
140
8.0
141
1.0
290
     0
  0
SCALE
  5
57
102
{ACAD_REACTORS
330
47
102
}
330
47
100
AcDbScale
 70
     0
300
10:1
140
10.0
141
1.0
290
     0
  0
SCALE
  5
58
102
{ACAD_REACTORS
330
47
102
}
330
47
100
AcDbScale
 70
     0
300
100:1
140
100.0
141
1.0
290
     0
  0
SCALE
  5
59
102
{ACAD_REACTORS
330
47
102
}
330
47
100
AcDbScale
 70
     0
300
1/128" = 1'-0"
140
0.0078125
141
12.0
290
     0
  0
SCALE
  5
5A
102
{ACAD_REACTORS
330
47
102
}
330
47
100
AcDbScale
 70
     0
300
1/64" = 1'-0"
140
0.015625
141
12.0
290
     0
  0
SCALE
  5
5B
102
{ACAD_REACTORS
330
47
102
}
330
47
100
AcDbScale
 70
     0
300
1/32" = 1'-0"
140
0.03125
141
12.0
290
     0
  0
SCALE
  5
5C
102
{ACAD_REACTORS
330
47
102
}
330
47
100
AcDbScale
 70
     0
300
1/16" = 1'-0"
140
0.0625
141
12.0
290
     0
  0
SCALE
  5
5D
102
{ACAD_REACTORS
330
47
102
}
330
47
100
AcDbScale
 70
     0
300
3/32" = 1'-0"
140
0.09375
141
12.0
290
     0
  0
SCALE
  5
5E
102
{ACAD_REACTORS
330
47
102
}
330
47
100
AcDbScale
 70
     0
300
1/8" = 1'-0"
140
0.125
141
12.0
290
     0
  0
SCALE
  5
5F
102
{ACAD_REACTORS
330
47
102
}
330
47
100
AcDbScale
 70
     0
300
3/16" = 1'-0"
140
0.1875
141
12.0
290
     0
  0
SCALE
  5
60
102
{ACAD_REACTORS
330
47
102
}
330
47
100
AcDbScale
 70
     0
300
1/4" = 1'-0"
140
0.25
141
12.0
290
     0
  0
SCALE
  5
61
102
{ACAD_REACTORS
330
47
102
}
330
47
100
AcDbScale
 70
     0
300
3/8" = 1'-0"
140
0.375
141
12.0
290
     0
  0
SCALE
  5
62
102
{ACAD_REACTORS
330
47
102
}
330
47
100
AcDbScale
 70
     0
300
1/2" = 1'-0"
140
0.5
141
12.0
290
     0
  0
SCALE
  5
63
102
{ACAD_REACTORS
330
47
102
}
330
47
100
AcDbScale
 70
     0
300
3/4" = 1'-0"
140
0.75
141
12.0
290
     0
  0
SCALE
  5
64
102
{ACAD_REACTORS
330
47
102
}
330
47
100
AcDbScale
 70
     0
300
1" = 1'-0"
140
1.0
141
12.0
290
     0
  0
SCALE
  5
65
102
{ACAD_REACTORS
330
47
102
}
330
47
100
AcDbScale
 70
     0
300
1-1/2" = 1'-0"
140
1.5
141
12.0
290
     0
  0
SCALE
  5
66
102
{ACAD_REACTORS
330
47
102
}
330
47
100
AcDbScale
 70
     0
300
3" = 1'-0"
140
3.0
141
12.0
290
     0
  0
SCALE
  5
67
102
{ACAD_REACTORS
330
47
102
}
330
47
100
AcDbScale
 70
     0
300
6" = 1'-0"
140
6.0
141
12.0
290
     0
  0
SCALE
  5
68
102
{ACAD_REACTORS
330
47
102
}
330
47
100
AcDbScale
 70
     0
300
1'-0" = 1'-0"
140
12.0
141
12.0
290
     0
  0
ENDSEC
  0
EOF
