  0
SECTION
  2
HEADER
  9
$ACADVER
  1
AC1015
  9
$ACADMAINTVER
 70
     6
  9
$DWGCODEPAGE
  3
ANSI_1250
  9
$INSBASE
 10
0.0
 20
0.0
 30
0.0
  9
$EXTMIN
 10
0.0
 20
0.0
 30
0.0
  9
$EXTMAX
 10
20000.0
 20
10000.0
 30
0.0
  9
$LIMMIN
 10
0.0
 20
0.0
  9
$LIMMAX
 10
20000.0
 20
10000.0
  9
$ORTHOMODE
 70
     0
  9
$REGENMODE
 70
     1
  9
$FILLMODE
 70
     1
  9
$QTEXTMODE
 70
     0
  9
$MIRRTEXT
 70
     1
  9
$LTSCALE
 40
1.0
  9
$ATTMODE
 70
     1
  9
$TEXTSIZE
 40
2.0
  9
$TRACEWID
 40
1.0
  9
$TEXTSTYLE
  7
Standard
  9
$CLAYER
  8
0
  9
$CELTYPE
  6
ByLayer
  9
$CECOLOR
 62
   256
  9
$CELTSCALE
 40
1.0
  9
$DISPSILH
 70
     0
  9
$DIMSCALE
 40
1.0
  9
$DIMASZ
 40
2.0
  9
$DIMEXO
 40
1.0
  9
$DIMDLI
 40
3.75
  9
$DIMRND
 40
0.0
  9
$DIMDLE
 40
0.0
  9
$DIMEXE
 40
1.0
  9
$DIMTP
 40
0.0
  9
$DIMTM
 40
0.0
  9
$DIMTXT
 40
2.0
  9
$DIMCEN
 40
2.5
  9
$DIMTSZ
 40
0.0
  9
$DIMTOL
 70
     0
  9
$DIMLIM
 70
     0
  9
$DIMTIH
 70
     1
  9
$DIMTOH
 70
     1
  9
$DIMSE1
 70
     0
  9
$DIMSE2
 70
     0
  9
$DIMTAD
 70
     1
  9
$DIMZIN
 70
     0
  9
$DIMBLK
  1

  9
$DIMASO
 70
     1
  9
$DIMSHO
 70
     1
  9
$DIMPOST
  1

  9
$DIMAPOST
  1

  9
$DIMALT
 70
     0
  9
$DIMALTD
 70
     3
  9
$DIMALTF
 40
0.0393700787
  9
$DIMLFAC
 40
1.0
  9
$DIMTOFL
 70
     1
  9
$DIMTVP
 40
0.0
  9
$DIMTIX
 70
     0
  9
$DIMSOXD
 70
     0
  9
$DIMSAH
 70
     0
  9
$DIMBLK1
  1

  9
$DIMBLK2
  1

  9
$DIMSTYLE
  2
ISO-25
  9
$DIMCLRD
 70
     0
  9
$DIMCLRE
 70
     0
  9
$DIMCLRT
 70
     0
  9
$DIMTFAC
 40
1.0
  9
$DIMGAP
 40
1.524
  9
$DIMJUST
 70
     0
  9
$DIMSD1
 70
     0
  9
$DIMSD2
 70
     0
  9
$DIMTOLJ
 70
     0
  9
$DIMTZIN
 70
     0
  9
$DIMALTZ
 70
     0
  9
$DIMALTTZ
 70
     0
  9
$DIMUPT
 70
     0
  9
$DIMDEC
 70
     2
  9
$DIMTDEC
 70
     0
  9
$DIMALTU
 70
     2
  9
$DIMALTTD
 70
     3
  9
$DIMTXSTY
  7
Standard
  9
$DIMAUNIT
 70
     0
  9
$DIMADEC
 70
     2
  9
$DIMALTRND
 40
0.0
  9
$DIMAZIN
 70
     0
  9
$DIMDSEP
 70
    44
  9
$DIMATFIT
 70
     3
  9
$DIMFRAC
 70
     0
  9
$DIMLDRBLK
  1

  9
$DIMLUNIT
 70
     2
  9
$DIMLWD
 70
    -2
  9
$DIMLWE
 70
    -2
  9
$DIMTMOVE
 70
     0
  9
$LUNITS
 70
     2
  9
$LUPREC
 70
     3
  9
$SKETCHINC
 40
1.0
  9
$FILLETRAD
 40
10.0
  9
$AUNITS
 70
     0
  9
$AUPREC
 70
     2
  9
$MENU
  1
.
  9
$ELEVATION
 40
0.0
  9
$PELEVATION
 40
0.0
  9
$THICKNESS
 40
0.0
  9
$LIMCHECK
 70
     0
  9
$CHAMFERA
 40
0.0
  9
$CHAMFERB
 40
0.0
  9
$CHAMFERC
 40
0.0
  9
$CHAMFERD
 40
0.0
  9
$SKPOLY
 70
     0
  9
$TDCREATE
 40
2459179.258979109
  9
$TDUCREATE
 40
2459179.217312442
  9
$TDUPDATE
 40
2459179.258979317
  9
$TDUUPDATE
 40
2459179.21731265
  9
$TDINDWG
 40
0.0000000116
  9
$TDUSRTIMER
 40
0.0000000116
  9
$USRTIMER
 70
     1
  9
$ANGBASE
 50
0.0
  9
$ANGDIR
 70
     0
  9
$PDMODE
 70
     0
  9
$PDSIZE
 40
-1.0
  9
$PLINEWID
 40
0.0
  9
$SPLFRAME
 70
     0
  9
$SPLINETYPE
 70
     6
  9
$SPLINESEGS
 70
     8
  9
$HANDSEED
  5
54C
  9
$SURFTAB1
 70
     6
  9
$SURFTAB2
 70
     6
  9
$SURFTYPE
 70
     6
  9
$SURFU
 70
     6
  9
$SURFV
 70
     6
  9
$UCSBASE
  2

  9
$UCSNAME
  2

  9
$UCSORG
 10
0.0
 20
0.0
 30
0.0
  9
$UCSXDIR
 10
1.0
 20
0.0
 30
0.0
  9
$UCSYDIR
 10
0.0
 20
1.0
 30
0.0
  9
$UCSORTHOREF
  2

  9
$UCSORTHOVIEW
 70
     0
  9
$UCSORGTOP
 10
0.0
 20
0.0
 30
0.0
  9
$UCSORGBOTTOM
 10
0.0
 20
0.0
 30
0.0
  9
$UCSORGLEFT
 10
0.0
 20
0.0
 30
0.0
  9
$UCSORGRIGHT
 10
0.0
 20
0.0
 30
0.0
  9
$UCSORGFRONT
 10
0.0
 20
0.0
 30
0.0
  9
$UCSORGBACK
 10
0.0
 20
0.0
 30
0.0
  9
$PUCSBASE
  2

  9
$PUCSNAME
  2

  9
$PUCSORG
 10
0.0
 20
0.0
 30
0.0
  9
$PUCSXDIR
 10
1.0
 20
0.0
 30
0.0
  9
$PUCSYDIR
 10
0.0
 20
1.0
 30
0.0
  9
$PUCSORTHOREF
  2

  9
$PUCSORTHOVIEW
 70
     0
  9
$PUCSORGTOP
 10
0.0
 20
0.0
 30
0.0
  9
$PUCSORGBOTTOM
 10
0.0
 20
0.0
 30
0.0
  9
$PUCSORGLEFT
 10
0.0
 20
0.0
 30
0.0
  9
$PUCSORGRIGHT
 10
0.0
 20
0.0
 30
0.0
  9
$PUCSORGFRONT
 10
0.0
 20
0.0
 30
0.0
  9
$PUCSORGBACK
 10
0.0
 20
0.0
 30
0.0
  9
$USERI1
 70
     0
  9
$USERI2
 70
     0
  9
$USERI3
 70
     0
  9
$USERI4
 70
     0
  9
$USERI5
 70
     0
  9
$USERR1
 40
0.0
  9
$USERR2
 40
0.0
  9
$USERR3
 40
0.0
  9
$USERR4
 40
0.0
  9
$USERR5
 40
0.0
  9
$WORLDVIEW
 70
     1
  9
$SHADEDGE
 70
     3
  9
$SHADEDIF
 70
    70
  9
$TILEMODE
 70
     1
  9
$MAXACTVP
 70
    64
  9
$PINSBASE
 10
0.0
 20
0.0
 30
0.0
  9
$PLIMCHECK
 70
     0
  9
$PEXTMIN
 10
1.0000000000E+20
 20
1.0000000000E+20
 30
1.0000000000E+20
  9
$PEXTMAX
 10
-1.0000000000E+20
 20
-1.0000000000E+20
 30
-1.0000000000E+20
  9
$PLIMMIN
 10
0.0
 20
0.0
  9
$PLIMMAX
 10
420.0
 20
297.0
  9
$UNITMODE
 70
     0
  9
$VISRETAIN
 70
     1
  9
$PLINEGEN
 70
     0
  9
$PSLTSCALE
 70
     1
  9
$TREEDEPTH
 70
  3020
  9
$CMLSTYLE
  2
Standard
  9
$CMLJUST
 70
     0
  9
$CMLSCALE
 40
20.0
  9
$PROXYGRAPHICS
 70
     1
  9
$MEASUREMENT
 70
     1
  9
$CELWEIGHT
370
    -1
  9
$ENDCAPS
280
     0
  9
$JOINSTYLE
280
     0
  9
$LWDISPLAY
290
     1
  9
$INSUNITS
 70
     4
  9
$HYPERLINKBASE
  1

  9
$STYLESHEET
  1

  9
$XEDIT
290
     1
  9
$CEPSNTYPE
380
     0
  9
$PSTYLEMODE
290
     1
  9
$FINGERPRINTGUID
  2
{b6e8533a-4588-4df0-8167-87e27ebbe371}
  9
$VERSIONGUID
  2
{FAEB1C32-E019-11D5-929B-00C0DF256EC4}
  9
$EXTNAMES
290
     1
  9
$PSVPSCALE
 40
0.0
  9
$OLESTARTUP
290
     0
  0
ENDSEC
  0
SECTION
  2
CLASSES
  0
CLASS
  1
ACDBDICTIONARYWDFLT
  2
AcDbDictionaryWithDefault
  3
ObjectDBX Classes
 90
        0
280
     0
281
     0
  0
CLASS
  1
VISUALSTYLE
  2
AcDbVisualStyle
  3
ObjectDBX Classes
 90
     4095
280
     0
281
     0
  0
CLASS
  1
MATERIAL
  2
AcDbMaterial
  3
ObjectDBX Classes
 90
     1153
280
     0
281
     0
  0
CLASS
  1
SCALE
  2
AcDbScale
  3
ObjectDBX Classes
 90
     1153
280
     0
281
     0
  0
CLASS
  1
TABLESTYLE
  2
AcDbTableStyle
  3
ObjectDBX Classes
 90
     4095
280
     0
281
     0
  0
CLASS
  1
MLEADERSTYLE
  2
AcDbMLeaderStyle
  3
ACDB_MLEADERSTYLE_CLASS
 90
     4095
280
     0
281
     0
  0
CLASS
  1
SUN
  2
AcDbSun
  3
SCENEOE
 90
     1153
280
     0
281
     0
  0
CLASS
  1
ACDBPLACEHOLDER
  2
AcDbPlaceHolder
  3
ObjectDBX Classes
 90
        0
280
     0
281
     0
  0
CLASS
  1
LAYOUT
  2
AcDbLayout
  3
ObjectDBX Classes
 90
        0
280
     0
281
     0
  0
ENDSEC
  0
SECTION
  2
TABLES
  0
TABLE
  2
VPORT
  5
8
330
0
100
AcDbSymbolTable
 70
     1
  0
VPORT
  5
29
330
8
100
AcDbSymbolTableRecord
100
AcDbViewportTableRecord
  2
*Active
 70
     0
 10
0.0
 20
0.0
 11
1.0
 21
1.0
 12
10000.0
 22
5000.0
 13
0.0
 23
0.0
 14
10.0
 24
10.0
 15
10.0
 25
10.0
 16
0.0
 26
0.0
 36
1.0
 17
0.0
 27
0.0
 37
0.0
 40
10000.0
 41
2.0
 42
50.0
 43
0.0
 44
0.0
 50
0.0
 51
0.0
 71
     0
 72
  2000
 73
     1
 74
     3
 75
     0
 76
     0
 77
     0
 78
     0
281
     0
 65
     1
110
0.0
120
0.0
130
0.0
111
1.0
121
0.0
131
0.0
112
0.0
122
1.0
132
0.0
 79
     0
146
0.0
  0
ENDTAB
  0
TABLE
  2
LTYPE
  5
5
330
0
100
AcDbSymbolTable
 70
     6
  0
LTYPE
  5
14
330
5
100
AcDbSymbolTableRecord
100
AcDbLinetypeTableRecord
  2
ByBlock
 70
     0
  3

 72
    65
 73
     0
 40
0.0
  0
LTYPE
  5
15
330
5
100
AcDbSymbolTableRecord
100
AcDbLinetypeTableRecord
  2
ByLayer
 70
     0
  3

 72
    65
 73
     0
 40
0.0
  0
LTYPE
  5
16
330
5
100
AcDbSymbolTableRecord
100
AcDbLinetypeTableRecord
  2
Continuous
 70
     0
  3
Solid line
 72
    65
 73
     0
 40
0.0
  0
LTYPE
  5
6E
330
5
100
AcDbSymbolTableRecord
100
AcDbLinetypeTableRecord
  2
HIDDEN
 70
     0
  3
Hidden __ __ __ __ __ __ __ __ __ __ __ __ __ __
 72
    65
 73
     2
 40
1.905
 49
1.27
 74
     0
 49
-0.635
 74
     0
  0
LTYPE
  5
6F
330
5
100
AcDbSymbolTableRecord
100
AcDbLinetypeTableRecord
  2
PHANTOM
 70
     0
  3
Phantom ______  __  __  ______  __  __  ______
 72
    65
 73
     6
 40
12.7
 49
6.35
 74
     0
 49
-1.27
 74
     0
 49
1.27
 74
     0
 49
-1.27
 74
     0
 49
1.27
 74
     0
 49
-1.27
 74
     0
  0
LTYPE
  5
70
330
5
100
AcDbSymbolTableRecord
100
AcDbLinetypeTableRecord
  2
CENTER
 70
     0
  3
Center ____ _ ____ _ ____ _ ____ _ ____ _ ____
 72
    65
 73
     4
 40
10.16
 49
6.35
 74
     0
 49
-1.27
 74
     0
 49
1.27
 74
     0
 49
-1.27
 74
     0
  0
LTYPE
  5
71
330
5
100
AcDbSymbolTableRecord
100
AcDbLinetypeTableRecord
  2
CENTERX2
 70
     0
  3
Center (2x) ________  __  ________  __  _____
 72
    65
 73
     4
 40
20.32
 49
12.7
 74
     0
 49
-2.54
 74
     0
 49
2.54
 74
     0
 49
-2.54
 74
     0
  0
LTYPE
  5
72
330
5
100
AcDbSymbolTableRecord
100
AcDbLinetypeTableRecord
  2
DOT2
 70
     0
  3
Dot (.5x) ........................................
 72
    65
 73
     2
 40
0.635
 49
0.0
 74
     0
 49
-0.635
 74
     0
  0
ENDTAB
  0
TABLE
  2
LAYER
  5
2
330
0
100
AcDbSymbolTable
 70
    13
  0
LAYER
  5
10
330
2
100
AcDbSymbolTableRecord
100
AcDbLayerTableRecord
  2
0
 70
     0
 62
     7
  6
Continuous
370
    -3
390
F
  0
LAYER
  5
73
330
2
100
AcDbSymbolTableRecord
100
AcDbLayerTableRecord
  2
FORMAT
 70
     0
 62
     7
  6
Continuous
370
    -3
390
F
  0
LAYER
  5
74
330
2
100
AcDbSymbolTableRecord
100
AcDbLayerTableRecord
  2
OSA
 70
     0
 62
     7
  6
CENTER
370
    -3
390
F
  0
LAYER
  5
75
330
2
100
AcDbSymbolTableRecord
100
AcDbLayerTableRecord
  2
0_35
 70
     0
 62
     7
  6
Continuous
370
    35
390
F
  0
LAYER
  5
76
330
2
100
AcDbSymbolTableRecord
100
AcDbLayerTableRecord
  2
0_5
 70
     0
 62
     7
  6
Continuous
370
    50
390
F
  0
LAYER
  5
77
330
2
100
AcDbSymbolTableRecord
100
AcDbLayerTableRecord
  2
0_25
 70
     0
 62
     7
  6
Continuous
370
    25
390
F
  0
LAYER
  5
78
330
2
100
AcDbSymbolTableRecord
100
AcDbLayerTableRecord
  2
0_18
 70
     0
 62
     7
  6
Continuous
370
    -3
390
F
  0
LAYER
  5
79
330
2
100
AcDbSymbolTableRecord
100
AcDbLayerTableRecord
  2
SLD-0
 70
     0
 62
   179
  6
Continuous
370
    -3
390
F
  0
LAYER
  5
7A
330
2
100
AcDbSymbolTableRecord
100
AcDbLayerTableRecord
  2
KOTY
 70
     0
 62
     7
  6
Continuous
370
    -3
390
F
  0
LAYER
  5
7B
330
2
100
AcDbSymbolTableRecord
100
AcDbLayerTableRecord
  2
SILNA
 70
     0
 62
   179
  6
Continuous
370
    -3
390
F
  0
LAYER
  5
7C
330
2
100
AcDbSymbolTableRecord
100
AcDbLayerTableRecord
  2
0_18_1
 70
     0
 62
   179
  6
Continuous
370
    -3
390
F
  0
LAYER
  5
7D
330
2
100
AcDbSymbolTableRecord
100
AcDbLayerTableRecord
  2
0_35_1
 70
     0
 62
   179
  6
Continuous
370
    35
390
F
  0
LAYER
  5
7E
330
2
100
AcDbSymbolTableRecord
100
AcDbLayerTableRecord
  2
0_5_1
 70
     0
 62
   179
  6
Continuous
370
    50
390
F
  0
ENDTAB
  0
TABLE
  2
STYLE
  5
3
330
0
100
AcDbSymbolTable
 70
     1
  0
STYLE
  5
11
330
3
100
AcDbSymbolTableRecord
100
AcDbTextStyleTableRecord
  2
Standard
 70
     0
 40
0.0
 41
1.0
 50
0.0
 71
     0
 42
2.0
  3
txt
  4

  0
ENDTAB
  0
TABLE
  2
VIEW
  5
6
330
0
100
AcDbSymbolTable
 70
     0
  0
ENDTAB
  0
TABLE
  2
UCS
  5
7
330
0
100
AcDbSymbolTable
 70
     0
  0
ENDTAB
  0
TABLE
  2
APPID
  5
9
330
0
100
AcDbSymbolTable
 70
     1
  0
APPID
  5
12
330
9
100
AcDbSymbolTableRecord
100
AcDbRegAppTableRecord
  2
ACAD
 70
     0
  0
ENDTAB
  0
TABLE
  2
DIMSTYLE
  5
A
330
0
100
AcDbSymbolTable
 70
     1
100
AcDbDimStyleTable
  0
DIMSTYLE
105
27
330
A
100
AcDbSymbolTableRecord
100
AcDbDimStyleTableRecord
  2
ISO-25
 70
     0
 41
2.5
 42
0.625
 43
3.75
 44
1.25
 73
     0
 74
     0
 77
     1
 78
     8
140
2.5
141
2.5
143
0.0393700787
147
0.625
171
     3
172
     1
178
     0
271
     2
272
     2
274
     3
278
    44
283
     0
284
     8
340
11
  0
ENDTAB
  0
TABLE
  2
BLOCK_RECORD
  5
1
330
0
100
AcDbSymbolTable
 70
     1
  0
BLOCK_RECORD
  5
1F
330
1
100
AcDbSymbolTableRecord
100
AcDbBlockTableRecord
  2
*Model_Space
340
22
  0
BLOCK_RECORD
  5
1B
330
1
100
AcDbSymbolTableRecord
100
AcDbBlockTableRecord
  2
*Paper_Space
340
1E
  0
BLOCK_RECORD
  5
23
330
1
100
AcDbSymbolTableRecord
100
AcDbBlockTableRecord
  2
*Paper_Space0
340
26
  0
ENDTAB
  0
ENDSEC
  0
SECTION
  2
BLOCKS
  0
BLOCK
  5
20
330
1F
100
AcDbEntity
  8
0
100
AcDbBlockBegin
  2
*Model_Space
 70
     0
 10
0.0
 20
0.0
 30
0.0
  3
*Model_Space
  1

  0
ENDBLK
  5
21
330
1F
100
AcDbEntity
  8
0
100
AcDbBlockEnd
  0
BLOCK
  5
1C
330
1B
100
AcDbEntity
 67
     1
  8
0
100
AcDbBlockBegin
  2
*Paper_Space
 70
     0
 10
0.0
 20
0.0
 30
0.0
  3
*Paper_Space
  1

  0
ENDBLK
  5
1D
330
1B
100
AcDbEntity
 67
     1
  8
0
100
AcDbBlockEnd
  0
BLOCK
  5
24
330
23
100
AcDbEntity
  8
0
100
AcDbBlockBegin
  2
*Paper_Space0
 70
     0
 10
0.0
 20
0.0
 30
0.0
  3
*Paper_Space0
  1

  0
ENDBLK
  5
25
330
23
100
AcDbEntity
  8
0
100
AcDbBlockEnd
  0
ENDSEC
  0
SECTION
  2
ENTITIES
  0
LINE
  5
7F
330
1F
100
AcDbEntity
  8
0
  6
Continuous
 62
     7
370
    25
100
AcDbLine
 10
4454.299023166
 20
7942.1056083753
 30
0.0
 11
4436.4383331976
 21
7942.1056083753
 31
0.0
  0
LINE
  5
80
330
1F
100
AcDbEntity
  8
0
  6
Continuous
 62
     7
370
    25
100
AcDbLine
 10
4453.614739292
 20
7935.1767483968
 30
0.0
 11
4458.6589469646
 21
7935.1767483968
 31
0.0
  0
LINE
  5
81
330
1F
100
AcDbEntity
  8
0
  6
Continuous
 62
     7
370
    25
100
AcDbLine
 10
4443.7355026458
 20
7935.1767483968
 30
0.0
 11
4444.8954010435
 21
7935.1767483968
 31
0.0
  0
LINE
  5
82
330
1F
100
AcDbEntity
  8
0
  6
Continuous
 62
     7
370
    25
100
AcDbLine
 10
4450.9213290946
 20
7682.1589636831
 30
0.0
 11
4458.658946954
 21
7682.1589636831
 31
0.0
  0
LINE
  5
83
330
1F
100
AcDbEntity
  8
0
  6
Continuous
 62
     7
370
    25
100
AcDbLine
 10
4440.7982569857
 20
7682.1589636831
 30
0.0
 11
4448.2286019699
 21
7682.1589636831
 31
0.0
  0
LINE
  5
84
330
1F
100
AcDbEntity
  8
0
  6
Continuous
 62
     7
370
    25
100
AcDbLine
 10
4408.6286019699
 20
7682.1589636831
 30
0.0
 11
4416.058946954
 21
7682.1589636831
 31
0.0
  0
LINE
  5
85
330
1F
100
AcDbEntity
  8
0
  6
Continuous
 62
     7
370
    25
100
AcDbLine
 10
4398.1982569857
 20
7682.1589636831
 30
0.0
 11
4405.6286019699
 21
7682.1589636831
 31
0.0
  0
LINE
  5
86
330
1F
100
AcDbEntity
  8
0
  6
Continuous
 62
     7
370
    25
100
AcDbLine
 10
4408.6286019699
 20
7935.1767483968
 30
0.0
 11
4416.0589469646
 21
7935.1767483968
 31
0.0
  0
LINE
  5
87
330
1F
100
AcDbEntity
  8
0
  6
Continuous
 62
     7
370
    25
100
AcDbLine
 10
4398.1982569962
 20
7935.1767483968
 30
0.0
 11
4405.6286019699
 21
7935.1767483968
 31
0.0
  0
LINE
  5
88
330
1F
100
AcDbEntity
  8
0
  6
Continuous
 62
     7
370
    25
100
AcDbLine
 10
4485.0608789403
 20
7935.1589624607
 30
0.0
 11
4490.8286019699
 21
7935.1589624607
 31
0.0
  0
LINE
  5
89
330
1F
100
AcDbEntity
  8
0
  6
Continuous
 62
     7
370
    25
100
AcDbLine
 10
4474.9283721314
 20
7935.1589624607
 30
0.0
 11
4480.1786019699
 21
7935.1589624607
 31
0.0
  0
LINE
  5
8A
330
1F
100
AcDbEntity
  8
0
  6
Continuous
 62
     7
370
    25
100
AcDbLine
 10
4483.1786019699
 20
7682.1589636831
 30
0.0
 11
4490.608946954
 21
7682.1589636831
 31
0.0
  0
LINE
  5
8B
330
1F
100
AcDbEntity
  8
0
  6
Continuous
 62
     7
370
    25
100
AcDbLine
 10
4472.7482569857
 20
7682.1589636831
 30
0.0
 11
4480.1786019699
 21
7682.1589636831
 31
0.0
  0
LINE
  5
8C
330
1F
100
AcDbEntity
  8
0
  6
Continuous
 62
     7
370
    25
100
AcDbLine
 10
4535.9358036531
 20
7691.1589636831
 30
0.0
 11
4497.6433657339
 21
7691.1589636831
 31
0.0
  0
LINE
  5
8D
330
1F
100
AcDbEntity
  8
0
  6
Continuous
 62
     7
370
    25
100
AcDbLine
 10
4525.6526366694
 20
7683.1589636831
 30
0.0
 11
4533.9451333661
 21
7683.1589636831
 31
0.0
  0
LINE
  5
8E
330
1F
100
AcDbEntity
  8
0
  6
Continuous
 62
     7
370
    25
100
AcDbLine
 10
4515.1125640938
 20
7683.1589636831
 30
0.0
 11
4522.866477716
 21
7683.1589636831
 31
0.0
  0
LINE
  5
8F
330
1F
100
AcDbEntity
  8
0
  6
Continuous
 62
     7
370
    25
100
AcDbLine
 10
4504.2691170793
 20
7683.1589636831
 30
0.0
 11
4512.1504066614
 21
7683.1589636831
 31
0.0
  0
LINE
  5
90
330
1F
100
AcDbEntity
  8
0
  6
Continuous
 62
     7
370
    25
100
AcDbLine
 10
4497.6433657339
 20
7683.1589636831
 30
0.0
 11
4501.4786019699
 21
7683.1589636831
 31
0.0
  0
LINE
  5
91
330
1F
100
AcDbEntity
  8
0
  6
Continuous
 62
     7
370
    25
100
AcDbLine
 10
4512.1286019699
 20
7683.1697487306
 30
0.0
 11
4512.1286019699
 21
7633.1589636831
 31
0.0
  0
LINE
  5
92
330
1F
100
AcDbEntity
  8
0
  6
Continuous
 62
     7
370
    25
100
AcDbLine
 10
4515.1286019699
 20
7633.1589636831
 30
0.0
 11
4515.1286019699
 21
7683.1616648662
 31
0.0
  0
LINE
  5
93
330
1F
100
AcDbEntity
  8
0
  6
Continuous
 62
     7
370
    25
100
AcDbLine
 10
4515.1286019699
 20
7628.1589636831
 30
0.0
 11
4515.1286019699
 21
7633.1589636831
 31
0.0
  0
LINE
  5
94
330
1F
100
AcDbEntity
  8
0
  6
Continuous
 62
     7
370
    25
100
AcDbLine
 10
4512.1286019699
 20
7633.1589636831
 30
0.0
 11
4512.1286019699
 21
7628.1589636831
 31
0.0
  0
LINE
  5
95
330
1F
100
AcDbEntity
  8
0
  6
Continuous
 62
     7
370
    25
100
AcDbLine
 10
4522.7786019699
 20
7683.1932421548
 30
0.0
 11
4522.7786019699
 21
7633.1589636831
 31
0.0
  0
LINE
  5
96
330
1F
100
AcDbEntity
  8
0
  6
Continuous
 62
     7
370
    25
100
AcDbLine
 10
4525.7786019699
 20
7633.1589636831
 30
0.0
 11
4525.7786019699
 21
7683.1977861674
 31
0.0
  0
LINE
  5
97
330
1F
100
AcDbEntity
  8
0
  6
Continuous
 62
     7
370
    25
100
AcDbLine
 10
4525.7786019699
 20
7628.1589636831
 30
0.0
 11
4525.7786019699
 21
7633.1589636831
 31
0.0
  0
LINE
  5
98
330
1F
100
AcDbEntity
  8
0
  6
Continuous
 62
     7
370
    25
100
AcDbLine
 10
4522.7786019699
 20
7633.1589636831
 30
0.0
 11
4522.7786019699
 21
7628.1589636831
 31
0.0
  0
LINE
  5
99
330
1F
100
AcDbEntity
  8
0
  6
Continuous
 62
     7
370
    25
100
AcDbLine
 10
4504.4786019699
 20
7628.1589636831
 30
0.0
 11
4504.4786019699
 21
7633.1589636831
 31
0.0
  0
LINE
  5
9A
330
1F
100
AcDbEntity
  8
0
  6
Continuous
 62
     7
370
    25
100
AcDbLine
 10
4501.4786019699
 20
7633.1589636831
 30
0.0
 11
4501.4786019699
 21
7628.1589636831
 31
0.0
  0
LINE
  5
9B
330
1F
100
AcDbEntity
  8
0
  6
Continuous
 62
     7
370
    25
100
AcDbLine
 10
4501.4786019699
 20
7683.2434560424
 30
0.0
 11
4501.4786019699
 21
7633.1589636831
 31
0.0
  0
LINE
  5
9C
330
1F
100
AcDbEntity
  8
0
  6
Continuous
 62
     7
370
    25
100
AcDbLine
 10
4504.4786019699
 20
7633.1589636831
 30
0.0
 11
4504.4786019699
 21
7683.1589636831
 31
0.0
  0
LINE
  5
9D
330
1F
100
AcDbEntity
  8
0
  6
Continuous
 62
     7
370
    25
100
AcDbLine
 10
4493.356981012
 20
7683.1589636831
 30
0.0
 11
4497.6433657339
 21
7683.1589636831
 31
0.0
  0
LINE
  5
9E
330
1F
100
AcDbEntity
  8
0
  6
Continuous
 62
     7
370
    25
100
AcDbLine
 10
4482.706981012
 20
7683.1589636831
 30
0.0
 11
4490.8286019699
 21
7683.1589636831
 31
0.0
  0
LINE
  5
9F
330
1F
100
AcDbEntity
  8
0
  6
Continuous
 62
     7
370
    25
100
AcDbLine
 10
4472.056981012
 20
7683.1589636831
 30
0.0
 11
4480.1786019699
 21
7683.1589636831
 31
0.0
  0
LINE
  5
A0
330
1F
100
AcDbEntity
  8
0
  6
Continuous
 62
     7
370
    25
100
AcDbLine
 10
4461.406981012
 20
7683.1589636831
 30
0.0
 11
4469.5286019699
 21
7683.1589636831
 31
0.0
  0
LINE
  5
A1
330
1F
100
AcDbEntity
  8
0
  6
Continuous
 62
     7
370
    25
100
AcDbLine
 10
4458.658946954
 20
7683.1589636831
 30
0.0
 11
4458.8786019699
 21
7683.1589636831
 31
0.0
  0
LINE
  5
A2
330
1F
100
AcDbEntity
  8
0
  6
Continuous
 62
     7
370
    25
100
AcDbLine
 10
4429.456981012
 20
7683.1589636831
 30
0.0
 11
4437.5786019699
 21
7683.1589636831
 31
0.0
  0
LINE
  5
A3
330
1F
100
AcDbEntity
  8
0
  6
Continuous
 62
     7
370
    25
100
AcDbLine
 10
4418.806981012
 20
7683.1589636831
 30
0.0
 11
4426.9286019699
 21
7683.1589636831
 31
0.0
  0
LINE
  5
A4
330
1F
100
AcDbEntity
  8
0
  6
Continuous
 62
     7
370
    25
100
AcDbLine
 10
4408.1484016253
 20
7683.1589636831
 30
0.0
 11
4416.2786019699
 21
7683.1589636831
 31
0.0
  0
LINE
  5
A5
330
1F
100
AcDbEntity
  8
0
  6
Continuous
 62
     7
370
    25
100
AcDbLine
 10
4397.5006004353
 20
7683.1589636831
 30
0.0
 11
4405.6286019699
 21
7683.1589636831
 31
0.0
  0
LINE
  5
A6
330
1F
100
AcDbEntity
  8
0
  6
Continuous
 62
     7
370
    25
100
AcDbLine
 10
4386.8506004353
 20
7683.1589636831
 30
0.0
 11
4394.9786019699
 21
7683.1589636831
 31
0.0
  0
LINE
  5
A7
330
1F
100
AcDbEntity
  8
0
  6
Continuous
 62
     7
370
    25
100
AcDbLine
 10
4382.8286019699
 20
7683.1589636831
 30
0.0
 11
4384.3286019699
 21
7683.1589636831
 31
0.0
  0
LINE
  5
A8
330
1F
100
AcDbEntity
  8
0
  6
Continuous
 62
     7
370
    25
100
AcDbLine
 10
4497.6433657339
 20
7691.1589636831
 30
0.0
 11
4455.7174541863
 21
7691.1589636831
 31
0.0
  0
LINE
  5
A9
330
1F
100
AcDbEntity
  8
0
  6
Continuous
 62
     7
370
    25
100
AcDbLine
 10
4437.1300080819
 20
7691.1589636831
 30
0.0
 11
4382.8286019699
 21
7691.1589636831
 31
0.0
  0
LINE
  5
AA
330
1F
100
AcDbEntity
  8
0
  6
Continuous
 62
     7
370
    25
100
AcDbLine
 10
4536.4286019699
 20
7628.1589636831
 30
0.0
 11
4536.4286019699
 21
7633.1589636831
 31
0.0
  0
LINE
  5
AB
330
1F
100
AcDbEntity
  8
0
  6
Continuous
 62
     7
370
    25
100
AcDbLine
 10
4533.4286019699
 20
7633.1589636831
 30
0.0
 11
4533.4286019699
 21
7628.1589636831
 31
0.0
  0
LINE
  5
AC
330
1F
100
AcDbEntity
  8
0
  6
Continuous
 62
     7
370
    25
100
AcDbLine
 10
4533.4286019699
 20
7683.1589636831
 30
0.0
 11
4533.4286019699
 21
7633.1589636831
 31
0.0
  0
LINE
  5
AD
330
1F
100
AcDbEntity
  8
0
  6
Continuous
 62
     7
370
    25
100
AcDbLine
 10
4536.4286019699
 20
7633.1589636831
 30
0.0
 11
4536.4286019699
 21
7683.3323252924
 31
0.0
  0
ARC
  5
AE
330
1F
100
AcDbEntity
  8
0
  6
Continuous
 62
     7
370
    25
100
AcDbCircle
 10
4578.3756662082
 20
7687.1589636831
 30
0.0
 40
4.0
100
AcDbArc
 50
270.0
 51
90.0
  0
LINE
  5
AF
330
1F
100
AcDbEntity
  8
0
  6
Continuous
 62
     7
370
    25
100
AcDbLine
 10
4578.3756662082
 20
7691.1589636831
 30
0.0
 11
4535.9358036531
 21
7691.1589636831
 31
0.0
  0
LINE
  5
B0
330
1F
100
AcDbEntity
  8
0
  6
Continuous
 62
     7
370
    25
100
AcDbLine
 10
4577.8286019699
 20
7683.1589636831
 30
0.0
 11
4578.3756662082
 21
7683.1589636831
 31
0.0
  0
LINE
  5
B1
330
1F
100
AcDbEntity
  8
0
  6
Continuous
 62
     7
370
    25
100
AcDbLine
 10
4568.3786019699
 20
7683.1589636831
 30
0.0
 11
4576.1184065058
 21
7683.1589636831
 31
0.0
  0
LINE
  5
B2
330
1F
100
AcDbEntity
  8
0
  6
Continuous
 62
     7
370
    25
100
AcDbLine
 10
4557.7286019699
 20
7683.1589636831
 30
0.0
 11
4566.3999421369
 21
7683.1589636831
 31
0.0
  0
LINE
  5
B3
330
1F
100
AcDbEntity
  8
0
  6
Continuous
 62
     7
370
    25
100
AcDbLine
 10
4547.0786019699
 20
7683.1589636831
 30
0.0
 11
4555.5750411013
 21
7683.1589636831
 31
0.0
  0
LINE
  5
B4
330
1F
100
AcDbEntity
  8
0
  6
Continuous
 62
     7
370
    25
100
AcDbLine
 10
4536.4286019699
 20
7683.1589636831
 30
0.0
 11
4544.7918522312
 21
7683.1589636831
 31
0.0
  0
LINE
  5
B5
330
1F
100
AcDbEntity
  8
0
  6
Continuous
 62
     7
370
    25
100
AcDbLine
 10
4490.8286019699
 20
7683.3103568588
 30
0.0
 11
4490.8286019699
 21
7633.1589636831
 31
0.0
  0
LINE
  5
B6
330
1F
100
AcDbEntity
  8
0
  6
Continuous
 62
     7
370
    25
100
AcDbLine
 10
4493.8286019699
 20
7633.1589636831
 30
0.0
 11
4493.8286019699
 21
7683.1589636831
 31
0.0
  0
LINE
  5
B7
330
1F
100
AcDbEntity
  8
0
  6
Continuous
 62
     7
370
    25
100
AcDbLine
 10
4493.8286019699
 20
7628.1589636831
 30
0.0
 11
4493.8286019699
 21
7633.1589636831
 31
0.0
  0
LINE
  5
B8
330
1F
100
AcDbEntity
  8
0
  6
Continuous
 62
     7
370
    25
100
AcDbLine
 10
4490.8286019699
 20
7633.1589636831
 30
0.0
 11
4490.8286019699
 21
7628.1589636831
 31
0.0
  0
LINE
  5
B9
330
1F
100
AcDbEntity
  8
0
  6
Continuous
 62
     7
370
    25
100
AcDbLine
 10
4544.0786019699
 20
7683.1589636831
 30
0.0
 11
4544.0786019699
 21
7633.1589636831
 31
0.0
  0
LINE
  5
BA
330
1F
100
AcDbEntity
  8
0
  6
Continuous
 62
     7
370
    25
100
AcDbLine
 10
4547.0786019699
 20
7633.1589636831
 30
0.0
 11
4547.0786019699
 21
7683.3676959732
 31
0.0
  0
LINE
  5
BB
330
1F
100
AcDbEntity
  8
0
  6
Continuous
 62
     7
370
    25
100
AcDbLine
 10
4547.0786019699
 20
7628.1589636831
 30
0.0
 11
4547.0786019699
 21
7633.1589636831
 31
0.0
  0
LINE
  5
BC
330
1F
100
AcDbEntity
  8
0
  6
Continuous
 62
     7
370
    25
100
AcDbLine
 10
4544.0786019699
 20
7633.1589636831
 30
0.0
 11
4544.0786019699
 21
7628.1589636831
 31
0.0
  0
LINE
  5
BD
330
1F
100
AcDbEntity
  8
0
  6
Continuous
 62
     7
370
    25
100
AcDbLine
 10
4480.1786019699
 20
7683.3103568588
 30
0.0
 11
4480.1786019699
 21
7633.1589636831
 31
0.0
  0
LINE
  5
BE
330
1F
100
AcDbEntity
  8
0
  6
Continuous
 62
     7
370
    25
100
AcDbLine
 10
4483.1786019699
 20
7633.1589636831
 30
0.0
 11
4483.1786019699
 21
7683.1589636831
 31
0.0
  0
LINE
  5
BF
330
1F
100
AcDbEntity
  8
0
  6
Continuous
 62
     7
370
    25
100
AcDbLine
 10
4483.1786019699
 20
7628.1589636831
 30
0.0
 11
4483.1786019699
 21
7633.1589636831
 31
0.0
  0
LINE
  5
C0
330
1F
100
AcDbEntity
  8
0
  6
Continuous
 62
     7
370
    25
100
AcDbLine
 10
4480.1786019699
 20
7633.1589636831
 30
0.0
 11
4480.1786019699
 21
7628.1589636831
 31
0.0
  0
LINE
  5
C1
330
1F
100
AcDbEntity
  8
0
  6
Continuous
 62
     7
370
    25
100
AcDbLine
 10
4472.5286019699
 20
7628.1589636831
 30
0.0
 11
4472.5286019699
 21
7633.1589636831
 31
0.0
  0
LINE
  5
C2
330
1F
100
AcDbEntity
  8
0
  6
Continuous
 62
     7
370
    25
100
AcDbLine
 10
4469.5286019699
 20
7633.1589636831
 30
0.0
 11
4469.5286019699
 21
7628.1589636831
 31
0.0
  0
LINE
  5
C3
330
1F
100
AcDbEntity
  8
0
  6
Continuous
 62
     7
370
    25
100
AcDbLine
 10
4469.5286019699
 20
7683.3103568588
 30
0.0
 11
4469.5286019699
 21
7633.1589636831
 31
0.0
  0
LINE
  5
C4
330
1F
100
AcDbEntity
  8
0
  6
Continuous
 62
     7
370
    25
100
AcDbLine
 10
4472.5286019699
 20
7633.1589636831
 30
0.0
 11
4472.5286019699
 21
7683.1589636831
 31
0.0
  0
LINE
  5
C5
330
1F
100
AcDbEntity
  8
0
  6
Continuous
 62
     7
370
    25
100
AcDbLine
 10
4557.7286019699
 20
7628.1589636831
 30
0.0
 11
4557.7286019699
 21
7633.1589636831
 31
0.0
  0
LINE
  5
C6
330
1F
100
AcDbEntity
  8
0
  6
Continuous
 62
     7
370
    25
100
AcDbLine
 10
4554.7286019699
 20
7633.1589636831
 30
0.0
 11
4554.7286019699
 21
7628.1589636831
 31
0.0
  0
LINE
  5
C7
330
1F
100
AcDbEntity
  8
0
  6
Continuous
 62
     7
370
    25
100
AcDbLine
 10
4554.7286019699
 20
7683.1589636831
 30
0.0
 11
4554.7286019699
 21
7633.1589636831
 31
0.0
  0
LINE
  5
C8
330
1F
100
AcDbEntity
  8
0
  6
Continuous
 62
     7
370
    25
100
AcDbLine
 10
4557.7286019699
 20
7633.1589636831
 30
0.0
 11
4557.7286019699
 21
7683.3925617946
 31
0.0
  0
LINE
  5
C9
330
1F
100
AcDbEntity
  8
0
  6
Continuous
 62
     7
370
    25
100
AcDbLine
 10
4458.8786019699
 20
7683.3103568588
 30
0.0
 11
4458.8786019699
 21
7633.1589636831
 31
0.0
  0
LINE
  5
CA
330
1F
100
AcDbEntity
  8
0
  6
Continuous
 62
     7
370
    25
100
AcDbLine
 10
4461.8786019699
 20
7633.1589636831
 30
0.0
 11
4461.8786019699
 21
7683.1589636831
 31
0.0
  0
LINE
  5
CB
330
1F
100
AcDbEntity
  8
0
  6
Continuous
 62
     7
370
    25
100
AcDbLine
 10
4461.8786019699
 20
7628.1589636831
 30
0.0
 11
4461.8786019699
 21
7633.1589636831
 31
0.0
  0
LINE
  5
CC
330
1F
100
AcDbEntity
  8
0
  6
Continuous
 62
     7
370
    25
100
AcDbLine
 10
4458.8786019699
 20
7633.1589636831
 30
0.0
 11
4458.8786019699
 21
7628.1589636831
 31
0.0
  0
LINE
  5
CD
330
1F
100
AcDbEntity
  8
0
  6
Continuous
 62
     7
370
    25
100
AcDbLine
 10
4451.2286019699
 20
7628.1589636831
 30
0.0
 11
4451.2286019699
 21
7633.1589636831
 31
0.0
  0
LINE
  5
CE
330
1F
100
AcDbEntity
  8
0
  6
Continuous
 62
     7
370
    25
100
AcDbLine
 10
4448.2286019699
 20
7633.1589636831
 30
0.0
 11
4448.2286019699
 21
7628.1589636831
 31
0.0
  0
LINE
  5
CF
330
1F
100
AcDbEntity
  8
0
  6
Continuous
 62
     7
370
    25
100
AcDbLine
 10
4448.2286019699
 20
7682.9421811675
 30
0.0
 11
4448.2286019699
 21
7633.1589636831
 31
0.0
  0
LINE
  5
D0
330
1F
100
AcDbEntity
  8
0
  6
Continuous
 62
     7
370
    25
100
AcDbLine
 10
4451.2286019699
 20
7633.1589636831
 30
0.0
 11
4451.2286019699
 21
7682.1589636831
 31
0.0
  0
LINE
  5
D1
330
1F
100
AcDbEntity
  8
0
  6
Continuous
 62
     7
370
    25
100
AcDbLine
 10
4565.3786019699
 20
7683.1589636831
 30
0.0
 11
4565.3786019699
 21
7635.6589636831
 31
0.0
  0
LINE
  5
D2
330
1F
100
AcDbEntity
  8
0
  6
Continuous
 62
     7
370
    25
100
AcDbLine
 10
4568.3786019699
 20
7635.6589636831
 30
0.0
 11
4568.3786019699
 21
7683.4181765445
 31
0.0
  0
LINE
  5
D3
330
1F
100
AcDbEntity
  8
0
  6
Continuous
 62
     7
370
    25
100
AcDbLine
 10
4568.3786019699
 20
7630.6589636831
 30
0.0
 11
4568.3786019699
 21
7635.6589636831
 31
0.0
  0
LINE
  5
D4
330
1F
100
AcDbEntity
  8
0
  6
Continuous
 62
     7
370
    25
100
AcDbLine
 10
4565.3786019699
 20
7635.6589636831
 30
0.0
 11
4565.3786019699
 21
7630.6589636831
 31
0.0
  0
LINE
  5
D5
330
1F
100
AcDbEntity
  8
0
  6
Continuous
 62
     7
370
    25
100
AcDbLine
 10
4440.5786019699
 20
7628.1589636831
 30
0.0
 11
4440.5786019699
 21
7633.1589636831
 31
0.0
  0
LINE
  5
D6
330
1F
100
AcDbEntity
  8
0
  6
Continuous
 62
     7
370
    25
100
AcDbLine
 10
4437.5786019699
 20
7633.1589636831
 30
0.0
 11
4437.5786019699
 21
7628.1589636831
 31
0.0
  0
LINE
  5
D7
330
1F
100
AcDbEntity
  8
0
  6
Continuous
 62
     7
370
    25
100
AcDbLine
 10
4437.5786019699
 20
7683.3103568588
 30
0.0
 11
4437.5786019699
 21
7633.1589636831
 31
0.0
  0
LINE
  5
D8
330
1F
100
AcDbEntity
  8
0
  6
Continuous
 62
     7
370
    25
100
AcDbLine
 10
4440.5786019699
 20
7633.1589636831
 30
0.0
 11
4440.5786019699
 21
7682.1681082516
 31
0.0
  0
LINE
  5
D9
330
1F
100
AcDbEntity
  8
0
  6
Continuous
 62
     7
370
    25
100
AcDbLine
 10
4426.9286019699
 20
7683.3103568588
 30
0.0
 11
4426.9286019699
 21
7633.1589636831
 31
0.0
  0
LINE
  5
DA
330
1F
100
AcDbEntity
  8
0
  6
Continuous
 62
     7
370
    25
100
AcDbLine
 10
4429.9286019699
 20
7633.1589636831
 30
0.0
 11
4429.9286019699
 21
7683.1589636831
 31
0.0
  0
LINE
  5
DB
330
1F
100
AcDbEntity
  8
0
  6
Continuous
 62
     7
370
    25
100
AcDbLine
 10
4429.9286019699
 20
7628.1589636831
 30
0.0
 11
4429.9286019699
 21
7633.1589636831
 31
0.0
  0
LINE
  5
DC
330
1F
100
AcDbEntity
  8
0
  6
Continuous
 62
     7
370
    25
100
AcDbLine
 10
4426.9286019699
 20
7633.1589636831
 30
0.0
 11
4426.9286019699
 21
7628.1589636831
 31
0.0
  0
LINE
  5
DD
330
1F
100
AcDbEntity
  8
0
  6
Continuous
 62
     7
370
    25
100
AcDbLine
 10
4416.2786019699
 20
7683.3103568588
 30
0.0
 11
4416.2786019699
 21
7633.1589636831
 31
0.0
  0
LINE
  5
DE
330
1F
100
AcDbEntity
  8
0
  6
Continuous
 62
     7
370
    25
100
AcDbLine
 10
4419.2786019699
 20
7633.1589636831
 30
0.0
 11
4419.2786019699
 21
7683.1589636831
 31
0.0
  0
LINE
  5
DF
330
1F
100
AcDbEntity
  8
0
  6
Continuous
 62
     7
370
    25
100
AcDbLine
 10
4419.2786019699
 20
7628.1589636831
 30
0.0
 11
4419.2786019699
 21
7633.1589636831
 31
0.0
  0
LINE
  5
E0
330
1F
100
AcDbEntity
  8
0
  6
Continuous
 62
     7
370
    25
100
AcDbLine
 10
4416.2786019699
 20
7633.1589636831
 30
0.0
 11
4416.2786019699
 21
7628.1589636831
 31
0.0
  0
LINE
  5
E1
330
1F
100
AcDbEntity
  8
0
  6
Continuous
 62
     7
370
    25
100
AcDbLine
 10
4408.6286019699
 20
7628.1589636831
 30
0.0
 11
4408.6286019699
 21
7633.1589636831
 31
0.0
  0
LINE
  5
E2
330
1F
100
AcDbEntity
  8
0
  6
Continuous
 62
     7
370
    25
100
AcDbLine
 10
4405.6286019699
 20
7633.1589636831
 30
0.0
 11
4405.6286019699
 21
7628.1589636831
 31
0.0
  0
LINE
  5
E3
330
1F
100
AcDbEntity
  8
0
  6
Continuous
 62
     7
370
    25
100
AcDbLine
 10
4405.6286019699
 20
7683.3096751939
 30
0.0
 11
4405.6286019699
 21
7633.1589636831
 31
0.0
  0
LINE
  5
E4
330
1F
100
AcDbEntity
  8
0
  6
Continuous
 62
     7
370
    25
100
AcDbLine
 10
4408.6286019699
 20
7633.1589636831
 30
0.0
 11
4408.6286019699
 21
7683.1589636831
 31
0.0
  0
LINE
  5
E5
330
1F
100
AcDbEntity
  8
0
  6
Continuous
 62
     7
370
    25
100
AcDbLine
 10
4574.8286019699
 20
7683.1589636831
 30
0.0
 11
4574.8286019699
 21
7638.1589636831
 31
0.0
  0
LINE
  5
E6
330
1F
100
AcDbEntity
  8
0
  6
Continuous
 62
     7
370
    25
100
AcDbLine
 10
4577.8286019699
 20
7638.1589636831
 30
0.0
 11
4577.8286019699
 21
7683.4388484404
 31
0.0
  0
LINE
  5
E7
330
1F
100
AcDbEntity
  8
0
  6
Continuous
 62
     7
370
    25
100
AcDbLine
 10
4577.8286019699
 20
7633.1589636831
 30
0.0
 11
4577.8286019699
 21
7638.1589636831
 31
0.0
  0
LINE
  5
E8
330
1F
100
AcDbEntity
  8
0
  6
Continuous
 62
     7
370
    25
100
AcDbLine
 10
4574.8286019699
 20
7638.1589636831
 30
0.0
 11
4574.8286019699
 21
7633.1589636831
 31
0.0
  0
LINE
  5
E9
330
1F
100
AcDbEntity
  8
0
  6
Continuous
 62
     7
370
    25
100
AcDbLine
 10
4394.9786019699
 20
7633.1589636831
 30
0.0
 11
4394.9786019699
 21
7628.1589636831
 31
0.0
  0
LINE
  5
EA
330
1F
100
AcDbEntity
  8
0
  6
Continuous
 62
     7
370
    25
100
AcDbLine
 10
4397.9786019699
 20
7628.1589636831
 30
0.0
 11
4397.9786019699
 21
7633.1589636831
 31
0.0
  0
LINE
  5
EB
330
1F
100
AcDbEntity
  8
0
  6
Continuous
 62
     7
370
    25
100
AcDbLine
 10
4397.9786019699
 20
7633.1589636831
 30
0.0
 11
4397.9786019699
 21
7683.1589636831
 31
0.0
  0
LINE
  5
EC
330
1F
100
AcDbEntity
  8
0
  6
Continuous
 62
     7
370
    25
100
AcDbLine
 10
4394.9786019699
 20
7683.3107796368
 30
0.0
 11
4394.9786019699
 21
7633.1589636831
 31
0.0
  0
LINE
  5
ED
330
1F
100
AcDbEntity
  8
0
  6
Continuous
 62
     7
370
    25
100
AcDbLine
 10
4387.3286019699
 20
7638.1589636831
 30
0.0
 11
4387.3286019699
 21
7683.1589636831
 31
0.0
  0
LINE
  5
EE
330
1F
100
AcDbEntity
  8
0
  6
Continuous
 62
     7
370
    25
100
AcDbLine
 10
4384.3286019699
 20
7683.3107796368
 30
0.0
 11
4384.3286019699
 21
7638.1589636831
 31
0.0
  0
LINE
  5
EF
330
1F
100
AcDbEntity
  8
0
  6
Continuous
 62
     7
370
    25
100
AcDbLine
 10
4384.3286019699
 20
7638.1589636831
 30
0.0
 11
4384.3286019699
 21
7633.1589636831
 31
0.0
  0
LINE
  5
F0
330
1F
100
AcDbEntity
  8
0
  6
Continuous
 62
     7
370
    25
100
AcDbLine
 10
4387.3286019699
 20
7633.1589636831
 30
0.0
 11
4387.3286019699
 21
7638.1589636831
 31
0.0
  0
LINE
  5
F1
330
1F
100
AcDbEntity
  8
0
  6
Continuous
 62
     7
370
    25
100
AcDbLine
 10
4535.9358036531
 20
7944.1767496192
 30
0.0
 11
4497.6433657339
 21
7944.1767496192
 31
0.0
  0
LINE
  5
F2
330
1F
100
AcDbEntity
  8
0
  6
Continuous
 62
     7
370
    25
100
AcDbLine
 10
4525.6526366694
 20
7936.1767496192
 30
0.0
 11
4533.9451333661
 21
7936.1767496192
 31
0.0
  0
LINE
  5
F3
330
1F
100
AcDbEntity
  8
0
  6
Continuous
 62
     7
370
    25
100
AcDbLine
 10
4515.1125640938
 20
7936.1767496192
 30
0.0
 11
4522.866477716
 21
7936.1767496192
 31
0.0
  0
LINE
  5
F4
330
1F
100
AcDbEntity
  8
0
  6
Continuous
 62
     7
370
    25
100
AcDbLine
 10
4504.2691170793
 20
7936.1767496192
 30
0.0
 11
4512.1504066614
 21
7936.1767496192
 31
0.0
  0
LINE
  5
F5
330
1F
100
AcDbEntity
  8
0
  6
Continuous
 62
     7
370
    25
100
AcDbLine
 10
4497.6433657339
 20
7936.1767496192
 30
0.0
 11
4501.4786019699
 21
7936.1767496192
 31
0.0
  0
LINE
  5
F6
330
1F
100
AcDbEntity
  8
0
  6
Continuous
 62
     7
370
    25
100
AcDbLine
 10
4512.1286019699
 20
7936.1875346667
 30
0.0
 11
4512.1286019699
 21
7886.1767496192
 31
0.0
  0
LINE
  5
F7
330
1F
100
AcDbEntity
  8
0
  6
Continuous
 62
     7
370
    25
100
AcDbLine
 10
4515.1286019699
 20
7886.1767496192
 30
0.0
 11
4515.1286019699
 21
7936.1794508023
 31
0.0
  0
LINE
  5
F8
330
1F
100
AcDbEntity
  8
0
  6
Continuous
 62
     7
370
    25
100
AcDbLine
 10
4515.1286019699
 20
7881.1767496192
 30
0.0
 11
4515.1286019699
 21
7886.1767496192
 31
0.0
  0
LINE
  5
F9
330
1F
100
AcDbEntity
  8
0
  6
Continuous
 62
     7
370
    25
100
AcDbLine
 10
4512.1286019699
 20
7886.1767496192
 30
0.0
 11
4512.1286019699
 21
7881.1767496192
 31
0.0
  0
LINE
  5
FA
330
1F
100
AcDbEntity
  8
0
  6
Continuous
 62
     7
370
    25
100
AcDbLine
 10
4525.7786019699
 20
7881.1767496192
 30
0.0
 11
4525.7786019699
 21
7886.1767496192
 31
0.0
  0
LINE
  5
FB
330
1F
100
AcDbEntity
  8
0
  6
Continuous
 62
     7
370
    25
100
AcDbLine
 10
4522.7786019699
 20
7886.1767496192
 30
0.0
 11
4522.7786019699
 21
7881.1767496192
 31
0.0
  0
LINE
  5
FC
330
1F
100
AcDbEntity
  8
0
  6
Continuous
 62
     7
370
    25
100
AcDbLine
 10
4522.7786019699
 20
7936.2110280909
 30
0.0
 11
4522.7786019699
 21
7886.1767496192
 31
0.0
  0
LINE
  5
FD
330
1F
100
AcDbEntity
  8
0
  6
Continuous
 62
     7
370
    25
100
AcDbLine
 10
4525.7786019699
 20
7886.1767496192
 30
0.0
 11
4525.7786019699
 21
7936.2155721035
 31
0.0
  0
LINE
  5
FE
330
1F
100
AcDbEntity
  8
0
  6
Continuous
 62
     7
370
    25
100
AcDbLine
 10
4504.4786019699
 20
7881.1767496192
 30
0.0
 11
4504.4786019699
 21
7886.1767496192
 31
0.0
  0
LINE
  5
FF
330
1F
100
AcDbEntity
  8
0
  6
Continuous
 62
     7
370
    25
100
AcDbLine
 10
4501.4786019699
 20
7886.1767496192
 30
0.0
 11
4501.4786019699
 21
7881.1767496192
 31
0.0
  0
LINE
  5
100
330
1F
100
AcDbEntity
  8
0
  6
Continuous
 62
     7
370
    25
100
AcDbLine
 10
4501.4786019699
 20
7936.2612419785
 30
0.0
 11
4501.4786019699
 21
7886.1767496192
 31
0.0
  0
LINE
  5
101
330
1F
100
AcDbEntity
  8
0
  6
Continuous
 62
     7
370
    25
100
AcDbLine
 10
4504.4786019699
 20
7886.1767496192
 30
0.0
 11
4504.4786019699
 21
7936.1767496192
 31
0.0
  0
LINE
  5
102
330
1F
100
AcDbEntity
  8
0
  6
Continuous
 62
     7
370
    25
100
AcDbLine
 10
4493.356981012
 20
7936.1767496192
 30
0.0
 11
4497.6433657339
 21
7936.1767496192
 31
0.0
  0
LINE
  5
103
330
1F
100
AcDbEntity
  8
0
  6
Continuous
 62
     7
370
    25
100
AcDbLine
 10
4482.706981012
 20
7936.1767496192
 30
0.0
 11
4490.8286019699
 21
7936.1767496192
 31
0.0
  0
LINE
  5
104
330
1F
100
AcDbEntity
  8
0
  6
Continuous
 62
     7
370
    25
100
AcDbLine
 10
4472.056981012
 20
7936.1767496192
 30
0.0
 11
4480.1786019699
 21
7936.1767496192
 31
0.0
  0
LINE
  5
105
330
1F
100
AcDbEntity
  8
0
  6
Continuous
 62
     7
370
    25
100
AcDbLine
 10
4461.406981012
 20
7936.1767496192
 30
0.0
 11
4469.5286019699
 21
7936.1767496192
 31
0.0
  0
LINE
  5
106
330
1F
100
AcDbEntity
  8
0
  6
Continuous
 62
     7
370
    25
100
AcDbLine
 10
4458.658946954
 20
7936.1767496192
 30
0.0
 11
4458.8786019699
 21
7936.1767496192
 31
0.0
  0
LINE
  5
107
330
1F
100
AcDbEntity
  8
0
  6
Continuous
 62
     7
370
    25
100
AcDbLine
 10
4429.456981012
 20
7936.1767496192
 30
0.0
 11
4435.0186761212
 21
7936.1767496192
 31
0.0
  0
LINE
  5
108
330
1F
100
AcDbEntity
  8
0
  6
Continuous
 62
     7
370
    25
100
AcDbLine
 10
4418.806981012
 20
7936.1767496192
 30
0.0
 11
4426.9286019699
 21
7936.1767496192
 31
0.0
  0
LINE
  5
109
330
1F
100
AcDbEntity
  8
0
  6
Continuous
 62
     7
370
    25
100
AcDbLine
 10
4408.1484016253
 20
7936.1767496192
 30
0.0
 11
4416.2786019699
 21
7936.1767496192
 31
0.0
  0
LINE
  5
10A
330
1F
100
AcDbEntity
  8
0
  6
Continuous
 62
     7
370
    25
100
AcDbLine
 10
4397.5006004353
 20
7936.1767496192
 30
0.0
 11
4405.6286019699
 21
7936.1767496192
 31
0.0
  0
LINE
  5
10B
330
1F
100
AcDbEntity
  8
0
  6
Continuous
 62
     7
370
    25
100
AcDbLine
 10
4386.8506004353
 20
7936.1767496192
 30
0.0
 11
4394.9786019699
 21
7936.1767496192
 31
0.0
  0
LINE
  5
10C
330
1F
100
AcDbEntity
  8
0
  6
Continuous
 62
     7
370
    25
100
AcDbLine
 10
4382.8286019699
 20
7936.1767496192
 30
0.0
 11
4384.3286019699
 21
7936.1767496192
 31
0.0
  0
LINE
  5
10D
330
1F
100
AcDbEntity
  8
0
  6
Continuous
 62
     7
370
    25
100
AcDbLine
 10
4497.6433657339
 20
7944.1767496192
 30
0.0
 11
4382.8286019699
 21
7944.1767496192
 31
0.0
  0
LINE
  5
10E
330
1F
100
AcDbEntity
  8
0
  6
Continuous
 62
     7
370
    25
100
AcDbLine
 10
4533.4286019699
 20
7936.1767496192
 30
0.0
 11
4533.4286019699
 21
7886.1767496192
 31
0.0
  0
LINE
  5
10F
330
1F
100
AcDbEntity
  8
0
  6
Continuous
 62
     7
370
    25
100
AcDbLine
 10
4536.4286019699
 20
7886.1767496192
 30
0.0
 11
4536.4286019699
 21
7936.3501112285
 31
0.0
  0
LINE
  5
110
330
1F
100
AcDbEntity
  8
0
  6
Continuous
 62
     7
370
    25
100
AcDbLine
 10
4536.4286019699
 20
7881.1767496192
 30
0.0
 11
4536.4286019699
 21
7886.1767496192
 31
0.0
  0
LINE
  5
111
330
1F
100
AcDbEntity
  8
0
  6
Continuous
 62
     7
370
    25
100
AcDbLine
 10
4533.4286019699
 20
7886.1767496192
 30
0.0
 11
4533.4286019699
 21
7881.1767496192
 31
0.0
  0
ARC
  5
112
330
1F
100
AcDbEntity
  8
0
  6
Continuous
 62
     7
370
    25
100
AcDbCircle
 10
4578.3756662082
 20
7940.1767496192
 30
0.0
 40
4.0
100
AcDbArc
 50
270.0
 51
90.0
  0
LINE
  5
113
330
1F
100
AcDbEntity
  8
0
  6
Continuous
 62
     7
370
    25
100
AcDbLine
 10
4578.3756662082
 20
7944.1767496192
 30
0.0
 11
4535.9358036531
 21
7944.1767496192
 31
0.0
  0
LINE
  5
114
330
1F
100
AcDbEntity
  8
0
  6
Continuous
 62
     7
370
    25
100
AcDbLine
 10
4577.8286019699
 20
7936.1767496192
 30
0.0
 11
4578.3756662082
 21
7936.1767496192
 31
0.0
  0
LINE
  5
115
330
1F
100
AcDbEntity
  8
0
  6
Continuous
 62
     7
370
    25
100
AcDbLine
 10
4568.3786019699
 20
7936.1767496192
 30
0.0
 11
4576.1184065058
 21
7936.1767496192
 31
0.0
  0
LINE
  5
116
330
1F
100
AcDbEntity
  8
0
  6
Continuous
 62
     7
370
    25
100
AcDbLine
 10
4557.7286019699
 20
7936.1767496192
 30
0.0
 11
4566.3999421369
 21
7936.1767496192
 31
0.0
  0
LINE
  5
117
330
1F
100
AcDbEntity
  8
0
  6
Continuous
 62
     7
370
    25
100
AcDbLine
 10
4547.0786019699
 20
7936.1767496192
 30
0.0
 11
4555.5750411013
 21
7936.1767496192
 31
0.0
  0
LINE
  5
118
330
1F
100
AcDbEntity
  8
0
  6
Continuous
 62
     7
370
    25
100
AcDbLine
 10
4536.4286019699
 20
7936.1767496192
 30
0.0
 11
4544.7918522312
 21
7936.1767496192
 31
0.0
  0
LINE
  5
119
330
1F
100
AcDbEntity
  8
0
  6
Continuous
 62
     7
370
    25
100
AcDbLine
 10
4490.8286019699
 20
7936.3281427949
 30
0.0
 11
4490.8286019699
 21
7886.1767496192
 31
0.0
  0
LINE
  5
11A
330
1F
100
AcDbEntity
  8
0
  6
Continuous
 62
     7
370
    25
100
AcDbLine
 10
4493.8286019699
 20
7886.1767496192
 30
0.0
 11
4493.8286019699
 21
7936.1767496192
 31
0.0
  0
LINE
  5
11B
330
1F
100
AcDbEntity
  8
0
  6
Continuous
 62
     7
370
    25
100
AcDbLine
 10
4493.8286019699
 20
7881.1767496192
 30
0.0
 11
4493.8286019699
 21
7886.1767496192
 31
0.0
  0
LINE
  5
11C
330
1F
100
AcDbEntity
  8
0
  6
Continuous
 62
     7
370
    25
100
AcDbLine
 10
4490.8286019699
 20
7886.1767496192
 30
0.0
 11
4490.8286019699
 21
7881.1767496192
 31
0.0
  0
LINE
  5
11D
330
1F
100
AcDbEntity
  8
0
  6
Continuous
 62
     7
370
    25
100
AcDbLine
 10
4544.0786019699
 20
7936.1767496192
 30
0.0
 11
4544.0786019699
 21
7886.1767496192
 31
0.0
  0
LINE
  5
11E
330
1F
100
AcDbEntity
  8
0
  6
Continuous
 62
     7
370
    25
100
AcDbLine
 10
4547.0786019699
 20
7886.1767496192
 30
0.0
 11
4547.0786019699
 21
7936.3854819093
 31
0.0
  0
LINE
  5
11F
330
1F
100
AcDbEntity
  8
0
  6
Continuous
 62
     7
370
    25
100
AcDbLine
 10
4547.0786019699
 20
7881.1767496192
 30
0.0
 11
4547.0786019699
 21
7886.1767496192
 31
0.0
  0
LINE
  5
120
330
1F
100
AcDbEntity
  8
0
  6
Continuous
 62
     7
370
    25
100
AcDbLine
 10
4544.0786019699
 20
7886.1767496192
 30
0.0
 11
4544.0786019699
 21
7881.1767496192
 31
0.0
  0
LINE
  5
121
330
1F
100
AcDbEntity
  8
0
  6
Continuous
 62
     7
370
    25
100
AcDbLine
 10
4480.1786019699
 20
7936.3281427949
 30
0.0
 11
4480.1786019699
 21
7886.1767496192
 31
0.0
  0
LINE
  5
122
330
1F
100
AcDbEntity
  8
0
  6
Continuous
 62
     7
370
    25
100
AcDbLine
 10
4483.1786019699
 20
7886.1767496192
 30
0.0
 11
4483.1786019699
 21
7936.1767496192
 31
0.0
  0
LINE
  5
123
330
1F
100
AcDbEntity
  8
0
  6
Continuous
 62
     7
370
    25
100
AcDbLine
 10
4483.1786019699
 20
7881.1767496192
 30
0.0
 11
4483.1786019699
 21
7886.1767496192
 31
0.0
  0
LINE
  5
124
330
1F
100
AcDbEntity
  8
0
  6
Continuous
 62
     7
370
    25
100
AcDbLine
 10
4480.1786019699
 20
7886.1767496192
 30
0.0
 11
4480.1786019699
 21
7881.1767496192
 31
0.0
  0
LINE
  5
125
330
1F
100
AcDbEntity
  8
0
  6
Continuous
 62
     7
370
    25
100
AcDbLine
 10
4469.5286019699
 20
7936.3281427949
 30
0.0
 11
4469.5286019699
 21
7886.1767496192
 31
0.0
  0
LINE
  5
126
330
1F
100
AcDbEntity
  8
0
  6
Continuous
 62
     7
370
    25
100
AcDbLine
 10
4472.5286019699
 20
7886.1767496192
 30
0.0
 11
4472.5286019699
 21
7936.1767496192
 31
0.0
  0
LINE
  5
127
330
1F
100
AcDbEntity
  8
0
  6
Continuous
 62
     7
370
    25
100
AcDbLine
 10
4472.5286019699
 20
7881.1767496192
 30
0.0
 11
4472.5286019699
 21
7886.1767496192
 31
0.0
  0
LINE
  5
128
330
1F
100
AcDbEntity
  8
0
  6
Continuous
 62
     7
370
    25
100
AcDbLine
 10
4469.5286019699
 20
7886.1767496192
 30
0.0
 11
4469.5286019699
 21
7881.1767496192
 31
0.0
  0
LINE
  5
129
330
1F
100
AcDbEntity
  8
0
  6
Continuous
 62
     7
370
    25
100
AcDbLine
 10
4554.7286019699
 20
7936.1767496192
 30
0.0
 11
4554.7286019699
 21
7886.1767496192
 31
0.0
  0
LINE
  5
12A
330
1F
100
AcDbEntity
  8
0
  6
Continuous
 62
     7
370
    25
100
AcDbLine
 10
4557.7286019699
 20
7886.1767496192
 30
0.0
 11
4557.7286019699
 21
7936.4103477307
 31
0.0
  0
LINE
  5
12B
330
1F
100
AcDbEntity
  8
0
  6
Continuous
 62
     7
370
    25
100
AcDbLine
 10
4557.7286019699
 20
7881.1767496192
 30
0.0
 11
4557.7286019699
 21
7886.1767496192
 31
0.0
  0
LINE
  5
12C
330
1F
100
AcDbEntity
  8
0
  6
Continuous
 62
     7
370
    25
100
AcDbLine
 10
4554.7286019699
 20
7886.1767496192
 30
0.0
 11
4554.7286019699
 21
7881.1767496192
 31
0.0
  0
LINE
  5
12D
330
1F
100
AcDbEntity
  8
0
  6
Continuous
 62
     7
370
    25
100
AcDbLine
 10
4458.8786019699
 20
7936.3281427949
 30
0.0
 11
4458.8786019699
 21
7886.1767496192
 31
0.0
  0
LINE
  5
12E
330
1F
100
AcDbEntity
  8
0
  6
Continuous
 62
     7
370
    25
100
AcDbLine
 10
4461.8786019699
 20
7886.1767496192
 30
0.0
 11
4461.8786019699
 21
7936.1767496192
 31
0.0
  0
LINE
  5
12F
330
1F
100
AcDbEntity
  8
0
  6
Continuous
 62
     7
370
    25
100
AcDbLine
 10
4461.8786019699
 20
7881.1767496192
 30
0.0
 11
4461.8786019699
 21
7886.1767496192
 31
0.0
  0
LINE
  5
130
330
1F
100
AcDbEntity
  8
0
  6
Continuous
 62
     7
370
    25
100
AcDbLine
 10
4458.8786019699
 20
7886.1767496192
 30
0.0
 11
4458.8786019699
 21
7881.1767496192
 31
0.0
  0
LINE
  5
131
330
1F
100
AcDbEntity
  8
0
  6
Continuous
 62
     7
370
    25
100
AcDbLine
 10
4568.3786019699
 20
7883.6767496192
 30
0.0
 11
4568.3786019699
 21
7888.6767496192
 31
0.0
  0
LINE
  5
132
330
1F
100
AcDbEntity
  8
0
  6
Continuous
 62
     7
370
    25
100
AcDbLine
 10
4565.3786019699
 20
7888.6767496192
 30
0.0
 11
4565.3786019699
 21
7883.6767496192
 31
0.0
  0
LINE
  5
133
330
1F
100
AcDbEntity
  8
0
  6
Continuous
 62
     7
370
    25
100
AcDbLine
 10
4565.3786019699
 20
7936.1767496192
 30
0.0
 11
4565.3786019699
 21
7888.6767496192
 31
0.0
  0
LINE
  5
134
330
1F
100
AcDbEntity
  8
0
  6
Continuous
 62
     7
370
    25
100
AcDbLine
 10
4568.3786019699
 20
7888.6767496192
 30
0.0
 11
4568.3786019699
 21
7936.4359624806
 31
0.0
  0
LINE
  5
135
330
1F
100
AcDbEntity
  8
0
  6
Continuous
 62
     7
370
    25
100
AcDbLine
 10
4426.9286019699
 20
7936.3281427949
 30
0.0
 11
4426.9286019699
 21
7886.1767496192
 31
0.0
  0
LINE
  5
136
330
1F
100
AcDbEntity
  8
0
  6
Continuous
 62
     7
370
    25
100
AcDbLine
 10
4429.9286019699
 20
7886.1767496192
 30
0.0
 11
4429.9286019699
 21
7936.1767496192
 31
0.0
  0
LINE
  5
137
330
1F
100
AcDbEntity
  8
0
  6
Continuous
 62
     7
370
    25
100
AcDbLine
 10
4429.9286019699
 20
7881.1767496192
 30
0.0
 11
4429.9286019699
 21
7886.1767496192
 31
0.0
  0
LINE
  5
138
330
1F
100
AcDbEntity
  8
0
  6
Continuous
 62
     7
370
    25
100
AcDbLine
 10
4426.9286019699
 20
7886.1767496192
 30
0.0
 11
4426.9286019699
 21
7881.1767496192
 31
0.0
  0
LINE
  5
139
330
1F
100
AcDbEntity
  8
0
  6
Continuous
 62
     7
370
    25
100
AcDbLine
 10
4419.2786019699
 20
7881.1767496192
 30
0.0
 11
4419.2786019699
 21
7886.1767496192
 31
0.0
  0
LINE
  5
13A
330
1F
100
AcDbEntity
  8
0
  6
Continuous
 62
     7
370
    25
100
AcDbLine
 10
4416.2786019699
 20
7886.1767496192
 30
0.0
 11
4416.2786019699
 21
7881.1767496192
 31
0.0
  0
LINE
  5
13B
330
1F
100
AcDbEntity
  8
0
  6
Continuous
 62
     7
370
    25
100
AcDbLine
 10
4416.2786019699
 20
7936.3281427949
 30
0.0
 11
4416.2786019699
 21
7886.1767496192
 31
0.0
  0
LINE
  5
13C
330
1F
100
AcDbEntity
  8
0
  6
Continuous
 62
     7
370
    25
100
AcDbLine
 10
4419.2786019699
 20
7886.1767496192
 30
0.0
 11
4419.2786019699
 21
7936.1767496192
 31
0.0
  0
LINE
  5
13D
330
1F
100
AcDbEntity
  8
0
  6
Continuous
 62
     7
370
    25
100
AcDbLine
 10
4408.6286019699
 20
7881.1767496192
 30
0.0
 11
4408.6286019699
 21
7886.1767496192
 31
0.0
  0
LINE
  5
13E
330
1F
100
AcDbEntity
  8
0
  6
Continuous
 62
     7
370
    25
100
AcDbLine
 10
4405.6286019699
 20
7886.1767496192
 30
0.0
 11
4405.6286019699
 21
7881.1767496192
 31
0.0
  0
LINE
  5
13F
330
1F
100
AcDbEntity
  8
0
  6
Continuous
 62
     7
370
    25
100
AcDbLine
 10
4405.6286019699
 20
7936.32746113
 30
0.0
 11
4405.6286019699
 21
7886.1767496192
 31
0.0
  0
LINE
  5
140
330
1F
100
AcDbEntity
  8
0
  6
Continuous
 62
     7
370
    25
100
AcDbLine
 10
4408.6286019699
 20
7886.1767496192
 30
0.0
 11
4408.6286019699
 21
7936.1767496192
 31
0.0
  0
LINE
  5
141
330
1F
100
AcDbEntity
  8
0
  6
Continuous
 62
     7
370
    25
100
AcDbLine
 10
4574.8286019699
 20
7936.1767496192
 30
0.0
 11
4574.8286019699
 21
7891.1767496192
 31
0.0
  0
LINE
  5
142
330
1F
100
AcDbEntity
  8
0
  6
Continuous
 62
     7
370
    25
100
AcDbLine
 10
4577.8286019699
 20
7891.1767496192
 30
0.0
 11
4577.8286019699
 21
7936.4566343765
 31
0.0
  0
LINE
  5
143
330
1F
100
AcDbEntity
  8
0
  6
Continuous
 62
     7
370
    25
100
AcDbLine
 10
4577.8286019699
 20
7886.1767496192
 30
0.0
 11
4577.8286019699
 21
7891.1767496192
 31
0.0
  0
LINE
  5
144
330
1F
100
AcDbEntity
  8
0
  6
Continuous
 62
     7
370
    25
100
AcDbLine
 10
4574.8286019699
 20
7891.1767496192
 30
0.0
 11
4574.8286019699
 21
7886.1767496192
 31
0.0
  0
LINE
  5
145
330
1F
100
AcDbEntity
  8
0
  6
Continuous
 62
     7
370
    25
100
AcDbLine
 10
4394.9786019699
 20
7886.1767496192
 30
0.0
 11
4394.9786019699
 21
7881.1767496192
 31
0.0
  0
LINE
  5
146
330
1F
100
AcDbEntity
  8
0
  6
Continuous
 62
     7
370
    25
100
AcDbLine
 10
4397.9786019699
 20
7881.1767496192
 30
0.0
 11
4397.9786019699
 21
7886.1767496192
 31
0.0
  0
LINE
  5
147
330
1F
100
AcDbEntity
  8
0
  6
Continuous
 62
     7
370
    25
100
AcDbLine
 10
4397.9786019699
 20
7886.1767496192
 30
0.0
 11
4397.9786019699
 21
7936.1767496192
 31
0.0
  0
LINE
  5
148
330
1F
100
AcDbEntity
  8
0
  6
Continuous
 62
     7
370
    25
100
AcDbLine
 10
4394.9786019699
 20
7936.3285655729
 30
0.0
 11
4394.9786019699
 21
7886.1767496192
 31
0.0
  0
LINE
  5
149
330
1F
100
AcDbEntity
  8
0
  6
Continuous
 62
     7
370
    25
100
AcDbLine
 10
4384.3286019699
 20
7891.1767496192
 30
0.0
 11
4384.3286019699
 21
7886.1767496192
 31
0.0
  0
LINE
  5
14A
330
1F
100
AcDbEntity
  8
0
  6
Continuous
 62
     7
370
    25
100
AcDbLine
 10
4387.3286019699
 20
7886.1767496192
 30
0.0
 11
4387.3286019699
 21
7891.1767496192
 31
0.0
  0
LINE
  5
14B
330
1F
100
AcDbEntity
  8
0
  6
Continuous
 62
     7
370
    25
100
AcDbLine
 10
4387.3286019699
 20
7891.1767496192
 30
0.0
 11
4387.3286019699
 21
7936.1767496192
 31
0.0
  0
LINE
  5
14C
330
1F
100
AcDbEntity
  8
0
  6
Continuous
 62
     7
370
    25
100
AcDbLine
 10
4384.3286019699
 20
7936.3285655729
 30
0.0
 11
4384.3286019699
 21
7891.1767496192
 31
0.0
  0
LINE
  5
14D
330
1F
100
AcDbEntity
  8
0
  6
Continuous
 62
     7
370
    25
100
AcDbLine
 10
4460.3564937757
 20
7944.1767496192
 30
0.0
 11
4460.4913061417
 21
7944.4944131939
 31
0.0
  0
LINE
  5
14E
330
1F
100
AcDbEntity
  8
0
  6
Continuous
 62
     7
370
    25
100
AcDbLine
 10
4460.4913061417
 20
7944.4944131939
 30
0.0
 11
4460.8390609259
 21
7944.1767496192
 31
0.0
  0
LWPOLYLINE
  5
14F
330
1F
100
AcDbEntity
  8
0
  6
Continuous
 62
     7
370
    25
100
AcDbPolyline
 90
        8
 70
   128
 43
0.0
 10
4458.8786019699
 20
7935.1858929645
 10
4458.6791106736
 20
7935.1768253857
 10
4457.7417082443
 20
7935.3386826354
 10
4456.8663159446
 20
7935.8276184076
 10
4456.1121148678
 20
7936.6105780895
 10
4455.5300929468
 20
7937.634629516
 10
4455.1595979044
 20
7938.8305414603
 10
4455.0256771412
 20
7940.117464027
  0
LWPOLYLINE
  5
150
330
1F
100
AcDbEntity
  8
0
  6
Continuous
 62
     7
370
    25
100
AcDbPolyline
 90
        9
 70
   128
 43
0.0
 10
4455.0256771412
 20
7940.117464027
 10
4454.9670667807
 20
7940.4992183873
 10
4454.8067526794
 20
7940.8210490993
 10
4454.5691412435
 20
7941.0339602792
 10
4454.2904067158
 20
7941.1055380801
 10
4454.0129839665
 20
7941.024885414
 10
4453.7791081593
 20
7940.804280937
 10
4453.6243848204
 20
7940.4773097326
 10
4453.5723692118
 20
7940.093750279
  0
LINE
  5
151
330
1F
100
AcDbEntity
  8
0
  6
Continuous
 62
     7
370
    25
100
AcDbLine
 10
4453.5723692118
 20
7940.093750279
 30
0.0
 11
4455.7523310953
 21
7687.1115361872
 31
0.0
  0
LWPOLYLINE
  5
152
330
1F
100
AcDbEntity
  8
0
  6
Continuous
 62
     7
370
    25
100
AcDbPolyline
 90
        7
 70
   128
 43
0.0
 10
4455.7523310953
 20
7687.1115361872
 10
4455.8889547491
 20
7685.9461849675
 10
4456.2668082071
 20
7684.8864507859
 10
4456.8529854143
 20
7684.024622519
 10
4457.5964380636
 20
7683.4357540474
 10
4458.4324212302
 20
7683.1711280519
 10
4458.658946954
 20
7683.1589636831
  0
LWPOLYLINE
  5
153
330
1F
100
AcDbEntity
  8
0
  6
Continuous
 62
     7
370
    25
100
AcDbPolyline
 90
        8
 70
   128
 43
0.0
 10
4458.8786019699
 20
7682.1681082516
 10
4458.5907464313
 20
7682.1598445236
 10
4457.6706461747
 20
7682.3474703913
 10
4456.8153104092
 20
7682.8503989695
 10
4456.0807902751
 20
7683.6356727678
 10
4455.5152197247
 20
7684.6518318875
 10
4455.1556612492
 20
7685.8322862484
 10
4455.0256771306
 20
7687.0996793132
  0
LINE
  5
154
330
1F
100
AcDbEntity
  8
0
  6
Continuous
 62
     7
370
    25
100
AcDbLine
 10
4455.0256771306
 20
7687.0996793132
 30
0.0
 11
4452.8457152366
 21
7940.0818946274
 31
0.0
  0
LWPOLYLINE
  5
155
330
1F
100
AcDbEntity
  8
0
  6
Continuous
 62
     7
370
    25
100
AcDbPolyline
 90
        9
 70
   128
 43
0.0
 10
4452.8457152366
 20
7940.0818946274
 10
4452.9497469701
 20
7940.8490127921
 10
4453.2591937733
 20
7941.5029543733
 10
4453.7269451754
 20
7941.9441626933
 10
4454.2817902656
 20
7942.1054677849
 10
4454.8392589087
 20
7941.9623124102
 10
4455.3144815573
 20
7941.5364906773
 10
4455.6351098709
 20
7940.8928300848
 10
4455.7523310953
 20
7940.1293221233
  0
LWPOLYLINE
  5
156
330
1F
100
AcDbEntity
  8
0
  6
Continuous
 62
     7
370
    25
100
AcDbPolyline
 90
        7
 70
   128
 43
0.0
 10
4455.7523310953
 20
7940.1293221233
 10
4455.8905559267
 20
7938.9570675471
 10
4456.272807459
 20
7937.8923248755
 10
4456.8653911816
 20
7937.028948495
 10
4457.6160723311
 20
7936.4430428603
 10
4458.4586802536
 20
7936.1862540785
 10
4458.658946954
 20
7936.1767496192
  0
LINE
  5
157
330
1F
100
AcDbEntity
  8
0
  6
Continuous
 62
     7
370
    25
100
AcDbLine
 10
4434.9850252683
 20
7940.0818946274
 30
0.0
 11
4452.8457152366
 21
7940.0818946274
 31
0.0
  0
LWPOLYLINE
  5
158
330
1F
100
AcDbEntity
  8
0
  6
Continuous
 62
     7
370
    25
100
AcDbPolyline
 90
        6
 70
   128
 43
0.0
 10
4434.9850252683
 20
7940.0818946274
 10
4435.0890570018
 20
7940.8490127921
 10
4435.3985038049
 20
7941.5029543733
 10
4435.866255207
 20
7941.9441626933
 10
4436.4211002973
 20
7942.1054677849
 10
4436.4383331976
 20
7942.1056083753
  0
LINE
  5
159
330
1F
100
AcDbEntity
  8
0
  6
Continuous
 62
     7
370
    25
100
AcDbLine
 10
4437.1649871623
 20
7687.0996793132
 30
0.0
 11
4455.0256771306
 21
7687.0996793132
 31
0.0
  0
LINE
  5
15A
330
1F
100
AcDbEntity
  8
0
  6
Continuous
 62
     7
370
    25
100
AcDbLine
 10
4437.1649871623
 20
7687.0996793132
 30
0.0
 11
4434.9850252683
 21
7940.0818946274
 31
0.0
  0
LWPOLYLINE
  5
15B
330
1F
100
AcDbEntity
  8
0
  6
Continuous
 62
     7
370
    25
100
AcDbPolyline
 90
       17
 70
   128
 43
0.0
 10
4445.5710125762
 20
7933.2948351648
 10
4445.4571025654
 20
7932.4051587289
 10
4445.1173815163
 20
7931.6509274655
 10
4444.6035688791
 20
7931.1469662472
 10
4443.99388797
 20
7930.9699986011
 10
4443.3811571807
 20
7931.1469662472
 10
4442.8586592194
 20
7931.6509274655
 10
4442.5059396644
 20
7932.4051587289
 10
4442.3766968704
 20
7933.2948351648
 10
4442.4906068812
 20
7934.1845116007
 10
4442.8303279303
 20
7934.9387428641
 10
4443.3441405676
 20
7935.4427040824
 10
4443.9538214767
 20
7935.6196717285
 10
4444.5665522659
 20
7935.4427040824
 10
4445.0890502272
 20
7934.9387428641
 10
4445.4417697822
 20
7934.1845116007
 10
4445.5710125762
 20
7933.2948351648
  0
LWPOLYLINE
  5
15C
330
1F
100
AcDbEntity
  8
0
  6
Continuous
 62
     7
370
    25
100
AcDbPolyline
 90
       17
 70
   128
 43
0.0
 10
4447.5776758008
 20
7700.4237426297
 10
4447.46376579
 20
7699.5340661938
 10
4447.1240447409
 20
7698.7798349304
 10
4446.6102321037
 20
7698.2758737121
 10
4446.0005511946
 20
7698.098906066
 10
4445.3878204053
 20
7698.2758737121
 10
4444.865322444
 20
7698.7798349304
 10
4444.512602889
 20
7699.5340661938
 10
4444.383360095
 20
7700.4237426297
 10
4444.4972701058
 20
7701.3134190655
 10
4444.8369911549
 20
7702.067650329
 10
4445.3508037922
 20
7702.5716115473
 10
4445.9604847013
 20
7702.7485791933
 10
4446.5732154905
 20
7702.5716115473
 10
4447.0957134518
 20
7702.067650329
 10
4447.4484330068
 20
7701.3134190655
 10
4447.5776758008
 20
7700.4237426297
  0
LINE
  5
15D
330
1F
100
AcDbEntity
  8
0
  6
Continuous
 62
     7
370
    25
100
AcDbLine
 10
4452.7631229823
 20
7944.4944131939
 30
0.0
 11
4460.4913061417
 21
7944.4944131939
 31
0.0
  0
LINE
  5
15E
330
1F
100
AcDbEntity
  8
0
  6
Continuous
 62
     7
370
    25
100
AcDbLine
 10
4450.3587993327
 20
7944.4944131939
 30
0.0
 11
4450.7065541169
 21
7944.1767496192
 31
0.0
  0
LINE
  5
15F
330
1F
100
AcDbEntity
  8
0
  6
Continuous
 62
     7
370
    25
100
AcDbLine
 10
4442.6306161734
 20
7944.4944131939
 30
0.0
 11
4450.3587993327
 21
7944.4944131939
 31
0.0
  0
LWPOLYLINE
  5
160
330
1F
100
AcDbEntity
  8
0
  6
Continuous
 62
     7
370
    25
100
AcDbPolyline
 90
        8
 70
   128
 43
0.0
 10
4440.7982569857
 20
7682.1589636831
 10
4440.7300564629
 20
7682.1598445236
 10
4439.8099562064
 20
7682.3474703913
 10
4438.9546204409
 20
7682.8503989695
 10
4438.2201003067
 20
7683.6356727678
 10
4437.6545297564
 20
7684.6518318875
 10
4437.2949712809
 20
7685.8322862484
 10
4437.1649871623
 20
7687.0996793132
  0
LWPOLYLINE
  5
161
330
1F
100
AcDbEntity
  8
0
  6
Continuous
 62
     7
370
    25
100
AcDbPolyline
 90
        7
 70
   128
 43
0.0
 10
4447.5438281822
 20
7683.1637790615
 10
4448.0124048281
 20
7683.0214399109
 10
4448.4849890657
 20
7682.8481886249
 10
4448.9666655824
 20
7682.6578754104
 10
4449.4622331306
 20
7682.4687597901
 10
4450.358593674
 20
7682.2144801114
 10
4450.9220598087
 20
7682.1819905121
  0
LWPOLYLINE
  5
162
330
1F
100
AcDbEntity
  8
0
  6
Continuous
 62
     7
370
    25
100
AcDbPolyline
 90
        7
 70
   128
 43
0.0
 10
4448.2286019699
 20
7682.2008760744
 10
4448.0222557816
 20
7682.2136483571
 10
4447.4792526142
 20
7682.4666074858
 10
4447.3270030766
 20
7682.6561547199
 10
4447.2902884377
 20
7682.8470934429
 10
4447.3642737843
 20
7683.0209658999
 10
4447.5438287272
 20
7683.1637786959
  0
LINE
  5
163
330
1F
100
AcDbEntity
  8
0
  6
Continuous
 62
     7
370
    25
100
AcDbLine
 10
4452.7631229823
 20
7944.4944131939
 30
0.0
 11
4452.6283106163
 21
7944.1767496192
 31
0.0
  0
LWPOLYLINE
  5
164
330
1F
100
AcDbEntity
  8
0
  6
Continuous
 62
     7
370
    25
100
AcDbPolyline
 90
        9
 70
   128
 43
0.0
 10
4444.3741189595
 20
7931.0370470475
 10
4444.1078111454
 20
7931.1588231212
 10
4443.5853131841
 20
7931.6627843395
 10
4443.2325936291
 20
7932.4170156029
 10
4443.1033508351
 20
7933.3066920388
 10
4443.2172608459
 20
7934.1963684746
 10
4443.556981895
 20
7934.9505997381
 10
4444.0707945322
 20
7935.4545609564
 10
4444.300244452
 20
7935.564480156
  0
LWPOLYLINE
  5
165
330
1F
100
AcDbEntity
  8
0
  6
Continuous
 62
     7
370
    25
100
AcDbPolyline
 90
        9
 70
   128
 43
0.0
 10
4446.380782184
 20
7698.1659545124
 10
4446.11447437
 20
7698.287730586
 10
4445.5919764087
 20
7698.7916918043
 10
4445.2392568537
 20
7699.5459230678
 10
4445.1100140597
 20
7700.4355995036
 10
4445.2239240705
 20
7701.3252759395
 10
4445.5636451196
 20
7702.079507203
 10
4446.0774577568
 20
7702.5834684212
 10
4446.3069076765
 20
7702.6933876209
  0
LINE
  5
166
330
1F
100
AcDbEntity
  8
0
  6
Continuous
 62
     7
370
    25
100
AcDbLine
 10
4450.2239869667
 20
7944.1767496192
 30
0.0
 11
4450.3587993327
 21
7944.4944131939
 31
0.0
  0
LINE
  5
167
330
1F
100
AcDbEntity
  8
0
  6
Continuous
 62
     7
370
    25
100
AcDbLine
 10
4442.4958038073
 20
7944.1767496192
 30
0.0
 11
4442.6306161734
 21
7944.4944131939
 31
0.0
  0
LINE
  5
168
330
1F
100
AcDbEntity
  8
0
  6
Continuous
 62
     7
370
    25
100
AcDbLine
 10
4399.8958038073
 20
7944.1767496192
 30
0.0
 11
4400.0306161734
 21
7944.4944131939
 31
0.0
  0
LINE
  5
169
330
1F
100
AcDbEntity
  8
0
  6
Continuous
 62
     7
370
    25
100
AcDbLine
 10
4400.0306161734
 20
7944.4944131939
 30
0.0
 11
4400.3783709575
 21
7944.1767496192
 31
0.0
  0
ARC
  5
16A
330
1F
100
AcDbEntity
  8
0
  6
Continuous
 62
     7
370
    25
100
AcDbCircle
 10
4398.147221402
 20
7938.1789612803
 30
0.0
 40
2.997814277965976
100
AcDbArc
 50
266.7755562963
 51
318.0955397859
  0
LINE
  5
16B
330
1F
100
AcDbEntity
  8
0
  6
Continuous
 62
     7
370
    25
100
AcDbLine
 10
4393.1454322572
 20
7936.1767496192
 30
0.0
 11
4395.256764218
 21
7691.1589636831
 31
0.0
  0
ARC
  5
16C
330
1F
100
AcDbEntity
  8
0
  6
Continuous
 62
     7
370
    25
100
AcDbCircle
 10
4398.1541925264
 20
7685.1442928546
 30
0.0
 40
2.981359896860114
100
AcDbArc
 50
266.623546453
 51
318.2475199263
  0
LINE
  5
16D
330
1F
100
AcDbEntity
  8
0
  6
Continuous
 62
     7
370
    25
100
AcDbLine
 10
4394.5300080819
 20
7691.1589636831
 30
0.0
 11
4392.4186761212
 21
7936.1767496192
 31
0.0
  0
LINE
  5
16E
330
1F
100
AcDbEntity
  8
0
  6
Continuous
 62
     7
370
    25
100
AcDbLine
 10
4416.2786019699
 20
7682.1681082516
 30
0.0
 11
4416.058946954
 21
7682.1589636831
 31
0.0
  0
ARC
  5
16F
330
1F
100
AcDbEntity
  8
0
  6
Continuous
 62
     7
370
    25
100
AcDbCircle
 10
4408.1568556316
 20
7685.3723301559
 30
0.0
 40
3.23116339435645
100
AcDbArc
 50
278.3951282114
 51
316.7639170718
  0
LINE
  5
170
330
1F
100
AcDbEntity
  8
0
  6
Continuous
 62
     7
370
    25
100
AcDbLine
 10
4417.8913061417
 20
7944.4944131939
 30
0.0
 11
4418.2390609259
 21
7944.1767496192
 31
0.0
  0
LWPOLYLINE
  5
171
330
1F
100
AcDbEntity
  8
0
  6
Continuous
 62
     7
370
    25
100
AcDbPolyline
 90
        3
 70
   128
 43
0.0
 10
4416.2786019699
 20
7935.1858929645
 10
4416.0791106736
 20
7935.1768253857
 10
4416.0589469646
 20
7935.1767483968
  0
LINE
  5
172
330
1F
100
AcDbEntity
  8
0
  6
Continuous
 62
     7
370
    25
100
AcDbLine
 10
4407.7587993327
 20
7944.4944131939
 30
0.0
 11
4400.0306161734
 21
7944.4944131939
 31
0.0
  0
LINE
  5
173
330
1F
100
AcDbEntity
  8
0
  6
Continuous
 62
     7
370
    25
100
AcDbLine
 10
4408.1065541169
 20
7944.1767496192
 30
0.0
 11
4407.7587993327
 21
7944.4944131939
 31
0.0
  0
LINE
  5
174
330
1F
100
AcDbEntity
  8
0
  6
Continuous
 62
     7
370
    25
100
AcDbLine
 10
4410.1631229823
 20
7944.4944131939
 30
0.0
 11
4410.5108777665
 21
7944.1767496192
 31
0.0
  0
ARC
  5
175
330
1F
100
AcDbEntity
  8
0
  6
Continuous
 62
     7
370
    25
100
AcDbCircle
 10
4408.2056609909
 20
7938.2966776698
 30
0.0
 40
3.131793454765665
100
AcDbArc
 50
277.7613684825
 51
317.3977054694
  0
LINE
  5
176
330
1F
100
AcDbEntity
  8
0
  6
Continuous
 62
     7
370
    25
100
AcDbLine
 10
4417.8913061417
 20
7944.4944131939
 30
0.0
 11
4410.1631229823
 21
7944.4944131939
 31
0.0
  0
LINE
  5
177
330
1F
100
AcDbEntity
  8
0
  6
Continuous
 62
     7
370
    25
100
AcDbLine
 10
4411.014739292
 20
7935.1767483968
 30
0.0
 11
4413.1174541863
 21
7691.1589636831
 31
0.0
  0
LWPOLYLINE
  5
178
330
1F
100
AcDbEntity
  8
0
  6
Continuous
 62
     7
370
    25
100
AcDbPolyline
 90
       12
 70
   128
 43
0.0
 10
4400.5033508351
 20
7933.3066920388
 10
4400.6325936291
 20
7932.4170156029
 10
4400.9853131841
 20
7931.6627843395
 10
4401.5078111454
 20
7931.1588231212
 10
4402.1205419346
 20
7930.9818554751
 10
4402.7302228437
 20
7931.1588231212
 10
4403.244035481
 20
7931.6627843395
 10
4403.5837565301
 20
7932.4170156029
 10
4403.6976665409
 20
7933.3066920388
 10
4403.5684237469
 20
7934.1963684746
 10
4403.2157041919
 20
7934.9505997381
 10
4403.0332859698
 20
7935.1767483968
  0
ARC
  5
179
330
1F
100
AcDbEntity
  8
0
  6
Continuous
 62
     7
370
    25
100
AcDbCircle
 10
4403.1743966877
 20
7933.4456487464
 30
0.0
 40
2.674657905913985
100
AcDbArc
 50
139.6674593068
 51
182.9780327397
  0
LWPOLYLINE
  5
17A
330
1F
100
AcDbEntity
  8
0
  6
Continuous
 62
     7
370
    25
100
AcDbPolyline
 90
       17
 70
   128
 43
0.0
 10
4402.5100140597
 20
7700.4355995036
 10
4402.6392568537
 20
7699.5459230678
 10
4402.9919764087
 20
7698.7916918043
 10
4403.51447437
 20
7698.287730586
 10
4404.1272051592
 20
7698.11076294
 10
4404.7368860683
 20
7698.287730586
 10
4405.2506987056
 20
7698.7916918043
 10
4405.5904197547
 20
7699.5459230678
 10
4405.7043297655
 20
7700.4355995036
 10
4405.5750869715
 20
7701.3252759395
 10
4405.2223674165
 20
7702.079507203
 10
4404.6998694552
 20
7702.5834684212
 10
4404.0871386659
 20
7702.7604360673
 10
4403.4774577568
 20
7702.5834684212
 10
4402.9636451196
 20
7702.079507203
 10
4402.6239240705
 20
7701.3252759395
 10
4402.5100140597
 20
7700.4355995036
  0
LINE
  5
17B
330
1F
100
AcDbEntity
  8
0
  6
Continuous
 62
     7
370
    25
100
AcDbLine
 10
4410.0283106163
 20
7944.1767496192
 30
0.0
 11
4410.1631229823
 21
7944.4944131939
 31
0.0
  0
LWPOLYLINE
  5
17C
330
1F
100
AcDbEntity
  8
0
  6
Continuous
 62
     7
370
    25
100
AcDbPolyline
 90
        9
 70
   128
 43
0.0
 10
4403.780782184
 20
7698.1659545124
 10
4404.0102321037
 20
7698.2758737121
 10
4404.5240447409
 20
7698.7798349304
 10
4404.86376579
 20
7699.5340661938
 10
4404.9776758008
 20
7700.4237426297
 10
4404.8484330068
 20
7701.3134190655
 10
4404.4957134518
 20
7702.067650329
 10
4403.9732154905
 20
7702.5716115473
 10
4403.7069076765
 20
7702.6933876209
  0
ARC
  5
17D
330
1F
100
AcDbEntity
  8
0
  6
Continuous
 62
     7
370
    25
100
AcDbCircle
 10
4400.3171280499
 20
7933.3231864561
 30
0.0
 40
2.71095110717897
100
AcDbArc
 50
302.5099727494
 51
43.135907262
  0
LINE
  5
17E
330
1F
100
AcDbEntity
  8
0
  6
Continuous
 62
     7
370
    25
100
AcDbLine
 10
4494.6584954144
 20
7944.4464270892
 30
0.0
 11
4494.9518352609
 21
7944.1767496192
 31
0.0
  0
LWPOLYLINE
  5
17F
330
1F
100
AcDbEntity
  8
0
  6
Continuous
 62
     7
370
    25
100
AcDbPolyline
 90
        3
 70
   128
 43
0.0
 10
4494.9863063251
 20
7936.1767496192
 10
4494.579295681
 20
7935.8079629269
 10
4493.8286019699
 20
7935.3679588269
  0
LINE
  5
180
330
1F
100
AcDbEntity
  8
0
  6
Continuous
 62
     7
370
    25
100
AcDbLine
 10
4476.797805446
 20
7944.4464270892
 30
0.0
 11
4477.0911452926
 21
7944.1767496192
 31
0.0
  0
ARC
  5
181
330
1F
100
AcDbEntity
  8
0
  6
Continuous
 62
     7
370
    25
100
AcDbCircle
 10
4474.9283721314
 20
7938.1441773849
 30
0.0
 40
2.949348097337565
100
AcDbArc
 50
221.8414866376
 51
318.1585133624
  0
LINE
  5
182
330
1F
100
AcDbEntity
  8
0
  6
Continuous
 62
     7
370
    25
100
AcDbLine
 10
4484.5259886054
 20
7944.4464270892
 30
0.0
 11
4476.797805446
 21
7944.4464270892
 31
0.0
  0
ARC
  5
183
330
1F
100
AcDbEntity
  8
0
  6
Continuous
 62
     7
370
    25
100
AcDbCircle
 10
4482.5064510839
 20
7938.3121786701
 30
0.0
 40
3.173342385252127
100
AcDbArc
 50
282.2285407106
 51
317.7065927494
  0
LINE
  5
184
330
1F
100
AcDbEntity
  8
0
  6
Continuous
 62
     7
370
    25
100
AcDbLine
 10
4484.8193284519
 20
7944.1767496192
 30
0.0
 11
4484.5259886054
 21
7944.4464270892
 31
0.0
  0
LWPOLYLINE
  5
185
330
1F
100
AcDbEntity
  8
0
  6
Continuous
 62
     7
370
    25
100
AcDbPolyline
 90
        3
 70
   128
 43
0.0
 10
4484.8792026782
 20
7935.1652163718
 10
4484.0700821542
 20
7935.3355853514
 10
4483.815930745
 20
7935.4447119571
  0
LINE
  5
186
330
1F
100
AcDbEntity
  8
0
  6
Continuous
 62
     7
370
    25
100
AcDbLine
 10
4486.930312255
 20
7944.4464270892
 30
0.0
 11
4487.2236521015
 21
7944.1767496192
 31
0.0
  0
ARC
  5
187
330
1F
100
AcDbEntity
  8
0
  6
Continuous
 62
     7
370
    25
100
AcDbCircle
 10
4484.9895695311
 20
7938.2087912011
 30
0.0
 40
3.045575246826671
100
AcDbArc
 50
267.9232364278
 51
318.147821359
  0
LINE
  5
188
330
1F
100
AcDbEntity
  8
0
  6
Continuous
 62
     7
370
    25
100
AcDbLine
 10
4494.6584954144
 20
7944.4464270892
 30
0.0
 11
4486.930312255
 21
7944.4464270892
 31
0.0
  0
LINE
  5
189
330
1F
100
AcDbEntity
  8
0
  6
Continuous
 62
     7
370
    25
100
AcDbLine
 10
4476.680219691
 20
7944.1767496192
 30
0.0
 11
4476.797805446
 21
7944.4464270892
 31
0.0
  0
LINE
  5
18A
330
1F
100
AcDbEntity
  8
0
  6
Continuous
 62
     7
370
    25
100
AcDbLine
 10
4469.8414367915
 20
7880.259886031
 30
0.0
 11
4469.8414367915
 21
7691.1589636831
 31
0.0
  0
ARC
  5
18B
330
1F
100
AcDbEntity
  8
0
  6
Continuous
 62
     7
370
    25
100
AcDbCircle
 10
4472.7068976894
 20
7685.1377411728
 30
0.0
 40
2.97498051250988
100
AcDbArc
 50
266.5641060458
 51
318.3069603334
  0
LINE
  5
18C
330
1F
100
AcDbEntity
  8
0
  6
Continuous
 62
     7
370
    25
100
AcDbLine
 10
4469.1147317429
 20
7691.1589636831
 30
0.0
 11
4469.1147317429
 21
7936.1767496192
 31
0.0
  0
LWPOLYLINE
  5
18D
330
1F
100
AcDbEntity
  8
0
  6
Continuous
 62
     7
370
    25
100
AcDbPolyline
 90
        3
 70
   128
 43
0.0
 10
4474.6545565069
 20
7936.1767496192
 10
4474.6937356027
 20
7936.172016194
 10
4475.2021877558
 20
7936.1767496192
  0
LINE
  5
18E
330
1F
100
AcDbEntity
  8
0
  6
Continuous
 62
     7
370
    25
100
AcDbLine
 10
4484.8792026782
 20
7936.1667838274
 30
0.0
 11
4485.3346945648
 21
7936.1767496192
 31
0.0
  0
LINE
  5
18F
330
1F
100
AcDbEntity
  8
0
  6
Continuous
 62
     7
370
    25
100
AcDbLine
 10
4490.8286019699
 20
7682.1681082516
 30
0.0
 11
4490.608946954
 21
7682.1589636831
 31
0.0
  0
ARC
  5
190
330
1F
100
AcDbEntity
  8
0
  6
Continuous
 62
     7
370
    25
100
AcDbCircle
 10
4482.7118784415
 20
7685.3627140376
 30
0.0
 40
3.220918963324905
100
AcDbArc
 50
278.3317108577
 51
316.8273344256
  0
LINE
  5
191
330
1F
100
AcDbEntity
  8
0
  6
Continuous
 62
     7
370
    25
100
AcDbLine
 10
4487.7021267598
 20
7935.1589624607
 30
0.0
 11
4487.7021267598
 21
7691.1589636831
 31
0.0
  0
LWPOLYLINE
  5
192
330
1F
100
AcDbEntity
  8
0
  6
Continuous
 62
     7
370
    25
100
AcDbPolyline
 90
        8
 70
   128
 43
0.0
 10
4477.1746239227
 20
7933.3714270892
 10
4477.2962003251
 20
7932.481688109
 10
4477.6424206272
 20
7931.727403823
 10
4478.1605759265
 20
7931.2234071761
 10
4478.7717817756
 20
7931.0464270892
 10
4479.3829876248
 20
7931.2234071761
 10
4479.9011429241
 20
7931.727403823
 10
4480.1786019699
 20
7932.2706842857
  0
LWPOLYLINE
  5
193
330
1F
100
AcDbEntity
  8
0
  6
Continuous
 62
     7
370
    25
100
AcDbPolyline
 90
        3
 70
   128
 43
0.0
 10
4480.1786019699
 20
7934.4721698927
 10
4479.9011429241
 20
7935.0154503555
 10
4479.7930848777
 20
7935.1589624607
  0
ARC
  5
194
330
1F
100
AcDbEntity
  8
0
  6
Continuous
 62
     7
370
    25
100
AcDbCircle
 10
4479.9145714614
 20
7933.4752761626
 30
0.0
 40
2.741914868227382
100
AcDbArc
 50
142.1167193008
 51
182.170576906
  0
LWPOLYLINE
  5
195
330
1F
100
AcDbEntity
  8
0
  6
Continuous
 62
     7
370
    25
100
AcDbPolyline
 90
       17
 70
   128
 43
0.0
 10
4477.1746239227
 20
7700.4839636831
 10
4477.2962003251
 20
7699.5942247028
 10
4477.6424206272
 20
7698.8399404168
 10
4478.1605759265
 20
7698.33594377
 10
4478.7717817756
 20
7698.1589636831
 10
4479.3829876248
 20
7698.33594377
 10
4479.9011429241
 20
7698.8399404168
 10
4480.2473632262
 20
7699.5942247028
 10
4480.3689396286
 20
7700.4839636831
 10
4480.2473632262
 20
7701.3737026633
 10
4479.9011429241
 20
7702.1279869493
 10
4479.3829876248
 20
7702.6319835962
 10
4478.7717817756
 20
7702.8089636831
 10
4478.1605759265
 20
7702.6319835962
 10
4477.6424206272
 20
7702.1279869493
 10
4477.2962003251
 20
7701.3737026633
 10
4477.1746239227
 20
7700.4839636831
  0
LINE
  5
196
330
1F
100
AcDbEntity
  8
0
  6
Continuous
 62
     7
370
    25
100
AcDbLine
 10
4486.8127265
 20
7944.1767496192
 30
0.0
 11
4486.930312255
 21
7944.4464270892
 31
0.0
  0
LINE
  5
197
330
1F
100
AcDbEntity
  8
0
  6
Continuous
 62
     7
370
    25
100
AcDbLine
 10
4484.8792026782
 20
7936.1667838274
 30
0.0
 11
4484.8792026782
 21
7935.1652163718
 31
0.0
  0
ARC
  5
198
330
1F
100
AcDbEntity
  8
0
  6
Continuous
 62
     7
370
    25
100
AcDbCircle
 10
4476.9765685151
 20
7933.4191267963
 30
0.0
 40
2.719253476143245
100
AcDbArc
 50
301.7735845359
 51
39.7784783139
  0
LWPOLYLINE
  5
199
330
1F
100
AcDbEntity
  8
0
  6
Continuous
 62
     7
370
    25
100
AcDbPolyline
 90
        9
 70
   128
 43
0.0
 10
4478.4084292514
 20
7698.2199293442
 10
4478.6562825763
 20
7698.33594377
 10
4479.1744378755
 20
7698.8399404168
 10
4479.5206581776
 20
7699.5942247028
 10
4479.64223458
 20
7700.4839636831
 10
4479.5206581776
 20
7701.3737026633
 10
4479.1744378755
 20
7702.1279869493
 10
4478.6562825763
 20
7702.6319835962
 10
4478.4084292514
 20
7702.7479980219
  0
LWPOLYLINE
  5
19A
330
1F
100
AcDbEntity
  8
0
  6
Continuous
 62
     7
370
    25
100
AcDbPolyline
 90
        9
 70
   128
 43
0.0
 10
4533.8282672524
 20
7683.169607098
 10
4533.9513207151
 20
7683.1590831963
 10
4534.356369861
 20
7683.1898305143
 10
4534.8162072345
 20
7683.2630288263
 10
4535.3098502783
 20
7683.3562102983
 10
4535.7785909031
 20
7683.4307894344
 10
4536.1381519595
 20
7683.44956625
 10
4536.3541226366
 20
7683.410795597
 10
4536.428437137
 20
7683.3323252924
  0
LWPOLYLINE
  5
19B
330
1F
100
AcDbEntity
  8
0
  6
Continuous
 62
     7
370
    25
100
AcDbPolyline
 90
       12
 70
   128
 43
0.0
 10
4512.147787462
 20
7683.1697487306
 10
4512.1444969113
 20
7683.1778744444
 10
4512.2848721645
 20
7683.2424890431
 10
4512.5706900635
 20
7683.3337014347
 10
4512.9910970226
 20
7683.4169637466
 10
4513.4805294131
 20
7683.4508267914
 10
4513.9573792596
 20
7683.424521645
 10
4514.3942822288
 20
7683.3536456949
 10
4514.7713852226
 20
7683.2608502295
 10
4515.0327402397
 20
7683.1836930451
 10
4515.1282281766
 20
7683.1593096618
 10
4515.1203176149
 20
7683.1634319985
  0
LWPOLYLINE
  5
19C
330
1F
100
AcDbEntity
  8
0
  6
Continuous
 62
     7
370
    25
100
AcDbPolyline
 90
       10
 70
   128
 43
0.0
 10
4501.497141107
 20
7683.2434560424
 10
4501.4925684544
 20
7683.2769707434
 10
4501.6422384784
 20
7683.3702128223
 10
4501.9521276636
 20
7683.4378852849
 10
4502.3649949765
 20
7683.4469259796
 10
4502.8189915814
 20
7683.400684565
 10
4503.295264873
 20
7683.3177587404
 10
4503.7635948252
 20
7683.2258469812
 10
4504.1495835858
 20
7683.166612173
 10
4504.3218219916
 20
7683.1664746017
  0
ARC
  5
19D
330
1F
100
AcDbEntity
  8
0
  6
Continuous
 62
     7
370
    25
100
AcDbCircle
 10
4524.3624952962
 20
7678.2533018543
 30
0.0
 40
5.141702954548312
100
AcDbArc
 50
74.0795198809
 51
107.2545502197
  0
ARC
  5
19E
330
1F
100
AcDbEntity
  8
0
  6
Continuous
 62
     7
370
    25
100
AcDbCircle
 10
4513.6286019699
 20
7628.1589636831
 30
0.0
 40
1.5
100
AcDbArc
 50
180.0
 51
0.0
  0
ARC
  5
19F
330
1F
100
AcDbEntity
  8
0
  6
Continuous
 62
     7
370
    25
100
AcDbCircle
 10
4524.2786019699
 20
7628.1589636831
 30
0.0
 40
1.500000000000909
100
AcDbArc
 50
180.0
 51
0.0
  0
ARC
  5
1A0
330
1F
100
AcDbEntity
  8
0
  6
Continuous
 62
     7
370
    25
100
AcDbCircle
 10
4502.9786019699
 20
7628.1589636831
 30
0.0
 40
1.5
100
AcDbArc
 50
180.0
 51
0.0
  0
LWPOLYLINE
  5
1A1
330
1F
100
AcDbEntity
  8
0
  6
Continuous
 62
     7
370
    25
100
AcDbPolyline
 90
        9
 70
   128
 43
0.0
 10
4490.8286019699
 20
7683.3103568588
 10
4490.9113052474
 20
7683.3999386977
 10
4491.1544591243
 20
7683.4486485968
 10
4491.5111991243
 20
7683.4341497897
 10
4491.9356053073
 20
7683.369301209
 10
4492.4192506369
 20
7683.2765322706
 10
4492.9193732833
 20
7683.1926231018
 10
4493.3449115451
 20
7683.1590102718
 10
4493.3569376769
 20
7683.1600585294
  0
LWPOLYLINE
  5
1A2
330
1F
100
AcDbEntity
  8
0
  6
Continuous
 62
     7
370
    25
100
AcDbPolyline
 90
        9
 70
   128
 43
0.0
 10
4469.5286019699
 20
7683.3103568588
 10
4469.6113052474
 20
7683.3999386977
 10
4469.8544591243
 20
7683.4486485968
 10
4470.2111991243
 20
7683.4341497897
 10
4470.6356053073
 20
7683.369301209
 10
4471.1192506369
 20
7683.2765322706
 10
4471.6193732833
 20
7683.1926231018
 10
4472.0449115451
 20
7683.1590102718
 10
4472.0569376769
 20
7683.1600585294
  0
LWPOLYLINE
  5
1A3
330
1F
100
AcDbEntity
  8
0
  6
Continuous
 62
     7
370
    25
100
AcDbPolyline
 90
        9
 70
   128
 43
0.0
 10
4426.9286019699
 20
7683.3103568588
 10
4427.0113052474
 20
7683.3999386977
 10
4427.2544591243
 20
7683.4486485968
 10
4427.6111991243
 20
7683.4341497897
 10
4428.0356053073
 20
7683.369301209
 10
4428.5192506369
 20
7683.2765322706
 10
4429.0193732833
 20
7683.1926231018
 10
4429.4449115451
 20
7683.1590102718
 10
4429.4569376769
 20
7683.1600585294
  0
ARC
  5
1A4
330
1F
100
AcDbEntity
  8
0
  6
Continuous
 62
     7
370
    25
100
AcDbCircle
 10
4408.1484933754
 20
7687.2531297241
 30
0.0
 40
4.088419590005232
100
AcDbArc
 50
255.5545230677
 51
269.9970942435
  0
ARC
  5
1A5
330
1F
100
AcDbEntity
  8
0
  6
Continuous
 62
     7
370
    25
100
AcDbCircle
 10
4406.3679538596
 20
7681.3988982757
 30
0.0
 40
2.042023064175819
100
AcDbArc
 50
68.1302841055
 51
110.6540201709
  0
LWPOLYLINE
  5
1A6
330
1F
100
AcDbEntity
  8
0
  6
Continuous
 62
     7
370
    25
100
AcDbPolyline
 90
        9
 70
   128
 43
0.0
 10
4397.5007208272
 20
7683.1635089412
 10
4397.1945330804
 20
7683.1775554132
 10
4396.7518731488
 20
7683.2427871537
 10
4396.2642582191
 20
7683.3356234847
 10
4395.775923528
 20
7683.4198815593
 10
4395.3746985724
 20
7683.4508088691
 10
4395.1132532911
 20
7683.419081768
 10
4394.9882884268
 20
7683.3431855438
 10
4394.9971664833
 20
7683.3107796368
  0
LWPOLYLINE
  5
1A7
330
1F
100
AcDbEntity
  8
0
  6
Continuous
 62
     7
370
    25
100
AcDbPolyline
 90
        9
 70
   128
 43
0.0
 10
4386.8507208272
 20
7683.1635089412
 10
4386.5445330804
 20
7683.1775554132
 10
4386.1018731488
 20
7683.2427871537
 10
4385.6142582191
 20
7683.3356234847
 10
4385.125923528
 20
7683.4198815593
 10
4384.7246985724
 20
7683.4508088691
 10
4384.4632532911
 20
7683.419081768
 10
4384.3382884268
 20
7683.3431855438
 10
4384.3471664833
 20
7683.3107796368
  0
LWPOLYLINE
  5
1A8
330
1F
100
AcDbEntity
  8
0
  6
Continuous
 62
     7
370
    25
100
AcDbPolyline
 90
       13
 70
   128
 43
0.0
 10
4382.8286019699
 20
7683.1589636831
 10
4382.414918324
 20
7683.1996779155
 10
4381.6210652211
 20
7683.5204357017
 10
4380.925039564
 20
7684.1359653857
 10
4380.3832292122
 20
7684.9964004133
 10
4380.039528418
 20
7686.0320334557
 10
4379.9217817756
 20
7687.1589636831
 10
4380.039528418
 20
7688.2858939104
 10
4380.3832292122
 20
7689.3215269529
 10
4380.925039564
 20
7690.1819619805
 10
4381.6210652211
 20
7690.7974916645
 10
4382.414918324
 20
7691.1182494506
 10
4382.8286019699
 20
7691.1589636831
  0
LWPOLYLINE
  5
1A9
330
1F
100
AcDbEntity
  8
0
  6
Continuous
 62
     7
370
    25
100
AcDbPolyline
 90
        9
 70
   128
 43
0.0
 10
4416.2786019699
 20
7683.3103568588
 10
4416.3613052474
 20
7683.3999386977
 10
4416.6044591243
 20
7683.4486485968
 10
4416.9611991243
 20
7683.4341497897
 10
4417.3856053073
 20
7683.369301209
 10
4417.8692506369
 20
7683.2765322706
 10
4418.3693732833
 20
7683.1926231018
 10
4418.7949115451
 20
7683.1590102718
 10
4418.8069376769
 20
7683.1600585294
  0
LWPOLYLINE
  5
1AA
330
1F
100
AcDbEntity
  8
0
  6
Continuous
 62
     7
370
    25
100
AcDbPolyline
 90
        5
 70
   128
 43
0.0
 10
4437.5786019699
 20
7683.3103568588
 10
4437.6613052474
 20
7683.3999386977
 10
4437.9044591243
 20
7683.4486485968
 10
4438.2611991243
 20
7683.4341497897
 10
4438.5174232279
 20
7683.3949991596
  0
LWPOLYLINE
  5
1AB
330
1F
100
AcDbEntity
  8
0
  6
Continuous
 62
     7
370
    25
100
AcDbPolyline
 90
        9
 70
   128
 43
0.0
 10
4458.8786019699
 20
7683.3103568588
 10
4458.9613052474
 20
7683.3999386977
 10
4459.2044591243
 20
7683.4486485968
 10
4459.5611991243
 20
7683.4341497897
 10
4459.9856053073
 20
7683.369301209
 10
4460.4692506369
 20
7683.2765322706
 10
4460.9693732833
 20
7683.1926231018
 10
4461.3949115451
 20
7683.1590102718
 10
4461.4069376769
 20
7683.1600585294
  0
LWPOLYLINE
  5
1AC
330
1F
100
AcDbEntity
  8
0
  6
Continuous
 62
     7
370
    25
100
AcDbPolyline
 90
        9
 70
   128
 43
0.0
 10
4480.1786019699
 20
7683.3103568588
 10
4480.2613052474
 20
7683.3999386977
 10
4480.5044591243
 20
7683.4486485968
 10
4480.8611991243
 20
7683.4341497897
 10
4481.2856053073
 20
7683.369301209
 10
4481.7692506369
 20
7683.2765322706
 10
4482.2693732833
 20
7683.1926231018
 10
4482.6949115451
 20
7683.1590102718
 10
4482.7069376769
 20
7683.1600585294
  0
ARC
  5
1AD
330
1F
100
AcDbEntity
  8
0
  6
Continuous
 62
     7
370
    25
100
AcDbCircle
 10
4534.9286019699
 20
7628.1589636831
 30
0.0
 40
1.5
100
AcDbArc
 50
180.0
 51
0.0
  0
LWPOLYLINE
  5
1AE
330
1F
100
AcDbEntity
  8
0
  6
Continuous
 62
     7
370
    25
100
AcDbPolyline
 90
        8
 70
   128
 43
0.0
 10
4544.6559412084
 20
7683.1656810592
 10
4545.0175288942
 20
7683.1676108592
 10
4545.4752556345
 20
7683.2218032111
 10
4545.9540902488
 20
7683.3097762012
 10
4546.4175930767
 20
7683.4008295574
 10
4546.7876078361
 20
7683.4490685026
 10
4547.0067088801
 20
7683.4331362478
 10
4547.078433809
 20
7683.3676959732
  0
LWPOLYLINE
  5
1AF
330
1F
100
AcDbEntity
  8
0
  6
Continuous
 62
     7
370
    25
100
AcDbPolyline
 90
        8
 70
   128
 43
0.0
 10
4555.4737883425
 20
7683.1682948817
 10
4555.6739767558
 20
7683.1607491187
 10
4556.1351369323
 20
7683.2010081204
 10
4556.6074588011
 20
7683.2811635806
 10
4557.063790573
 20
7683.3758025752
 10
4557.436853693
 20
7683.4413008848
 10
4557.659591561
 20
7683.4440927614
 10
4557.7269226318
 20
7683.3925617946
  0
ARC
  5
1B0
330
1F
100
AcDbEntity
  8
0
  6
Continuous
 62
     7
370
    25
100
AcDbCircle
 10
4581.2605359271
 20
7565.3044434205
 30
0.0
 40
118.8146830509438
100
AcDbArc
 50
96.2267268228
 51
97.2579004637
  0
LWPOLYLINE
  5
1B1
330
1F
100
AcDbEntity
  8
0
  6
Continuous
 62
     7
370
    25
100
AcDbPolyline
 90
        7
 70
   128
 43
0.0
 10
4576.0573752461
 20
7683.1599638685
 10
4576.5287927416
 20
7683.1796739049
 10
4576.9789289994
 20
7683.2466067559
 10
4577.3792511793
 20
7683.3398206915
 10
4577.6791286001
 20
7683.4224041866
 10
4577.8192798818
 20
7683.4506651652
 10
4577.811522692
 20
7683.4388484404
  0
ARC
  5
1B2
330
1F
100
AcDbEntity
  8
0
  6
Continuous
 62
     7
370
    25
100
AcDbCircle
 10
4492.3286019699
 20
7628.1589636831
 30
0.0
 40
1.5
100
AcDbArc
 50
180.0
 51
0.0
  0
ARC
  5
1B3
330
1F
100
AcDbEntity
  8
0
  6
Continuous
 62
     7
370
    25
100
AcDbCircle
 10
4545.5786019699
 20
7628.1589636831
 30
0.0
 40
1.5
100
AcDbArc
 50
180.0
 51
0.0
  0
ARC
  5
1B4
330
1F
100
AcDbEntity
  8
0
  6
Continuous
 62
     7
370
    25
100
AcDbCircle
 10
4481.6786019699
 20
7628.1589636831
 30
0.0
 40
1.5
100
AcDbArc
 50
180.0
 51
0.0
  0
ARC
  5
1B5
330
1F
100
AcDbEntity
  8
0
  6
Continuous
 62
     7
370
    25
100
AcDbCircle
 10
4471.0286019699
 20
7628.1589636831
 30
0.0
 40
1.5
100
AcDbArc
 50
180.0
 51
0.0
  0
ARC
  5
1B6
330
1F
100
AcDbEntity
  8
0
  6
Continuous
 62
     7
370
    25
100
AcDbCircle
 10
4556.2286019699
 20
7628.1589636831
 30
0.0
 40
1.5
100
AcDbArc
 50
180.0
 51
0.0
  0
ARC
  5
1B7
330
1F
100
AcDbEntity
  8
0
  6
Continuous
 62
     7
370
    25
100
AcDbCircle
 10
4460.3786019699
 20
7628.1589636831
 30
0.0
 40
1.5
100
AcDbArc
 50
180.0
 51
0.0
  0
ARC
  5
1B8
330
1F
100
AcDbEntity
  8
0
  6
Continuous
 62
     7
370
    25
100
AcDbCircle
 10
4449.7286019699
 20
7628.1589636831
 30
0.0
 40
1.5
100
AcDbArc
 50
180.0
 51
0.0
  0
ARC
  5
1B9
330
1F
100
AcDbEntity
  8
0
  6
Continuous
 62
     7
370
    25
100
AcDbCircle
 10
4566.8786019699
 20
7630.6589636831
 30
0.0
 40
1.5
100
AcDbArc
 50
180.0
 51
0.0
  0
ARC
  5
1BA
330
1F
100
AcDbEntity
  8
0
  6
Continuous
 62
     7
370
    25
100
AcDbCircle
 10
4439.0786019699
 20
7628.1589636831
 30
0.0
 40
1.5
100
AcDbArc
 50
180.0
 51
0.0
  0
ARC
  5
1BB
330
1F
100
AcDbEntity
  8
0
  6
Continuous
 62
     7
370
    25
100
AcDbCircle
 10
4428.4286019699
 20
7628.1589636831
 30
0.0
 40
1.500000000000909
100
AcDbArc
 50
180.0
 51
0.0
  0
ARC
  5
1BC
330
1F
100
AcDbEntity
  8
0
  6
Continuous
 62
     7
370
    25
100
AcDbCircle
 10
4417.7786019699
 20
7628.1589636831
 30
0.0
 40
1.5
100
AcDbArc
 50
180.0
 51
0.0
  0
ARC
  5
1BD
330
1F
100
AcDbEntity
  8
0
  6
Continuous
 62
     7
370
    25
100
AcDbCircle
 10
4407.1286019699
 20
7628.1589636831
 30
0.0
 40
1.500000000000909
100
AcDbArc
 50
180.0
 51
0.0
  0
ARC
  5
1BE
330
1F
100
AcDbEntity
  8
0
  6
Continuous
 62
     7
370
    25
100
AcDbCircle
 10
4576.3286019699
 20
7633.1589636831
 30
0.0
 40
1.5
100
AcDbArc
 50
180.0
 51
0.0
  0
ARC
  5
1BF
330
1F
100
AcDbEntity
  8
0
  6
Continuous
 62
     7
370
    25
100
AcDbCircle
 10
4396.4786019699
 20
7628.1589636831
 30
0.0
 40
1.5
100
AcDbArc
 50
180.0
 51
0.0
  0
ARC
  5
1C0
330
1F
100
AcDbEntity
  8
0
  6
Continuous
 62
     7
370
    25
100
AcDbCircle
 10
4385.8286019699
 20
7633.1589636831
 30
0.0
 40
1.5
100
AcDbArc
 50
180.0
 51
0.0
  0
LWPOLYLINE
  5
1C1
330
1F
100
AcDbEntity
  8
0
  6
Continuous
 62
     7
370
    25
100
AcDbPolyline
 90
        9
 70
   128
 43
0.0
 10
4533.8282672524
 20
7936.1873930341
 10
4533.9513207151
 20
7936.1768691323
 10
4534.356369861
 20
7936.2076164504
 10
4534.8162072345
 20
7936.2808147624
 10
4535.3098502783
 20
7936.3739962344
 10
4535.7785909031
 20
7936.4485753705
 10
4536.1381519595
 20
7936.467352186
 10
4536.3541226366
 20
7936.4285815331
 10
4536.428437137
 20
7936.3501112285
  0
LWPOLYLINE
  5
1C2
330
1F
100
AcDbEntity
  8
0
  6
Continuous
 62
     7
370
    25
100
AcDbPolyline
 90
       12
 70
   128
 43
0.0
 10
4512.147787462
 20
7936.1875346667
 10
4512.1444969113
 20
7936.1956603805
 10
4512.2848721645
 20
7936.2602749792
 10
4512.5706900635
 20
7936.3514873708
 10
4512.9910970226
 20
7936.4347496827
 10
4513.4805294131
 20
7936.4686127275
 10
4513.9573792596
 20
7936.4423075811
 10
4514.3942822288
 20
7936.371431631
 10
4514.7713852226
 20
7936.2786361656
 10
4515.0327402397
 20
7936.2014789812
 10
4515.1282281766
 20
7936.1770955979
 10
4515.1203176149
 20
7936.1812179346
  0
LWPOLYLINE
  5
1C3
330
1F
100
AcDbEntity
  8
0
  6
Continuous
 62
     7
370
    25
100
AcDbPolyline
 90
       10
 70
   128
 43
0.0
 10
4501.497141107
 20
7936.2612419785
 10
4501.4925684544
 20
7936.2947566794
 10
4501.6422384784
 20
7936.3879987583
 10
4501.9521276636
 20
7936.455671221
 10
4502.3649949765
 20
7936.4647119157
 10
4502.8189915814
 20
7936.418470501
 10
4503.295264873
 20
7936.3355446765
 10
4503.7635948252
 20
7936.2436329173
 10
4504.1495835858
 20
7936.1843981091
 10
4504.3218219916
 20
7936.1842605378
  0
ARC
  5
1C4
330
1F
100
AcDbEntity
  8
0
  6
Continuous
 62
     7
370
    25
100
AcDbCircle
 10
4524.3624952962
 20
7931.2710877904
 30
0.0
 40
5.141702954538488
100
AcDbArc
 50
74.0795198808
 51
107.2545502197
  0
ARC
  5
1C5
330
1F
100
AcDbEntity
  8
0
  6
Continuous
 62
     7
370
    25
100
AcDbCircle
 10
4513.6286019699
 20
7881.1767496192
 30
0.0
 40
1.5
100
AcDbArc
 50
180.0
 51
0.0
  0
ARC
  5
1C6
330
1F
100
AcDbEntity
  8
0
  6
Continuous
 62
     7
370
    25
100
AcDbCircle
 10
4524.2786019699
 20
7881.1767496192
 30
0.0
 40
1.500000000000909
100
AcDbArc
 50
180.0
 51
0.0
  0
ARC
  5
1C7
330
1F
100
AcDbEntity
  8
0
  6
Continuous
 62
     7
370
    25
100
AcDbCircle
 10
4502.9786019699
 20
7881.1767496192
 30
0.0
 40
1.5
100
AcDbArc
 50
180.0
 51
0.0
  0
LWPOLYLINE
  5
1C8
330
1F
100
AcDbEntity
  8
0
  6
Continuous
 62
     7
370
    25
100
AcDbPolyline
 90
        9
 70
   128
 43
0.0
 10
4490.8286019699
 20
7936.3281427949
 10
4490.9113052474
 20
7936.4177246338
 10
4491.1544591243
 20
7936.4664345329
 10
4491.5111991243
 20
7936.4519357258
 10
4491.9356053073
 20
7936.3870871451
 10
4492.4192506369
 20
7936.2943182067
 10
4492.9193732833
 20
7936.2104090379
 10
4493.3449115451
 20
7936.1767962079
 10
4493.3569376769
 20
7936.1778444655
  0
LWPOLYLINE
  5
1C9
330
1F
100
AcDbEntity
  8
0
  6
Continuous
 62
     7
370
    25
100
AcDbPolyline
 90
        9
 70
   128
 43
0.0
 10
4469.5286019699
 20
7936.3281427949
 10
4469.6113052474
 20
7936.4177246338
 10
4469.8544591243
 20
7936.4664345329
 10
4470.2111991243
 20
7936.4519357258
 10
4470.6356053073
 20
7936.3870871451
 10
4471.1192506369
 20
7936.2943182067
 10
4471.6193732833
 20
7936.2104090379
 10
4472.0449115451
 20
7936.1767962079
 10
4472.0569376769
 20
7936.1778444655
  0
LWPOLYLINE
  5
1CA
330
1F
100
AcDbEntity
  8
0
  6
Continuous
 62
     7
370
    25
100
AcDbPolyline
 90
        9
 70
   128
 43
0.0
 10
4426.9286019699
 20
7936.3281427949
 10
4427.0113052474
 20
7936.4177246338
 10
4427.2544591243
 20
7936.4664345329
 10
4427.6111991243
 20
7936.4519357258
 10
4428.0356053073
 20
7936.3870871451
 10
4428.5192506369
 20
7936.2943182067
 10
4429.0193732833
 20
7936.2104090379
 10
4429.4449115451
 20
7936.1767962079
 10
4429.4569376769
 20
7936.1778444655
  0
ARC
  5
1CB
330
1F
100
AcDbEntity
  8
0
  6
Continuous
 62
     7
370
    25
100
AcDbCircle
 10
4408.1484933754
 20
7940.2709156605
 30
0.0
 40
4.088419590288088
100
AcDbArc
 50
255.5545230682
 51
269.997094243
  0
ARC
  5
1CC
330
1F
100
AcDbEntity
  8
0
  6
Continuous
 62
     7
370
    25
100
AcDbCircle
 10
4406.3679538596
 20
7934.4166842119
 30
0.0
 40
2.042023064091076
100
AcDbArc
 50
68.1302841045
 51
110.6540201719
  0
LWPOLYLINE
  5
1CD
330
1F
100
AcDbEntity
  8
0
  6
Continuous
 62
     7
370
    25
100
AcDbPolyline
 90
        9
 70
   128
 43
0.0
 10
4397.5007208272
 20
7936.1812948773
 10
4397.1945330804
 20
7936.1953413493
 10
4396.7518731488
 20
7936.2605730898
 10
4396.2642582191
 20
7936.3534094207
 10
4395.775923528
 20
7936.4376674954
 10
4395.3746985724
 20
7936.4685948052
 10
4395.1132532911
 20
7936.4368677041
 10
4394.9882884268
 20
7936.3609714799
 10
4394.9971664833
 20
7936.3285655729
  0
LWPOLYLINE
  5
1CE
330
1F
100
AcDbEntity
  8
0
  6
Continuous
 62
     7
370
    25
100
AcDbPolyline
 90
        9
 70
   128
 43
0.0
 10
4386.8507208272
 20
7936.1812948773
 10
4386.5445330804
 20
7936.1953413493
 10
4386.1018731488
 20
7936.2605730898
 10
4385.6142582191
 20
7936.3534094207
 10
4385.125923528
 20
7936.4376674954
 10
4384.7246985724
 20
7936.4685948052
 10
4384.4632532911
 20
7936.4368677041
 10
4384.3382884268
 20
7936.3609714799
 10
4384.3471664833
 20
7936.3285655729
  0
LWPOLYLINE
  5
1CF
330
1F
100
AcDbEntity
  8
0
  6
Continuous
 62
     7
370
    25
100
AcDbPolyline
 90
       13
 70
   128
 43
0.0
 10
4382.8286019699
 20
7936.1767496192
 10
4382.414918324
 20
7936.2174638516
 10
4381.6210652211
 20
7936.5382216377
 10
4380.925039564
 20
7937.1537513217
 10
4380.3832292122
 20
7938.0141863493
 10
4380.039528418
 20
7939.0498193918
 10
4379.9217817756
 20
7940.1767496192
 10
4380.039528418
 20
7941.3036798465
 10
4380.3832292122
 20
7942.339312889
 10
4380.925039564
 20
7943.1997479166
 10
4381.6210652211
 20
7943.8152776006
 10
4382.414918324
 20
7944.1360353867
 10
4382.8286019699
 20
7944.1767496192
  0
LWPOLYLINE
  5
1D0
330
1F
100
AcDbEntity
  8
0
  6
Continuous
 62
     7
370
    25
100
AcDbPolyline
 90
        9
 70
   128
 43
0.0
 10
4416.2786019699
 20
7936.3281427949
 10
4416.3613052474
 20
7936.4177246338
 10
4416.6044591243
 20
7936.4664345329
 10
4416.9611991243
 20
7936.4519357258
 10
4417.3856053073
 20
7936.3870871451
 10
4417.8692506369
 20
7936.2943182067
 10
4418.3693732833
 20
7936.2104090379
 10
4418.7949115451
 20
7936.1767962079
 10
4418.8069376769
 20
7936.1778444655
  0
LWPOLYLINE
  5
1D1
330
1F
100
AcDbEntity
  8
0
  6
Continuous
 62
     7
370
    25
100
AcDbPolyline
 90
        9
 70
   128
 43
0.0
 10
4458.8786019699
 20
7936.3281427949
 10
4458.9613052474
 20
7936.4177246338
 10
4459.2044591243
 20
7936.4664345329
 10
4459.5611991243
 20
7936.4519357258
 10
4459.9856053073
 20
7936.3870871451
 10
4460.4692506369
 20
7936.2943182067
 10
4460.9693732833
 20
7936.2104090379
 10
4461.3949115451
 20
7936.1767962079
 10
4461.4069376769
 20
7936.1778444655
  0
LWPOLYLINE
  5
1D2
330
1F
100
AcDbEntity
  8
0
  6
Continuous
 62
     7
370
    25
100
AcDbPolyline
 90
        9
 70
   128
 43
0.0
 10
4480.1786019699
 20
7936.3281427949
 10
4480.2613052474
 20
7936.4177246338
 10
4480.5044591243
 20
7936.4664345329
 10
4480.8611991243
 20
7936.4519357258
 10
4481.2856053073
 20
7936.3870871451
 10
4481.7692506369
 20
7936.2943182067
 10
4482.2693732833
 20
7936.2104090379
 10
4482.6949115451
 20
7936.1767962079
 10
4482.7069376769
 20
7936.1778444655
  0
ARC
  5
1D3
330
1F
100
AcDbEntity
  8
0
  6
Continuous
 62
     7
370
    25
100
AcDbCircle
 10
4534.9286019699
 20
7881.1767496192
 30
0.0
 40
1.5
100
AcDbArc
 50
180.0
 51
0.0
  0
LWPOLYLINE
  5
1D4
330
1F
100
AcDbEntity
  8
0
  6
Continuous
 62
     7
370
    25
100
AcDbPolyline
 90
        8
 70
   128
 43
0.0
 10
4544.6559412084
 20
7936.1834669953
 10
4545.0175288942
 20
7936.1853967953
 10
4545.4752556345
 20
7936.2395891472
 10
4545.9540902488
 20
7936.3275621373
 10
4546.4175930767
 20
7936.4186154935
 10
4546.7876078361
 20
7936.4668544387
 10
4547.0067088801
 20
7936.4509221839
 10
4547.078433809
 20
7936.3854819093
  0
LWPOLYLINE
  5
1D5
330
1F
100
AcDbEntity
  8
0
  6
Continuous
 62
     7
370
    25
100
AcDbPolyline
 90
        8
 70
   128
 43
0.0
 10
4555.4737883425
 20
7936.1860808177
 10
4555.6739767558
 20
7936.1785350548
 10
4556.1351369323
 20
7936.2187940565
 10
4556.6074588011
 20
7936.2989495167
 10
4557.063790573
 20
7936.3935885113
 10
4557.436853693
 20
7936.4590868209
 10
4557.659591561
 20
7936.4618786975
 10
4557.7269226318
 20
7936.4103477307
  0
ARC
  5
1D6
330
1F
100
AcDbEntity
  8
0
  6
Continuous
 62
     7
370
    25
100
AcDbCircle
 10
4581.2605359405
 20
7818.3222292444
 30
0.0
 40
118.8146831639781
100
AcDbArc
 50
96.2267268234
 51
97.2579004633
  0
LWPOLYLINE
  5
1D7
330
1F
100
AcDbEntity
  8
0
  6
Continuous
 62
     7
370
    25
100
AcDbPolyline
 90
        7
 70
   128
 43
0.0
 10
4576.0573752461
 20
7936.1777498045
 10
4576.5287927416
 20
7936.197459841
 10
4576.9789289994
 20
7936.264392692
 10
4577.3792511793
 20
7936.3576066276
 10
4577.6791286001
 20
7936.4401901227
 10
4577.8192798818
 20
7936.4684511013
 10
4577.811522692
 20
7936.4566343765
  0
ARC
  5
1D8
330
1F
100
AcDbEntity
  8
0
  6
Continuous
 62
     7
370
    25
100
AcDbCircle
 10
4492.3286019699
 20
7881.1767496192
 30
0.0
 40
1.5
100
AcDbArc
 50
180.0
 51
0.0
  0
ARC
  5
1D9
330
1F
100
AcDbEntity
  8
0
  6
Continuous
 62
     7
370
    25
100
AcDbCircle
 10
4545.5786019699
 20
7881.1767496192
 30
0.0
 40
1.5
100
AcDbArc
 50
180.0
 51
0.0
  0
ARC
  5
1DA
330
1F
100
AcDbEntity
  8
0
  6
Continuous
 62
     7
370
    25
100
AcDbCircle
 10
4481.6786019699
 20
7881.1767496192
 30
0.0
 40
1.5
100
AcDbArc
 50
180.0
 51
0.0
  0
ARC
  5
1DB
330
1F
100
AcDbEntity
  8
0
  6
Continuous
 62
     7
370
    25
100
AcDbCircle
 10
4471.0286019699
 20
7881.1767496192
 30
0.0
 40
1.5
100
AcDbArc
 50
180.0
 51
0.0
  0
ARC
  5
1DC
330
1F
100
AcDbEntity
  8
0
  6
Continuous
 62
     7
370
    25
100
AcDbCircle
 10
4556.2286019699
 20
7881.1767496192
 30
0.0
 40
1.5
100
AcDbArc
 50
180.0
 51
0.0
  0
ARC
  5
1DD
330
1F
100
AcDbEntity
  8
0
  6
Continuous
 62
     7
370
    25
100
AcDbCircle
 10
4460.3786019699
 20
7881.1767496192
 30
0.0
 40
1.5
100
AcDbArc
 50
180.0
 51
0.0
  0
ARC
  5
1DE
330
1F
100
AcDbEntity
  8
0
  6
Continuous
 62
     7
370
    25
100
AcDbCircle
 10
4566.8786019699
 20
7883.6767496192
 30
0.0
 40
1.5
100
AcDbArc
 50
180.0
 51
0.0
  0
ARC
  5
1DF
330
1F
100
AcDbEntity
  8
0
  6
Continuous
 62
     7
370
    25
100
AcDbCircle
 10
4428.4286019699
 20
7881.1767496192
 30
0.0
 40
1.500000000000909
100
AcDbArc
 50
180.0
 51
0.0
  0
ARC
  5
1E0
330
1F
100
AcDbEntity
  8
0
  6
Continuous
 62
     7
370
    25
100
AcDbCircle
 10
4417.7786019699
 20
7881.1767496192
 30
0.0
 40
1.5
100
AcDbArc
 50
180.0
 51
0.0
  0
ARC
  5
1E1
330
1F
100
AcDbEntity
  8
0
  6
Continuous
 62
     7
370
    25
100
AcDbCircle
 10
4407.1286019699
 20
7881.1767496192
 30
0.0
 40
1.500000000000909
100
AcDbArc
 50
180.0
 51
0.0
  0
ARC
  5
1E2
330
1F
100
AcDbEntity
  8
0
  6
Continuous
 62
     7
370
    25
100
AcDbCircle
 10
4576.3286019699
 20
7886.1767496192
 30
0.0
 40
1.5
100
AcDbArc
 50
180.0
 51
0.0
  0
ARC
  5
1E3
330
1F
100
AcDbEntity
  8
0
  6
Continuous
 62
     7
370
    25
100
AcDbCircle
 10
4396.4786019699
 20
7881.1767496192
 30
0.0
 40
1.5
100
AcDbArc
 50
180.0
 51
0.0
  0
ARC
  5
1E4
330
1F
100
AcDbEntity
  8
0
  6
Continuous
 62
     7
370
    25
100
AcDbCircle
 10
4385.8286019699
 20
7886.1767496192
 30
0.0
 40
1.5
100
AcDbArc
 50
180.0
 51
0.0
  0
LINE
  5
1E5
330
1F
100
AcDbEntity
  8
0
  6
Continuous
 62
     8
370
    25
100
AcDbLine
 10
4453.5723691908
 20
7940.117464027
 30
0.0
 11
4455.0256771412
 21
7940.117464027
 31
0.0
  0
LWPOLYLINE
  5
1E6
330
1F
100
AcDbEntity
  8
0
  6
Continuous
 62
     8
370
    25
100
AcDbPolyline
 90
       12
 70
   128
 43
0.0
 10
4536.4286019699
 20
7683.2060864212
 10
4537.2734274797
 20
7683.5204357017
 10
4538.0444354873
 20
7684.1359653857
 10
4538.6446146843
 20
7684.9964004133
 10
4539.0253421214
 20
7686.0320334557
 10
4539.155773526
 20
7687.1589636831
 10
4539.0253421214
 20
7688.2858939104
 10
4538.6446146843
 20
7689.3215269529
 10
4538.0444354873
 20
7690.1819619805
 10
4537.2734274797
 20
7690.7974916645
 10
4536.3940531448
 20
7691.1182494506
 10
4535.9358036531
 20
7691.1589636831
  0
LWPOLYLINE
  5
1E7
330
1F
100
AcDbEntity
  8
0
  6
Continuous
 62
     8
370
    25
100
AcDbPolyline
 90
       13
 70
   128
 43
0.0
 10
4497.6433657339
 20
7683.1589636831
 10
4497.2296820881
 20
7683.1996779155
 10
4496.4358289851
 20
7683.5204357017
 10
4495.7398033281
 20
7684.1359653857
 10
4495.1979929762
 20
7684.9964004133
 10
4494.854292182
 20
7686.0320334557
 10
4494.7365455397
 20
7687.1589636831
 10
4494.854292182
 20
7688.2858939104
 10
4495.1979929762
 20
7689.3215269529
 10
4495.7398033281
 20
7690.1819619805
 10
4496.4358289851
 20
7690.7974916645
 10
4497.2296820881
 20
7691.1182494506
 10
4497.6433657339
 20
7691.1589636831
  0
LINE
  5
1E8
330
1F
100
AcDbEntity
  8
0
  6
Continuous
 62
     8
370
    25
100
AcDbLine
 10
4515.1286019699
 20
7633.1589636831
 30
0.0
 11
4512.1286019699
 21
7633.1589636831
 31
0.0
  0
LINE
  5
1E9
330
1F
100
AcDbEntity
  8
0
  6
Continuous
 62
     8
370
    25
100
AcDbLine
 10
4525.7786019699
 20
7633.1589636831
 30
0.0
 11
4522.7786019699
 21
7633.1589636831
 31
0.0
  0
LINE
  5
1EA
330
1F
100
AcDbEntity
  8
0
  6
Continuous
 62
     8
370
    25
100
AcDbLine
 10
4504.4786019699
 20
7633.1589636831
 30
0.0
 11
4501.4786019699
 21
7633.1589636831
 31
0.0
  0
LINE
  5
1EB
330
1F
100
AcDbEntity
  8
0
  6
Continuous
 62
     8
370
    25
100
AcDbLine
 10
4536.4286019699
 20
7633.1589636831
 30
0.0
 11
4533.4286019699
 21
7633.1589636831
 31
0.0
  0
LINE
  5
1EC
330
1F
100
AcDbEntity
  8
0
  6
Continuous
 62
     8
370
    25
100
AcDbLine
 10
4493.8286019699
 20
7633.1589636831
 30
0.0
 11
4490.8286019699
 21
7633.1589636831
 31
0.0
  0
LINE
  5
1ED
330
1F
100
AcDbEntity
  8
0
  6
Continuous
 62
     8
370
    25
100
AcDbLine
 10
4547.0786019699
 20
7633.1589636831
 30
0.0
 11
4544.0786019699
 21
7633.1589636831
 31
0.0
  0
LINE
  5
1EE
330
1F
100
AcDbEntity
  8
0
  6
Continuous
 62
     8
370
    25
100
AcDbLine
 10
4483.1786019699
 20
7633.1589636831
 30
0.0
 11
4480.1786019699
 21
7633.1589636831
 31
0.0
  0
LINE
  5
1EF
330
1F
100
AcDbEntity
  8
0
  6
Continuous
 62
     8
370
    25
100
AcDbLine
 10
4472.5286019699
 20
7633.1589636831
 30
0.0
 11
4469.5286019699
 21
7633.1589636831
 31
0.0
  0
LINE
  5
1F0
330
1F
100
AcDbEntity
  8
0
  6
Continuous
 62
     8
370
    25
100
AcDbLine
 10
4557.7286019699
 20
7633.1589636831
 30
0.0
 11
4554.7286019699
 21
7633.1589636831
 31
0.0
  0
LINE
  5
1F1
330
1F
100
AcDbEntity
  8
0
  6
Continuous
 62
     8
370
    25
100
AcDbLine
 10
4461.8786019699
 20
7633.1589636831
 30
0.0
 11
4458.8786019699
 21
7633.1589636831
 31
0.0
  0
LINE
  5
1F2
330
1F
100
AcDbEntity
  8
0
  6
Continuous
 62
     8
370
    25
100
AcDbLine
 10
4451.2286019699
 20
7633.1589636831
 30
0.0
 11
4448.2286019699
 21
7633.1589636831
 31
0.0
  0
LINE
  5
1F3
330
1F
100
AcDbEntity
  8
0
  6
Continuous
 62
     8
370
    25
100
AcDbLine
 10
4568.3786019699
 20
7635.6589636831
 30
0.0
 11
4565.3786019699
 21
7635.6589636831
 31
0.0
  0
LINE
  5
1F4
330
1F
100
AcDbEntity
  8
0
  6
Continuous
 62
     8
370
    25
100
AcDbLine
 10
4440.5786019699
 20
7633.1589636831
 30
0.0
 11
4437.5786019699
 21
7633.1589636831
 31
0.0
  0
LINE
  5
1F5
330
1F
100
AcDbEntity
  8
0
  6
Continuous
 62
     8
370
    25
100
AcDbLine
 10
4429.9286019699
 20
7633.1589636831
 30
0.0
 11
4426.9286019699
 21
7633.1589636831
 31
0.0
  0
LINE
  5
1F6
330
1F
100
AcDbEntity
  8
0
  6
Continuous
 62
     8
370
    25
100
AcDbLine
 10
4419.2786019699
 20
7633.1589636831
 30
0.0
 11
4416.2786019699
 21
7633.1589636831
 31
0.0
  0
LINE
  5
1F7
330
1F
100
AcDbEntity
  8
0
  6
Continuous
 62
     8
370
    25
100
AcDbLine
 10
4408.6286019699
 20
7633.1589636831
 30
0.0
 11
4405.6286019699
 21
7633.1589636831
 31
0.0
  0
LINE
  5
1F8
330
1F
100
AcDbEntity
  8
0
  6
Continuous
 62
     8
370
    25
100
AcDbLine
 10
4577.8286019699
 20
7638.1589636831
 30
0.0
 11
4574.8286019699
 21
7638.1589636831
 31
0.0
  0
LINE
  5
1F9
330
1F
100
AcDbEntity
  8
0
  6
Continuous
 62
     8
370
    25
100
AcDbLine
 10
4397.9786019699
 20
7633.1589636831
 30
0.0
 11
4394.9786019699
 21
7633.1589636831
 31
0.0
  0
LINE
  5
1FA
330
1F
100
AcDbEntity
  8
0
  6
Continuous
 62
     8
370
    25
100
AcDbLine
 10
4387.3286019699
 20
7638.1589636831
 30
0.0
 11
4384.3286019699
 21
7638.1589636831
 31
0.0
  0
LWPOLYLINE
  5
1FB
330
1F
100
AcDbEntity
  8
0
  6
Continuous
 62
     8
370
    25
100
AcDbPolyline
 90
       12
 70
   128
 43
0.0
 10
4536.4286019699
 20
7936.2238723573
 10
4537.2734274797
 20
7936.5382216377
 10
4538.0444354873
 20
7937.1537513217
 10
4538.6446146843
 20
7938.0141863493
 10
4539.0253421214
 20
7939.0498193918
 10
4539.155773526
 20
7940.1767496192
 10
4539.0253421214
 20
7941.3036798465
 10
4538.6446146843
 20
7942.339312889
 10
4538.0444354873
 20
7943.1997479166
 10
4537.2734274797
 20
7943.8152776006
 10
4536.3940531448
 20
7944.1360353867
 10
4535.9358036531
 20
7944.1767496192
  0
LWPOLYLINE
  5
1FC
330
1F
100
AcDbEntity
  8
0
  6
Continuous
 62
     8
370
    25
100
AcDbPolyline
 90
       13
 70
   128
 43
0.0
 10
4497.6433657339
 20
7936.1767496192
 10
4497.2296820881
 20
7936.2174638516
 10
4496.4358289851
 20
7936.5382216377
 10
4495.7398033281
 20
7937.1537513217
 10
4495.1979929762
 20
7938.0141863493
 10
4494.854292182
 20
7939.0498193918
 10
4494.7365455397
 20
7940.1767496192
 10
4494.854292182
 20
7941.3036798465
 10
4495.1979929762
 20
7942.339312889
 10
4495.7398033281
 20
7943.1997479166
 10
4496.4358289851
 20
7943.8152776006
 10
4497.2296820881
 20
7944.1360353867
 10
4497.6433657339
 20
7944.1767496192
  0
LINE
  5
1FD
330
1F
100
AcDbEntity
  8
0
  6
Continuous
 62
     8
370
    25
100
AcDbLine
 10
4515.1286019699
 20
7886.1767496192
 30
0.0
 11
4512.1286019699
 21
7886.1767496192
 31
0.0
  0
LINE
  5
1FE
330
1F
100
AcDbEntity
  8
0
  6
Continuous
 62
     8
370
    25
100
AcDbLine
 10
4525.7786019699
 20
7886.1767496192
 30
0.0
 11
4522.7786019699
 21
7886.1767496192
 31
0.0
  0
LINE
  5
1FF
330
1F
100
AcDbEntity
  8
0
  6
Continuous
 62
     8
370
    25
100
AcDbLine
 10
4504.4786019699
 20
7886.1767496192
 30
0.0
 11
4501.4786019699
 21
7886.1767496192
 31
0.0
  0
LINE
  5
200
330
1F
100
AcDbEntity
  8
0
  6
Continuous
 62
     8
370
    25
100
AcDbLine
 10
4536.4286019699
 20
7886.1767496192
 30
0.0
 11
4533.4286019699
 21
7886.1767496192
 31
0.0
  0
LINE
  5
201
330
1F
100
AcDbEntity
  8
0
  6
Continuous
 62
     8
370
    25
100
AcDbLine
 10
4493.8286019699
 20
7886.1767496192
 30
0.0
 11
4490.8286019699
 21
7886.1767496192
 31
0.0
  0
LINE
  5
202
330
1F
100
AcDbEntity
  8
0
  6
Continuous
 62
     8
370
    25
100
AcDbLine
 10
4547.0786019699
 20
7886.1767496192
 30
0.0
 11
4544.0786019699
 21
7886.1767496192
 31
0.0
  0
LINE
  5
203
330
1F
100
AcDbEntity
  8
0
  6
Continuous
 62
     8
370
    25
100
AcDbLine
 10
4483.1786019699
 20
7886.1767496192
 30
0.0
 11
4480.1786019699
 21
7886.1767496192
 31
0.0
  0
LINE
  5
204
330
1F
100
AcDbEntity
  8
0
  6
Continuous
 62
     8
370
    25
100
AcDbLine
 10
4472.5286019699
 20
7886.1767496192
 30
0.0
 11
4469.5286019699
 21
7886.1767496192
 31
0.0
  0
LINE
  5
205
330
1F
100
AcDbEntity
  8
0
  6
Continuous
 62
     8
370
    25
100
AcDbLine
 10
4557.7286019699
 20
7886.1767496192
 30
0.0
 11
4554.7286019699
 21
7886.1767496192
 31
0.0
  0
LINE
  5
206
330
1F
100
AcDbEntity
  8
0
  6
Continuous
 62
     8
370
    25
100
AcDbLine
 10
4461.8786019699
 20
7886.1767496192
 30
0.0
 11
4458.8786019699
 21
7886.1767496192
 31
0.0
  0
LINE
  5
207
330
1F
100
AcDbEntity
  8
0
  6
Continuous
 62
     8
370
    25
100
AcDbLine
 10
4568.3786019699
 20
7888.6767496192
 30
0.0
 11
4565.3786019699
 21
7888.6767496192
 31
0.0
  0
LINE
  5
208
330
1F
100
AcDbEntity
  8
0
  6
Continuous
 62
     8
370
    25
100
AcDbLine
 10
4429.9286019699
 20
7886.1767496192
 30
0.0
 11
4426.9286019699
 21
7886.1767496192
 31
0.0
  0
LINE
  5
209
330
1F
100
AcDbEntity
  8
0
  6
Continuous
 62
     8
370
    25
100
AcDbLine
 10
4419.2786019699
 20
7886.1767496192
 30
0.0
 11
4416.2786019699
 21
7886.1767496192
 31
0.0
  0
LINE
  5
20A
330
1F
100
AcDbEntity
  8
0
  6
Continuous
 62
     8
370
    25
100
AcDbLine
 10
4408.6286019699
 20
7886.1767496192
 30
0.0
 11
4405.6286019699
 21
7886.1767496192
 31
0.0
  0
LINE
  5
20B
330
1F
100
AcDbEntity
  8
0
  6
Continuous
 62
     8
370
    25
100
AcDbLine
 10
4577.8286019699
 20
7891.1767496192
 30
0.0
 11
4574.8286019699
 21
7891.1767496192
 31
0.0
  0
LINE
  5
20C
330
1F
100
AcDbEntity
  8
0
  6
Continuous
 62
     8
370
    25
100
AcDbLine
 10
4397.9786019699
 20
7886.1767496192
 30
0.0
 11
4394.9786019699
 21
7886.1767496192
 31
0.0
  0
LINE
  5
20D
330
1F
100
AcDbEntity
  8
0
  6
Continuous
 62
     8
370
    25
100
AcDbLine
 10
4387.3286019699
 20
7891.1767496192
 30
0.0
 11
4384.3286019699
 21
7891.1767496192
 31
0.0
  0
LINE
  5
20E
330
1F
100
AcDbEntity
  8
0
  6
Continuous
 62
     7
370
    25
100
AcDbLine
 10
3990.8944281253
 20
7682.1589636831
 30
0.0
 11
3998.8415937565
 21
7682.1589636831
 31
0.0
  0
LINE
  5
20F
330
1F
100
AcDbEntity
  8
0
  6
Continuous
 62
     7
370
    25
100
AcDbLine
 10
3979.9472624941
 20
7682.1589636831
 30
0.0
 11
3988.1326749993
 21
7682.1589636831
 31
0.0
  0
LINE
  5
210
330
1F
100
AcDbEntity
  8
0
  6
Continuous
 62
     7
370
    25
100
AcDbLine
 10
3990.8944281253
 20
7935.1767483968
 30
0.0
 11
3998.8415937665
 21
7935.1767483968
 31
0.0
  0
LINE
  5
211
330
1F
100
AcDbEntity
  8
0
  6
Continuous
 62
     7
370
    25
100
AcDbLine
 10
3979.947262504
 20
7935.1767483968
 30
0.0
 11
3988.1226943003
 21
7935.1767483968
 31
0.0
  0
LINE
  5
212
330
1F
100
AcDbEntity
  8
0
  6
Continuous
 62
     7
370
    25
100
AcDbLine
 10
4107.1342403001
 20
7682.1589636831
 30
0.0
 11
4115.3195581684
 21
7682.1589636831
 31
0.0
  0
LINE
  5
213
330
1F
100
AcDbEntity
  8
0
  6
Continuous
 62
     7
370
    25
100
AcDbLine
 10
4096.425226906
 20
7682.1589636831
 30
0.0
 11
4098.4456587573
 21
7682.1589636831
 31
0.0
  0
LINE
  5
214
330
1F
100
AcDbEntity
  8
0
  6
Continuous
 62
     7
370
    25
100
AcDbLine
 10
4101.4456587573
 20
7682.1589636831
 30
0.0
 11
4104.3723925372
 21
7682.1589636831
 31
0.0
  0
LINE
  5
215
330
1F
100
AcDbEntity
  8
0
  6
Continuous
 62
     7
370
    25
100
AcDbLine
 10
4107.1441263622
 20
7935.1767483968
 30
0.0
 11
4115.3195581585
 21
7935.1767483968
 31
0.0
  0
LINE
  5
216
330
1F
100
AcDbEntity
  8
0
  6
Continuous
 62
     7
370
    25
100
AcDbLine
 10
4096.425226896
 20
7935.1767483968
 30
0.0
 11
4098.4456587573
 21
7935.1767483968
 31
0.0
  0
LINE
  5
217
330
1F
100
AcDbEntity
  8
0
  6
Continuous
 62
     7
370
    25
100
AcDbLine
 10
4101.4456587573
 20
7935.1767483968
 30
0.0
 11
4104.3723925372
 21
7935.1767483968
 31
0.0
  0
LINE
  5
218
330
1F
100
AcDbEntity
  8
0
  6
Continuous
 62
     7
370
    25
100
AcDbLine
 10
4186.5561635779
 20
7935.1589624607
 30
0.0
 11
4192.1230979981
 21
7935.1589624607
 31
0.0
  0
LINE
  5
219
330
1F
100
AcDbEntity
  8
0
  6
Continuous
 62
     7
370
    25
100
AcDbLine
 10
4173.2287667357
 20
7935.1589624607
 30
0.0
 11
4181.4041985319
 21
7935.1589624607
 31
0.0
  0
LINE
  5
21A
330
1F
100
AcDbEntity
  8
0
  6
Continuous
 62
     7
370
    25
100
AcDbLine
 10
4186.5561635779
 20
7682.1589636831
 30
0.0
 11
4194.1839468406
 21
7682.1589636831
 31
0.0
  0
LINE
  5
21B
330
1F
100
AcDbEntity
  8
0
  6
Continuous
 62
     7
370
    25
100
AcDbLine
 10
4175.2896155782
 20
7682.1589636831
 30
0.0
 11
4183.2367812094
 21
7682.1589636831
 31
0.0
  0
LINE
  5
21C
330
1F
100
AcDbEntity
  8
0
  6
Continuous
 62
     7
370
    25
100
AcDbLine
 10
4199.2838498171
 20
7691.1589636831
 30
0.0
 11
3941.0483358009
 21
7691.1589636831
 31
0.0
  0
LINE
  5
21D
330
1F
100
AcDbEntity
  8
0
  6
Continuous
 62
     7
370
    25
100
AcDbLine
 10
4186.5561635779
 20
7683.1589636831
 30
0.0
 11
4199.2838498171
 21
7683.1589636831
 31
0.0
  0
LINE
  5
21E
330
1F
100
AcDbEntity
  8
0
  6
Continuous
 62
     7
370
    25
100
AcDbLine
 10
4167.3181891951
 20
7683.1589636831
 30
0.0
 11
4183.8018965198
 21
7683.1589636831
 31
0.0
  0
LINE
  5
21F
330
1F
100
AcDbEntity
  8
0
  6
Continuous
 62
     7
370
    25
100
AcDbLine
 10
4141.3635482984
 20
7683.1589636831
 30
0.0
 11
4164.4783732949
 21
7683.1589636831
 31
0.0
  0
LINE
  5
220
330
1F
100
AcDbEntity
  8
0
  6
Continuous
 62
     7
370
    25
100
AcDbLine
 10
4101.4126956746
 20
7683.1589636831
 30
0.0
 11
4138.5713521077
 21
7683.1589636831
 31
0.0
  0
LINE
  5
221
330
1F
100
AcDbEntity
  8
0
  6
Continuous
 62
     7
370
    25
100
AcDbLine
 10
4041.8655105251
 20
7683.1589636831
 30
0.0
 11
4098.4721721248
 21
7683.1589636831
 31
0.0
  0
LINE
  5
222
330
1F
100
AcDbEntity
  8
0
  6
Continuous
 62
     7
370
    25
100
AcDbLine
 10
4001.7804655544
 20
7683.1589636831
 30
0.0
 11
4038.9220880751
 21
7683.1589636831
 31
0.0
  0
LINE
  5
223
330
1F
100
AcDbEntity
  8
0
  6
Continuous
 62
     7
370
    25
100
AcDbLine
 10
3975.8399231579
 20
7683.1589636831
 30
0.0
 11
3998.9512318302
 21
7683.1589636831
 31
0.0
  0
LINE
  5
224
330
1F
100
AcDbEntity
  8
0
  6
Continuous
 62
     7
370
    25
100
AcDbLine
 10
3956.5368801112
 20
7683.1589636831
 30
0.0
 11
3973.0139964229
 21
7683.1589636831
 31
0.0
  0
LINE
  5
225
330
1F
100
AcDbEntity
  8
0
  6
Continuous
 62
     7
370
    25
100
AcDbLine
 10
3941.0483358009
 20
7683.1589636831
 30
0.0
 11
3953.7760220401
 21
7683.1589636831
 31
0.0
  0
LINE
  5
226
330
1F
100
AcDbEntity
  8
0
  6
Continuous
 62
     7
370
    25
100
AcDbLine
 10
4101.4456587573
 20
7638.1589636831
 30
0.0
 11
4101.4456587573
 21
7683.16643341
 31
0.0
  0
LINE
  5
227
330
1F
100
AcDbEntity
  8
0
  6
Continuous
 62
     7
370
    25
100
AcDbLine
 10
4098.4456587573
 20
7683.1716199899
 30
0.0
 11
4098.4456587573
 21
7638.1589636831
 31
0.0
  0
ARC
  5
228
330
1F
100
AcDbEntity
  8
0
  6
Continuous
 62
     7
370
    25
100
AcDbCircle
 10
4094.9456587573
 20
7638.1589636831
 30
0.0
 40
3.500000000000455
100
AcDbArc
 50
270.0
 51
0.0
  0
ARC
  5
229
330
1F
100
AcDbEntity
  8
0
  6
Continuous
 62
     7
370
    25
100
AcDbCircle
 10
4094.9456587573
 20
7638.1589636831
 30
0.0
 40
6.500000000000455
100
AcDbArc
 50
270.0
 51
0.0
  0
LINE
  5
22A
330
1F
100
AcDbEntity
  8
0
  6
Continuous
 62
     7
370
    25
100
AcDbLine
 10
4038.8865268607
 20
7683.1713251559
 30
0.0
 11
4038.8865268607
 21
7638.1589636831
 31
0.0
  0
LINE
  5
22B
330
1F
100
AcDbEntity
  8
0
  6
Continuous
 62
     7
370
    25
100
AcDbLine
 10
4041.8865268607
 20
7638.1589636831
 30
0.0
 11
4041.8865268607
 21
7683.166772648
 31
0.0
  0
LINE
  5
22C
330
1F
100
AcDbEntity
  8
0
  6
Continuous
 62
     7
370
    25
100
AcDbLine
 10
4045.3865268607
 20
7631.6589636831
 30
0.0
 11
4094.9456587573
 21
7631.6589636831
 31
0.0
  0
LINE
  5
22D
330
1F
100
AcDbEntity
  8
0
  6
Continuous
 62
     7
370
    25
100
AcDbLine
 10
4094.9456587573
 20
7634.6589636831
 30
0.0
 11
4045.3865268607
 21
7634.6589636831
 31
0.0
  0
ARC
  5
22E
330
1F
100
AcDbEntity
  8
0
  6
Continuous
 62
     7
370
    25
100
AcDbCircle
 10
4045.3865268607
 20
7638.1589636831
 30
0.0
 40
3.499999999999545
100
AcDbArc
 50
180.0
 51
270.0
  0
ARC
  5
22F
330
1F
100
AcDbEntity
  8
0
  6
Continuous
 62
     7
370
    25
100
AcDbCircle
 10
4045.3865268607
 20
7638.1589636831
 30
0.0
 40
6.5
100
AcDbArc
 50
180.0
 51
270.0
  0
LINE
  5
230
330
1F
100
AcDbEntity
  8
0
  6
Continuous
 62
     7
370
    25
100
AcDbLine
 10
4141.4663343904
 20
7635.6589636831
 30
0.0
 11
4141.4663343904
 21
7683.1952961348
 31
0.0
  0
LINE
  5
231
330
1F
100
AcDbEntity
  8
0
  6
Continuous
 62
     7
370
    25
100
AcDbLine
 10
4138.4663343904
 20
7683.1891746741
 30
0.0
 11
4138.4663343904
 21
7635.6589636831
 31
0.0
  0
ARC
  5
232
330
1F
100
AcDbEntity
  8
0
  6
Continuous
 62
     7
370
    25
100
AcDbCircle
 10
4134.9663343904
 20
7635.6589636831
 30
0.0
 40
3.5
100
AcDbArc
 50
270.0
 51
0.0
  0
ARC
  5
233
330
1F
100
AcDbEntity
  8
0
  6
Continuous
 62
     7
370
    25
100
AcDbCircle
 10
4134.9663343904
 20
7635.6589636831
 30
0.0
 40
6.5
100
AcDbArc
 50
270.0
 51
0.0
  0
LINE
  5
234
330
1F
100
AcDbEntity
  8
0
  6
Continuous
 62
     7
370
    25
100
AcDbLine
 10
4005.3658512277
 20
7629.1589636831
 30
0.0
 11
4134.9663343904
 21
7629.1589636831
 31
0.0
  0
LINE
  5
235
330
1F
100
AcDbEntity
  8
0
  6
Continuous
 62
     7
370
    25
100
AcDbLine
 10
4134.9663343904
 20
7632.1589636831
 30
0.0
 11
4097.4456587573
 21
7632.1589636831
 31
0.0
  0
LINE
  5
236
330
1F
100
AcDbEntity
  8
0
  6
Continuous
 62
     7
370
    25
100
AcDbLine
 10
4042.8865268607
 20
7632.1589636831
 30
0.0
 11
4005.3658512277
 21
7632.1589636831
 31
0.0
  0
LINE
  5
237
330
1F
100
AcDbEntity
  8
0
  6
Continuous
 62
     7
370
    25
100
AcDbLine
 10
3998.8658512277
 20
7683.1910430213
 30
0.0
 11
3998.8658512277
 21
7635.6589636831
 31
0.0
  0
LINE
  5
238
330
1F
100
AcDbEntity
  8
0
  6
Continuous
 62
     7
370
    25
100
AcDbLine
 10
4001.8658512277
 20
7635.6589636831
 30
0.0
 11
4001.8658512277
 21
7683.1925164738
 31
0.0
  0
ARC
  5
239
330
1F
100
AcDbEntity
  8
0
  6
Continuous
 62
     7
370
    25
100
AcDbCircle
 10
4005.3658512277
 20
7635.6589636831
 30
0.0
 40
3.5
100
AcDbArc
 50
180.0
 51
270.0
  0
ARC
  5
23A
330
1F
100
AcDbEntity
  8
0
  6
Continuous
 62
     7
370
    25
100
AcDbCircle
 10
4005.3658512277
 20
7635.6589636831
 30
0.0
 40
6.5
100
AcDbArc
 50
180.0
 51
270.0
  0
LINE
  5
23B
330
1F
100
AcDbEntity
  8
0
  6
Continuous
 62
     7
370
    25
100
AcDbLine
 10
4167.3181891951
 20
7633.1589636831
 30
0.0
 11
4167.3181891951
 21
7683.2196229689
 31
0.0
  0
LINE
  5
23C
330
1F
100
AcDbEntity
  8
0
  6
Continuous
 62
     7
370
    25
100
AcDbLine
 10
4164.3181891951
 20
7683.1589636831
 30
0.0
 11
4164.3181891951
 21
7633.1589636831
 31
0.0
  0
ARC
  5
23D
330
1F
100
AcDbEntity
  8
0
  6
Continuous
 62
     7
370
    25
100
AcDbCircle
 10
4160.8181891951
 20
7633.1589636831
 30
0.0
 40
3.500000000000909
100
AcDbArc
 50
270.0
 51
0.0
  0
ARC
  5
23E
330
1F
100
AcDbEntity
  8
0
  6
Continuous
 62
     7
370
    25
100
AcDbCircle
 10
4160.8181891951
 20
7633.1589636831
 30
0.0
 40
6.5
100
AcDbArc
 50
270.0
 51
0.0
  0
LINE
  5
23F
330
1F
100
AcDbEntity
  8
0
  6
Continuous
 62
     7
370
    25
100
AcDbLine
 10
3979.5139964229
 20
7626.6589636831
 30
0.0
 11
4160.8181891951
 21
7626.6589636831
 31
0.0
  0
LINE
  5
240
330
1F
100
AcDbEntity
  8
0
  6
Continuous
 62
     7
370
    25
100
AcDbLine
 10
4160.8181891951
 20
7629.6589636831
 30
0.0
 11
4137.4663343904
 21
7629.6589636831
 31
0.0
  0
LINE
  5
241
330
1F
100
AcDbEntity
  8
0
  6
Continuous
 62
     7
370
    25
100
AcDbLine
 10
4002.8658512277
 20
7629.6589636831
 30
0.0
 11
3979.5139964229
 21
7629.6589636831
 31
0.0
  0
LINE
  5
242
330
1F
100
AcDbEntity
  8
0
  6
Continuous
 62
     7
370
    25
100
AcDbLine
 10
3973.0139964229
 20
7683.2166749583
 30
0.0
 11
3973.0139964229
 21
7633.1589636831
 31
0.0
  0
LINE
  5
243
330
1F
100
AcDbEntity
  8
0
  6
Continuous
 62
     7
370
    25
100
AcDbLine
 10
3976.0139964229
 20
7633.1589636831
 30
0.0
 11
3976.0139964229
 21
7683.1589636831
 31
0.0
  0
ARC
  5
244
330
1F
100
AcDbEntity
  8
0
  6
Continuous
 62
     7
370
    25
100
AcDbCircle
 10
3979.5139964229
 20
7633.1589636831
 30
0.0
 40
3.500000000000909
100
AcDbArc
 50
180.0
 51
270.0
  0
ARC
  5
245
330
1F
100
AcDbEntity
  8
0
  6
Continuous
 62
     7
370
    25
100
AcDbCircle
 10
3979.5139964229
 20
7633.1589636831
 30
0.0
 40
6.5
100
AcDbArc
 50
180.0
 51
270.0
  0
LINE
  5
246
330
1F
100
AcDbEntity
  8
0
  6
Continuous
 62
     7
370
    25
100
AcDbLine
 10
4186.5561635779
 20
7633.1589636831
 30
0.0
 11
4186.5561635779
 21
7683.2423940037
 31
0.0
  0
LINE
  5
247
330
1F
100
AcDbEntity
  8
0
  6
Continuous
 62
     7
370
    25
100
AcDbLine
 10
4183.5561635779
 20
7683.1589636831
 30
0.0
 11
4183.5561635779
 21
7633.1589636831
 31
0.0
  0
ARC
  5
248
330
1F
100
AcDbEntity
  8
0
  6
Continuous
 62
     7
370
    25
100
AcDbCircle
 10
4180.0561635779
 20
7633.1589636831
 30
0.0
 40
3.500000000000909
100
AcDbArc
 50
270.0
 51
0.0
  0
ARC
  5
249
330
1F
100
AcDbEntity
  8
0
  6
Continuous
 62
     7
370
    25
100
AcDbCircle
 10
4180.0561635779
 20
7633.1589636831
 30
0.0
 40
6.5
100
AcDbArc
 50
270.0
 51
0.0
  0
LINE
  5
24A
330
1F
100
AcDbEntity
  8
0
  6
Continuous
 62
     7
370
    25
100
AcDbLine
 10
3960.2760220401
 20
7626.6589636831
 30
0.0
 11
3979.5139964229
 21
7626.6589636831
 31
0.0
  0
LINE
  5
24B
330
1F
100
AcDbEntity
  8
0
  6
Continuous
 62
     7
370
    25
100
AcDbLine
 10
4160.8181891951
 20
7626.6589636831
 30
0.0
 11
4180.0561635779
 21
7626.6589636831
 31
0.0
  0
LINE
  5
24C
330
1F
100
AcDbEntity
  8
0
  6
Continuous
 62
     7
370
    25
100
AcDbLine
 10
4180.0561635779
 20
7629.6589636831
 30
0.0
 11
4166.2954147701
 21
7629.6589636831
 31
0.0
  0
LINE
  5
24D
330
1F
100
AcDbEntity
  8
0
  6
Continuous
 62
     7
370
    25
100
AcDbLine
 10
3974.0367708479
 20
7629.6589636831
 30
0.0
 11
3960.2760220401
 21
7629.6589636831
 31
0.0
  0
LINE
  5
24E
330
1F
100
AcDbEntity
  8
0
  6
Continuous
 62
     7
370
    25
100
AcDbLine
 10
3953.7760220401
 20
7683.2405700283
 30
0.0
 11
3953.7760220401
 21
7633.1589636831
 31
0.0
  0
LINE
  5
24F
330
1F
100
AcDbEntity
  8
0
  6
Continuous
 62
     7
370
    25
100
AcDbLine
 10
3956.7760220401
 20
7633.1589636831
 30
0.0
 11
3956.7760220401
 21
7683.1589636831
 31
0.0
  0
ARC
  5
250
330
1F
100
AcDbEntity
  8
0
  6
Continuous
 62
     7
370
    25
100
AcDbCircle
 10
3960.2760220401
 20
7633.1589636831
 30
0.0
 40
3.500000000000909
100
AcDbArc
 50
180.0
 51
270.0
  0
ARC
  5
251
330
1F
100
AcDbEntity
  8
0
  6
Continuous
 62
     7
370
    25
100
AcDbCircle
 10
3960.2760220401
 20
7633.1589636831
 30
0.0
 40
6.5
100
AcDbArc
 50
180.0
 51
270.0
  0
ARC
  5
252
330
1F
100
AcDbEntity
  8
0
  6
Continuous
 62
     7
370
    25
100
AcDbCircle
 10
4209.4517240819
 20
7687.1589636831
 30
0.0
 40
4.0
100
AcDbArc
 50
270.0
 51
90.0
  0
LINE
  5
253
330
1F
100
AcDbEntity
  8
0
  6
Continuous
 62
     7
370
    25
100
AcDbLine
 10
4209.4517240819
 20
7691.1589636831
 30
0.0
 11
4199.2838498171
 21
7691.1589636831
 31
0.0
  0
LINE
  5
254
330
1F
100
AcDbEntity
  8
0
  6
Continuous
 62
     7
370
    25
100
AcDbLine
 10
4202.06125502
 20
7683.1589636831
 30
0.0
 11
4207.4253919038
 21
7683.1589636831
 31
0.0
  0
LINE
  5
255
330
1F
100
AcDbEntity
  8
0
  6
Continuous
 62
     7
370
    25
100
AcDbLine
 10
4199.2838498171
 20
7683.1589636831
 30
0.0
 11
4199.390753786
 21
7683.1589636831
 31
0.0
  0
ARC
  5
256
330
1F
100
AcDbEntity
  8
0
  6
Continuous
 62
     7
370
    25
100
AcDbCircle
 10
3930.8804615362
 20
7687.1589636831
 30
0.0
 40
4.0
100
AcDbArc
 50
90.0
 51
270.0
  0
LINE
  5
257
330
1F
100
AcDbEntity
  8
0
  6
Continuous
 62
     7
370
    25
100
AcDbLine
 10
3941.0483358009
 20
7691.1589636831
 30
0.0
 11
3930.8804615362
 21
7691.1589636831
 31
0.0
  0
LINE
  5
258
330
1F
100
AcDbEntity
  8
0
  6
Continuous
 62
     7
370
    25
100
AcDbLine
 10
3940.9376018692
 20
7683.1589636831
 30
0.0
 11
3941.0483358009
 21
7683.1589636831
 31
0.0
  0
LINE
  5
259
330
1F
100
AcDbEntity
  8
0
  6
Continuous
 62
     7
370
    25
100
AcDbLine
 10
3932.9001553912
 20
7683.1589636831
 30
0.0
 11
3938.2709305981
 21
7683.1589636831
 31
0.0
  0
LINE
  5
25A
330
1F
100
AcDbEntity
  8
0
  6
Continuous
 62
     7
370
    25
100
AcDbLine
 10
4202.06125502
 20
7633.1589636831
 30
0.0
 11
4202.06125502
 21
7683.2841870001
 31
0.0
  0
LINE
  5
25B
330
1F
100
AcDbEntity
  8
0
  6
Continuous
 62
     7
370
    25
100
AcDbLine
 10
4199.06125502
 20
7683.1589636831
 30
0.0
 11
4199.06125502
 21
7633.1589636831
 31
0.0
  0
ARC
  5
25C
330
1F
100
AcDbEntity
  8
0
  6
Continuous
 62
     7
370
    25
100
AcDbCircle
 10
4195.56125502
 20
7633.1589636831
 30
0.0
 40
3.500000000000909
100
AcDbArc
 50
270.0
 51
0.0
  0
ARC
  5
25D
330
1F
100
AcDbEntity
  8
0
  6
Continuous
 62
     7
370
    25
100
AcDbCircle
 10
4195.56125502
 20
7633.1589636831
 30
0.0
 40
6.5
100
AcDbArc
 50
270.0
 51
0.0
  0
LINE
  5
25E
330
1F
100
AcDbEntity
  8
0
  6
Continuous
 62
     7
370
    25
100
AcDbLine
 10
3944.7709305981
 20
7626.6589636831
 30
0.0
 11
3960.2760220401
 21
7626.6589636831
 31
0.0
  0
LINE
  5
25F
330
1F
100
AcDbEntity
  8
0
  6
Continuous
 62
     7
370
    25
100
AcDbLine
 10
4180.0561635779
 20
7626.6589636831
 30
0.0
 11
4195.56125502
 21
7626.6589636831
 31
0.0
  0
LINE
  5
260
330
1F
100
AcDbEntity
  8
0
  6
Continuous
 62
     7
370
    25
100
AcDbLine
 10
4195.56125502
 20
7629.6589636831
 30
0.0
 11
4185.533389153
 21
7629.6589636831
 31
0.0
  0
LINE
  5
261
330
1F
100
AcDbEntity
  8
0
  6
Continuous
 62
     7
370
    25
100
AcDbLine
 10
3954.7987964651
 20
7629.6589636831
 30
0.0
 11
3944.7709305981
 21
7629.6589636831
 31
0.0
  0
LINE
  5
262
330
1F
100
AcDbEntity
  8
0
  6
Continuous
 62
     7
370
    25
100
AcDbLine
 10
3938.2709305981
 20
7683.283997574
 30
0.0
 11
3938.2709305981
 21
7633.1589636831
 31
0.0
  0
LINE
  5
263
330
1F
100
AcDbEntity
  8
0
  6
Continuous
 62
     7
370
    25
100
AcDbLine
 10
3941.2709305981
 20
7633.1589636831
 30
0.0
 11
3941.2709305981
 21
7683.1589636831
 31
0.0
  0
ARC
  5
264
330
1F
100
AcDbEntity
  8
0
  6
Continuous
 62
     7
370
    25
100
AcDbCircle
 10
3944.7709305981
 20
7633.1589636831
 30
0.0
 40
3.500000000000909
100
AcDbArc
 50
180.0
 51
270.0
  0
ARC
  5
265
330
1F
100
AcDbEntity
  8
0
  6
Continuous
 62
     7
370
    25
100
AcDbCircle
 10
3944.7709305981
 20
7633.1589636831
 30
0.0
 40
6.5
100
AcDbArc
 50
180.0
 51
270.0
  0
LINE
  5
266
330
1F
100
AcDbEntity
  8
0
  6
Continuous
 62
     7
370
    25
100
AcDbLine
 10
4209.4740449817
 20
7633.1589636831
 30
0.0
 11
4209.4740449817
 21
7683.4166240683
 31
0.0
  0
LINE
  5
267
330
1F
100
AcDbEntity
  8
0
  6
Continuous
 62
     7
370
    25
100
AcDbLine
 10
4206.4740449817
 20
7683.1589636831
 30
0.0
 11
4206.4740449817
 21
7633.1589636831
 31
0.0
  0
ARC
  5
268
330
1F
100
AcDbEntity
  8
0
  6
Continuous
 62
     7
370
    25
100
AcDbCircle
 10
4202.9740449817
 20
7633.1589636831
 30
0.0
 40
3.500000000000909
100
AcDbArc
 50
270.0
 51
0.0
  0
ARC
  5
269
330
1F
100
AcDbEntity
  8
0
  6
Continuous
 62
     7
370
    25
100
AcDbCircle
 10
4202.9740449817
 20
7633.1589636831
 30
0.0
 40
6.5
100
AcDbArc
 50
270.0
 51
0.0
  0
LINE
  5
26A
330
1F
100
AcDbEntity
  8
0
  6
Continuous
 62
     7
370
    25
100
AcDbLine
 10
3937.3581406363
 20
7626.6589636831
 30
0.0
 11
3944.7709305981
 21
7626.6589636831
 31
0.0
  0
LINE
  5
26B
330
1F
100
AcDbEntity
  8
0
  6
Continuous
 62
     7
370
    25
100
AcDbLine
 10
4195.56125502
 20
7626.6589636831
 30
0.0
 11
4202.9740449817
 21
7626.6589636831
 31
0.0
  0
LINE
  5
26C
330
1F
100
AcDbEntity
  8
0
  6
Continuous
 62
     7
370
    25
100
AcDbLine
 10
4202.9740449817
 20
7629.6589636831
 30
0.0
 11
4201.038480595
 21
7629.6589636831
 31
0.0
  0
LINE
  5
26D
330
1F
100
AcDbEntity
  8
0
  6
Continuous
 62
     7
370
    25
100
AcDbLine
 10
3939.293705023
 20
7629.6589636831
 30
0.0
 11
3937.3581406363
 21
7629.6589636831
 31
0.0
  0
LINE
  5
26E
330
1F
100
AcDbEntity
  8
0
  6
Continuous
 62
     7
370
    25
100
AcDbLine
 10
3930.8581406363
 20
7683.4141777849
 30
0.0
 11
3930.8581406363
 21
7633.1589636831
 31
0.0
  0
LINE
  5
26F
330
1F
100
AcDbEntity
  8
0
  6
Continuous
 62
     7
370
    25
100
AcDbLine
 10
3933.8581406363
 20
7633.1589636831
 30
0.0
 11
3933.8581406363
 21
7683.1589636831
 31
0.0
  0
ARC
  5
270
330
1F
100
AcDbEntity
  8
0
  6
Continuous
 62
     7
370
    25
100
AcDbCircle
 10
3937.3581406363
 20
7633.1589636831
 30
0.0
 40
3.500000000000909
100
AcDbArc
 50
180.0
 51
270.0
  0
ARC
  5
271
330
1F
100
AcDbEntity
  8
0
  6
Continuous
 62
     7
370
    25
100
AcDbCircle
 10
3937.3581406363
 20
7633.1589636831
 30
0.0
 40
6.5
100
AcDbArc
 50
180.0
 51
270.0
  0
LINE
  5
272
330
1F
100
AcDbEntity
  8
0
  6
Continuous
 62
     7
370
    25
100
AcDbLine
 10
4210.8562853907
 20
7633.1589636831
 30
0.0
 11
4210.8562853907
 21
7683.4136723019
 31
0.0
  0
ARC
  5
273
330
1F
100
AcDbEntity
  8
0
  6
Continuous
 62
     7
370
    25
100
AcDbCircle
 10
4204.3562853907
 20
7633.1589636831
 30
0.0
 40
6.5
100
AcDbArc
 50
270.0
 51
0.0
  0
LINE
  5
274
330
1F
100
AcDbEntity
  8
0
  6
Continuous
 62
     7
370
    25
100
AcDbLine
 10
3935.9759002273
 20
7626.6589636831
 30
0.0
 11
3937.3581406363
 21
7626.6589636831
 31
0.0
  0
LINE
  5
275
330
1F
100
AcDbEntity
  8
0
  6
Continuous
 62
     7
370
    25
100
AcDbLine
 10
4202.9740449817
 20
7626.6589636831
 30
0.0
 11
4204.3562853907
 21
7626.6589636831
 31
0.0
  0
LINE
  5
276
330
1F
100
AcDbEntity
  8
0
  6
Continuous
 62
     7
370
    25
100
AcDbLine
 10
3929.4759002273
 20
7683.4136723019
 30
0.0
 11
3929.4759002273
 21
7633.1589636831
 31
0.0
  0
ARC
  5
277
330
1F
100
AcDbEntity
  8
0
  6
Continuous
 62
     7
370
    25
100
AcDbCircle
 10
3935.9759002273
 20
7633.1589636831
 30
0.0
 40
6.5
100
AcDbArc
 50
180.0
 51
270.0
  0
LINE
  5
278
330
1F
100
AcDbEntity
  8
0
  6
Continuous
 62
     7
370
    25
100
AcDbLine
 10
4204.4070210375
 20
7683.1589636831
 30
0.0
 11
4204.4070210375
 21
7633.1589636831
 31
0.0
  0
ARC
  5
279
330
1F
100
AcDbEntity
  8
0
  6
Continuous
 62
     7
370
    25
100
AcDbCircle
 10
4200.9070210375
 20
7633.1589636831
 30
0.0
 40
3.500000000000591
100
AcDbArc
 50
272.1790080205
 51
0.0
  0
LINE
  5
27A
330
1F
100
AcDbEntity
  8
0
  6
Continuous
 62
     7
370
    25
100
AcDbLine
 10
3935.9251645805
 20
7633.1589636831
 30
0.0
 11
3935.9251645805
 21
7683.1589636831
 31
0.0
  0
ARC
  5
27B
330
1F
100
AcDbEntity
  8
0
  6
Continuous
 62
     7
370
    25
100
AcDbCircle
 10
3939.4251645805
 20
7633.1589636831
 30
0.0
 40
3.500000000000401
100
AcDbArc
 50
180.0
 51
267.8209919796
  0
LINE
  5
27C
330
1F
100
AcDbEntity
  8
0
  6
Continuous
 62
     7
370
    25
100
AcDbLine
 10
4197.5031224483
 20
7633.1589636831
 30
0.0
 11
4197.5031224483
 21
7683.1589636831
 31
0.0
  0
LINE
  5
27D
330
1F
100
AcDbEntity
  8
0
  6
Continuous
 62
     7
370
    25
100
AcDbLine
 10
4194.5031224483
 20
7683.1589636831
 30
0.0
 11
4194.5031224483
 21
7633.1589636831
 31
0.0
  0
ARC
  5
27E
330
1F
100
AcDbEntity
  8
0
  6
Continuous
 62
     7
370
    25
100
AcDbCircle
 10
4191.0031224483
 20
7633.1589636831
 30
0.0
 40
3.500000000000909
100
AcDbArc
 50
270.0
 51
0.0
  0
ARC
  5
27F
330
1F
100
AcDbEntity
  8
0
  6
Continuous
 62
     7
370
    25
100
AcDbCircle
 10
4191.0031224483
 20
7633.1589636831
 30
0.0
 40
6.500000000000215
100
AcDbArc
 50
328.970920413
 51
0.0
  0
LINE
  5
280
330
1F
100
AcDbEntity
  8
0
  6
Continuous
 62
     7
370
    25
100
AcDbLine
 10
3942.8290631698
 20
7683.1589636831
 30
0.0
 11
3942.8290631698
 21
7633.1589636831
 31
0.0
  0
LINE
  5
281
330
1F
100
AcDbEntity
  8
0
  6
Continuous
 62
     7
370
    25
100
AcDbLine
 10
3945.8290631698
 20
7633.1589636831
 30
0.0
 11
3945.8290631698
 21
7683.1589636831
 31
0.0
  0
ARC
  5
282
330
1F
100
AcDbEntity
  8
0
  6
Continuous
 62
     7
370
    25
100
AcDbCircle
 10
3949.3290631698
 20
7633.1589636831
 30
0.0
 40
3.500000000000909
100
AcDbArc
 50
180.0
 51
270.0
  0
ARC
  5
283
330
1F
100
AcDbEntity
  8
0
  6
Continuous
 62
     7
370
    25
100
AcDbCircle
 10
3949.3290631698
 20
7633.1589636831
 30
0.0
 40
6.500000000000592
100
AcDbArc
 50
180.0
 51
211.0290795869
  0
LINE
  5
284
330
1F
100
AcDbEntity
  8
0
  6
Continuous
 62
     7
370
    25
100
AcDbLine
 10
4183.2367812094
 20
7683.1589636831
 30
0.0
 11
4183.2367812094
 21
7633.1589636831
 31
0.0
  0
ARC
  5
285
330
1F
100
AcDbEntity
  8
0
  6
Continuous
 62
     7
370
    25
100
AcDbCircle
 10
4179.7367812094
 20
7633.1589636831
 30
0.0
 40
3.500000000000909
100
AcDbArc
 50
270.0
 51
0.0
  0
LINE
  5
286
330
1F
100
AcDbEntity
  8
0
  6
Continuous
 62
     7
370
    25
100
AcDbLine
 10
3957.0954044087
 20
7633.1589636831
 30
0.0
 11
3957.0954044087
 21
7683.1589636831
 31
0.0
  0
ARC
  5
287
330
1F
100
AcDbEntity
  8
0
  6
Continuous
 62
     7
370
    25
100
AcDbCircle
 10
3960.5954044087
 20
7633.1589636831
 30
0.0
 40
3.500000000000909
100
AcDbArc
 50
180.0
 51
270.0
  0
LINE
  5
288
330
1F
100
AcDbEntity
  8
0
  6
Continuous
 62
     7
370
    25
100
AcDbLine
 10
4174.9704399705
 20
7633.1589636831
 30
0.0
 11
4174.9704399705
 21
7682.1805983503
 31
0.0
  0
LINE
  5
289
330
1F
100
AcDbEntity
  8
0
  6
Continuous
 62
     7
370
    25
100
AcDbLine
 10
4171.9704399705
 20
7683.1589636831
 30
0.0
 11
4171.9704399705
 21
7633.1589636831
 31
0.0
  0
ARC
  5
28A
330
1F
100
AcDbEntity
  8
0
  6
Continuous
 62
     7
370
    25
100
AcDbCircle
 10
4168.4704399705
 20
7633.1589636831
 30
0.0
 40
3.500000000000909
100
AcDbArc
 50
270.0
 51
0.0
  0
ARC
  5
28B
330
1F
100
AcDbEntity
  8
0
  6
Continuous
 62
     7
370
    25
100
AcDbCircle
 10
4168.4704399705
 20
7633.1589636831
 30
0.0
 40
6.5
100
AcDbArc
 50
327.4210296072
 51
0.0
  0
LINE
  5
28C
330
1F
100
AcDbEntity
  8
0
  6
Continuous
 62
     7
370
    25
100
AcDbLine
 10
3965.3617456475
 20
7683.1589636831
 30
0.0
 11
3965.3617456475
 21
7633.1589636831
 31
0.0
  0
LINE
  5
28D
330
1F
100
AcDbEntity
  8
0
  6
Continuous
 62
     7
370
    25
100
AcDbLine
 10
3968.3617456475
 20
7633.1589636831
 30
0.0
 11
3968.3617456475
 21
7683.1589636831
 31
0.0
  0
ARC
  5
28E
330
1F
100
AcDbEntity
  8
0
  6
Continuous
 62
     7
370
    25
100
AcDbCircle
 10
3971.8617456475
 20
7633.1589636831
 30
0.0
 40
3.500000000000909
100
AcDbArc
 50
180.0
 51
270.0
  0
ARC
  5
28F
330
1F
100
AcDbEntity
  8
0
  6
Continuous
 62
     7
370
    25
100
AcDbCircle
 10
3971.8617456475
 20
7633.1589636831
 30
0.0
 40
6.500000000000575
100
AcDbArc
 50
180.0
 51
212.5789703928
  0
LINE
  5
290
330
1F
100
AcDbEntity
  8
0
  6
Continuous
 62
     7
370
    25
100
AcDbLine
 10
4163.7040987316
 20
7633.1589636831
 30
0.0
 11
4163.7040987316
 21
7683.1589636831
 31
0.0
  0
LINE
  5
291
330
1F
100
AcDbEntity
  8
0
  6
Continuous
 62
     7
370
    25
100
AcDbLine
 10
4160.7040987316
 20
7683.1589636831
 30
0.0
 11
4160.7040987316
 21
7633.1589636831
 31
0.0
  0
ARC
  5
292
330
1F
100
AcDbEntity
  8
0
  6
Continuous
 62
     7
370
    25
100
AcDbCircle
 10
4157.2040987316
 20
7633.1589636831
 30
0.0
 40
3.500000000000909
100
AcDbArc
 50
270.0
 51
0.0
  0
ARC
  5
293
330
1F
100
AcDbEntity
  8
0
  6
Continuous
 62
     7
370
    25
100
AcDbCircle
 10
4157.2040987316
 20
7633.1589636831
 30
0.0
 40
6.500000000000898
100
AcDbArc
 50
336.4244367852
 51
0.0
  0
LINE
  5
294
330
1F
100
AcDbEntity
  8
0
  6
Continuous
 62
     7
370
    25
100
AcDbLine
 10
3976.6280868864
 20
7683.1589636831
 30
0.0
 11
3976.6280868864
 21
7633.1589636831
 31
0.0
  0
LINE
  5
295
330
1F
100
AcDbEntity
  8
0
  6
Continuous
 62
     7
370
    25
100
AcDbLine
 10
3979.6280868864
 20
7633.1589636831
 30
0.0
 11
3979.6280868864
 21
7683.1589636831
 31
0.0
  0
ARC
  5
296
330
1F
100
AcDbEntity
  8
0
  6
Continuous
 62
     7
370
    25
100
AcDbCircle
 10
3983.1280868864
 20
7633.1589636831
 30
0.0
 40
3.500000000000909
100
AcDbArc
 50
180.0
 51
270.0
  0
ARC
  5
297
330
1F
100
AcDbEntity
  8
0
  6
Continuous
 62
     7
370
    25
100
AcDbCircle
 10
3983.1280868864
 20
7633.1589636831
 30
0.0
 40
6.500000000000065
100
AcDbArc
 50
180.0
 51
203.5755632153
  0
LINE
  5
298
330
1F
100
AcDbEntity
  8
0
  6
Continuous
 62
     7
370
    25
100
AcDbLine
 10
4152.4377574927
 20
7633.1589636831
 30
0.0
 11
4152.4377574927
 21
7683.1589636831
 31
0.0
  0
LINE
  5
299
330
1F
100
AcDbEntity
  8
0
  6
Continuous
 62
     7
370
    25
100
AcDbLine
 10
4149.4377574927
 20
7683.1589636831
 30
0.0
 11
4149.4377574927
 21
7633.1589636831
 31
0.0
  0
ARC
  5
29A
330
1F
100
AcDbEntity
  8
0
  6
Continuous
 62
     7
370
    25
100
AcDbCircle
 10
4145.9377574927
 20
7633.1589636831
 30
0.0
 40
3.500000000000909
100
AcDbArc
 50
270.0
 51
0.0
  0
ARC
  5
29B
330
1F
100
AcDbEntity
  8
0
  6
Continuous
 62
     7
370
    25
100
AcDbCircle
 10
4145.9377574927
 20
7633.1589636831
 30
0.0
 40
6.500000000000191
100
AcDbArc
 50
327.4210296072
 51
0.0
  0
LINE
  5
29C
330
1F
100
AcDbEntity
  8
0
  6
Continuous
 62
     7
370
    25
100
AcDbLine
 10
3987.8944281253
 20
7682.1589636831
 30
0.0
 11
3987.8944281253
 21
7633.1589636831
 31
0.0
  0
LINE
  5
29D
330
1F
100
AcDbEntity
  8
0
  6
Continuous
 62
     7
370
    25
100
AcDbLine
 10
3990.8944281253
 20
7633.1589636831
 30
0.0
 11
3990.8944281253
 21
7683.1589636831
 31
0.0
  0
ARC
  5
29E
330
1F
100
AcDbEntity
  8
0
  6
Continuous
 62
     7
370
    25
100
AcDbCircle
 10
3994.3944281253
 20
7633.1589636831
 30
0.0
 40
3.500000000000909
100
AcDbArc
 50
180.0
 51
270.0
  0
ARC
  5
29F
330
1F
100
AcDbEntity
  8
0
  6
Continuous
 62
     7
370
    25
100
AcDbCircle
 10
3994.3944281253
 20
7633.1589636831
 30
0.0
 40
6.500000000000191
100
AcDbArc
 50
180.0
 51
212.5789703928
  0
LINE
  5
2A0
330
1F
100
AcDbEntity
  8
0
  6
Continuous
 62
     7
370
    25
100
AcDbLine
 10
4141.1714162538
 20
7633.1589636831
 30
0.0
 11
4141.1714162538
 21
7633.7232573346
 31
0.0
  0
LINE
  5
2A1
330
1F
100
AcDbEntity
  8
0
  6
Continuous
 62
     7
370
    25
100
AcDbLine
 10
4138.1714162538
 20
7683.1589636831
 30
0.0
 11
4138.1714162538
 21
7634.2527452617
 31
0.0
  0
ARC
  5
2A2
330
1F
100
AcDbEntity
  8
0
  6
Continuous
 62
     7
370
    25
100
AcDbCircle
 10
4134.6714162538
 20
7633.1589636831
 30
0.0
 40
6.500000000000191
100
AcDbArc
 50
327.4210296072
 51
0.0
  0
LINE
  5
2A3
330
1F
100
AcDbEntity
  8
0
  6
Continuous
 62
     7
370
    25
100
AcDbLine
 10
3999.1607693642
 20
7633.7232573346
 30
0.0
 11
3999.1607693642
 21
7633.1589636831
 31
0.0
  0
LINE
  5
2A4
330
1F
100
AcDbEntity
  8
0
  6
Continuous
 62
     7
370
    25
100
AcDbLine
 10
4002.1607693642
 20
7634.2527452617
 30
0.0
 11
4002.1607693642
 21
7683.1589636831
 31
0.0
  0
ARC
  5
2A5
330
1F
100
AcDbEntity
  8
0
  6
Continuous
 62
     7
370
    25
100
AcDbCircle
 10
4005.6607693642
 20
7633.1589636831
 30
0.0
 40
6.500000000000575
100
AcDbArc
 50
180.0
 51
212.5789703928
  0
LINE
  5
2A6
330
1F
100
AcDbEntity
  8
0
  6
Continuous
 62
     7
370
    25
100
AcDbLine
 10
4129.905075015
 20
7633.1589636831
 30
0.0
 11
4129.905075015
 21
7683.1589636831
 31
0.0
  0
LINE
  5
2A7
330
1F
100
AcDbEntity
  8
0
  6
Continuous
 62
     7
370
    25
100
AcDbLine
 10
4126.905075015
 20
7683.1589636831
 30
0.0
 11
4126.905075015
 21
7633.1589636831
 31
0.0
  0
LWPOLYLINE
  5
2A8
330
1F
100
AcDbEntity
  8
0
  6
Continuous
 62
     7
370
    25
100
AcDbPolyline
 90
        3
 70
   128
 43
0.0
 10
4126.905075015
 20
7633.1589636831
 10
4126.8378234964
 20
7632.476147556
 10
4126.7591769812
 20
7632.1589636831
  0
LINE
  5
2A9
330
1F
100
AcDbEntity
  8
0
  6
Continuous
 62
     7
370
    25
100
AcDbLine
 10
4129.8276913043
 20
7632.1589636831
 30
0.0
 11
4129.905075015
 21
7633.1589636831
 31
0.0
  0
LINE
  5
2AA
330
1F
100
AcDbEntity
  8
0
  6
Continuous
 62
     7
370
    25
100
AcDbLine
 10
4010.4271106031
 20
7683.1589636831
 30
0.0
 11
4010.4271106031
 21
7633.1589636831
 31
0.0
  0
LINE
  5
2AB
330
1F
100
AcDbEntity
  8
0
  6
Continuous
 62
     7
370
    25
100
AcDbLine
 10
4013.4271106031
 20
7633.1589636831
 30
0.0
 11
4013.4271106031
 21
7683.1589636831
 31
0.0
  0
LWPOLYLINE
  5
2AC
330
1F
100
AcDbEntity
  8
0
  6
Continuous
 62
     7
370
    25
100
AcDbPolyline
 90
        3
 70
   128
 43
0.0
 10
4013.5730086368
 20
7632.1589636831
 10
4013.4943621217
 20
7632.476147556
 10
4013.4271106031
 20
7633.1589636831
  0
LINE
  5
2AD
330
1F
100
AcDbEntity
  8
0
  6
Continuous
 62
     7
370
    25
100
AcDbLine
 10
4010.4271106031
 20
7633.1589636831
 30
0.0
 11
4010.5044943138
 21
7632.1589636831
 31
0.0
  0
LINE
  5
2AE
330
1F
100
AcDbEntity
  8
0
  6
Continuous
 62
     7
370
    25
100
AcDbLine
 10
4118.6387337761
 20
7633.1589636831
 30
0.0
 11
4118.6387337761
 21
7683.1589636831
 31
0.0
  0
LINE
  5
2AF
330
1F
100
AcDbEntity
  8
0
  6
Continuous
 62
     7
370
    25
100
AcDbLine
 10
4115.6387337761
 20
7683.1589636831
 30
0.0
 11
4115.6387337761
 21
7633.1589636831
 31
0.0
  0
LWPOLYLINE
  5
2B0
330
1F
100
AcDbEntity
  8
0
  6
Continuous
 62
     7
370
    25
100
AcDbPolyline
 90
        3
 70
   128
 43
0.0
 10
4115.6387337761
 20
7633.1589636831
 10
4115.5714822575
 20
7632.476147556
 10
4115.4928357423
 20
7632.1589636831
  0
LINE
  5
2B1
330
1F
100
AcDbEntity
  8
0
  6
Continuous
 62
     7
370
    25
100
AcDbLine
 10
4118.5613500654
 20
7632.1589636831
 30
0.0
 11
4118.6387337761
 21
7633.1589636831
 31
0.0
  0
LINE
  5
2B2
330
1F
100
AcDbEntity
  8
0
  6
Continuous
 62
     7
370
    25
100
AcDbLine
 10
4021.693451842
 20
7683.1589636831
 30
0.0
 11
4021.693451842
 21
7633.1589636831
 31
0.0
  0
LINE
  5
2B3
330
1F
100
AcDbEntity
  8
0
  6
Continuous
 62
     7
370
    25
100
AcDbLine
 10
4024.693451842
 20
7633.1589636831
 30
0.0
 11
4024.693451842
 21
7683.1589636831
 31
0.0
  0
LWPOLYLINE
  5
2B4
330
1F
100
AcDbEntity
  8
0
  6
Continuous
 62
     7
370
    25
100
AcDbPolyline
 90
        3
 70
   128
 43
0.0
 10
4024.8393498757
 20
7632.1589636831
 10
4024.7607033606
 20
7632.476147556
 10
4024.693451842
 20
7633.1589636831
  0
LINE
  5
2B5
330
1F
100
AcDbEntity
  8
0
  6
Continuous
 62
     7
370
    25
100
AcDbLine
 10
4021.693451842
 20
7633.1589636831
 30
0.0
 11
4021.7708355526
 21
7632.1589636831
 31
0.0
  0
LINE
  5
2B6
330
1F
100
AcDbEntity
  8
0
  6
Continuous
 62
     7
370
    25
100
AcDbLine
 10
4107.3723925372
 20
7633.1589636831
 30
0.0
 11
4107.3723925372
 21
7682.1589636831
 31
0.0
  0
LINE
  5
2B7
330
1F
100
AcDbEntity
  8
0
  6
Continuous
 62
     7
370
    25
100
AcDbLine
 10
4104.3723925372
 20
7683.1589636831
 30
0.0
 11
4104.3723925372
 21
7633.1589636831
 31
0.0
  0
LWPOLYLINE
  5
2B8
330
1F
100
AcDbEntity
  8
0
  6
Continuous
 62
     7
370
    25
100
AcDbPolyline
 90
        3
 70
   128
 43
0.0
 10
4104.3723925372
 20
7633.1589636831
 10
4104.3051410186
 20
7632.476147556
 10
4104.2264945034
 20
7632.1589636831
  0
LINE
  5
2B9
330
1F
100
AcDbEntity
  8
0
  6
Continuous
 62
     7
370
    25
100
AcDbLine
 10
4107.2950088265
 20
7632.1589636831
 30
0.0
 11
4107.3723925372
 21
7633.1589636831
 31
0.0
  0
LINE
  5
2BA
330
1F
100
AcDbEntity
  8
0
  6
Continuous
 62
     7
370
    25
100
AcDbLine
 10
4032.9597930809
 20
7683.1589636831
 30
0.0
 11
4032.9597930809
 21
7633.1589636831
 31
0.0
  0
LINE
  5
2BB
330
1F
100
AcDbEntity
  8
0
  6
Continuous
 62
     7
370
    25
100
AcDbLine
 10
4035.9597930809
 20
7633.1589636831
 30
0.0
 11
4035.9597930809
 21
7683.1589636831
 31
0.0
  0
LWPOLYLINE
  5
2BC
330
1F
100
AcDbEntity
  8
0
  6
Continuous
 62
     7
370
    25
100
AcDbPolyline
 90
        3
 70
   128
 43
0.0
 10
4036.1056911146
 20
7632.1589636831
 10
4036.0270445995
 20
7632.476147556
 10
4035.9597930809
 20
7633.1589636831
  0
LINE
  5
2BD
330
1F
100
AcDbEntity
  8
0
  6
Continuous
 62
     7
370
    25
100
AcDbLine
 10
4032.9597930809
 20
7633.1589636831
 30
0.0
 11
4033.0371767915
 21
7632.1589636831
 31
0.0
  0
LINE
  5
2BE
330
1F
100
AcDbEntity
  8
0
  6
Continuous
 62
     7
370
    25
100
AcDbLine
 10
4093.1060512983
 20
7683.1589636831
 30
0.0
 11
4093.1060512983
 21
7634.6589636831
 31
0.0
  0
LINE
  5
2BF
330
1F
100
AcDbEntity
  8
0
  6
Continuous
 62
     7
370
    25
100
AcDbLine
 10
4096.1060512983
 20
7634.8569205048
 30
0.0
 11
4096.1060512983
 21
7682.1805983503
 31
0.0
  0
LINE
  5
2C0
330
1F
100
AcDbEntity
  8
0
  6
Continuous
 62
     7
370
    25
100
AcDbLine
 10
4047.2261343197
 20
7634.6589636831
 30
0.0
 11
4047.2261343197
 21
7683.1589636831
 31
0.0
  0
LINE
  5
2C1
330
1F
100
AcDbEntity
  8
0
  6
Continuous
 62
     7
370
    25
100
AcDbLine
 10
4044.2261343197
 20
7683.1589636831
 30
0.0
 11
4044.2261343197
 21
7634.8569205048
 31
0.0
  0
LINE
  5
2C2
330
1F
100
AcDbEntity
  8
0
  6
Continuous
 62
     7
370
    25
100
AcDbLine
 10
4081.8397100594
 20
7683.1589636831
 30
0.0
 11
4081.8397100594
 21
7638.1589636831
 31
0.0
  0
LINE
  5
2C3
330
1F
100
AcDbEntity
  8
0
  6
Continuous
 62
     7
370
    25
100
AcDbLine
 10
4084.8397100594
 20
7638.1589636831
 30
0.0
 11
4084.8397100594
 21
7683.1589636831
 31
0.0
  0
LINE
  5
2C4
330
1F
100
AcDbEntity
  8
0
  6
Continuous
 62
     7
370
    25
100
AcDbLine
 10
4058.4924755586
 20
7638.1589636831
 30
0.0
 11
4058.4924755586
 21
7683.1589636831
 31
0.0
  0
LINE
  5
2C5
330
1F
100
AcDbEntity
  8
0
  6
Continuous
 62
     7
370
    25
100
AcDbLine
 10
4055.4924755586
 20
7683.1589636831
 30
0.0
 11
4055.4924755586
 21
7638.1589636831
 31
0.0
  0
ARC
  5
2C6
330
1F
100
AcDbEntity
  8
0
  6
Continuous
 62
     7
370
    25
100
AcDbCircle
 10
4078.3397100594
 20
7638.1589636831
 30
0.0
 40
3.5
100
AcDbArc
 50
270.0
 51
0.0
  0
ARC
  5
2C7
330
1F
100
AcDbEntity
  8
0
  6
Continuous
 62
     7
370
    25
100
AcDbCircle
 10
4078.3397100594
 20
7638.1589636831
 30
0.0
 40
6.5
100
AcDbArc
 50
327.4210296072
 51
0.0
  0
ARC
  5
2C8
330
1F
100
AcDbEntity
  8
0
  6
Continuous
 62
     7
370
    25
100
AcDbCircle
 10
4061.9924755586
 20
7638.1589636831
 30
0.0
 40
3.5
100
AcDbArc
 50
180.0
 51
270.0
  0
ARC
  5
2C9
330
1F
100
AcDbEntity
  8
0
  6
Continuous
 62
     7
370
    25
100
AcDbCircle
 10
4061.9924755586
 20
7638.1589636831
 30
0.0
 40
6.5
100
AcDbArc
 50
180.0
 51
212.5789703928
  0
LINE
  5
2CA
330
1F
100
AcDbEntity
  8
0
  6
Continuous
 62
     7
370
    25
100
AcDbLine
 10
4199.2838498171
 20
7944.1767496192
 30
0.0
 11
3941.0483358009
 21
7944.1767496192
 31
0.0
  0
LINE
  5
2CB
330
1F
100
AcDbEntity
  8
0
  6
Continuous
 62
     7
370
    25
100
AcDbLine
 10
4186.5561635779
 20
7936.1767496192
 30
0.0
 11
4199.2838498171
 21
7936.1767496192
 31
0.0
  0
LINE
  5
2CC
330
1F
100
AcDbEntity
  8
0
  6
Continuous
 62
     7
370
    25
100
AcDbLine
 10
4167.3181891951
 20
7936.1767496192
 30
0.0
 11
4183.8018965198
 21
7936.1767496192
 31
0.0
  0
LINE
  5
2CD
330
1F
100
AcDbEntity
  8
0
  6
Continuous
 62
     7
370
    25
100
AcDbLine
 10
4141.3635482984
 20
7936.1767496192
 30
0.0
 11
4164.4783732949
 21
7936.1767496192
 31
0.0
  0
LINE
  5
2CE
330
1F
100
AcDbEntity
  8
0
  6
Continuous
 62
     7
370
    25
100
AcDbLine
 10
4101.4126956746
 20
7936.1767496192
 30
0.0
 11
4138.5713521077
 21
7936.1767496192
 31
0.0
  0
LINE
  5
2CF
330
1F
100
AcDbEntity
  8
0
  6
Continuous
 62
     7
370
    25
100
AcDbLine
 10
4041.8655105251
 20
7936.1767496192
 30
0.0
 11
4098.4721721248
 21
7936.1767496192
 31
0.0
  0
LINE
  5
2D0
330
1F
100
AcDbEntity
  8
0
  6
Continuous
 62
     7
370
    25
100
AcDbLine
 10
4001.7804655544
 20
7936.1767496192
 30
0.0
 11
4038.9220880751
 21
7936.1767496192
 31
0.0
  0
LINE
  5
2D1
330
1F
100
AcDbEntity
  8
0
  6
Continuous
 62
     7
370
    25
100
AcDbLine
 10
3975.8399231579
 20
7936.1767496192
 30
0.0
 11
3998.9512318302
 21
7936.1767496192
 31
0.0
  0
LINE
  5
2D2
330
1F
100
AcDbEntity
  8
0
  6
Continuous
 62
     7
370
    25
100
AcDbLine
 10
3956.5368801112
 20
7936.1767496192
 30
0.0
 11
3973.0139964229
 21
7936.1767496192
 31
0.0
  0
LINE
  5
2D3
330
1F
100
AcDbEntity
  8
0
  6
Continuous
 62
     7
370
    25
100
AcDbLine
 10
3941.0483358009
 20
7936.1767496192
 30
0.0
 11
3953.7760220401
 21
7936.1767496192
 31
0.0
  0
LINE
  5
2D4
330
1F
100
AcDbEntity
  8
0
  6
Continuous
 62
     7
370
    25
100
AcDbLine
 10
4101.4456587573
 20
7891.1767496192
 30
0.0
 11
4101.4456587573
 21
7936.1842193461
 31
0.0
  0
LINE
  5
2D5
330
1F
100
AcDbEntity
  8
0
  6
Continuous
 62
     7
370
    25
100
AcDbLine
 10
4098.4456587573
 20
7936.189405926
 30
0.0
 11
4098.4456587573
 21
7891.1767496192
 31
0.0
  0
ARC
  5
2D6
330
1F
100
AcDbEntity
  8
0
  6
Continuous
 62
     7
370
    25
100
AcDbCircle
 10
4094.9456587573
 20
7891.1767496192
 30
0.0
 40
3.5
100
AcDbArc
 50
270.0
 51
0.0
  0
ARC
  5
2D7
330
1F
100
AcDbEntity
  8
0
  6
Continuous
 62
     7
370
    25
100
AcDbCircle
 10
4094.9456587573
 20
7891.1767496192
 30
0.0
 40
6.500000000000455
100
AcDbArc
 50
270.0
 51
0.0
  0
LINE
  5
2D8
330
1F
100
AcDbEntity
  8
0
  6
Continuous
 62
     7
370
    25
100
AcDbLine
 10
4038.8865268607
 20
7936.1891110919
 30
0.0
 11
4038.8865268607
 21
7891.1767496192
 31
0.0
  0
LINE
  5
2D9
330
1F
100
AcDbEntity
  8
0
  6
Continuous
 62
     7
370
    25
100
AcDbLine
 10
4041.8865268607
 20
7891.1767496192
 30
0.0
 11
4041.8865268607
 21
7936.1845585841
 31
0.0
  0
LINE
  5
2DA
330
1F
100
AcDbEntity
  8
0
  6
Continuous
 62
     7
370
    25
100
AcDbLine
 10
4045.3865268607
 20
7884.6767496192
 30
0.0
 11
4094.9456587573
 21
7884.6767496192
 31
0.0
  0
LINE
  5
2DB
330
1F
100
AcDbEntity
  8
0
  6
Continuous
 62
     7
370
    25
100
AcDbLine
 10
4094.9456587573
 20
7887.6767496192
 30
0.0
 11
4045.3865268607
 21
7887.6767496192
 31
0.0
  0
ARC
  5
2DC
330
1F
100
AcDbEntity
  8
0
  6
Continuous
 62
     7
370
    25
100
AcDbCircle
 10
4045.3865268607
 20
7891.1767496192
 30
0.0
 40
3.5
100
AcDbArc
 50
180.0
 51
270.0
  0
ARC
  5
2DD
330
1F
100
AcDbEntity
  8
0
  6
Continuous
 62
     7
370
    25
100
AcDbCircle
 10
4045.3865268607
 20
7891.1767496192
 30
0.0
 40
6.5
100
AcDbArc
 50
180.0
 51
270.0
  0
LINE
  5
2DE
330
1F
100
AcDbEntity
  8
0
  6
Continuous
 62
     7
370
    25
100
AcDbLine
 10
4141.4663343904
 20
7888.6767496192
 30
0.0
 11
4141.4663343904
 21
7936.2130820709
 31
0.0
  0
LINE
  5
2DF
330
1F
100
AcDbEntity
  8
0
  6
Continuous
 62
     7
370
    25
100
AcDbLine
 10
4138.4663343904
 20
7936.2069606102
 30
0.0
 11
4138.4663343904
 21
7888.6767496192
 31
0.0
  0
ARC
  5
2E0
330
1F
100
AcDbEntity
  8
0
  6
Continuous
 62
     7
370
    25
100
AcDbCircle
 10
4134.9663343904
 20
7888.6767496192
 30
0.0
 40
3.500000000000909
100
AcDbArc
 50
270.0
 51
0.0
  0
ARC
  5
2E1
330
1F
100
AcDbEntity
  8
0
  6
Continuous
 62
     7
370
    25
100
AcDbCircle
 10
4134.9663343904
 20
7888.6767496192
 30
0.0
 40
6.5
100
AcDbArc
 50
270.0
 51
0.0
  0
LINE
  5
2E2
330
1F
100
AcDbEntity
  8
0
  6
Continuous
 62
     7
370
    25
100
AcDbLine
 10
4005.3658512277
 20
7882.1767496192
 30
0.0
 11
4134.9663343904
 21
7882.1767496192
 31
0.0
  0
LINE
  5
2E3
330
1F
100
AcDbEntity
  8
0
  6
Continuous
 62
     7
370
    25
100
AcDbLine
 10
4134.9663343904
 20
7885.1767496192
 30
0.0
 11
4097.4456587573
 21
7885.1767496192
 31
0.0
  0
LINE
  5
2E4
330
1F
100
AcDbEntity
  8
0
  6
Continuous
 62
     7
370
    25
100
AcDbLine
 10
4042.8865268607
 20
7885.1767496192
 30
0.0
 11
4005.3658512277
 21
7885.1767496192
 31
0.0
  0
LINE
  5
2E5
330
1F
100
AcDbEntity
  8
0
  6
Continuous
 62
     7
370
    25
100
AcDbLine
 10
3998.8658512277
 20
7936.2088289574
 30
0.0
 11
3998.8658512277
 21
7888.6767496192
 31
0.0
  0
LINE
  5
2E6
330
1F
100
AcDbEntity
  8
0
  6
Continuous
 62
     7
370
    25
100
AcDbLine
 10
4001.8658512277
 20
7888.6767496192
 30
0.0
 11
4001.8658512277
 21
7936.2103024099
 31
0.0
  0
ARC
  5
2E7
330
1F
100
AcDbEntity
  8
0
  6
Continuous
 62
     7
370
    25
100
AcDbCircle
 10
4005.3658512277
 20
7888.6767496192
 30
0.0
 40
3.500000000000909
100
AcDbArc
 50
180.0
 51
270.0
  0
ARC
  5
2E8
330
1F
100
AcDbEntity
  8
0
  6
Continuous
 62
     7
370
    25
100
AcDbCircle
 10
4005.3658512277
 20
7888.6767496192
 30
0.0
 40
6.5
100
AcDbArc
 50
180.0
 51
270.0
  0
LINE
  5
2E9
330
1F
100
AcDbEntity
  8
0
  6
Continuous
 62
     7
370
    25
100
AcDbLine
 10
4167.3181891951
 20
7886.1767496192
 30
0.0
 11
4167.3181891951
 21
7936.2374089049
 31
0.0
  0
LINE
  5
2EA
330
1F
100
AcDbEntity
  8
0
  6
Continuous
 62
     7
370
    25
100
AcDbLine
 10
4164.3181891951
 20
7936.1767496192
 30
0.0
 11
4164.3181891951
 21
7886.1767496192
 31
0.0
  0
ARC
  5
2EB
330
1F
100
AcDbEntity
  8
0
  6
Continuous
 62
     7
370
    25
100
AcDbCircle
 10
4160.8181891951
 20
7886.1767496192
 30
0.0
 40
3.5
100
AcDbArc
 50
270.0
 51
0.0
  0
ARC
  5
2EC
330
1F
100
AcDbEntity
  8
0
  6
Continuous
 62
     7
370
    25
100
AcDbCircle
 10
4160.8181891951
 20
7886.1767496192
 30
0.0
 40
6.5
100
AcDbArc
 50
270.0
 51
0.0
  0
LINE
  5
2ED
330
1F
100
AcDbEntity
  8
0
  6
Continuous
 62
     7
370
    25
100
AcDbLine
 10
3979.5139964229
 20
7879.6767496192
 30
0.0
 11
4160.8181891951
 21
7879.6767496192
 31
0.0
  0
LINE
  5
2EE
330
1F
100
AcDbEntity
  8
0
  6
Continuous
 62
     7
370
    25
100
AcDbLine
 10
4160.8181891951
 20
7882.6767496192
 30
0.0
 11
4137.4663343904
 21
7882.6767496192
 31
0.0
  0
LINE
  5
2EF
330
1F
100
AcDbEntity
  8
0
  6
Continuous
 62
     7
370
    25
100
AcDbLine
 10
4002.8658512277
 20
7882.6767496192
 30
0.0
 11
3979.5139964229
 21
7882.6767496192
 31
0.0
  0
LINE
  5
2F0
330
1F
100
AcDbEntity
  8
0
  6
Continuous
 62
     7
370
    25
100
AcDbLine
 10
3973.0139964229
 20
7936.2344608943
 30
0.0
 11
3973.0139964229
 21
7886.1767496192
 31
0.0
  0
LINE
  5
2F1
330
1F
100
AcDbEntity
  8
0
  6
Continuous
 62
     7
370
    25
100
AcDbLine
 10
3976.0139964229
 20
7886.1767496192
 30
0.0
 11
3976.0139964229
 21
7936.1767496192
 31
0.0
  0
ARC
  5
2F2
330
1F
100
AcDbEntity
  8
0
  6
Continuous
 62
     7
370
    25
100
AcDbCircle
 10
3979.5139964229
 20
7886.1767496192
 30
0.0
 40
3.5
100
AcDbArc
 50
180.0
 51
270.0
  0
ARC
  5
2F3
330
1F
100
AcDbEntity
  8
0
  6
Continuous
 62
     7
370
    25
100
AcDbCircle
 10
3979.5139964229
 20
7886.1767496192
 30
0.0
 40
6.5
100
AcDbArc
 50
180.0
 51
270.0
  0
LINE
  5
2F4
330
1F
100
AcDbEntity
  8
0
  6
Continuous
 62
     7
370
    25
100
AcDbLine
 10
4186.5561635779
 20
7886.1767496192
 30
0.0
 11
4186.5561635779
 21
7936.2601799398
 31
0.0
  0
LINE
  5
2F5
330
1F
100
AcDbEntity
  8
0
  6
Continuous
 62
     7
370
    25
100
AcDbLine
 10
4183.5561635779
 20
7936.1767496192
 30
0.0
 11
4183.5561635779
 21
7886.1767496192
 31
0.0
  0
ARC
  5
2F6
330
1F
100
AcDbEntity
  8
0
  6
Continuous
 62
     7
370
    25
100
AcDbCircle
 10
4180.0561635779
 20
7886.1767496192
 30
0.0
 40
3.5
100
AcDbArc
 50
270.0
 51
0.0
  0
ARC
  5
2F7
330
1F
100
AcDbEntity
  8
0
  6
Continuous
 62
     7
370
    25
100
AcDbCircle
 10
4180.0561635779
 20
7886.1767496192
 30
0.0
 40
6.5
100
AcDbArc
 50
270.0
 51
0.0
  0
LINE
  5
2F8
330
1F
100
AcDbEntity
  8
0
  6
Continuous
 62
     7
370
    25
100
AcDbLine
 10
3960.2760220401
 20
7879.6767496192
 30
0.0
 11
3979.5139964229
 21
7879.6767496192
 31
0.0
  0
LINE
  5
2F9
330
1F
100
AcDbEntity
  8
0
  6
Continuous
 62
     7
370
    25
100
AcDbLine
 10
4160.8181891951
 20
7879.6767496192
 30
0.0
 11
4180.0561635779
 21
7879.6767496192
 31
0.0
  0
LINE
  5
2FA
330
1F
100
AcDbEntity
  8
0
  6
Continuous
 62
     7
370
    25
100
AcDbLine
 10
4180.0561635779
 20
7882.6767496192
 30
0.0
 11
4166.2954147701
 21
7882.6767496192
 31
0.0
  0
LINE
  5
2FB
330
1F
100
AcDbEntity
  8
0
  6
Continuous
 62
     7
370
    25
100
AcDbLine
 10
3974.0367708479
 20
7882.6767496192
 30
0.0
 11
3960.2760220401
 21
7882.6767496192
 31
0.0
  0
LINE
  5
2FC
330
1F
100
AcDbEntity
  8
0
  6
Continuous
 62
     7
370
    25
100
AcDbLine
 10
3953.7760220401
 20
7936.2583559644
 30
0.0
 11
3953.7760220401
 21
7886.1767496192
 31
0.0
  0
LINE
  5
2FD
330
1F
100
AcDbEntity
  8
0
  6
Continuous
 62
     7
370
    25
100
AcDbLine
 10
3956.7760220401
 20
7886.1767496192
 30
0.0
 11
3956.7760220401
 21
7936.1767496192
 31
0.0
  0
ARC
  5
2FE
330
1F
100
AcDbEntity
  8
0
  6
Continuous
 62
     7
370
    25
100
AcDbCircle
 10
3960.2760220401
 20
7886.1767496192
 30
0.0
 40
3.5
100
AcDbArc
 50
180.0
 51
270.0
  0
ARC
  5
2FF
330
1F
100
AcDbEntity
  8
0
  6
Continuous
 62
     7
370
    25
100
AcDbCircle
 10
3960.2760220401
 20
7886.1767496192
 30
0.0
 40
6.5
100
AcDbArc
 50
180.0
 51
270.0
  0
ARC
  5
300
330
1F
100
AcDbEntity
  8
0
  6
Continuous
 62
     7
370
    25
100
AcDbCircle
 10
4209.4517240819
 20
7940.1767496192
 30
0.0
 40
4.0
100
AcDbArc
 50
270.0
 51
90.0
  0
LINE
  5
301
330
1F
100
AcDbEntity
  8
0
  6
Continuous
 62
     7
370
    25
100
AcDbLine
 10
4209.4517240819
 20
7944.1767496192
 30
0.0
 11
4199.2838498171
 21
7944.1767496192
 31
0.0
  0
LINE
  5
302
330
1F
100
AcDbEntity
  8
0
  6
Continuous
 62
     7
370
    25
100
AcDbLine
 10
4202.06125502
 20
7936.1767496192
 30
0.0
 11
4207.4253919038
 21
7936.1767496192
 31
0.0
  0
LINE
  5
303
330
1F
100
AcDbEntity
  8
0
  6
Continuous
 62
     7
370
    25
100
AcDbLine
 10
4199.2838498171
 20
7936.1767496192
 30
0.0
 11
4199.390753786
 21
7936.1767496192
 31
0.0
  0
ARC
  5
304
330
1F
100
AcDbEntity
  8
0
  6
Continuous
 62
     7
370
    25
100
AcDbCircle
 10
3930.8804615362
 20
7940.1767496192
 30
0.0
 40
4.0
100
AcDbArc
 50
90.0
 51
270.0
  0
LINE
  5
305
330
1F
100
AcDbEntity
  8
0
  6
Continuous
 62
     7
370
    25
100
AcDbLine
 10
3941.0483358009
 20
7944.1767496192
 30
0.0
 11
3930.8804615362
 21
7944.1767496192
 31
0.0
  0
LINE
  5
306
330
1F
100
AcDbEntity
  8
0
  6
Continuous
 62
     7
370
    25
100
AcDbLine
 10
3940.9376018692
 20
7936.1767496192
 30
0.0
 11
3941.0483358009
 21
7936.1767496192
 31
0.0
  0
LINE
  5
307
330
1F
100
AcDbEntity
  8
0
  6
Continuous
 62
     7
370
    25
100
AcDbLine
 10
3932.9001553912
 20
7936.1767496192
 30
0.0
 11
3938.2709305981
 21
7936.1767496192
 31
0.0
  0
LINE
  5
308
330
1F
100
AcDbEntity
  8
0
  6
Continuous
 62
     7
370
    25
100
AcDbLine
 10
4202.06125502
 20
7886.1767496192
 30
0.0
 11
4202.06125502
 21
7936.3019729362
 31
0.0
  0
LINE
  5
309
330
1F
100
AcDbEntity
  8
0
  6
Continuous
 62
     7
370
    25
100
AcDbLine
 10
4199.06125502
 20
7936.1767496192
 30
0.0
 11
4199.06125502
 21
7886.1767496192
 31
0.0
  0
ARC
  5
30A
330
1F
100
AcDbEntity
  8
0
  6
Continuous
 62
     7
370
    25
100
AcDbCircle
 10
4195.56125502
 20
7886.1767496192
 30
0.0
 40
3.5
100
AcDbArc
 50
270.0
 51
0.0
  0
ARC
  5
30B
330
1F
100
AcDbEntity
  8
0
  6
Continuous
 62
     7
370
    25
100
AcDbCircle
 10
4195.56125502
 20
7886.1767496192
 30
0.0
 40
6.5
100
AcDbArc
 50
270.0
 51
0.0
  0
LINE
  5
30C
330
1F
100
AcDbEntity
  8
0
  6
Continuous
 62
     7
370
    25
100
AcDbLine
 10
3944.7709305981
 20
7879.6767496192
 30
0.0
 11
3960.2760220401
 21
7879.6767496192
 31
0.0
  0
LINE
  5
30D
330
1F
100
AcDbEntity
  8
0
  6
Continuous
 62
     7
370
    25
100
AcDbLine
 10
4180.0561635779
 20
7879.6767496192
 30
0.0
 11
4195.56125502
 21
7879.6767496192
 31
0.0
  0
LINE
  5
30E
330
1F
100
AcDbEntity
  8
0
  6
Continuous
 62
     7
370
    25
100
AcDbLine
 10
4195.56125502
 20
7882.6767496192
 30
0.0
 11
4185.533389153
 21
7882.6767496192
 31
0.0
  0
LINE
  5
30F
330
1F
100
AcDbEntity
  8
0
  6
Continuous
 62
     7
370
    25
100
AcDbLine
 10
3954.7987964651
 20
7882.6767496192
 30
0.0
 11
3944.7709305981
 21
7882.6767496192
 31
0.0
  0
LINE
  5
310
330
1F
100
AcDbEntity
  8
0
  6
Continuous
 62
     7
370
    25
100
AcDbLine
 10
3938.2709305981
 20
7936.3017835101
 30
0.0
 11
3938.2709305981
 21
7886.1767496192
 31
0.0
  0
LINE
  5
311
330
1F
100
AcDbEntity
  8
0
  6
Continuous
 62
     7
370
    25
100
AcDbLine
 10
3941.2709305981
 20
7886.1767496192
 30
0.0
 11
3941.2709305981
 21
7936.1767496192
 31
0.0
  0
ARC
  5
312
330
1F
100
AcDbEntity
  8
0
  6
Continuous
 62
     7
370
    25
100
AcDbCircle
 10
3944.7709305981
 20
7886.1767496192
 30
0.0
 40
3.500000000000455
100
AcDbArc
 50
180.0
 51
270.0
  0
ARC
  5
313
330
1F
100
AcDbEntity
  8
0
  6
Continuous
 62
     7
370
    25
100
AcDbCircle
 10
3944.7709305981
 20
7886.1767496192
 30
0.0
 40
6.500000000000455
100
AcDbArc
 50
180.0
 51
270.0
  0
LINE
  5
314
330
1F
100
AcDbEntity
  8
0
  6
Continuous
 62
     7
370
    25
100
AcDbLine
 10
4209.4740449817
 20
7886.1767496192
 30
0.0
 11
4209.4740449817
 21
7936.4344100044
 31
0.0
  0
LINE
  5
315
330
1F
100
AcDbEntity
  8
0
  6
Continuous
 62
     7
370
    25
100
AcDbLine
 10
4206.4740449817
 20
7936.1767496192
 30
0.0
 11
4206.4740449817
 21
7886.1767496192
 31
0.0
  0
ARC
  5
316
330
1F
100
AcDbEntity
  8
0
  6
Continuous
 62
     7
370
    25
100
AcDbCircle
 10
4202.9740449817
 20
7886.1767496192
 30
0.0
 40
3.500000000000909
100
AcDbArc
 50
270.0
 51
0.0
  0
ARC
  5
317
330
1F
100
AcDbEntity
  8
0
  6
Continuous
 62
     7
370
    25
100
AcDbCircle
 10
4202.9740449817
 20
7886.1767496192
 30
0.0
 40
6.5
100
AcDbArc
 50
270.0
 51
0.0
  0
LINE
  5
318
330
1F
100
AcDbEntity
  8
0
  6
Continuous
 62
     7
370
    25
100
AcDbLine
 10
3937.3581406363
 20
7879.6767496192
 30
0.0
 11
3944.7709305981
 21
7879.6767496192
 31
0.0
  0
LINE
  5
319
330
1F
100
AcDbEntity
  8
0
  6
Continuous
 62
     7
370
    25
100
AcDbLine
 10
4195.56125502
 20
7879.6767496192
 30
0.0
 11
4202.9740449817
 21
7879.6767496192
 31
0.0
  0
LINE
  5
31A
330
1F
100
AcDbEntity
  8
0
  6
Continuous
 62
     7
370
    25
100
AcDbLine
 10
4202.9740449817
 20
7882.6767496192
 30
0.0
 11
4201.038480595
 21
7882.6767496192
 31
0.0
  0
LINE
  5
31B
330
1F
100
AcDbEntity
  8
0
  6
Continuous
 62
     7
370
    25
100
AcDbLine
 10
3939.293705023
 20
7882.6767496192
 30
0.0
 11
3937.3581406363
 21
7882.6767496192
 31
0.0
  0
LINE
  5
31C
330
1F
100
AcDbEntity
  8
0
  6
Continuous
 62
     7
370
    25
100
AcDbLine
 10
3930.8581406363
 20
7936.431963721
 30
0.0
 11
3930.8581406363
 21
7886.1767496192
 31
0.0
  0
LINE
  5
31D
330
1F
100
AcDbEntity
  8
0
  6
Continuous
 62
     7
370
    25
100
AcDbLine
 10
3933.8581406363
 20
7886.1767496192
 30
0.0
 11
3933.8581406363
 21
7936.1767496192
 31
0.0
  0
ARC
  5
31E
330
1F
100
AcDbEntity
  8
0
  6
Continuous
 62
     7
370
    25
100
AcDbCircle
 10
3937.3581406363
 20
7886.1767496192
 30
0.0
 40
3.5
100
AcDbArc
 50
180.0
 51
270.0
  0
ARC
  5
31F
330
1F
100
AcDbEntity
  8
0
  6
Continuous
 62
     7
370
    25
100
AcDbCircle
 10
3937.3581406363
 20
7886.1767496192
 30
0.0
 40
6.5
100
AcDbArc
 50
180.0
 51
270.0
  0
LINE
  5
320
330
1F
100
AcDbEntity
  8
0
  6
Continuous
 62
     7
370
    25
100
AcDbLine
 10
4210.8562853907
 20
7886.1767496192
 30
0.0
 11
4210.8562853907
 21
7936.431458238
 31
0.0
  0
ARC
  5
321
330
1F
100
AcDbEntity
  8
0
  6
Continuous
 62
     7
370
    25
100
AcDbCircle
 10
4204.3562853907
 20
7886.1767496192
 30
0.0
 40
6.5
100
AcDbArc
 50
270.0
 51
0.0
  0
LINE
  5
322
330
1F
100
AcDbEntity
  8
0
  6
Continuous
 62
     7
370
    25
100
AcDbLine
 10
3935.9759002273
 20
7879.6767496192
 30
0.0
 11
3937.3581406363
 21
7879.6767496192
 31
0.0
  0
LINE
  5
323
330
1F
100
AcDbEntity
  8
0
  6
Continuous
 62
     7
370
    25
100
AcDbLine
 10
4202.9740449817
 20
7879.6767496192
 30
0.0
 11
4204.3562853907
 21
7879.6767496192
 31
0.0
  0
LINE
  5
324
330
1F
100
AcDbEntity
  8
0
  6
Continuous
 62
     7
370
    25
100
AcDbLine
 10
3929.4759002273
 20
7936.431458238
 30
0.0
 11
3929.4759002273
 21
7886.1767496192
 31
0.0
  0
ARC
  5
325
330
1F
100
AcDbEntity
  8
0
  6
Continuous
 62
     7
370
    25
100
AcDbCircle
 10
3935.9759002273
 20
7886.1767496192
 30
0.0
 40
6.500000000000455
100
AcDbArc
 50
180.0
 51
270.0
  0
LINE
  5
326
330
1F
100
AcDbEntity
  8
0
  6
Continuous
 62
     7
370
    25
100
AcDbLine
 10
4204.4070210375
 20
7936.1767496192
 30
0.0
 11
4204.4070210375
 21
7886.1767496192
 31
0.0
  0
ARC
  5
327
330
1F
100
AcDbEntity
  8
0
  6
Continuous
 62
     7
370
    25
100
AcDbCircle
 10
4200.9070210375
 20
7886.1767496192
 30
0.0
 40
3.5
100
AcDbArc
 50
272.1790080147
 51
0.0
  0
LINE
  5
328
330
1F
100
AcDbEntity
  8
0
  6
Continuous
 62
     7
370
    25
100
AcDbLine
 10
3935.9251645805
 20
7886.1767496192
 30
0.0
 11
3935.9251645805
 21
7936.1767496192
 31
0.0
  0
ARC
  5
329
330
1F
100
AcDbEntity
  8
0
  6
Continuous
 62
     7
370
    25
100
AcDbCircle
 10
3939.4251645805
 20
7886.1767496192
 30
0.0
 40
3.500000000000207
100
AcDbArc
 50
180.0
 51
267.8209919691
  0
LINE
  5
32A
330
1F
100
AcDbEntity
  8
0
  6
Continuous
 62
     7
370
    25
100
AcDbLine
 10
4197.5031224483
 20
7886.1767496192
 30
0.0
 11
4197.5031224483
 21
7936.1767496192
 31
0.0
  0
LINE
  5
32B
330
1F
100
AcDbEntity
  8
0
  6
Continuous
 62
     7
370
    25
100
AcDbLine
 10
4194.5031224483
 20
7936.1767496192
 30
0.0
 11
4194.5031224483
 21
7886.1767496192
 31
0.0
  0
ARC
  5
32C
330
1F
100
AcDbEntity
  8
0
  6
Continuous
 62
     7
370
    25
100
AcDbCircle
 10
4191.0031224483
 20
7886.1767496192
 30
0.0
 40
3.5
100
AcDbArc
 50
270.0
 51
0.0
  0
ARC
  5
32D
330
1F
100
AcDbEntity
  8
0
  6
Continuous
 62
     7
370
    25
100
AcDbCircle
 10
4191.0031224483
 20
7886.1767496192
 30
0.0
 40
6.5
100
AcDbArc
 50
328.9709203926
 51
0.0
  0
LINE
  5
32E
330
1F
100
AcDbEntity
  8
0
  6
Continuous
 62
     7
370
    25
100
AcDbLine
 10
3942.8290631698
 20
7936.1767496192
 30
0.0
 11
3942.8290631698
 21
7886.1767496192
 31
0.0
  0
LINE
  5
32F
330
1F
100
AcDbEntity
  8
0
  6
Continuous
 62
     7
370
    25
100
AcDbLine
 10
3945.8290631698
 20
7886.1767496192
 30
0.0
 11
3945.8290631698
 21
7936.1767496192
 31
0.0
  0
ARC
  5
330
330
1F
100
AcDbEntity
  8
0
  6
Continuous
 62
     7
370
    25
100
AcDbCircle
 10
3949.3290631698
 20
7886.1767496192
 30
0.0
 40
3.5
100
AcDbArc
 50
180.0
 51
270.0
  0
ARC
  5
331
330
1F
100
AcDbEntity
  8
0
  6
Continuous
 62
     7
370
    25
100
AcDbCircle
 10
3949.3290631698
 20
7886.1767496192
 30
0.0
 40
6.5
100
AcDbArc
 50
180.0
 51
211.0290795613
  0
LINE
  5
332
330
1F
100
AcDbEntity
  8
0
  6
Continuous
 62
     7
370
    25
100
AcDbLine
 10
4183.2367812094
 20
7935.2672245295
 30
0.0
 11
4183.2367812094
 21
7886.1767496192
 31
0.0
  0
ARC
  5
333
330
1F
100
AcDbEntity
  8
0
  6
Continuous
 62
     7
370
    25
100
AcDbCircle
 10
4179.7367812094
 20
7886.1767496192
 30
0.0
 40
3.5
100
AcDbArc
 50
270.0
 51
0.0
  0
LINE
  5
334
330
1F
100
AcDbEntity
  8
0
  6
Continuous
 62
     7
370
    25
100
AcDbLine
 10
3957.0954044087
 20
7886.1767496192
 30
0.0
 11
3957.0954044087
 21
7936.1767496192
 31
0.0
  0
ARC
  5
335
330
1F
100
AcDbEntity
  8
0
  6
Continuous
 62
     7
370
    25
100
AcDbCircle
 10
3960.5954044087
 20
7886.1767496192
 30
0.0
 40
3.5
100
AcDbArc
 50
180.0
 51
270.0
  0
LINE
  5
336
330
1F
100
AcDbEntity
  8
0
  6
Continuous
 62
     7
370
    25
100
AcDbLine
 10
4174.9704399705
 20
7886.1767496192
 30
0.0
 11
4174.9704399705
 21
7935.1589624607
 31
0.0
  0
LINE
  5
337
330
1F
100
AcDbEntity
  8
0
  6
Continuous
 62
     7
370
    25
100
AcDbLine
 10
4171.9704399705
 20
7935.5065807456
 30
0.0
 11
4171.9704399705
 21
7886.1767496192
 31
0.0
  0
ARC
  5
338
330
1F
100
AcDbEntity
  8
0
  6
Continuous
 62
     7
370
    25
100
AcDbCircle
 10
4168.4704399705
 20
7886.1767496192
 30
0.0
 40
3.5
100
AcDbArc
 50
270.0
 51
0.0
  0
ARC
  5
339
330
1F
100
AcDbEntity
  8
0
  6
Continuous
 62
     7
370
    25
100
AcDbCircle
 10
4168.4704399705
 20
7886.1767496192
 30
0.0
 40
6.5
100
AcDbArc
 50
327.4210296072
 51
0.0
  0
LINE
  5
33A
330
1F
100
AcDbEntity
  8
0
  6
Continuous
 62
     7
370
    25
100
AcDbLine
 10
3965.3617456475
 20
7936.1767496192
 30
0.0
 11
3965.3617456475
 21
7886.1767496192
 31
0.0
  0
LINE
  5
33B
330
1F
100
AcDbEntity
  8
0
  6
Continuous
 62
     7
370
    25
100
AcDbLine
 10
3968.3617456475
 20
7886.1767496192
 30
0.0
 11
3968.3617456475
 21
7936.1767496192
 31
0.0
  0
ARC
  5
33C
330
1F
100
AcDbEntity
  8
0
  6
Continuous
 62
     7
370
    25
100
AcDbCircle
 10
3971.8617456475
 20
7886.1767496192
 30
0.0
 40
3.5
100
AcDbArc
 50
180.0
 51
270.0
  0
ARC
  5
33D
330
1F
100
AcDbEntity
  8
0
  6
Continuous
 62
     7
370
    25
100
AcDbCircle
 10
3971.8617456475
 20
7886.1767496192
 30
0.0
 40
6.500000000000084
100
AcDbArc
 50
180.0
 51
212.5789703928
  0
LINE
  5
33E
330
1F
100
AcDbEntity
  8
0
  6
Continuous
 62
     7
370
    25
100
AcDbLine
 10
4163.7040987316
 20
7886.1767496192
 30
0.0
 11
4163.7040987316
 21
7936.1767496192
 31
0.0
  0
LINE
  5
33F
330
1F
100
AcDbEntity
  8
0
  6
Continuous
 62
     7
370
    25
100
AcDbLine
 10
4160.7040987316
 20
7936.1767496192
 30
0.0
 11
4160.7040987316
 21
7886.1767496192
 31
0.0
  0
ARC
  5
340
330
1F
100
AcDbEntity
  8
0
  6
Continuous
 62
     7
370
    25
100
AcDbCircle
 10
4157.2040987316
 20
7886.1767496192
 30
0.0
 40
3.500000000000909
100
AcDbArc
 50
270.0
 51
0.0
  0
ARC
  5
341
330
1F
100
AcDbEntity
  8
0
  6
Continuous
 62
     7
370
    25
100
AcDbCircle
 10
4157.2040987316
 20
7886.1767496192
 30
0.0
 40
6.500000000000748
100
AcDbArc
 50
336.424436775
 51
0.0
  0
LINE
  5
342
330
1F
100
AcDbEntity
  8
0
  6
Continuous
 62
     7
370
    25
100
AcDbLine
 10
3976.6280868864
 20
7936.1767496192
 30
0.0
 11
3976.6280868864
 21
7886.1767496192
 31
0.0
  0
LINE
  5
343
330
1F
100
AcDbEntity
  8
0
  6
Continuous
 62
     7
370
    25
100
AcDbLine
 10
3979.6280868864
 20
7886.1767496192
 30
0.0
 11
3979.6280868864
 21
7936.1767496192
 31
0.0
  0
ARC
  5
344
330
1F
100
AcDbEntity
  8
0
  6
Continuous
 62
     7
370
    25
100
AcDbCircle
 10
3983.1280868864
 20
7886.1767496192
 30
0.0
 40
3.5
100
AcDbArc
 50
180.0
 51
270.0
  0
ARC
  5
345
330
1F
100
AcDbEntity
  8
0
  6
Continuous
 62
     7
370
    25
100
AcDbCircle
 10
3983.1280868864
 20
7886.1767496192
 30
0.0
 40
6.5
100
AcDbArc
 50
180.0
 51
203.5755632212
  0
LINE
  5
346
330
1F
100
AcDbEntity
  8
0
  6
Continuous
 62
     7
370
    25
100
AcDbLine
 10
4152.4377574927
 20
7886.1767496192
 30
0.0
 11
4152.4377574927
 21
7936.1767496192
 31
0.0
  0
LINE
  5
347
330
1F
100
AcDbEntity
  8
0
  6
Continuous
 62
     7
370
    25
100
AcDbLine
 10
4149.4377574927
 20
7936.1767496192
 30
0.0
 11
4149.4377574927
 21
7886.1767496192
 31
0.0
  0
ARC
  5
348
330
1F
100
AcDbEntity
  8
0
  6
Continuous
 62
     7
370
    25
100
AcDbCircle
 10
4145.9377574927
 20
7886.1767496192
 30
0.0
 40
3.5
100
AcDbArc
 50
270.0
 51
0.0
  0
ARC
  5
349
330
1F
100
AcDbEntity
  8
0
  6
Continuous
 62
     7
370
    25
100
AcDbCircle
 10
4145.9377574927
 20
7886.1767496192
 30
0.0
 40
6.5
100
AcDbArc
 50
327.4210296072
 51
0.0
  0
LINE
  5
34A
330
1F
100
AcDbEntity
  8
0
  6
Continuous
 62
     7
370
    25
100
AcDbLine
 10
3987.8944281253
 20
7935.1767483968
 30
0.0
 11
3987.8944281253
 21
7886.1767496192
 31
0.0
  0
LINE
  5
34B
330
1F
100
AcDbEntity
  8
0
  6
Continuous
 62
     7
370
    25
100
AcDbLine
 10
3990.8944281253
 20
7886.1767496192
 30
0.0
 11
3990.8944281253
 21
7936.1767496192
 31
0.0
  0
ARC
  5
34C
330
1F
100
AcDbEntity
  8
0
  6
Continuous
 62
     7
370
    25
100
AcDbCircle
 10
3994.3944281253
 20
7886.1767496192
 30
0.0
 40
3.5
100
AcDbArc
 50
180.0
 51
270.0
  0
ARC
  5
34D
330
1F
100
AcDbEntity
  8
0
  6
Continuous
 62
     7
370
    25
100
AcDbCircle
 10
3994.3944281253
 20
7886.1767496192
 30
0.0
 40
6.5
100
AcDbArc
 50
180.0
 51
212.5789703928
  0
LINE
  5
34E
330
1F
100
AcDbEntity
  8
0
  6
Continuous
 62
     7
370
    25
100
AcDbLine
 10
4141.1714162538
 20
7886.1767496192
 30
0.0
 11
4141.1714162538
 21
7886.7410432706
 31
0.0
  0
LINE
  5
34F
330
1F
100
AcDbEntity
  8
0
  6
Continuous
 62
     7
370
    25
100
AcDbLine
 10
4138.1714162538
 20
7936.1767496192
 30
0.0
 11
4138.1714162538
 21
7887.2705311978
 31
0.0
  0
ARC
  5
350
330
1F
100
AcDbEntity
  8
0
  6
Continuous
 62
     7
370
    25
100
AcDbCircle
 10
4134.6714162538
 20
7886.1767496192
 30
0.0
 40
6.5
100
AcDbArc
 50
327.4210296072
 51
0.0
  0
LINE
  5
351
330
1F
100
AcDbEntity
  8
0
  6
Continuous
 62
     7
370
    25
100
AcDbLine
 10
3999.1607693642
 20
7886.7410432706
 30
0.0
 11
3999.1607693642
 21
7886.1767496192
 31
0.0
  0
LINE
  5
352
330
1F
100
AcDbEntity
  8
0
  6
Continuous
 62
     7
370
    25
100
AcDbLine
 10
4002.1607693642
 20
7887.2705311978
 30
0.0
 11
4002.1607693642
 21
7936.1767496192
 31
0.0
  0
ARC
  5
353
330
1F
100
AcDbEntity
  8
0
  6
Continuous
 62
     7
370
    25
100
AcDbCircle
 10
4005.6607693642
 20
7886.1767496192
 30
0.0
 40
6.500000000000084
100
AcDbArc
 50
180.0
 51
212.5789703928
  0
LINE
  5
354
330
1F
100
AcDbEntity
  8
0
  6
Continuous
 62
     7
370
    25
100
AcDbLine
 10
4129.905075015
 20
7886.1767496192
 30
0.0
 11
4129.905075015
 21
7936.1767496192
 31
0.0
  0
LINE
  5
355
330
1F
100
AcDbEntity
  8
0
  6
Continuous
 62
     7
370
    25
100
AcDbLine
 10
4126.905075015
 20
7936.1767496192
 30
0.0
 11
4126.905075015
 21
7886.1767496192
 31
0.0
  0
LWPOLYLINE
  5
356
330
1F
100
AcDbEntity
  8
0
  6
Continuous
 62
     7
370
    25
100
AcDbPolyline
 90
        3
 70
   128
 43
0.0
 10
4126.905075015
 20
7886.1767496192
 10
4126.8378234964
 20
7885.4939334921
 10
4126.7591769812
 20
7885.1767496192
  0
LINE
  5
357
330
1F
100
AcDbEntity
  8
0
  6
Continuous
 62
     7
370
    25
100
AcDbLine
 10
4129.8276913043
 20
7885.1767496192
 30
0.0
 11
4129.905075015
 21
7886.1767496192
 31
0.0
  0
LINE
  5
358
330
1F
100
AcDbEntity
  8
0
  6
Continuous
 62
     7
370
    25
100
AcDbLine
 10
4010.4271106031
 20
7936.1767496192
 30
0.0
 11
4010.4271106031
 21
7886.1767496192
 31
0.0
  0
LINE
  5
359
330
1F
100
AcDbEntity
  8
0
  6
Continuous
 62
     7
370
    25
100
AcDbLine
 10
4013.4271106031
 20
7886.1767496192
 30
0.0
 11
4013.4271106031
 21
7936.1767496192
 31
0.0
  0
LWPOLYLINE
  5
35A
330
1F
100
AcDbEntity
  8
0
  6
Continuous
 62
     7
370
    25
100
AcDbPolyline
 90
        3
 70
   128
 43
0.0
 10
4013.5730086368
 20
7885.1767496192
 10
4013.4943621217
 20
7885.4939334921
 10
4013.4271106031
 20
7886.1767496192
  0
LINE
  5
35B
330
1F
100
AcDbEntity
  8
0
  6
Continuous
 62
     7
370
    25
100
AcDbLine
 10
4010.4271106031
 20
7886.1767496192
 30
0.0
 11
4010.5044943138
 21
7885.1767496192
 31
0.0
  0
LINE
  5
35C
330
1F
100
AcDbEntity
  8
0
  6
Continuous
 62
     7
370
    25
100
AcDbLine
 10
4118.6387337761
 20
7886.1767496192
 30
0.0
 11
4118.6387337761
 21
7936.1767496192
 31
0.0
  0
LINE
  5
35D
330
1F
100
AcDbEntity
  8
0
  6
Continuous
 62
     7
370
    25
100
AcDbLine
 10
4115.6387337761
 20
7936.1767496192
 30
0.0
 11
4115.6387337761
 21
7886.1767496192
 31
0.0
  0
LWPOLYLINE
  5
35E
330
1F
100
AcDbEntity
  8
0
  6
Continuous
 62
     7
370
    25
100
AcDbPolyline
 90
        3
 70
   128
 43
0.0
 10
4115.6387337761
 20
7886.1767496192
 10
4115.5714822575
 20
7885.4939334921
 10
4115.4928357423
 20
7885.1767496192
  0
LINE
  5
35F
330
1F
100
AcDbEntity
  8
0
  6
Continuous
 62
     7
370
    25
100
AcDbLine
 10
4118.5613500654
 20
7885.1767496192
 30
0.0
 11
4118.6387337761
 21
7886.1767496192
 31
0.0
  0
LINE
  5
360
330
1F
100
AcDbEntity
  8
0
  6
Continuous
 62
     7
370
    25
100
AcDbLine
 10
4021.693451842
 20
7936.1767496192
 30
0.0
 11
4021.693451842
 21
7886.1767496192
 31
0.0
  0
LINE
  5
361
330
1F
100
AcDbEntity
  8
0
  6
Continuous
 62
     7
370
    25
100
AcDbLine
 10
4024.693451842
 20
7886.1767496192
 30
0.0
 11
4024.693451842
 21
7936.1767496192
 31
0.0
  0
LWPOLYLINE
  5
362
330
1F
100
AcDbEntity
  8
0
  6
Continuous
 62
     7
370
    25
100
AcDbPolyline
 90
        3
 70
   128
 43
0.0
 10
4024.8393498757
 20
7885.1767496192
 10
4024.7607033606
 20
7885.4939334921
 10
4024.693451842
 20
7886.1767496192
  0
LINE
  5
363
330
1F
100
AcDbEntity
  8
0
  6
Continuous
 62
     7
370
    25
100
AcDbLine
 10
4021.693451842
 20
7886.1767496192
 30
0.0
 11
4021.7708355526
 21
7885.1767496192
 31
0.0
  0
LINE
  5
364
330
1F
100
AcDbEntity
  8
0
  6
Continuous
 62
     7
370
    25
100
AcDbLine
 10
4107.3723925372
 20
7886.1767496192
 30
0.0
 11
4107.3723925372
 21
7935.1767483968
 31
0.0
  0
LINE
  5
365
330
1F
100
AcDbEntity
  8
0
  6
Continuous
 62
     7
370
    25
100
AcDbLine
 10
4104.3723925372
 20
7936.1767496192
 30
0.0
 11
4104.3723925372
 21
7886.1767496192
 31
0.0
  0
LWPOLYLINE
  5
366
330
1F
100
AcDbEntity
  8
0
  6
Continuous
 62
     7
370
    25
100
AcDbPolyline
 90
        3
 70
   128
 43
0.0
 10
4104.3723925372
 20
7886.1767496192
 10
4104.3051410186
 20
7885.4939334921
 10
4104.2264945034
 20
7885.1767496192
  0
LINE
  5
367
330
1F
100
AcDbEntity
  8
0
  6
Continuous
 62
     7
370
    25
100
AcDbLine
 10
4107.2950088265
 20
7885.1767496192
 30
0.0
 11
4107.3723925372
 21
7886.1767496192
 31
0.0
  0
LINE
  5
368
330
1F
100
AcDbEntity
  8
0
  6
Continuous
 62
     7
370
    25
100
AcDbLine
 10
4032.9597930809
 20
7936.1767496192
 30
0.0
 11
4032.9597930809
 21
7886.1767496192
 31
0.0
  0
LINE
  5
369
330
1F
100
AcDbEntity
  8
0
  6
Continuous
 62
     7
370
    25
100
AcDbLine
 10
4035.9597930809
 20
7886.1767496192
 30
0.0
 11
4035.9597930809
 21
7936.1767496192
 31
0.0
  0
LWPOLYLINE
  5
36A
330
1F
100
AcDbEntity
  8
0
  6
Continuous
 62
     7
370
    25
100
AcDbPolyline
 90
        3
 70
   128
 43
0.0
 10
4036.1056911146
 20
7885.1767496192
 10
4036.0270445995
 20
7885.4939334921
 10
4035.9597930809
 20
7886.1767496192
  0
LINE
  5
36B
330
1F
100
AcDbEntity
  8
0
  6
Continuous
 62
     7
370
    25
100
AcDbLine
 10
4032.9597930809
 20
7886.1767496192
 30
0.0
 11
4033.0371767915
 21
7885.1767496192
 31
0.0
  0
LINE
  5
36C
330
1F
100
AcDbEntity
  8
0
  6
Continuous
 62
     7
370
    25
100
AcDbLine
 10
4093.1060512983
 20
7936.1767496192
 30
0.0
 11
4093.1060512983
 21
7887.6767496192
 31
0.0
  0
LINE
  5
36D
330
1F
100
AcDbEntity
  8
0
  6
Continuous
 62
     7
370
    25
100
AcDbLine
 10
4096.1060512983
 20
7887.8747064409
 30
0.0
 11
4096.1060512983
 21
7935.1983830627
 31
0.0
  0
LINE
  5
36E
330
1F
100
AcDbEntity
  8
0
  6
Continuous
 62
     7
370
    25
100
AcDbLine
 10
4047.2261343197
 20
7887.6767496192
 30
0.0
 11
4047.2261343197
 21
7936.1767496192
 31
0.0
  0
LINE
  5
36F
330
1F
100
AcDbEntity
  8
0
  6
Continuous
 62
     7
370
    25
100
AcDbLine
 10
4044.2261343197
 20
7936.1767496192
 30
0.0
 11
4044.2261343197
 21
7887.8747064409
 31
0.0
  0
LINE
  5
370
330
1F
100
AcDbEntity
  8
0
  6
Continuous
 62
     7
370
    25
100
AcDbLine
 10
4081.8397100594
 20
7936.1767496192
 30
0.0
 11
4081.8397100594
 21
7891.1767496192
 31
0.0
  0
LINE
  5
371
330
1F
100
AcDbEntity
  8
0
  6
Continuous
 62
     7
370
    25
100
AcDbLine
 10
4084.8397100594
 20
7891.1767496192
 30
0.0
 11
4084.8397100594
 21
7936.1767496192
 31
0.0
  0
LINE
  5
372
330
1F
100
AcDbEntity
  8
0
  6
Continuous
 62
     7
370
    25
100
AcDbLine
 10
4058.4924755586
 20
7891.1767496192
 30
0.0
 11
4058.4924755586
 21
7936.1767496192
 31
0.0
  0
LINE
  5
373
330
1F
100
AcDbEntity
  8
0
  6
Continuous
 62
     7
370
    25
100
AcDbLine
 10
4055.4924755586
 20
7936.1767496192
 30
0.0
 11
4055.4924755586
 21
7891.1767496192
 31
0.0
  0
ARC
  5
374
330
1F
100
AcDbEntity
  8
0
  6
Continuous
 62
     7
370
    25
100
AcDbCircle
 10
4078.3397100594
 20
7891.1767496192
 30
0.0
 40
3.5
100
AcDbArc
 50
270.0
 51
0.0
  0
ARC
  5
375
330
1F
100
AcDbEntity
  8
0
  6
Continuous
 62
     7
370
    25
100
AcDbCircle
 10
4078.3397100594
 20
7891.1767496192
 30
0.0
 40
6.5
100
AcDbArc
 50
327.4210296072
 51
0.0
  0
ARC
  5
376
330
1F
100
AcDbEntity
  8
0
  6
Continuous
 62
     7
370
    25
100
AcDbCircle
 10
4061.9924755586
 20
7891.1767496192
 30
0.0
 40
3.500000000000909
100
AcDbArc
 50
180.0
 51
270.0
  0
ARC
  5
377
330
1F
100
AcDbEntity
  8
0
  6
Continuous
 62
     7
370
    25
100
AcDbCircle
 10
4061.9924755586
 20
7891.1767496192
 30
0.0
 40
6.500000000000909
100
AcDbArc
 50
180.0
 51
212.5789703928
  0
LINE
  5
378
330
1F
100
AcDbEntity
  8
0
  6
Continuous
 62
     7
370
    25
100
AcDbLine
 10
3981.5519425998
 20
7944.1767496192
 30
0.0
 11
3981.6793798634
 21
7944.4944131939
 31
0.0
  0
LINE
  5
379
330
1F
100
AcDbEntity
  8
0
  6
Continuous
 62
     7
370
    25
100
AcDbLine
 10
3981.6793798634
 20
7944.4944131939
 30
0.0
 11
3982.008110227
 21
7944.1767496192
 31
0.0
  0
ARC
  5
37A
330
1F
100
AcDbEntity
  8
0
  6
Continuous
 62
     7
370
    25
100
AcDbCircle
 10
3979.8974712513
 20
7937.9271351342
 30
0.0
 40
2.742016737514841
100
AcDbArc
 50
264.3619877297
 51
320.3305877776
  0
LINE
  5
37B
330
1F
100
AcDbEntity
  8
0
  6
Continuous
 62
     7
370
    25
100
AcDbLine
 10
3975.6310888261
 20
7879.6767496192
 30
0.0
 11
3977.1666882764
 21
7691.1589636831
 31
0.0
  0
ARC
  5
37C
330
1F
100
AcDbEntity
  8
0
  6
Continuous
 62
     7
370
    25
100
AcDbCircle
 10
3979.9050751382
 20
7684.8908525401
 30
0.0
 40
2.724371535747087
100
AcDbArc
 50
264.1646258272
 51
320.5279185154
  0
LINE
  5
37D
330
1F
100
AcDbEntity
  8
0
  6
Continuous
 62
     7
370
    25
100
AcDbLine
 10
3976.4796903696
 20
7691.1589636831
 30
0.0
 11
3974.9440909192
 21
7879.6767496192
 31
0.0
  0
ARC
  5
37E
330
1F
100
AcDbEntity
  8
0
  6
Continuous
 62
     7
370
    25
100
AcDbCircle
 10
3987.9297336739
 20
7685.1448093749
 30
0.0
 40
3.003754150882238
100
AcDbArc
 50
277.7558010529
 51
318.4995595951
  0
LINE
  5
37F
330
1F
100
AcDbEntity
  8
0
  6
Continuous
 62
     7
370
    25
100
AcDbLine
 10
3988.1333657386
 20
7682.1819905121
 30
0.0
 11
3988.335094058
 21
7682.1685328491
 31
0.0
  0
ARC
  5
380
330
1F
100
AcDbEntity
  8
0
  6
Continuous
 62
     7
370
    25
100
AcDbCircle
 10
3990.4725820195
 20
7685.1463192072
 30
0.0
 40
3.005333778195077
100
AcDbArc
 50
277.7636157704
 51
318.6027286533
  0
LINE
  5
381
330
1F
100
AcDbEntity
  8
0
  6
Continuous
 62
     7
370
    25
100
AcDbLine
 10
4000.5737111259
 20
7944.4944131939
 30
0.0
 11
4000.9024414894
 21
7944.1767496192
 31
0.0
  0
LINE
  5
382
330
1F
100
AcDbEntity
  8
0
  6
Continuous
 62
     7
370
    25
100
AcDbLine
 10
3989.8548116597
 20
7944.4944131939
 30
0.0
 11
3981.6793798634
 21
7944.4944131939
 31
0.0
  0
ARC
  5
383
330
1F
100
AcDbEntity
  8
0
  6
Continuous
 62
     7
370
    25
100
AcDbCircle
 10
3988.0140742602
 20
7938.0241470272
 30
0.0
 40
2.84946964774803
100
AcDbArc
 50
272.1846093589
 51
319.5841711088
  0
LINE
  5
384
330
1F
100
AcDbEntity
  8
0
  6
Continuous
 62
     7
370
    25
100
AcDbLine
 10
3990.1835420232
 20
7944.1767496192
 30
0.0
 11
3989.8548116597
 21
7944.4944131939
 31
0.0
  0
LINE
  5
385
330
1F
100
AcDbEntity
  8
0
  6
Continuous
 62
     7
370
    25
100
AcDbLine
 10
3992.3982793296
 20
7944.4944131939
 30
0.0
 11
3992.7270096932
 21
7944.1767496192
 31
0.0
  0
ARC
  5
386
330
1F
100
AcDbEntity
  8
0
  6
Continuous
 62
     7
370
    25
100
AcDbCircle
 10
3990.5259453604
 20
7938.0630469647
 30
0.0
 40
2.898760378117454
100
AcDbArc
 50
277.303047109
 51
319.4036749003
  0
LINE
  5
387
330
1F
100
AcDbEntity
  8
0
  6
Continuous
 62
     7
370
    25
100
AcDbLine
 10
4000.5737111259
 20
7944.4944131939
 30
0.0
 11
3992.3982793296
 21
7944.4944131939
 31
0.0
  0
LINE
  5
388
330
1F
100
AcDbEntity
  8
0
  6
Continuous
 62
     7
370
    25
100
AcDbLine
 10
3994.0733366567
 20
7935.1767483968
 30
0.0
 11
3994.5009831457
 21
7882.6767496192
 31
0.0
  0
LINE
  5
389
330
1F
100
AcDbEntity
  8
0
  6
Continuous
 62
     7
370
    25
100
AcDbLine
 10
3994.5254200885
 20
7879.6767496192
 30
0.0
 11
3996.0610195389
 21
7691.1589636831
 31
0.0
  0
LWPOLYLINE
  5
38A
330
1F
100
AcDbEntity
  8
0
  6
Continuous
 62
     7
370
    25
100
AcDbPolyline
 90
       12
 70
   128
 43
0.0
 10
3982.9518146077
 20
7933.3066920388
 10
3983.0876739211
 20
7932.4170156029
 10
3983.4600745309
 20
7931.6627843395
 10
3984.01232182
 20
7931.1588231212
 10
3984.660341145
 20
7930.9818554751
 10
3985.3054774377
 20
7931.1588231212
 10
3985.8495145459
 20
7931.6627843395
 10
3986.2096277516
 20
7932.4170156029
 10
3986.3309930835
 20
7933.3066920388
 10
3986.1951337701
 20
7934.1963684746
 10
3985.8227331603
 20
7934.9505997381
 10
3985.6299773412
 20
7935.1767483968
  0
ARC
  5
38B
330
1F
100
AcDbEntity
  8
0
  6
Continuous
 62
     7
370
    25
100
AcDbCircle
 10
3985.5461358919
 20
7933.4316891855
 30
0.0
 40
2.597330786044425
100
AcDbArc
 50
137.7887237993
 51
182.7584381566
  0
LWPOLYLINE
  5
38C
330
1F
100
AcDbEntity
  8
0
  6
Continuous
 62
     7
370
    25
100
AcDbPolyline
 90
       17
 70
   128
 43
0.0
 10
3984.8487004634
 20
7700.4355995036
 10
3984.9845597768
 20
7699.5459230678
 10
3985.3569603866
 20
7698.7916918043
 10
3985.9092076758
 20
7698.287730586
 10
3986.5572270007
 20
7698.11076294
 10
3987.2023632935
 20
7698.287730586
 10
3987.7464004017
 20
7698.7916918043
 10
3988.1065136073
 20
7699.5459230678
 10
3988.2278789392
 20
7700.4355995036
 10
3988.0920196259
 20
7701.3252759395
 10
3987.7196190161
 20
7702.079507203
 10
3987.1673717269
 20
7702.5834684212
 10
3986.519352402
 20
7702.7604360673
 10
3985.8742161092
 20
7702.5834684212
 10
3985.330179001
 20
7702.079507203
 10
3984.9700657954
 20
7701.3252759395
 10
3984.8487004634
 20
7700.4355995036
  0
LINE
  5
38D
330
1F
100
AcDbEntity
  8
0
  6
Continuous
 62
     7
370
    25
100
AcDbLine
 10
3992.270842066
 20
7944.1767496192
 30
0.0
 11
3992.3982793296
 21
7944.4944131939
 31
0.0
  0
LWPOLYLINE
  5
38E
330
1F
100
AcDbEntity
  8
0
  6
Continuous
 62
     7
370
    25
100
AcDbPolyline
 90
        9
 70
   128
 43
0.0
 10
3986.2341276533
 20
7698.1535735607
 10
3986.5154619686
 20
7698.2758737121
 10
3987.0594990768
 20
7698.7798349304
 10
3987.4196122824
 20
7699.5340661938
 10
3987.5409776143
 20
7700.4237426297
 10
3987.4051183009
 20
7701.3134190655
 10
3987.0327176912
 20
7702.067650329
 10
3986.480470402
 20
7702.5716115473
 10
3986.1555504245
 20
7702.7057685726
  0
ARC
  5
38F
330
1F
100
AcDbEntity
  8
0
  6
Continuous
 62
     7
370
    25
100
AcDbCircle
 10
3983.0739889038
 20
7933.3239024459
 30
0.0
 40
2.623412980670991
100
AcDbArc
 50
298.7853974476
 51
44.9324857667
  0
LINE
  5
390
330
1F
100
AcDbEntity
  8
0
  6
Continuous
 62
     7
370
    25
100
AcDbLine
 10
4118.7871302929
 20
7691.1589636831
 30
0.0
 11
4120.3227297433
 21
7879.6767496192
 31
0.0
  0
LINE
  5
391
330
1F
100
AcDbEntity
  8
0
  6
Continuous
 62
     7
370
    25
100
AcDbLine
 10
4120.3675308051
 20
7885.1767496192
 30
0.0
 11
4120.7829588326
 21
7936.1767496192
 31
0.0
  0
ARC
  5
392
330
1F
100
AcDbEntity
  8
0
  6
Continuous
 62
     7
370
    25
100
AcDbCircle
 10
4115.3617455243
 20
7684.8908525401
 30
0.0
 40
2.724371535752657
100
AcDbArc
 50
219.4720814846
 51
275.8353741728
  0
LINE
  5
393
330
1F
100
AcDbEntity
  8
0
  6
Continuous
 62
     7
370
    25
100
AcDbLine
 10
4120.0959609258
 20
7936.1767496192
 30
0.0
 11
4119.6805328982
 21
7885.1767496192
 31
0.0
  0
LINE
  5
394
330
1F
100
AcDbEntity
  8
0
  6
Continuous
 62
     7
370
    25
100
AcDbLine
 10
4119.6357318364
 20
7879.6767496192
 30
0.0
 11
4118.1001323861
 21
7691.1589636831
 31
0.0
  0
LINE
  5
395
330
1F
100
AcDbEntity
  8
0
  6
Continuous
 62
     7
370
    25
100
AcDbLine
 10
4113.5874407991
 20
7944.4944131939
 30
0.0
 11
4113.2587104355
 21
7944.1767496192
 31
0.0
  0
ARC
  5
396
330
1F
100
AcDbEntity
  8
0
  6
Continuous
 62
     7
370
    25
100
AcDbCircle
 10
4115.3693494112
 20
7937.9271351342
 30
0.0
 40
2.742016737512443
100
AcDbArc
 50
219.6694122224
 51
275.6380122703
  0
LINE
  5
397
330
1F
100
AcDbEntity
  8
0
  6
Continuous
 62
     7
370
    25
100
AcDbLine
 10
4113.7148780627
 20
7944.1767496192
 30
0.0
 11
4113.5874407991
 21
7944.4944131939
 31
0.0
  0
ARC
  5
398
330
1F
100
AcDbEntity
  8
0
  6
Continuous
 62
     7
370
    25
100
AcDbCircle
 10
4096.5361633423
 20
7685.0111358853
 30
0.0
 40
2.854328846546425
100
AcDbArc
 50
220.4586707154
 51
267.77257938
  0
ARC
  5
399
330
1F
100
AcDbEntity
  8
0
  6
Continuous
 62
     7
370
    25
100
AcDbCircle
 10
4104.794238643
 20
7685.1463192073
 30
0.0
 40
3.005333778230626
100
AcDbArc
 50
221.397271347
 51
262.2363842294
  0
LINE
  5
39A
330
1F
100
AcDbEntity
  8
0
  6
Continuous
 62
     7
370
    25
100
AcDbLine
 10
4106.9317266045
 20
7682.1685328491
 30
0.0
 11
4107.1335635748
 21
7682.1818179227
 31
0.0
  0
ARC
  5
39B
330
1F
100
AcDbEntity
  8
0
  6
Continuous
 62
     7
370
    25
100
AcDbCircle
 10
4107.3435571864
 20
7685.1605861848
 30
0.0
 40
3.02026283487411
100
AcDbArc
 50
220.4308574098
 51
262.1629691165
  0
LINE
  5
39C
330
1F
100
AcDbEntity
  8
0
  6
Continuous
 62
     7
370
    25
100
AcDbLine
 10
4094.6931095366
 20
7944.4944131939
 30
0.0
 11
4094.3643791731
 21
7944.1767496192
 31
0.0
  0
ARC
  5
39D
330
1F
100
AcDbEntity
  8
0
  6
Continuous
 62
     7
370
    25
100
AcDbCircle
 10
4096.5075223891
 20
7937.9698961519
 30
0.0
 40
2.794359842556266
100
AcDbArc
 50
219.9188569757
 51
268.3123625566
  0
LINE
  5
39E
330
1F
100
AcDbEntity
  8
0
  6
Continuous
 62
     7
370
    25
100
AcDbLine
 10
4102.8685413329
 20
7944.4944131939
 30
0.0
 11
4094.6931095366
 21
7944.4944131939
 31
0.0
  0
ARC
  5
39F
330
1F
100
AcDbEntity
  8
0
  6
Continuous
 62
     7
370
    25
100
AcDbCircle
 10
4104.7408753021
 20
7938.0630469647
 30
0.0
 40
2.898760378113952
100
AcDbArc
 50
220.5963250997
 51
262.6969528911
  0
LINE
  5
3A0
330
1F
100
AcDbEntity
  8
0
  6
Continuous
 62
     7
370
    25
100
AcDbLine
 10
4102.5398109693
 20
7944.1767496192
 30
0.0
 11
4102.8685413329
 21
7944.4944131939
 31
0.0
  0
LINE
  5
3A1
330
1F
100
AcDbEntity
  8
0
  6
Continuous
 62
     7
370
    25
100
AcDbLine
 10
4105.4120090028
 20
7944.4944131939
 30
0.0
 11
4105.0832786393
 21
7944.1767496192
 31
0.0
  0
ARC
  5
3A2
330
1F
100
AcDbEntity
  8
0
  6
Continuous
 62
     7
370
    25
100
AcDbCircle
 10
4107.2527464023
 20
7938.0241470272
 30
0.0
 40
2.8494696477517
100
AcDbArc
 50
220.4158288913
 51
267.8153906411
  0
LINE
  5
3A3
330
1F
100
AcDbEntity
  8
0
  6
Continuous
 62
     7
370
    25
100
AcDbLine
 10
4113.5874407991
 20
7944.4944131939
 30
0.0
 11
4105.4120090028
 21
7944.4944131939
 31
0.0
  0
LINE
  5
3A4
330
1F
100
AcDbEntity
  8
0
  6
Continuous
 62
     7
370
    25
100
AcDbLine
 10
4100.8122782183
 20
7888.3780398984
 30
0.0
 11
4100.7862016358
 21
7885.1767496192
 31
0.0
  0
LINE
  5
3A5
330
1F
100
AcDbEntity
  8
0
  6
Continuous
 62
     7
370
    25
100
AcDbLine
 10
4100.741400574
 20
7879.6767496192
 30
0.0
 11
4099.2058011236
 21
7691.1589636831
 31
0.0
  0
LWPOLYLINE
  5
3A6
330
1F
100
AcDbEntity
  8
0
  6
Continuous
 62
     7
370
    25
100
AcDbPolyline
 90
       12
 70
   128
 43
0.0
 10
4108.935827579
 20
7933.3066920388
 10
4109.0571929109
 20
7932.4170156029
 10
4109.4173061166
 20
7931.6627843395
 10
4109.9613432248
 20
7931.1588231212
 10
4110.6064795175
 20
7930.9818554751
 10
4111.2544988425
 20
7931.1588231212
 10
4111.8067461316
 20
7931.6627843395
 10
4112.1791467414
 20
7932.4170156029
 10
4112.3150060548
 20
7933.3066920388
 10
4112.1936407229
 20
7934.1963684746
 10
4111.8335275172
 20
7934.9505997381
 10
4111.6444559527
 20
7935.1767483968
  0
ARC
  5
3A7
330
1F
100
AcDbEntity
  8
0
  6
Continuous
 62
     7
370
    25
100
AcDbCircle
 10
4111.5742533398
 20
7933.3840634682
 30
0.0
 40
2.63955996966323
100
AcDbArc
 50
137.2219218966
 51
181.6797085408
  0
LWPOLYLINE
  5
3A8
330
1F
100
AcDbEntity
  8
0
  6
Continuous
 62
     7
370
    25
100
AcDbPolyline
 90
       17
 70
   128
 43
0.0
 10
4107.0389417233
 20
7700.4355995036
 10
4107.1603070552
 20
7699.5459230678
 10
4107.5204202608
 20
7698.7916918043
 10
4108.064457369
 20
7698.287730586
 10
4108.7095936618
 20
7698.11076294
 10
4109.3576129867
 20
7698.287730586
 10
4109.9098602759
 20
7698.7916918043
 10
4110.2822608857
 20
7699.5459230678
 10
4110.4181201991
 20
7700.4355995036
 10
4110.2967548671
 20
7701.3252759395
 10
4109.9366416615
 20
7702.079507203
 10
4109.3926045533
 20
7702.5834684212
 10
4108.7474682605
 20
7702.7604360673
 10
4108.0994489356
 20
7702.5834684212
 10
4107.5472016464
 20
7702.079507203
 10
4107.1748010366
 20
7701.3252759395
 10
4107.0389417233
 20
7700.4355995036
  0
LINE
  5
3A9
330
1F
100
AcDbEntity
  8
0
  6
Continuous
 62
     7
370
    25
100
AcDbLine
 10
4102.8685413329
 20
7944.4944131939
 30
0.0
 11
4102.9959785965
 21
7944.1767496192
 31
0.0
  0
ARC
  5
3AA
330
1F
100
AcDbEntity
  8
0
  6
Continuous
 62
     7
370
    25
100
AcDbCircle
 10
4109.911565028
 20
7700.1707431792
 30
0.0
 40
2.200315726228229
100
AcDbArc
 50
173.3973411356
 51
246.4574527435
  0
ARC
  5
3AB
330
1F
100
AcDbEntity
  8
0
  6
Continuous
 62
     7
370
    25
100
AcDbCircle
 10
4109.9410634141
 20
7700.6404355759
 30
0.0
 40
2.225793589429766
100
AcDbArc
 50
111.8888851663
 51
185.5869008183
  0
ARC
  5
3AC
330
1F
100
AcDbEntity
  8
0
  6
Continuous
 62
     7
370
    25
100
AcDbCircle
 10
4111.8084508838
 20
7933.0418357143
 30
0.0
 40
2.200315726227602
100
AcDbArc
 50
173.3973411356
 51
246.4574527439
  0
ARC
  5
3AD
330
1F
100
AcDbEntity
  8
0
  6
Continuous
 62
     7
370
    25
100
AcDbCircle
 10
4112.2553836406
 20
7933.3735427417
 30
0.0
 40
2.633831020605269
100
AcDbArc
 50
136.7933075227
 51
181.7124422172
  0
LINE
  5
3AE
330
1F
100
AcDbEntity
  8
0
  6
Continuous
 62
     7
370
    25
100
AcDbLine
 10
4190.3559346947
 20
7944.4464270892
 30
0.0
 11
4190.0786424221
 21
7944.1767496192
 31
0.0
  0
ARC
  5
3AF
330
1F
100
AcDbEntity
  8
0
  6
Continuous
 62
     7
370
    25
100
AcDbCircle
 10
4192.1230979981
 20
7937.9042284699
 30
0.0
 40
2.701533245870147
100
AcDbArc
 50
219.7503621424
 51
320.2496378576
  0
LINE
  5
3B0
330
1F
100
AcDbEntity
  8
0
  6
Continuous
 62
     7
370
    25
100
AcDbLine
 10
4171.4616034322
 20
7944.4464270892
 30
0.0
 11
4171.1843111597
 21
7944.1767496192
 31
0.0
  0
ARC
  5
3B1
330
1F
100
AcDbEntity
  8
0
  6
Continuous
 62
     7
370
    25
100
AcDbCircle
 10
4173.3486405492
 20
7938.031839646
 30
0.0
 40
2.875377028035679
100
AcDbArc
 50
220.1779800921
 51
267.610659531
  0
LINE
  5
3B2
330
1F
100
AcDbEntity
  8
0
  6
Continuous
 62
     7
370
    25
100
AcDbLine
 10
4179.6370352285
 20
7944.4464270892
 30
0.0
 11
4171.4616034322
 21
7944.4464270892
 31
0.0
  0
ARC
  5
3B3
330
1F
100
AcDbEntity
  8
0
  6
Continuous
 62
     7
370
    25
100
AcDbCircle
 10
4181.4886187984
 20
7937.9765374072
 30
0.0
 40
2.812676704971117
100
AcDbArc
 50
219.783195859
 51
271.7789841811
  0
LINE
  5
3B4
330
1F
100
AcDbEntity
  8
0
  6
Continuous
 62
     7
370
    25
100
AcDbLine
 10
4179.3597429559
 20
7944.1767496192
 30
0.0
 11
4179.6370352285
 21
7944.4464270892
 31
0.0
  0
LWPOLYLINE
  5
3B5
330
1F
100
AcDbEntity
  8
0
  6
Continuous
 62
     7
370
    25
100
AcDbPolyline
 90
        3
 70
   128
 43
0.0
 10
4182.8079972738
 20
7935.5411563043
 10
4182.3483330477
 20
7935.3369029569
 10
4181.5759359355
 20
7935.1652163718
  0
LINE
  5
3B6
330
1F
100
AcDbEntity
  8
0
  6
Continuous
 62
     7
370
    25
100
AcDbLine
 10
4182.1805028984
 20
7944.4464270892
 30
0.0
 11
4181.9032106259
 21
7944.1767496192
 31
0.0
  0
ARC
  5
3B7
330
1F
100
AcDbEntity
  8
0
  6
Continuous
 62
     7
370
    25
100
AcDbCircle
 10
4184.1091002785
 20
7938.0720033305
 30
0.0
 40
2.933045624286614
100
AcDbArc
 50
220.2536498785
 51
259.1335954164
  0
LINE
  5
3B8
330
1F
100
AcDbEntity
  8
0
  6
Continuous
 62
     7
370
    25
100
AcDbLine
 10
4190.3559346947
 20
7944.4464270892
 30
0.0
 11
4182.1805028984
 21
7944.4464270892
 31
0.0
  0
LINE
  5
3B9
330
1F
100
AcDbEntity
  8
0
  6
Continuous
 62
     7
370
    25
100
AcDbLine
 10
4197.6186949114
 20
7691.1589636831
 30
0.0
 11
4197.6186949114
 21
7879.6767496192
 31
0.0
  0
LINE
  5
3BA
330
1F
100
AcDbEntity
  8
0
  6
Continuous
 62
     7
370
    25
100
AcDbLine
 10
4197.6186949114
 20
7883.3453292878
 30
0.0
 11
4197.6186949114
 21
7936.1767496192
 31
0.0
  0
ARC
  5
3BB
330
1F
100
AcDbEntity
  8
0
  6
Continuous
 62
     7
370
    25
100
AcDbCircle
 10
4194.2231917345
 20
7684.8836945477
 30
0.0
 40
2.717552254700268
100
AcDbArc
 50
219.3950215151
 51
275.9124341423
  0
LINE
  5
3BC
330
1F
100
AcDbEntity
  8
0
  6
Continuous
 62
     7
370
    25
100
AcDbLine
 10
4196.9317452973
 20
7883.51189857
 30
0.0
 11
4196.9317452973
 21
7882.9562284812
 31
0.0
  0
LINE
  5
3BD
330
1F
100
AcDbEntity
  8
0
  6
Continuous
 62
     7
370
    25
100
AcDbLine
 10
4196.9317452973
 20
7879.6767496192
 30
0.0
 11
4196.9317452973
 21
7691.1589636831
 31
0.0
  0
LINE
  5
3BE
330
1F
100
AcDbEntity
  8
0
  6
Continuous
 62
     7
370
    25
100
AcDbLine
 10
4190.4670877536
 20
7944.1767496192
 30
0.0
 11
4190.3559346947
 21
7944.4464270892
 31
0.0
  0
LWPOLYLINE
  5
3BF
330
1F
100
AcDbEntity
  8
0
  6
Continuous
 62
     7
370
    25
100
AcDbPolyline
 90
        3
 70
   128
 43
0.0
 10
4192.381934149
 20
7936.1767496192
 10
4192.3448984014
 20
7936.172016194
 10
4191.8642618473
 20
7936.1767496192
  0
LINE
  5
3C0
330
1F
100
AcDbEntity
  8
0
  6
Continuous
 62
     7
370
    25
100
AcDbLine
 10
4181.1453623811
 20
7936.1767496192
 30
0.0
 11
4181.5759359355
 21
7936.1667838274
 31
0.0
  0
ARC
  5
3C1
330
1F
100
AcDbEntity
  8
0
  6
Continuous
 62
     7
370
    25
100
AcDbCircle
 10
4175.3948453243
 20
7684.9973437643
 30
0.0
 40
2.840330048607045
100
AcDbArc
 50
220.7127765599
 51
267.876795882
  0
ARC
  5
3C2
330
1F
100
AcDbEntity
  8
0
  6
Continuous
 62
     7
370
    25
100
AcDbCircle
 10
4183.6459442062
 20
7685.1280489047
 30
0.0
 40
2.983742662854539
100
AcDbArc
 50
221.2951459264
 51
263.2126229018
  0
LINE
  5
3C3
330
1F
100
AcDbEntity
  8
0
  6
Continuous
 62
     7
370
    25
100
AcDbLine
 10
4178.0374140348
 20
7935.1589624607
 30
0.0
 11
4178.0374140348
 21
7882.6767496192
 31
0.0
  0
LINE
  5
3C4
330
1F
100
AcDbEntity
  8
0
  6
Continuous
 62
     7
370
    25
100
AcDbLine
 10
4178.0374140348
 20
7879.6767496192
 30
0.0
 11
4178.0374140348
 21
7691.1589636831
 31
0.0
  0
LWPOLYLINE
  5
3C5
330
1F
100
AcDbEntity
  8
0
  6
Continuous
 62
     7
370
    25
100
AcDbPolyline
 90
       10
 70
   128
 43
0.0
 10
4186.5561635779
 20
7931.4288922541
 10
4186.8380018572
 20
7931.2234071761
 10
4187.484579666
 20
7931.0464270892
 10
4188.1311574749
 20
7931.2234071761
 10
4188.6792996736
 20
7931.727403823
 10
4189.0455565813
 20
7932.481688109
 10
4189.1741689039
 20
7933.3714270892
 10
4189.0455565813
 20
7934.2611660695
 10
4188.6792996736
 20
7935.0154503555
 10
4188.5649880469
 20
7935.1589624607
  0
LWPOLYLINE
  5
3C6
330
1F
100
AcDbEntity
  8
0
  6
Continuous
 62
     7
370
    25
100
AcDbPolyline
 90
       17
 70
   128
 43
0.0
 10
4185.7949904282
 20
7700.4839636831
 10
4185.9236027508
 20
7699.5942247028
 10
4186.2898596585
 20
7698.8399404168
 10
4186.8380018572
 20
7698.33594377
 10
4187.484579666
 20
7698.1589636831
 10
4188.1311574749
 20
7698.33594377
 10
4188.6792996736
 20
7698.8399404168
 10
4189.0455565813
 20
7699.5942247028
 10
4189.1741689039
 20
7700.4839636831
 10
4189.0455565813
 20
7701.3737026633
 10
4188.6792996736
 20
7702.1279869493
 10
4188.1311574749
 20
7702.6319835962
 10
4187.484579666
 20
7702.8089636831
 10
4186.8380018572
 20
7702.6319835962
 10
4186.2898596585
 20
7702.1279869493
 10
4185.9236027508
 20
7701.3737026633
 10
4185.7949904282
 20
7700.4839636831
  0
LINE
  5
3C7
330
1F
100
AcDbEntity
  8
0
  6
Continuous
 62
     7
370
    25
100
AcDbLine
 10
4179.6370352285
 20
7944.4464270892
 30
0.0
 11
4179.7481882874
 21
7944.1767496192
 31
0.0
  0
LINE
  5
3C8
330
1F
100
AcDbEntity
  8
0
  6
Continuous
 62
     7
370
    25
100
AcDbLine
 10
4181.5759359355
 20
7935.1652163718
 30
0.0
 11
4181.5759359355
 21
7936.1667838274
 31
0.0
  0
ARC
  5
3C9
330
1F
100
AcDbEntity
  8
0
  6
Continuous
 62
     7
370
    25
100
AcDbCircle
 10
4188.5867392502
 20
7933.0046059561
 30
0.0
 40
2.054821048070032
100
AcDbArc
 50
188.8103476068
 51
248.3323667872
  0
ARC
  5
3CA
330
1F
100
AcDbEntity
  8
0
  6
Continuous
 62
     7
370
    25
100
AcDbCircle
 10
4189.0106339918
 20
7933.5481389474
 30
0.0
 40
2.50584973675246
100
AcDbArc
 50
139.9971837705
 51
168.3775103835
  0
ARC
  5
3CB
330
1F
100
AcDbEntity
  8
0
  6
Continuous
 62
     7
370
    25
100
AcDbCircle
 10
4188.6824991857
 20
7700.2489827526
 30
0.0
 40
2.213069493097059
100
AcDbArc
 50
173.9049169382
 51
247.2885545396
  0
ARC
  5
3CC
330
1F
100
AcDbEntity
  8
0
  6
Continuous
 62
     7
370
    25
100
AcDbCircle
 10
4188.6824991857
 20
7700.7189446136
 30
0.0
 40
2.21306949309483
100
AcDbArc
 50
112.7114454603
 51
186.0950830618
  0
LWPOLYLINE
  5
3CD
330
1F
100
AcDbEntity
  8
0
  6
Continuous
 62
     7
370
    25
100
AcDbPolyline
 90
       12
 70
   128
 43
0.0
 10
4098.4654876212
 20
7683.1635253831
 10
4098.4647290472
 20
7683.1591509695
 10
4098.6137555197
 20
7683.1910709125
 10
4098.8940998537
 20
7683.2659559902
 10
4099.3000727001
 20
7683.3607574941
 10
4099.7974414192
 20
7683.4343925589
 10
4100.2946332649
 20
7683.4480080498
 10
4100.7273193691
 20
7683.4030750638
 10
4101.0874535013
 20
7683.3195900089
 10
4101.3452004965
 20
7683.2261551513
 10
4101.4452672251
 20
7683.1664235232
 10
4101.4404918133
 20
7683.16643341
  0
LWPOLYLINE
  5
3CE
330
1F
100
AcDbEntity
  8
0
  6
Continuous
 62
     7
370
    25
100
AcDbPolyline
 90
       11
 70
   128
 43
0.0
 10
4138.5211543616
 20
7683.1698987604
 10
4138.5653658315
 20
7683.1594678906
 10
4138.802888338
 20
7683.1939841063
 10
4139.1552889876
 20
7683.2705450463
 10
4139.6122078891
 20
7683.365425904
 10
4140.1276125598
 20
7683.4366969823
 10
4140.6056414285
 20
7683.4469811726
 10
4140.9922285618
 20
7683.3995899763
 10
4141.2828487679
 20
7683.3147659013
 10
4141.446872267
 20
7683.2219391789
 10
4141.444188302
 20
7683.1952961348
  0
LWPOLYLINE
  5
3CF
330
1F
100
AcDbEntity
  8
0
  6
Continuous
 62
     7
370
    25
100
AcDbPolyline
 90
       10
 70
   128
 43
0.0
 10
4164.4325385206
 20
7683.1625563042
 10
4164.6519555746
 20
7683.1734122007
 10
4165.0006254355
 20
7683.2345814454
 10
4165.4447461903
 20
7683.3257365203
 10
4165.9550043797
 20
7683.4129074419
 10
4166.4472162141
 20
7683.4507142783
 10
4166.842603552
 20
7683.4251854751
 10
4167.1298520943
 20
7683.3533595084
 10
4167.2948330137
 20
7683.259049767
 10
4167.2958590932
 20
7683.2196229689
  0
LWPOLYLINE
  5
3D0
330
1F
100
AcDbEntity
  8
0
  6
Continuous
 62
     7
370
    25
100
AcDbPolyline
 90
       10
 70
   128
 43
0.0
 10
4183.7177382034
 20
7683.1689592919
 10
4183.8782560149
 20
7683.1626651223
 10
4184.2244923877
 20
7683.2081613298
 10
4184.658061787
 20
7683.2914308804
 10
4185.1590192194
 20
7683.3852755976
 10
4185.6598038302
 20
7683.4448363718
 10
4186.0689864748
 20
7683.4406690041
 10
4186.3593684327
 20
7683.3830216109
 10
4186.5274680944
 20
7683.2931730757
 10
4186.5347242716
 20
7683.2423940037
  0
LWPOLYLINE
  5
3D1
330
1F
100
AcDbEntity
  8
0
  6
Continuous
 62
     7
370
    25
100
AcDbPolyline
 90
       10
 70
   128
 43
0.0
 10
3953.7890138946
 20
7683.2405700283
 10
3953.8237794459
 20
7683.3097762012
 10
3954.0326017883
 20
7683.4008295574
 10
3954.3881567263
 20
7683.4490685026
 10
3954.8172076409
 20
7683.4331362478
 10
3955.2771215125
 20
7683.3675429145
 10
3955.7576844216
 20
7683.2747091317
 10
3956.2091256121
 20
7683.1915366301
 10
3956.5468296173
 20
7683.1589790942
 10
3956.5992546586
 20
7683.1664947417
  0
LWPOLYLINE
  5
3D2
330
1F
100
AcDbEntity
  8
0
  6
Continuous
 62
     7
370
    25
100
AcDbPolyline
 90
       10
 70
   128
 43
0.0
 10
3973.0258469626
 20
7683.2166749583
 10
3973.0626289638
 20
7683.2811635806
 10
3973.2680188962
 20
7683.3758025752
 10
3973.6251051059
 20
7683.4413008848
 10
3974.0642533962
 20
7683.4440927614
 10
3974.5251919958
 20
7683.3913085114
 10
3974.9963826692
 20
7683.3037133048
 10
3975.4430869841
 20
7683.2127276787
 10
3975.7855926029
 20
7683.162201062
 10
3975.9091548625
 20
7683.1687351107
  0
ARC
  5
3D3
330
1F
100
AcDbEntity
  8
0
  6
Continuous
 62
     7
370
    25
100
AcDbCircle
 10
4000.2980858405
 20
7678.2636400244
 30
0.0
 40
5.12871204544484
100
AcDbArc
 50
72.7916192281
 51
106.10630837
  0
LWPOLYLINE
  5
3D4
330
1F
100
AcDbEntity
  8
0
  6
Continuous
 62
     7
370
    25
100
AcDbPolyline
 90
       11
 70
   128
 43
0.0
 10
4038.9053415965
 20
7683.1713251559
 10
4038.8999456638
 20
7683.1796739049
 10
4039.034833569
 20
7683.2466067559
 10
4039.3159493349
 20
7683.3398206915
 10
4039.7337804927
 20
7683.4224041866
 10
4040.2195557171
 20
7683.4506651652
 10
4040.6916424343
 20
7683.4170947908
 10
4041.1302225706
 20
7683.3402491454
 10
4041.5151985914
 20
7683.2455657019
 10
4041.7833419534
 20
7683.1747772367
 10
4041.8848453005
 20
7683.1615067419
  0
LWPOLYLINE
  5
3D5
330
1F
100
AcDbEntity
  8
0
  6
Continuous
 62
     7
370
    25
100
AcDbPolyline
 90
       10
 70
   128
 43
0.0
 10
4199.3166423217
 20
7683.1642771302
 10
4199.3421866505
 20
7683.159617135
 10
4199.6806072837
 20
7683.1793005514
 10
4200.1000775231
 20
7683.2451114639
 10
4200.584558203
 20
7683.3367053976
 10
4201.089211606
 20
7683.418972273
 10
4201.5266879352
 20
7683.4508641576
 10
4201.8382754163
 20
7683.4228548992
 10
4202.0192302998
 20
7683.3508814283
 10
4202.0446460927
 20
7683.2841870001
  0
LWPOLYLINE
  5
3D6
330
1F
100
AcDbEntity
  8
0
  6
Continuous
 62
     7
370
    25
100
AcDbPolyline
 90
        8
 70
   128
 43
0.0
 10
4207.4092538497
 20
7683.1601180812
 10
4207.4252195713
 20
7683.1589639431
 10
4207.8907105534
 20
7683.1866077543
 10
4208.3601230388
 20
7683.2577740443
 10
4208.8100384304
 20
7683.3506697389
 10
4209.1821563581
 20
7683.4276535994
 10
4209.4080742681
 20
7683.4502093658
 10
4209.4697631081
 20
7683.4166240683
  0
LWPOLYLINE
  5
3D7
330
1F
100
AcDbEntity
  8
0
  6
Continuous
 62
     7
370
    25
100
AcDbPolyline
 90
        9
 70
   128
 43
0.0
 10
3938.2852832704
 20
7683.283997574
 10
3938.3201895022
 20
7683.3562102983
 10
3938.5350022776
 20
7683.4307894344
 10
3938.8838066932
 20
7683.44956625
 10
3939.3041428212
 20
7683.410795597
 10
3939.7719899033
 20
7683.3321516367
 10
3940.2653754644
 20
7683.2390965585
 10
3940.7158398495
 20
7683.1721774528
 10
3940.9661739525
 20
7683.1648531716
  0
ARC
  5
3D8
330
1F
100
AcDbEntity
  8
0
  6
Continuous
 62
     7
370
    25
100
AcDbCircle
 10
3932.9774179677
 20
7692.2399042604
 30
0.0
 40
9.073856961396237
100
AcDbArc
 50
256.5699880188
 51
270.1665844817
  0
LWPOLYLINE
  5
3D9
330
1F
100
AcDbEntity
  8
0
  6
Continuous
 62
     7
370
    25
100
AcDbPolyline
 90
       12
 70
   128
 43
0.0
 10
4098.4654876212
 20
7936.1813113192
 10
4098.4647290472
 20
7936.1769369056
 10
4098.6137555197
 20
7936.2088568485
 10
4098.8940998537
 20
7936.2837419263
 10
4099.3000727001
 20
7936.3785434302
 10
4099.7974414192
 20
7936.452178495
 10
4100.2946332649
 20
7936.4657939859
 10
4100.7273193691
 20
7936.4208609999
 10
4101.0874535013
 20
7936.337375945
 10
4101.3452004965
 20
7936.2439410874
 10
4101.4452672251
 20
7936.1842094593
 10
4101.4404918133
 20
7936.1842193461
  0
LWPOLYLINE
  5
3DA
330
1F
100
AcDbEntity
  8
0
  6
Continuous
 62
     7
370
    25
100
AcDbPolyline
 90
       11
 70
   128
 43
0.0
 10
4138.5211543616
 20
7936.1876846965
 10
4138.5653658315
 20
7936.1772538267
 10
4138.802888338
 20
7936.2117700424
 10
4139.1552889876
 20
7936.2883309824
 10
4139.6122078891
 20
7936.3832118401
 10
4140.1276125598
 20
7936.4544829183
 10
4140.6056414285
 20
7936.4647671086
 10
4140.9922285618
 20
7936.4173759124
 10
4141.2828487679
 20
7936.3325518374
 10
4141.446872267
 20
7936.239725115
 10
4141.444188302
 20
7936.2130820709
  0
LWPOLYLINE
  5
3DB
330
1F
100
AcDbEntity
  8
0
  6
Continuous
 62
     7
370
    25
100
AcDbPolyline
 90
       10
 70
   128
 43
0.0
 10
4164.4325385206
 20
7936.1803422402
 10
4164.6519555746
 20
7936.1911981368
 10
4165.0006254355
 20
7936.2523673815
 10
4165.4447461903
 20
7936.3435224564
 10
4165.9550043797
 20
7936.430693378
 10
4166.4472162141
 20
7936.4685002144
 10
4166.842603552
 20
7936.4429714111
 10
4167.1298520943
 20
7936.3711454445
 10
4167.2948330137
 20
7936.2768357031
 10
4167.2958590932
 20
7936.2374089049
  0
LWPOLYLINE
  5
3DC
330
1F
100
AcDbEntity
  8
0
  6
Continuous
 62
     7
370
    25
100
AcDbPolyline
 90
       10
 70
   128
 43
0.0
 10
4183.7177382034
 20
7936.186745228
 10
4183.8782560149
 20
7936.1804510584
 10
4184.2244923877
 20
7936.2259472659
 10
4184.658061787
 20
7936.3092168165
 10
4185.1590192194
 20
7936.4030615337
 10
4185.6598038302
 20
7936.4626223078
 10
4186.0689864748
 20
7936.4584549402
 10
4186.3593684327
 20
7936.400807547
 10
4186.5274680944
 20
7936.3109590118
 10
4186.5347242716
 20
7936.2601799398
  0
LWPOLYLINE
  5
3DD
330
1F
100
AcDbEntity
  8
0
  6
Continuous
 62
     7
370
    25
100
AcDbPolyline
 90
       10
 70
   128
 43
0.0
 10
3953.7890138946
 20
7936.2583559644
 10
3953.8237794459
 20
7936.3275621373
 10
3954.0326017883
 20
7936.4186154935
 10
3954.3881567263
 20
7936.4668544387
 10
3954.8172076409
 20
7936.4509221839
 10
3955.2771215125
 20
7936.3853288505
 10
3955.7576844216
 20
7936.2924950678
 10
3956.2091256121
 20
7936.2093225662
 10
3956.5468296173
 20
7936.1767650302
 10
3956.5992546586
 20
7936.1842806778
  0
LWPOLYLINE
  5
3DE
330
1F
100
AcDbEntity
  8
0
  6
Continuous
 62
     7
370
    25
100
AcDbPolyline
 90
       10
 70
   128
 43
0.0
 10
3973.0258469626
 20
7936.2344608943
 10
3973.0626289638
 20
7936.2989495167
 10
3973.2680188962
 20
7936.3935885113
 10
3973.6251051059
 20
7936.4590868209
 10
3974.0642533962
 20
7936.4618786975
 10
3974.5251919958
 20
7936.4090944475
 10
3974.9963826692
 20
7936.3214992409
 10
3975.4430869841
 20
7936.2305136148
 10
3975.7855926029
 20
7936.1799869981
 10
3975.9091548625
 20
7936.1865210468
  0
ARC
  5
3DF
330
1F
100
AcDbEntity
  8
0
  6
Continuous
 62
     7
370
    25
100
AcDbCircle
 10
4000.2980858405
 20
7931.2814259605
 30
0.0
 40
5.12871204540645
100
AcDbArc
 50
72.791619228
 51
106.1063083701
  0
LWPOLYLINE
  5
3E0
330
1F
100
AcDbEntity
  8
0
  6
Continuous
 62
     7
370
    25
100
AcDbPolyline
 90
       11
 70
   128
 43
0.0
 10
4038.9053415965
 20
7936.1891110919
 10
4038.8999456638
 20
7936.197459841
 10
4039.034833569
 20
7936.264392692
 10
4039.3159493349
 20
7936.3576066276
 10
4039.7337804927
 20
7936.4401901227
 10
4040.2195557171
 20
7936.4684511013
 10
4040.6916424343
 20
7936.4348807269
 10
4041.1302225706
 20
7936.3580350814
 10
4041.5151985914
 20
7936.263351638
 10
4041.7833419534
 20
7936.1925631727
 10
4041.8848453005
 20
7936.179292678
  0
LWPOLYLINE
  5
3E1
330
1F
100
AcDbEntity
  8
0
  6
Continuous
 62
     7
370
    25
100
AcDbPolyline
 90
       10
 70
   128
 43
0.0
 10
4199.3166423217
 20
7936.1820630663
 10
4199.3421866505
 20
7936.1774030711
 10
4199.6806072837
 20
7936.1970864875
 10
4200.1000775231
 20
7936.2628974
 10
4200.584558203
 20
7936.3544913337
 10
4201.089211606
 20
7936.4367582091
 10
4201.5266879352
 20
7936.4686500937
 10
4201.8382754163
 20
7936.4406408353
 10
4202.0192302998
 20
7936.3686673644
 10
4202.0446460927
 20
7936.3019729362
  0
LWPOLYLINE
  5
3E2
330
1F
100
AcDbEntity
  8
0
  6
Continuous
 62
     7
370
    25
100
AcDbPolyline
 90
        8
 70
   128
 43
0.0
 10
4207.4092538497
 20
7936.1779040172
 10
4207.4252195713
 20
7936.1767498792
 10
4207.8907105534
 20
7936.2043936904
 10
4208.3601230388
 20
7936.2755599804
 10
4208.8100384304
 20
7936.368455675
 10
4209.1821563581
 20
7936.4454395355
 10
4209.4080742681
 20
7936.4679953019
 10
4209.4697631081
 20
7936.4344100044
  0
LWPOLYLINE
  5
3E3
330
1F
100
AcDbEntity
  8
0
  6
Continuous
 62
     7
370
    25
100
AcDbPolyline
 90
        9
 70
   128
 43
0.0
 10
3938.2852832704
 20
7936.3017835101
 10
3938.3201895022
 20
7936.3739962344
 10
3938.5350022776
 20
7936.4485753705
 10
3938.8838066932
 20
7936.467352186
 10
3939.3041428212
 20
7936.4285815331
 10
3939.7719899033
 20
7936.3499375728
 10
3940.2653754644
 20
7936.2568824946
 10
3940.7158398495
 20
7936.1899633888
 10
3940.9661739525
 20
7936.1826391077
  0
ARC
  5
3E4
330
1F
100
AcDbEntity
  8
0
  6
Continuous
 62
     7
370
    25
100
AcDbCircle
 10
3932.9774179677
 20
7945.2576901961
 30
0.0
 40
9.073856961055293
100
AcDbArc
 50
256.5699880186
 51
270.1665844819
  0
LWPOLYLINE
  5
3E5
330
1F
100
AcDbEntity
  8
0
  6
Continuous
 62
     8
370
    25
100
AcDbPolyline
 90
       13
 70
   128
 43
0.0
 10
4199.2838498171
 20
7683.1589636831
 10
4199.6215828692
 20
7683.1996779155
 10
4200.26968785
 20
7683.5204357017
 10
4200.8379260963
 20
7684.1359653857
 10
4201.280262325
 20
7684.9964004133
 10
4201.5608610854
 20
7686.0320334557
 10
4201.6569899348
 20
7687.1589636831
 10
4201.5608610854
 20
7688.2858939104
 10
4201.280262325
 20
7689.3215269529
 10
4200.8379260963
 20
7690.1819619805
 10
4200.26968785
 20
7690.7974916645
 10
4199.6215828692
 20
7691.1182494506
 10
4199.2838498171
 20
7691.1589636831
  0
LWPOLYLINE
  5
3E6
330
1F
100
AcDbEntity
  8
0
  6
Continuous
 62
     8
370
    25
100
AcDbPolyline
 90
       13
 70
   128
 43
0.0
 10
3941.0483358009
 20
7683.1589636831
 10
3940.7106027489
 20
7683.1996779155
 10
3940.0624977681
 20
7683.5204357017
 10
3939.4942595217
 20
7684.1359653857
 10
3939.051923293
 20
7684.9964004133
 10
3938.7713245326
 20
7686.0320334557
 10
3938.6751956833
 20
7687.1589636831
 10
3938.7713245326
 20
7688.2858939104
 10
3939.051923293
 20
7689.3215269529
 10
3939.4942595217
 20
7690.1819619805
 10
3940.0624977681
 20
7690.7974916645
 10
3940.7106027489
 20
7691.1182494506
 10
3941.0483358009
 20
7691.1589636831
  0
LINE
  5
3E7
330
1F
100
AcDbEntity
  8
0
  6
Continuous
 62
     8
370
    25
100
AcDbLine
 10
4099.9456587573
 20
7638.1589636831
 30
0.0
 11
4101.4456587573
 21
7638.1589636831
 31
0.0
  0
LINE
  5
3E8
330
1F
100
AcDbEntity
  8
0
  6
Continuous
 62
     8
370
    25
100
AcDbLine
 10
4098.4456587573
 20
7638.1589636831
 30
0.0
 11
4099.9456587573
 21
7638.1589636831
 31
0.0
  0
LINE
  5
3E9
330
1F
100
AcDbEntity
  8
0
  6
Continuous
 62
     8
370
    25
100
AcDbLine
 10
4094.9456587573
 20
7633.1589636831
 30
0.0
 11
4094.9456587573
 21
7631.6589636831
 31
0.0
  0
LINE
  5
3EA
330
1F
100
AcDbEntity
  8
0
  6
Continuous
 62
     8
370
    25
100
AcDbLine
 10
4094.9456587573
 20
7634.6589636831
 30
0.0
 11
4094.9456587573
 21
7633.1589636831
 31
0.0
  0
LINE
  5
3EB
330
1F
100
AcDbEntity
  8
0
  6
Continuous
 62
     8
370
    25
100
AcDbLine
 10
4040.3865268607
 20
7638.1589636831
 30
0.0
 11
4038.8865268607
 21
7638.1589636831
 31
0.0
  0
LINE
  5
3EC
330
1F
100
AcDbEntity
  8
0
  6
Continuous
 62
     8
370
    25
100
AcDbLine
 10
4041.8865268607
 20
7638.1589636831
 30
0.0
 11
4040.3865268607
 21
7638.1589636831
 31
0.0
  0
LINE
  5
3ED
330
1F
100
AcDbEntity
  8
0
  6
Continuous
 62
     8
370
    25
100
AcDbLine
 10
4045.3865268607
 20
7633.1589636831
 30
0.0
 11
4045.3865268607
 21
7631.6589636831
 31
0.0
  0
LINE
  5
3EE
330
1F
100
AcDbEntity
  8
0
  6
Continuous
 62
     8
370
    25
100
AcDbLine
 10
4045.3865268607
 20
7634.6589636831
 30
0.0
 11
4045.3865268607
 21
7633.1589636831
 31
0.0
  0
LINE
  5
3EF
330
1F
100
AcDbEntity
  8
0
  6
Continuous
 62
     8
370
    25
100
AcDbLine
 10
4139.9663343904
 20
7635.6589636831
 30
0.0
 11
4141.4663343904
 21
7635.6589636831
 31
0.0
  0
LINE
  5
3F0
330
1F
100
AcDbEntity
  8
0
  6
Continuous
 62
     8
370
    25
100
AcDbLine
 10
4138.4663343904
 20
7635.6589636831
 30
0.0
 11
4139.9663343904
 21
7635.6589636831
 31
0.0
  0
LINE
  5
3F1
330
1F
100
AcDbEntity
  8
0
  6
Continuous
 62
     8
370
    25
100
AcDbLine
 10
4134.9663343904
 20
7630.6589636831
 30
0.0
 11
4134.9663343904
 21
7629.1589636831
 31
0.0
  0
LINE
  5
3F2
330
1F
100
AcDbEntity
  8
0
  6
Continuous
 62
     8
370
    25
100
AcDbLine
 10
4134.9663343904
 20
7632.1589636831
 30
0.0
 11
4134.9663343904
 21
7630.6589636831
 31
0.0
  0
LINE
  5
3F3
330
1F
100
AcDbEntity
  8
0
  6
Continuous
 62
     8
370
    25
100
AcDbLine
 10
4005.3658512277
 20
7630.6589636831
 30
0.0
 11
4005.3658512277
 21
7629.1589636831
 31
0.0
  0
LINE
  5
3F4
330
1F
100
AcDbEntity
  8
0
  6
Continuous
 62
     8
370
    25
100
AcDbLine
 10
4005.3658512277
 20
7632.1589636831
 30
0.0
 11
4005.3658512277
 21
7630.6589636831
 31
0.0
  0
LINE
  5
3F5
330
1F
100
AcDbEntity
  8
0
  6
Continuous
 62
     8
370
    25
100
AcDbLine
 10
4000.3658512277
 20
7635.6589636831
 30
0.0
 11
3998.8658512277
 21
7635.6589636831
 31
0.0
  0
LINE
  5
3F6
330
1F
100
AcDbEntity
  8
0
  6
Continuous
 62
     8
370
    25
100
AcDbLine
 10
4001.8658512277
 20
7635.6589636831
 30
0.0
 11
4000.3658512277
 21
7635.6589636831
 31
0.0
  0
LINE
  5
3F7
330
1F
100
AcDbEntity
  8
0
  6
Continuous
 62
     8
370
    25
100
AcDbLine
 10
4165.8181891951
 20
7633.1589636831
 30
0.0
 11
4167.3181891951
 21
7633.1589636831
 31
0.0
  0
LINE
  5
3F8
330
1F
100
AcDbEntity
  8
0
  6
Continuous
 62
     8
370
    25
100
AcDbLine
 10
4164.3181891951
 20
7633.1589636831
 30
0.0
 11
4165.8181891951
 21
7633.1589636831
 31
0.0
  0
LINE
  5
3F9
330
1F
100
AcDbEntity
  8
0
  6
Continuous
 62
     8
370
    25
100
AcDbLine
 10
4160.8181891951
 20
7628.1589636831
 30
0.0
 11
4160.8181891951
 21
7626.6589636831
 31
0.0
  0
LINE
  5
3FA
330
1F
100
AcDbEntity
  8
0
  6
Continuous
 62
     8
370
    25
100
AcDbLine
 10
4160.8181891951
 20
7629.6589636831
 30
0.0
 11
4160.8181891951
 21
7628.1589636831
 31
0.0
  0
LINE
  5
3FB
330
1F
100
AcDbEntity
  8
0
  6
Continuous
 62
     8
370
    25
100
AcDbLine
 10
3979.5139964229
 20
7628.1589636831
 30
0.0
 11
3979.5139964229
 21
7626.6589636831
 31
0.0
  0
LINE
  5
3FC
330
1F
100
AcDbEntity
  8
0
  6
Continuous
 62
     8
370
    25
100
AcDbLine
 10
3979.5139964229
 20
7629.6589636831
 30
0.0
 11
3979.5139964229
 21
7628.1589636831
 31
0.0
  0
LINE
  5
3FD
330
1F
100
AcDbEntity
  8
0
  6
Continuous
 62
     8
370
    25
100
AcDbLine
 10
3974.5139964229
 20
7633.1589636831
 30
0.0
 11
3973.0139964229
 21
7633.1589636831
 31
0.0
  0
LINE
  5
3FE
330
1F
100
AcDbEntity
  8
0
  6
Continuous
 62
     8
370
    25
100
AcDbLine
 10
3976.0139964229
 20
7633.1589636831
 30
0.0
 11
3974.5139964229
 21
7633.1589636831
 31
0.0
  0
LINE
  5
3FF
330
1F
100
AcDbEntity
  8
0
  6
Continuous
 62
     8
370
    25
100
AcDbLine
 10
4185.0561635779
 20
7633.1589636831
 30
0.0
 11
4186.5561635779
 21
7633.1589636831
 31
0.0
  0
LINE
  5
400
330
1F
100
AcDbEntity
  8
0
  6
Continuous
 62
     8
370
    25
100
AcDbLine
 10
4183.5561635779
 20
7633.1589636831
 30
0.0
 11
4185.0561635779
 21
7633.1589636831
 31
0.0
  0
LINE
  5
401
330
1F
100
AcDbEntity
  8
0
  6
Continuous
 62
     8
370
    25
100
AcDbLine
 10
4180.0561635779
 20
7628.1589636831
 30
0.0
 11
4180.0561635779
 21
7626.6589636831
 31
0.0
  0
LINE
  5
402
330
1F
100
AcDbEntity
  8
0
  6
Continuous
 62
     8
370
    25
100
AcDbLine
 10
4180.0561635779
 20
7629.6589636831
 30
0.0
 11
4180.0561635779
 21
7628.1589636831
 31
0.0
  0
LINE
  5
403
330
1F
100
AcDbEntity
  8
0
  6
Continuous
 62
     8
370
    25
100
AcDbLine
 10
3960.2760220401
 20
7628.1589636831
 30
0.0
 11
3960.2760220401
 21
7626.6589636831
 31
0.0
  0
LINE
  5
404
330
1F
100
AcDbEntity
  8
0
  6
Continuous
 62
     8
370
    25
100
AcDbLine
 10
3960.2760220401
 20
7629.6589636831
 30
0.0
 11
3960.2760220401
 21
7628.1589636831
 31
0.0
  0
LINE
  5
405
330
1F
100
AcDbEntity
  8
0
  6
Continuous
 62
     8
370
    25
100
AcDbLine
 10
3955.2760220401
 20
7633.1589636831
 30
0.0
 11
3953.7760220401
 21
7633.1589636831
 31
0.0
  0
LINE
  5
406
330
1F
100
AcDbEntity
  8
0
  6
Continuous
 62
     8
370
    25
100
AcDbLine
 10
3956.7760220401
 20
7633.1589636831
 30
0.0
 11
3955.2760220401
 21
7633.1589636831
 31
0.0
  0
LINE
  5
407
330
1F
100
AcDbEntity
  8
0
  6
Continuous
 62
     8
370
    25
100
AcDbLine
 10
4200.56125502
 20
7633.1589636831
 30
0.0
 11
4202.06125502
 21
7633.1589636831
 31
0.0
  0
LINE
  5
408
330
1F
100
AcDbEntity
  8
0
  6
Continuous
 62
     8
370
    25
100
AcDbLine
 10
4199.06125502
 20
7633.1589636831
 30
0.0
 11
4200.56125502
 21
7633.1589636831
 31
0.0
  0
LINE
  5
409
330
1F
100
AcDbEntity
  8
0
  6
Continuous
 62
     8
370
    25
100
AcDbLine
 10
4195.56125502
 20
7628.1589636831
 30
0.0
 11
4195.56125502
 21
7626.6589636831
 31
0.0
  0
LINE
  5
40A
330
1F
100
AcDbEntity
  8
0
  6
Continuous
 62
     8
370
    25
100
AcDbLine
 10
4195.56125502
 20
7629.6589636831
 30
0.0
 11
4195.56125502
 21
7628.1589636831
 31
0.0
  0
LINE
  5
40B
330
1F
100
AcDbEntity
  8
0
  6
Continuous
 62
     8
370
    25
100
AcDbLine
 10
3944.7709305981
 20
7628.1589636831
 30
0.0
 11
3944.7709305981
 21
7626.6589636831
 31
0.0
  0
LINE
  5
40C
330
1F
100
AcDbEntity
  8
0
  6
Continuous
 62
     8
370
    25
100
AcDbLine
 10
3944.7709305981
 20
7629.6589636831
 30
0.0
 11
3944.7709305981
 21
7628.1589636831
 31
0.0
  0
LINE
  5
40D
330
1F
100
AcDbEntity
  8
0
  6
Continuous
 62
     8
370
    25
100
AcDbLine
 10
3939.7709305981
 20
7633.1589636831
 30
0.0
 11
3938.2709305981
 21
7633.1589636831
 31
0.0
  0
LINE
  5
40E
330
1F
100
AcDbEntity
  8
0
  6
Continuous
 62
     8
370
    25
100
AcDbLine
 10
3941.2709305981
 20
7633.1589636831
 30
0.0
 11
3939.7709305981
 21
7633.1589636831
 31
0.0
  0
LINE
  5
40F
330
1F
100
AcDbEntity
  8
0
  6
Continuous
 62
     8
370
    25
100
AcDbLine
 10
4207.9740449817
 20
7633.1589636831
 30
0.0
 11
4209.4740449817
 21
7633.1589636831
 31
0.0
  0
LINE
  5
410
330
1F
100
AcDbEntity
  8
0
  6
Continuous
 62
     8
370
    25
100
AcDbLine
 10
4206.4740449817
 20
7633.1589636831
 30
0.0
 11
4207.9740449817
 21
7633.1589636831
 31
0.0
  0
LINE
  5
411
330
1F
100
AcDbEntity
  8
0
  6
Continuous
 62
     8
370
    25
100
AcDbLine
 10
4202.9740449817
 20
7628.1589636831
 30
0.0
 11
4202.9740449817
 21
7626.6589636831
 31
0.0
  0
LINE
  5
412
330
1F
100
AcDbEntity
  8
0
  6
Continuous
 62
     8
370
    25
100
AcDbLine
 10
4202.9740449817
 20
7629.6589636831
 30
0.0
 11
4202.9740449817
 21
7628.1589636831
 31
0.0
  0
LINE
  5
413
330
1F
100
AcDbEntity
  8
0
  6
Continuous
 62
     8
370
    25
100
AcDbLine
 10
3937.3581406363
 20
7628.1589636831
 30
0.0
 11
3937.3581406363
 21
7626.6589636831
 31
0.0
  0
LINE
  5
414
330
1F
100
AcDbEntity
  8
0
  6
Continuous
 62
     8
370
    25
100
AcDbLine
 10
3937.3581406363
 20
7629.6589636831
 30
0.0
 11
3937.3581406363
 21
7628.1589636831
 31
0.0
  0
LINE
  5
415
330
1F
100
AcDbEntity
  8
0
  6
Continuous
 62
     8
370
    25
100
AcDbLine
 10
3932.3581406363
 20
7633.1589636831
 30
0.0
 11
3930.8581406363
 21
7633.1589636831
 31
0.0
  0
LINE
  5
416
330
1F
100
AcDbEntity
  8
0
  6
Continuous
 62
     8
370
    25
100
AcDbLine
 10
3933.8581406363
 20
7633.1589636831
 30
0.0
 11
3932.3581406363
 21
7633.1589636831
 31
0.0
  0
LINE
  5
417
330
1F
100
AcDbEntity
  8
0
  6
Continuous
 62
     8
370
    25
100
AcDbLine
 10
4209.4740449817
 20
7633.1589636831
 30
0.0
 11
4210.8562853907
 21
7633.1589636831
 31
0.0
  0
LINE
  5
418
330
1F
100
AcDbEntity
  8
0
  6
Continuous
 62
     8
370
    25
100
AcDbLine
 10
4204.3562853907
 20
7626.8076322123
 30
0.0
 11
4204.3562853907
 21
7626.6589636831
 31
0.0
  0
LINE
  5
419
330
1F
100
AcDbEntity
  8
0
  6
Continuous
 62
     8
370
    25
100
AcDbLine
 10
3935.9759002273
 20
7626.8076322123
 30
0.0
 11
3935.9759002273
 21
7626.6589636831
 31
0.0
  0
LINE
  5
41A
330
1F
100
AcDbEntity
  8
0
  6
Continuous
 62
     8
370
    25
100
AcDbLine
 10
3930.8581406363
 20
7633.1589636831
 30
0.0
 11
3929.4759002273
 21
7633.1589636831
 31
0.0
  0
LINE
  5
41B
330
1F
100
AcDbEntity
  8
0
  6
Continuous
 62
     8
370
    25
100
AcDbLine
 10
4205.9070210375
 20
7633.1589636831
 30
0.0
 11
4206.4740449817
 21
7633.1589636831
 31
0.0
  0
LINE
  5
41C
330
1F
100
AcDbEntity
  8
0
  6
Continuous
 62
     8
370
    25
100
AcDbLine
 10
4204.4070210375
 20
7633.1589636831
 30
0.0
 11
4205.9070210375
 21
7633.1589636831
 31
0.0
  0
LINE
  5
41D
330
1F
100
AcDbEntity
  8
0
  6
Continuous
 62
     8
370
    25
100
AcDbLine
 10
3934.4251645805
 20
7633.1589636831
 30
0.0
 11
3933.8581406363
 21
7633.1589636831
 31
0.0
  0
LINE
  5
41E
330
1F
100
AcDbEntity
  8
0
  6
Continuous
 62
     8
370
    25
100
AcDbLine
 10
3935.9251645805
 20
7633.1589636831
 30
0.0
 11
3934.4251645805
 21
7633.1589636831
 31
0.0
  0
LINE
  5
41F
330
1F
100
AcDbEntity
  8
0
  6
Continuous
 62
     8
370
    25
100
AcDbLine
 10
4196.0031224483
 20
7633.1589636831
 30
0.0
 11
4197.5031224483
 21
7633.1589636831
 31
0.0
  0
LINE
  5
420
330
1F
100
AcDbEntity
  8
0
  6
Continuous
 62
     8
370
    25
100
AcDbLine
 10
4194.5031224483
 20
7633.1589636831
 30
0.0
 11
4196.0031224483
 21
7633.1589636831
 31
0.0
  0
LINE
  5
421
330
1F
100
AcDbEntity
  8
0
  6
Continuous
 62
     8
370
    25
100
AcDbLine
 10
3944.3290631698
 20
7633.1589636831
 30
0.0
 11
3942.8290631698
 21
7633.1589636831
 31
0.0
  0
LINE
  5
422
330
1F
100
AcDbEntity
  8
0
  6
Continuous
 62
     8
370
    25
100
AcDbLine
 10
3945.8290631698
 20
7633.1589636831
 30
0.0
 11
3944.3290631698
 21
7633.1589636831
 31
0.0
  0
LINE
  5
423
330
1F
100
AcDbEntity
  8
0
  6
Continuous
 62
     8
370
    25
100
AcDbLine
 10
4183.2367812094
 20
7633.1589636831
 30
0.0
 11
4183.5561635779
 21
7633.1589636831
 31
0.0
  0
LINE
  5
424
330
1F
100
AcDbEntity
  8
0
  6
Continuous
 62
     8
370
    25
100
AcDbLine
 10
3957.0954044087
 20
7633.1589636831
 30
0.0
 11
3956.7760220401
 21
7633.1589636831
 31
0.0
  0
LINE
  5
425
330
1F
100
AcDbEntity
  8
0
  6
Continuous
 62
     8
370
    25
100
AcDbLine
 10
4173.4704399705
 20
7633.1589636831
 30
0.0
 11
4174.9704399705
 21
7633.1589636831
 31
0.0
  0
LINE
  5
426
330
1F
100
AcDbEntity
  8
0
  6
Continuous
 62
     8
370
    25
100
AcDbLine
 10
4171.9704399705
 20
7633.1589636831
 30
0.0
 11
4173.4704399705
 21
7633.1589636831
 31
0.0
  0
LINE
  5
427
330
1F
100
AcDbEntity
  8
0
  6
Continuous
 62
     8
370
    25
100
AcDbLine
 10
3966.8617456475
 20
7633.1589636831
 30
0.0
 11
3965.3617456475
 21
7633.1589636831
 31
0.0
  0
LINE
  5
428
330
1F
100
AcDbEntity
  8
0
  6
Continuous
 62
     8
370
    25
100
AcDbLine
 10
3968.3617456475
 20
7633.1589636831
 30
0.0
 11
3966.8617456475
 21
7633.1589636831
 31
0.0
  0
LINE
  5
429
330
1F
100
AcDbEntity
  8
0
  6
Continuous
 62
     8
370
    25
100
AcDbLine
 10
4162.2040987316
 20
7633.1589636831
 30
0.0
 11
4163.7040987316
 21
7633.1589636831
 31
0.0
  0
LINE
  5
42A
330
1F
100
AcDbEntity
  8
0
  6
Continuous
 62
     8
370
    25
100
AcDbLine
 10
4160.7040987316
 20
7633.1589636831
 30
0.0
 11
4162.2040987316
 21
7633.1589636831
 31
0.0
  0
LINE
  5
42B
330
1F
100
AcDbEntity
  8
0
  6
Continuous
 62
     8
370
    25
100
AcDbLine
 10
3978.1280868864
 20
7633.1589636831
 30
0.0
 11
3976.6280868864
 21
7633.1589636831
 31
0.0
  0
LINE
  5
42C
330
1F
100
AcDbEntity
  8
0
  6
Continuous
 62
     8
370
    25
100
AcDbLine
 10
3979.6280868864
 20
7633.1589636831
 30
0.0
 11
3978.1280868864
 21
7633.1589636831
 31
0.0
  0
LINE
  5
42D
330
1F
100
AcDbEntity
  8
0
  6
Continuous
 62
     8
370
    25
100
AcDbLine
 10
4150.9377574927
 20
7633.1589636831
 30
0.0
 11
4152.4377574927
 21
7633.1589636831
 31
0.0
  0
LINE
  5
42E
330
1F
100
AcDbEntity
  8
0
  6
Continuous
 62
     8
370
    25
100
AcDbLine
 10
4149.4377574927
 20
7633.1589636831
 30
0.0
 11
4150.9377574927
 21
7633.1589636831
 31
0.0
  0
LINE
  5
42F
330
1F
100
AcDbEntity
  8
0
  6
Continuous
 62
     8
370
    25
100
AcDbLine
 10
3989.3944281253
 20
7633.1589636831
 30
0.0
 11
3987.8944281253
 21
7633.1589636831
 31
0.0
  0
LINE
  5
430
330
1F
100
AcDbEntity
  8
0
  6
Continuous
 62
     8
370
    25
100
AcDbLine
 10
3990.8944281253
 20
7633.1589636831
 30
0.0
 11
3989.3944281253
 21
7633.1589636831
 31
0.0
  0
LINE
  5
431
330
1F
100
AcDbEntity
  8
0
  6
Continuous
 62
     8
370
    25
100
AcDbLine
 10
4140.9663343904
 20
7633.1589636831
 30
0.0
 11
4141.1714162538
 21
7633.1589636831
 31
0.0
  0
LINE
  5
432
330
1F
100
AcDbEntity
  8
0
  6
Continuous
 62
     8
370
    25
100
AcDbLine
 10
3999.3658512277
 20
7633.1589636831
 30
0.0
 11
3999.1607693642
 21
7633.1589636831
 31
0.0
  0
LINE
  5
433
330
1F
100
AcDbEntity
  8
0
  6
Continuous
 62
     8
370
    25
100
AcDbLine
 10
4128.405075015
 20
7633.1589636831
 30
0.0
 11
4129.905075015
 21
7633.1589636831
 31
0.0
  0
LINE
  5
434
330
1F
100
AcDbEntity
  8
0
  6
Continuous
 62
     8
370
    25
100
AcDbLine
 10
4126.905075015
 20
7633.1589636831
 30
0.0
 11
4128.405075015
 21
7633.1589636831
 31
0.0
  0
LINE
  5
435
330
1F
100
AcDbEntity
  8
0
  6
Continuous
 62
     8
370
    25
100
AcDbLine
 10
4011.9271106031
 20
7633.1589636831
 30
0.0
 11
4010.4271106031
 21
7633.1589636831
 31
0.0
  0
LINE
  5
436
330
1F
100
AcDbEntity
  8
0
  6
Continuous
 62
     8
370
    25
100
AcDbLine
 10
4013.4271106031
 20
7633.1589636831
 30
0.0
 11
4011.9271106031
 21
7633.1589636831
 31
0.0
  0
LINE
  5
437
330
1F
100
AcDbEntity
  8
0
  6
Continuous
 62
     8
370
    25
100
AcDbLine
 10
4117.1387337761
 20
7633.1589636831
 30
0.0
 11
4118.6387337761
 21
7633.1589636831
 31
0.0
  0
LINE
  5
438
330
1F
100
AcDbEntity
  8
0
  6
Continuous
 62
     8
370
    25
100
AcDbLine
 10
4115.6387337761
 20
7633.1589636831
 30
0.0
 11
4117.1387337761
 21
7633.1589636831
 31
0.0
  0
LINE
  5
439
330
1F
100
AcDbEntity
  8
0
  6
Continuous
 62
     8
370
    25
100
AcDbLine
 10
4023.193451842
 20
7633.1589636831
 30
0.0
 11
4021.693451842
 21
7633.1589636831
 31
0.0
  0
LINE
  5
43A
330
1F
100
AcDbEntity
  8
0
  6
Continuous
 62
     8
370
    25
100
AcDbLine
 10
4024.693451842
 20
7633.1589636831
 30
0.0
 11
4023.193451842
 21
7633.1589636831
 31
0.0
  0
LINE
  5
43B
330
1F
100
AcDbEntity
  8
0
  6
Continuous
 62
     8
370
    25
100
AcDbLine
 10
4105.8723925372
 20
7633.1589636831
 30
0.0
 11
4107.3723925372
 21
7633.1589636831
 31
0.0
  0
LINE
  5
43C
330
1F
100
AcDbEntity
  8
0
  6
Continuous
 62
     8
370
    25
100
AcDbLine
 10
4104.3723925372
 20
7633.1589636831
 30
0.0
 11
4105.8723925372
 21
7633.1589636831
 31
0.0
  0
LINE
  5
43D
330
1F
100
AcDbEntity
  8
0
  6
Continuous
 62
     8
370
    25
100
AcDbLine
 10
4034.4597930809
 20
7633.1589636831
 30
0.0
 11
4032.9597930809
 21
7633.1589636831
 31
0.0
  0
LINE
  5
43E
330
1F
100
AcDbEntity
  8
0
  6
Continuous
 62
     8
370
    25
100
AcDbLine
 10
4035.9597930809
 20
7633.1589636831
 30
0.0
 11
4034.4597930809
 21
7633.1589636831
 31
0.0
  0
LINE
  5
43F
330
1F
100
AcDbEntity
  8
0
  6
Continuous
 62
     8
370
    25
100
AcDbLine
 10
4083.3397100594
 20
7638.1589636831
 30
0.0
 11
4084.8397100594
 21
7638.1589636831
 31
0.0
  0
LINE
  5
440
330
1F
100
AcDbEntity
  8
0
  6
Continuous
 62
     8
370
    25
100
AcDbLine
 10
4081.8397100594
 20
7638.1589636831
 30
0.0
 11
4083.3397100594
 21
7638.1589636831
 31
0.0
  0
LINE
  5
441
330
1F
100
AcDbEntity
  8
0
  6
Continuous
 62
     8
370
    25
100
AcDbLine
 10
4056.9924755586
 20
7638.1589636831
 30
0.0
 11
4055.4924755586
 21
7638.1589636831
 31
0.0
  0
LINE
  5
442
330
1F
100
AcDbEntity
  8
0
  6
Continuous
 62
     8
370
    25
100
AcDbLine
 10
4058.4924755586
 20
7638.1589636831
 30
0.0
 11
4056.9924755586
 21
7638.1589636831
 31
0.0
  0
LWPOLYLINE
  5
443
330
1F
100
AcDbEntity
  8
0
  6
Continuous
 62
     8
370
    25
100
AcDbPolyline
 90
       13
 70
   128
 43
0.0
 10
4199.2838498171
 20
7936.1767496192
 10
4199.6215828692
 20
7936.2174638516
 10
4200.26968785
 20
7936.5382216377
 10
4200.8379260963
 20
7937.1537513217
 10
4201.280262325
 20
7938.0141863493
 10
4201.5608610854
 20
7939.0498193918
 10
4201.6569899348
 20
7940.1767496192
 10
4201.5608610854
 20
7941.3036798465
 10
4201.280262325
 20
7942.339312889
 10
4200.8379260963
 20
7943.1997479166
 10
4200.26968785
 20
7943.8152776006
 10
4199.6215828692
 20
7944.1360353867
 10
4199.2838498171
 20
7944.1767496192
  0
LWPOLYLINE
  5
444
330
1F
100
AcDbEntity
  8
0
  6
Continuous
 62
     8
370
    25
100
AcDbPolyline
 90
       13
 70
   128
 43
0.0
 10
3941.0483358009
 20
7936.1767496192
 10
3940.7106027489
 20
7936.2174638516
 10
3940.0624977681
 20
7936.5382216377
 10
3939.4942595217
 20
7937.1537513217
 10
3939.051923293
 20
7938.0141863493
 10
3938.7713245326
 20
7939.0498193918
 10
3938.6751956833
 20
7940.1767496192
 10
3938.7713245326
 20
7941.3036798465
 10
3939.051923293
 20
7942.339312889
 10
3939.4942595217
 20
7943.1997479166
 10
3940.0624977681
 20
7943.8152776006
 10
3940.7106027489
 20
7944.1360353867
 10
3941.0483358009
 20
7944.1767496192
  0
LINE
  5
445
330
1F
100
AcDbEntity
  8
0
  6
Continuous
 62
     8
370
    25
100
AcDbLine
 10
4099.9456587573
 20
7891.1767496192
 30
0.0
 11
4101.4456587573
 21
7891.1767496192
 31
0.0
  0
LINE
  5
446
330
1F
100
AcDbEntity
  8
0
  6
Continuous
 62
     8
370
    25
100
AcDbLine
 10
4098.4456587573
 20
7891.1767496192
 30
0.0
 11
4099.9456587573
 21
7891.1767496192
 31
0.0
  0
LINE
  5
447
330
1F
100
AcDbEntity
  8
0
  6
Continuous
 62
     8
370
    25
100
AcDbLine
 10
4094.9456587573
 20
7886.1767496192
 30
0.0
 11
4094.9456587573
 21
7884.6767496192
 31
0.0
  0
LINE
  5
448
330
1F
100
AcDbEntity
  8
0
  6
Continuous
 62
     8
370
    25
100
AcDbLine
 10
4094.9456587573
 20
7887.6767496192
 30
0.0
 11
4094.9456587573
 21
7886.1767496192
 31
0.0
  0
LINE
  5
449
330
1F
100
AcDbEntity
  8
0
  6
Continuous
 62
     8
370
    25
100
AcDbLine
 10
4040.3865268607
 20
7891.1767496192
 30
0.0
 11
4038.8865268607
 21
7891.1767496192
 31
0.0
  0
LINE
  5
44A
330
1F
100
AcDbEntity
  8
0
  6
Continuous
 62
     8
370
    25
100
AcDbLine
 10
4041.8865268607
 20
7891.1767496192
 30
0.0
 11
4040.3865268607
 21
7891.1767496192
 31
0.0
  0
LINE
  5
44B
330
1F
100
AcDbEntity
  8
0
  6
Continuous
 62
     8
370
    25
100
AcDbLine
 10
4045.3865268607
 20
7886.1767496192
 30
0.0
 11
4045.3865268607
 21
7884.6767496192
 31
0.0
  0
LINE
  5
44C
330
1F
100
AcDbEntity
  8
0
  6
Continuous
 62
     8
370
    25
100
AcDbLine
 10
4045.3865268607
 20
7887.6767496192
 30
0.0
 11
4045.3865268607
 21
7886.1767496192
 31
0.0
  0
LINE
  5
44D
330
1F
100
AcDbEntity
  8
0
  6
Continuous
 62
     8
370
    25
100
AcDbLine
 10
4139.9663343904
 20
7888.6767496192
 30
0.0
 11
4141.4663343904
 21
7888.6767496192
 31
0.0
  0
LINE
  5
44E
330
1F
100
AcDbEntity
  8
0
  6
Continuous
 62
     8
370
    25
100
AcDbLine
 10
4138.4663343904
 20
7888.6767496192
 30
0.0
 11
4139.9663343904
 21
7888.6767496192
 31
0.0
  0
LINE
  5
44F
330
1F
100
AcDbEntity
  8
0
  6
Continuous
 62
     8
370
    25
100
AcDbLine
 10
4134.9663343904
 20
7883.6767496192
 30
0.0
 11
4134.9663343904
 21
7882.1767496192
 31
0.0
  0
LINE
  5
450
330
1F
100
AcDbEntity
  8
0
  6
Continuous
 62
     8
370
    25
100
AcDbLine
 10
4134.9663343904
 20
7885.1767496192
 30
0.0
 11
4134.9663343904
 21
7883.6767496192
 31
0.0
  0
LINE
  5
451
330
1F
100
AcDbEntity
  8
0
  6
Continuous
 62
     8
370
    25
100
AcDbLine
 10
4005.3658512277
 20
7883.6767496192
 30
0.0
 11
4005.3658512277
 21
7882.1767496192
 31
0.0
  0
LINE
  5
452
330
1F
100
AcDbEntity
  8
0
  6
Continuous
 62
     8
370
    25
100
AcDbLine
 10
4005.3658512277
 20
7885.1767496192
 30
0.0
 11
4005.3658512277
 21
7883.6767496192
 31
0.0
  0
LINE
  5
453
330
1F
100
AcDbEntity
  8
0
  6
Continuous
 62
     8
370
    25
100
AcDbLine
 10
4000.3658512277
 20
7888.6767496192
 30
0.0
 11
3998.8658512277
 21
7888.6767496192
 31
0.0
  0
LINE
  5
454
330
1F
100
AcDbEntity
  8
0
  6
Continuous
 62
     8
370
    25
100
AcDbLine
 10
4001.8658512277
 20
7888.6767496192
 30
0.0
 11
4000.3658512277
 21
7888.6767496192
 31
0.0
  0
LINE
  5
455
330
1F
100
AcDbEntity
  8
0
  6
Continuous
 62
     8
370
    25
100
AcDbLine
 10
4165.8181891951
 20
7886.1767496192
 30
0.0
 11
4167.3181891951
 21
7886.1767496192
 31
0.0
  0
LINE
  5
456
330
1F
100
AcDbEntity
  8
0
  6
Continuous
 62
     8
370
    25
100
AcDbLine
 10
4164.3181891951
 20
7886.1767496192
 30
0.0
 11
4165.8181891951
 21
7886.1767496192
 31
0.0
  0
LINE
  5
457
330
1F
100
AcDbEntity
  8
0
  6
Continuous
 62
     8
370
    25
100
AcDbLine
 10
4160.8181891951
 20
7881.1767496192
 30
0.0
 11
4160.8181891951
 21
7879.6767496192
 31
0.0
  0
LINE
  5
458
330
1F
100
AcDbEntity
  8
0
  6
Continuous
 62
     8
370
    25
100
AcDbLine
 10
4160.8181891951
 20
7882.6767496192
 30
0.0
 11
4160.8181891951
 21
7881.1767496192
 31
0.0
  0
LINE
  5
459
330
1F
100
AcDbEntity
  8
0
  6
Continuous
 62
     8
370
    25
100
AcDbLine
 10
3979.5139964229
 20
7881.1767496192
 30
0.0
 11
3979.5139964229
 21
7879.6767496192
 31
0.0
  0
LINE
  5
45A
330
1F
100
AcDbEntity
  8
0
  6
Continuous
 62
     8
370
    25
100
AcDbLine
 10
3979.5139964229
 20
7882.6767496192
 30
0.0
 11
3979.5139964229
 21
7881.1767496192
 31
0.0
  0
LINE
  5
45B
330
1F
100
AcDbEntity
  8
0
  6
Continuous
 62
     8
370
    25
100
AcDbLine
 10
3974.5139964229
 20
7886.1767496192
 30
0.0
 11
3973.0139964229
 21
7886.1767496192
 31
0.0
  0
LINE
  5
45C
330
1F
100
AcDbEntity
  8
0
  6
Continuous
 62
     8
370
    25
100
AcDbLine
 10
3976.0139964229
 20
7886.1767496192
 30
0.0
 11
3974.5139964229
 21
7886.1767496192
 31
0.0
  0
LINE
  5
45D
330
1F
100
AcDbEntity
  8
0
  6
Continuous
 62
     8
370
    25
100
AcDbLine
 10
4185.0561635779
 20
7886.1767496192
 30
0.0
 11
4186.5561635779
 21
7886.1767496192
 31
0.0
  0
LINE
  5
45E
330
1F
100
AcDbEntity
  8
0
  6
Continuous
 62
     8
370
    25
100
AcDbLine
 10
4183.5561635779
 20
7886.1767496192
 30
0.0
 11
4185.0561635779
 21
7886.1767496192
 31
0.0
  0
LINE
  5
45F
330
1F
100
AcDbEntity
  8
0
  6
Continuous
 62
     8
370
    25
100
AcDbLine
 10
4180.0561635779
 20
7881.1767496192
 30
0.0
 11
4180.0561635779
 21
7879.6767496192
 31
0.0
  0
LINE
  5
460
330
1F
100
AcDbEntity
  8
0
  6
Continuous
 62
     8
370
    25
100
AcDbLine
 10
4180.0561635779
 20
7882.6767496192
 30
0.0
 11
4180.0561635779
 21
7881.1767496192
 31
0.0
  0
LINE
  5
461
330
1F
100
AcDbEntity
  8
0
  6
Continuous
 62
     8
370
    25
100
AcDbLine
 10
3960.2760220401
 20
7881.1767496192
 30
0.0
 11
3960.2760220401
 21
7879.6767496192
 31
0.0
  0
LINE
  5
462
330
1F
100
AcDbEntity
  8
0
  6
Continuous
 62
     8
370
    25
100
AcDbLine
 10
3960.2760220401
 20
7882.6767496192
 30
0.0
 11
3960.2760220401
 21
7881.1767496192
 31
0.0
  0
LINE
  5
463
330
1F
100
AcDbEntity
  8
0
  6
Continuous
 62
     8
370
    25
100
AcDbLine
 10
3955.2760220401
 20
7886.1767496192
 30
0.0
 11
3953.7760220401
 21
7886.1767496192
 31
0.0
  0
LINE
  5
464
330
1F
100
AcDbEntity
  8
0
  6
Continuous
 62
     8
370
    25
100
AcDbLine
 10
3956.7760220401
 20
7886.1767496192
 30
0.0
 11
3955.2760220401
 21
7886.1767496192
 31
0.0
  0
LINE
  5
465
330
1F
100
AcDbEntity
  8
0
  6
Continuous
 62
     8
370
    25
100
AcDbLine
 10
4200.56125502
 20
7886.1767496192
 30
0.0
 11
4202.06125502
 21
7886.1767496192
 31
0.0
  0
LINE
  5
466
330
1F
100
AcDbEntity
  8
0
  6
Continuous
 62
     8
370
    25
100
AcDbLine
 10
4199.06125502
 20
7886.1767496192
 30
0.0
 11
4200.56125502
 21
7886.1767496192
 31
0.0
  0
LINE
  5
467
330
1F
100
AcDbEntity
  8
0
  6
Continuous
 62
     8
370
    25
100
AcDbLine
 10
4195.56125502
 20
7881.1767496192
 30
0.0
 11
4195.56125502
 21
7879.6767496192
 31
0.0
  0
LINE
  5
468
330
1F
100
AcDbEntity
  8
0
  6
Continuous
 62
     8
370
    25
100
AcDbLine
 10
4195.56125502
 20
7882.6767496192
 30
0.0
 11
4195.56125502
 21
7881.1767496192
 31
0.0
  0
LINE
  5
469
330
1F
100
AcDbEntity
  8
0
  6
Continuous
 62
     8
370
    25
100
AcDbLine
 10
3944.7709305981
 20
7881.1767496192
 30
0.0
 11
3944.7709305981
 21
7879.6767496192
 31
0.0
  0
LINE
  5
46A
330
1F
100
AcDbEntity
  8
0
  6
Continuous
 62
     8
370
    25
100
AcDbLine
 10
3944.7709305981
 20
7882.6767496192
 30
0.0
 11
3944.7709305981
 21
7881.1767496192
 31
0.0
  0
LINE
  5
46B
330
1F
100
AcDbEntity
  8
0
  6
Continuous
 62
     8
370
    25
100
AcDbLine
 10
3939.7709305981
 20
7886.1767496192
 30
0.0
 11
3938.2709305981
 21
7886.1767496192
 31
0.0
  0
LINE
  5
46C
330
1F
100
AcDbEntity
  8
0
  6
Continuous
 62
     8
370
    25
100
AcDbLine
 10
3941.2709305981
 20
7886.1767496192
 30
0.0
 11
3939.7709305981
 21
7886.1767496192
 31
0.0
  0
LINE
  5
46D
330
1F
100
AcDbEntity
  8
0
  6
Continuous
 62
     8
370
    25
100
AcDbLine
 10
4207.9740449817
 20
7886.1767496192
 30
0.0
 11
4209.4740449817
 21
7886.1767496192
 31
0.0
  0
LINE
  5
46E
330
1F
100
AcDbEntity
  8
0
  6
Continuous
 62
     8
370
    25
100
AcDbLine
 10
4206.4740449817
 20
7886.1767496192
 30
0.0
 11
4207.9740449817
 21
7886.1767496192
 31
0.0
  0
LINE
  5
46F
330
1F
100
AcDbEntity
  8
0
  6
Continuous
 62
     8
370
    25
100
AcDbLine
 10
4202.9740449817
 20
7881.1767496192
 30
0.0
 11
4202.9740449817
 21
7879.6767496192
 31
0.0
  0
LINE
  5
470
330
1F
100
AcDbEntity
  8
0
  6
Continuous
 62
     8
370
    25
100
AcDbLine
 10
4202.9740449817
 20
7882.6767496192
 30
0.0
 11
4202.9740449817
 21
7881.1767496192
 31
0.0
  0
LINE
  5
471
330
1F
100
AcDbEntity
  8
0
  6
Continuous
 62
     8
370
    25
100
AcDbLine
 10
3937.3581406363
 20
7881.1767496192
 30
0.0
 11
3937.3581406363
 21
7879.6767496192
 31
0.0
  0
LINE
  5
472
330
1F
100
AcDbEntity
  8
0
  6
Continuous
 62
     8
370
    25
100
AcDbLine
 10
3937.3581406363
 20
7882.6767496192
 30
0.0
 11
3937.3581406363
 21
7881.1767496192
 31
0.0
  0
LINE
  5
473
330
1F
100
AcDbEntity
  8
0
  6
Continuous
 62
     8
370
    25
100
AcDbLine
 10
3932.3581406363
 20
7886.1767496192
 30
0.0
 11
3930.8581406363
 21
7886.1767496192
 31
0.0
  0
LINE
  5
474
330
1F
100
AcDbEntity
  8
0
  6
Continuous
 62
     8
370
    25
100
AcDbLine
 10
3933.8581406363
 20
7886.1767496192
 30
0.0
 11
3932.3581406363
 21
7886.1767496192
 31
0.0
  0
LINE
  5
475
330
1F
100
AcDbEntity
  8
0
  6
Continuous
 62
     8
370
    25
100
AcDbLine
 10
4209.4740449817
 20
7886.1767496192
 30
0.0
 11
4210.8562853907
 21
7886.1767496192
 31
0.0
  0
LINE
  5
476
330
1F
100
AcDbEntity
  8
0
  6
Continuous
 62
     8
370
    25
100
AcDbLine
 10
4204.3562853907
 20
7879.8254181484
 30
0.0
 11
4204.3562853907
 21
7879.6767496192
 31
0.0
  0
LINE
  5
477
330
1F
100
AcDbEntity
  8
0
  6
Continuous
 62
     8
370
    25
100
AcDbLine
 10
3935.9759002273
 20
7879.8254181484
 30
0.0
 11
3935.9759002273
 21
7879.6767496192
 31
0.0
  0
LINE
  5
478
330
1F
100
AcDbEntity
  8
0
  6
Continuous
 62
     8
370
    25
100
AcDbLine
 10
3930.8581406363
 20
7886.1767496192
 30
0.0
 11
3929.4759002273
 21
7886.1767496192
 31
0.0
  0
LINE
  5
479
330
1F
100
AcDbEntity
  8
0
  6
Continuous
 62
     8
370
    25
100
AcDbLine
 10
4205.9070210375
 20
7886.1767496192
 30
0.0
 11
4206.4740449817
 21
7886.1767496192
 31
0.0
  0
LINE
  5
47A
330
1F
100
AcDbEntity
  8
0
  6
Continuous
 62
     8
370
    25
100
AcDbLine
 10
4204.4070210375
 20
7886.1767496192
 30
0.0
 11
4205.9070210375
 21
7886.1767496192
 31
0.0
  0
LINE
  5
47B
330
1F
100
AcDbEntity
  8
0
  6
Continuous
 62
     8
370
    25
100
AcDbLine
 10
3934.4251645805
 20
7886.1767496192
 30
0.0
 11
3933.8581406363
 21
7886.1767496192
 31
0.0
  0
LINE
  5
47C
330
1F
100
AcDbEntity
  8
0
  6
Continuous
 62
     8
370
    25
100
AcDbLine
 10
3935.9251645805
 20
7886.1767496192
 30
0.0
 11
3934.4251645805
 21
7886.1767496192
 31
0.0
  0
LINE
  5
47D
330
1F
100
AcDbEntity
  8
0
  6
Continuous
 62
     8
370
    25
100
AcDbLine
 10
4196.0031224483
 20
7886.1767496192
 30
0.0
 11
4197.5031224483
 21
7886.1767496192
 31
0.0
  0
LINE
  5
47E
330
1F
100
AcDbEntity
  8
0
  6
Continuous
 62
     8
370
    25
100
AcDbLine
 10
4194.5031224483
 20
7886.1767496192
 30
0.0
 11
4196.0031224483
 21
7886.1767496192
 31
0.0
  0
LINE
  5
47F
330
1F
100
AcDbEntity
  8
0
  6
Continuous
 62
     8
370
    25
100
AcDbLine
 10
3944.3290631698
 20
7886.1767496192
 30
0.0
 11
3942.8290631698
 21
7886.1767496192
 31
0.0
  0
LINE
  5
480
330
1F
100
AcDbEntity
  8
0
  6
Continuous
 62
     8
370
    25
100
AcDbLine
 10
3945.8290631698
 20
7886.1767496192
 30
0.0
 11
3944.3290631698
 21
7886.1767496192
 31
0.0
  0
LINE
  5
481
330
1F
100
AcDbEntity
  8
0
  6
Continuous
 62
     8
370
    25
100
AcDbLine
 10
4183.2367812094
 20
7886.1767496192
 30
0.0
 11
4183.5561635779
 21
7886.1767496192
 31
0.0
  0
LINE
  5
482
330
1F
100
AcDbEntity
  8
0
  6
Continuous
 62
     8
370
    25
100
AcDbLine
 10
3957.0954044087
 20
7886.1767496192
 30
0.0
 11
3956.7760220401
 21
7886.1767496192
 31
0.0
  0
LINE
  5
483
330
1F
100
AcDbEntity
  8
0
  6
Continuous
 62
     8
370
    25
100
AcDbLine
 10
4173.4704399705
 20
7886.1767496192
 30
0.0
 11
4174.9704399705
 21
7886.1767496192
 31
0.0
  0
LINE
  5
484
330
1F
100
AcDbEntity
  8
0
  6
Continuous
 62
     8
370
    25
100
AcDbLine
 10
4171.9704399705
 20
7886.1767496192
 30
0.0
 11
4173.4704399705
 21
7886.1767496192
 31
0.0
  0
LINE
  5
485
330
1F
100
AcDbEntity
  8
0
  6
Continuous
 62
     8
370
    25
100
AcDbLine
 10
3966.8617456475
 20
7886.1767496192
 30
0.0
 11
3965.3617456475
 21
7886.1767496192
 31
0.0
  0
LINE
  5
486
330
1F
100
AcDbEntity
  8
0
  6
Continuous
 62
     8
370
    25
100
AcDbLine
 10
3968.3617456475
 20
7886.1767496192
 30
0.0
 11
3966.8617456475
 21
7886.1767496192
 31
0.0
  0
LINE
  5
487
330
1F
100
AcDbEntity
  8
0
  6
Continuous
 62
     8
370
    25
100
AcDbLine
 10
4162.2040987316
 20
7886.1767496192
 30
0.0
 11
4163.7040987316
 21
7886.1767496192
 31
0.0
  0
LINE
  5
488
330
1F
100
AcDbEntity
  8
0
  6
Continuous
 62
     8
370
    25
100
AcDbLine
 10
4160.7040987316
 20
7886.1767496192
 30
0.0
 11
4162.2040987316
 21
7886.1767496192
 31
0.0
  0
LINE
  5
489
330
1F
100
AcDbEntity
  8
0
  6
Continuous
 62
     8
370
    25
100
AcDbLine
 10
3978.1280868864
 20
7886.1767496192
 30
0.0
 11
3976.6280868864
 21
7886.1767496192
 31
0.0
  0
LINE
  5
48A
330
1F
100
AcDbEntity
  8
0
  6
Continuous
 62
     8
370
    25
100
AcDbLine
 10
3979.6280868864
 20
7886.1767496192
 30
0.0
 11
3978.1280868864
 21
7886.1767496192
 31
0.0
  0
LINE
  5
48B
330
1F
100
AcDbEntity
  8
0
  6
Continuous
 62
     8
370
    25
100
AcDbLine
 10
4150.9377574927
 20
7886.1767496192
 30
0.0
 11
4152.4377574927
 21
7886.1767496192
 31
0.0
  0
LINE
  5
48C
330
1F
100
AcDbEntity
  8
0
  6
Continuous
 62
     8
370
    25
100
AcDbLine
 10
4149.4377574927
 20
7886.1767496192
 30
0.0
 11
4150.9377574927
 21
7886.1767496192
 31
0.0
  0
LINE
  5
48D
330
1F
100
AcDbEntity
  8
0
  6
Continuous
 62
     8
370
    25
100
AcDbLine
 10
3989.3944281253
 20
7886.1767496192
 30
0.0
 11
3987.8944281253
 21
7886.1767496192
 31
0.0
  0
LINE
  5
48E
330
1F
100
AcDbEntity
  8
0
  6
Continuous
 62
     8
370
    25
100
AcDbLine
 10
3990.8944281253
 20
7886.1767496192
 30
0.0
 11
3989.3944281253
 21
7886.1767496192
 31
0.0
  0
LINE
  5
48F
330
1F
100
AcDbEntity
  8
0
  6
Continuous
 62
     8
370
    25
100
AcDbLine
 10
4140.9663343904
 20
7886.1767496192
 30
0.0
 11
4141.1714162538
 21
7886.1767496192
 31
0.0
  0
LINE
  5
490
330
1F
100
AcDbEntity
  8
0
  6
Continuous
 62
     8
370
    25
100
AcDbLine
 10
3999.3658512277
 20
7886.1767496192
 30
0.0
 11
3999.1607693642
 21
7886.1767496192
 31
0.0
  0
LINE
  5
491
330
1F
100
AcDbEntity
  8
0
  6
Continuous
 62
     8
370
    25
100
AcDbLine
 10
4128.405075015
 20
7886.1767496192
 30
0.0
 11
4129.905075015
 21
7886.1767496192
 31
0.0
  0
LINE
  5
492
330
1F
100
AcDbEntity
  8
0
  6
Continuous
 62
     8
370
    25
100
AcDbLine
 10
4126.905075015
 20
7886.1767496192
 30
0.0
 11
4128.405075015
 21
7886.1767496192
 31
0.0
  0
LINE
  5
493
330
1F
100
AcDbEntity
  8
0
  6
Continuous
 62
     8
370
    25
100
AcDbLine
 10
4011.9271106031
 20
7886.1767496192
 30
0.0
 11
4010.4271106031
 21
7886.1767496192
 31
0.0
  0
LINE
  5
494
330
1F
100
AcDbEntity
  8
0
  6
Continuous
 62
     8
370
    25
100
AcDbLine
 10
4013.4271106031
 20
7886.1767496192
 30
0.0
 11
4011.9271106031
 21
7886.1767496192
 31
0.0
  0
LINE
  5
495
330
1F
100
AcDbEntity
  8
0
  6
Continuous
 62
     8
370
    25
100
AcDbLine
 10
4117.1387337761
 20
7886.1767496192
 30
0.0
 11
4118.6387337761
 21
7886.1767496192
 31
0.0
  0
LINE
  5
496
330
1F
100
AcDbEntity
  8
0
  6
Continuous
 62
     8
370
    25
100
AcDbLine
 10
4115.6387337761
 20
7886.1767496192
 30
0.0
 11
4117.1387337761
 21
7886.1767496192
 31
0.0
  0
LINE
  5
497
330
1F
100
AcDbEntity
  8
0
  6
Continuous
 62
     8
370
    25
100
AcDbLine
 10
4023.193451842
 20
7886.1767496192
 30
0.0
 11
4021.693451842
 21
7886.1767496192
 31
0.0
  0
LINE
  5
498
330
1F
100
AcDbEntity
  8
0
  6
Continuous
 62
     8
370
    25
100
AcDbLine
 10
4024.693451842
 20
7886.1767496192
 30
0.0
 11
4023.193451842
 21
7886.1767496192
 31
0.0
  0
LINE
  5
499
330
1F
100
AcDbEntity
  8
0
  6
Continuous
 62
     8
370
    25
100
AcDbLine
 10
4105.8723925372
 20
7886.1767496192
 30
0.0
 11
4107.3723925372
 21
7886.1767496192
 31
0.0
  0
LINE
  5
49A
330
1F
100
AcDbEntity
  8
0
  6
Continuous
 62
     8
370
    25
100
AcDbLine
 10
4104.3723925372
 20
7886.1767496192
 30
0.0
 11
4105.8723925372
 21
7886.1767496192
 31
0.0
  0
LINE
  5
49B
330
1F
100
AcDbEntity
  8
0
  6
Continuous
 62
     8
370
    25
100
AcDbLine
 10
4034.4597930809
 20
7886.1767496192
 30
0.0
 11
4032.9597930809
 21
7886.1767496192
 31
0.0
  0
LINE
  5
49C
330
1F
100
AcDbEntity
  8
0
  6
Continuous
 62
     8
370
    25
100
AcDbLine
 10
4035.9597930809
 20
7886.1767496192
 30
0.0
 11
4034.4597930809
 21
7886.1767496192
 31
0.0
  0
LINE
  5
49D
330
1F
100
AcDbEntity
  8
0
  6
Continuous
 62
     8
370
    25
100
AcDbLine
 10
4083.3397100594
 20
7891.1767496192
 30
0.0
 11
4084.8397100594
 21
7891.1767496192
 31
0.0
  0
LINE
  5
49E
330
1F
100
AcDbEntity
  8
0
  6
Continuous
 62
     8
370
    25
100
AcDbLine
 10
4081.8397100594
 20
7891.1767496192
 30
0.0
 11
4083.3397100594
 21
7891.1767496192
 31
0.0
  0
LINE
  5
49F
330
1F
100
AcDbEntity
  8
0
  6
Continuous
 62
     8
370
    25
100
AcDbLine
 10
4056.9924755586
 20
7891.1767496192
 30
0.0
 11
4055.4924755586
 21
7891.1767496192
 31
0.0
  0
LINE
  5
4A0
330
1F
100
AcDbEntity
  8
0
  6
Continuous
 62
     8
370
    25
100
AcDbLine
 10
4058.4924755586
 20
7891.1767496192
 30
0.0
 11
4056.9924755586
 21
7891.1767496192
 31
0.0
  0
LINE
  5
4A1
330
1F
100
AcDbEntity
  8
0
  6
Continuous
 62
     7
370
    25
100
AcDbLine
 10
3994.1009100411
 20
7428.2060318189
 30
0.0
 11
4002.2763418373
 21
7435.9342149783
 31
0.0
  0
LINE
  5
4A2
330
1F
100
AcDbEntity
  8
0
  6
Continuous
 62
     7
370
    25
100
AcDbLine
 10
3983.3820105749
 20
7418.0735250099
 30
0.0
 11
3991.5574423711
 21
7425.8017081693
 31
0.0
  0
LINE
  5
4A3
330
1F
100
AcDbEntity
  8
0
  6
Continuous
 62
     7
370
    25
100
AcDbLine
 10
4103.7093782914
 20
7468.4017081693
 30
0.0
 11
4111.8848100876
 21
7460.6735250099
 31
0.0
  0
LINE
  5
4A4
330
1F
100
AcDbEntity
  8
0
  6
Continuous
 62
     7
370
    25
100
AcDbLine
 10
4092.9904788252
 20
7478.5342149783
 30
0.0
 11
4101.1659106214
 21
7470.8060318189
 31
0.0
  0
LINE
  5
4A5
330
1F
100
AcDbEntity
  8
0
  6
Continuous
 62
     7
370
    25
100
AcDbLine
 10
4180.512918131
 20
7391.6715930342
 30
0.0
 11
4188.6883499273
 21
7383.9434098748
 31
0.0
  0
LINE
  5
4A6
330
1F
100
AcDbEntity
  8
0
  6
Continuous
 62
     7
370
    25
100
AcDbLine
 10
4169.7940186648
 20
7401.8040998431
 30
0.0
 11
4177.9694504611
 21
7394.0759166837
 31
0.0
  0
LINE
  5
4A7
330
1F
100
AcDbEntity
  8
0
  6
Continuous
 62
     7
370
    25
100
AcDbLine
 10
4204.3732628927
 20
7385.6294516776
 30
0.0
 11
4196.9317452973
 21
7392.6638704575
 31
0.0
  0
LINE
  5
4A8
330
1F
100
AcDbEntity
  8
0
  6
Continuous
 62
     7
370
    25
100
AcDbLine
 10
4178.0374140348
 20
7410.5245604258
 30
0.0
 11
4082.9138912657
 21
7500.4442154416
 31
0.0
  0
LINE
  5
4A9
330
1F
100
AcDbEntity
  8
0
  6
Continuous
 62
     7
370
    25
100
AcDbLine
 10
4077.4182943524
 20
7494.6305750532
 30
0.0
 11
4093.6774284493
 21
7479.2609200373
 31
0.0
  0
LINE
  5
4AA
330
1F
100
AcDbEntity
  8
0
  6
Continuous
 62
     7
370
    25
100
AcDbLine
 10
4101.8528602455
 20
7471.532736878
 30
0.0
 11
4104.3963279155
 21
7469.1284132284
 31
0.0
  0
LINE
  5
4AB
330
1F
100
AcDbEntity
  8
0
  6
Continuous
 62
     7
370
    25
100
AcDbLine
 10
4112.5717597117
 20
7461.400230069
 30
0.0
 11
4198.8776659794
 21
7379.8158112891
 31
0.0
  0
LINE
  5
4AC
330
1F
100
AcDbEntity
  8
0
  6
Continuous
 62
     7
370
    25
100
AcDbLine
 10
4057.4182943524
 20
7500.4442154416
 30
0.0
 11
3935.9589227253
 21
7385.6294516776
 31
0.0
  0
LINE
  5
4AD
330
1F
100
AcDbEntity
  8
0
  6
Continuous
 62
     7
370
    25
100
AcDbLine
 10
3941.4545196387
 20
7379.8158112891
 30
0.0
 11
3982.6950609508
 21
7418.800230069
 31
0.0
  0
LINE
  5
4AE
330
1F
100
AcDbEntity
  8
0
  6
Continuous
 62
     7
370
    25
100
AcDbLine
 10
3990.870492747
 20
7426.5284132284
 30
0.0
 11
3993.413960417
 21
7428.932736878
 31
0.0
  0
LINE
  5
4AF
330
1F
100
AcDbEntity
  8
0
  6
Continuous
 62
     7
370
    25
100
AcDbLine
 10
4001.5893922132
 20
7436.6609200373
 30
0.0
 11
4062.9138912657
 21
7494.6305750532
 31
0.0
  0
ARC
  5
4B0
330
1F
100
AcDbEntity
  8
0
  6
Continuous
 62
     7
370
    25
100
AcDbCircle
 10
4184.4517240819
 20
7364.5550052695
 30
0.0
 40
20.99999999999986
100
AcDbArc
 50
306.3904720571
 51
46.6108731929
  0
ARC
  5
4B1
330
1F
100
AcDbEntity
  8
0
  6
Continuous
 62
     7
370
    25
100
AcDbCircle
 10
4184.4517240819
 20
7364.5550052695
 30
0.0
 40
28.99999999999999
100
AcDbArc
 50
306.3904720571
 51
46.6108731929
  0
ARC
  5
4B2
330
1F
100
AcDbEntity
  8
0
  6
Continuous
 62
     7
370
    25
100
AcDbCircle
 10
3955.8804615362
 20
7364.5550052695
 30
0.0
 40
20.99999999999963
100
AcDbArc
 50
133.3891268071
 51
233.6095279429
  0
ARC
  5
4B3
330
1F
100
AcDbEntity
  8
0
  6
Continuous
 62
     7
370
    25
100
AcDbCircle
 10
3955.8804615362
 20
7364.5550052695
 30
0.0
 40
28.99999999999967
100
AcDbArc
 50
133.3891268071
 51
233.6095279429
  0
ARC
  5
4B4
330
1F
100
AcDbEntity
  8
0
  6
Continuous
 62
     7
370
    25
100
AcDbCircle
 10
4070.166092809
 20
7519.6222458688
 30
0.0
 40
213.631914859754
100
AcDbArc
 50
270.0
 51
306.3904720571
  0
ARC
  5
4B5
330
1F
100
AcDbEntity
  8
0
  6
Continuous
 62
     7
370
    25
100
AcDbCircle
 10
4070.166092809
 20
7519.6222458688
 30
0.0
 40
213.631914859754
100
AcDbArc
 50
233.6095279429
 51
270.0
  0
ARC
  5
4B6
330
1F
100
AcDbEntity
  8
0
  6
Continuous
 62
     7
370
    25
100
AcDbCircle
 10
4070.166092809
 20
7519.6222458688
 30
0.0
 40
221.6319148597529
100
AcDbArc
 50
233.6095279429
 51
306.3904720571
  0
LINE
  5
4B7
330
1F
100
AcDbEntity
  8
0
  6
Continuous
 62
     7
370
    25
100
AcDbLine
 10
4078.7481524448
 20
7496.0373952474
 30
0.0
 11
4078.3397100594
 21
7496.0373952474
 31
0.0
  0
LINE
  5
4B8
330
1F
100
AcDbEntity
  8
0
  6
Continuous
 62
     7
370
    25
100
AcDbLine
 10
4078.3397100594
 20
7493.0373952474
 30
0.0
 11
4079.1036753239
 21
7493.0373952474
 31
0.0
  0
LINE
  5
4B9
330
1F
100
AcDbEntity
  8
0
  6
Continuous
 62
     7
370
    25
100
AcDbLine
 10
4061.9924755586
 20
7496.0373952474
 30
0.0
 11
4061.5840331733
 21
7496.0373952474
 31
0.0
  0
LINE
  5
4BA
330
1F
100
AcDbEntity
  8
0
  6
Continuous
 62
     7
370
    25
100
AcDbLine
 10
4061.2285102942
 20
7493.0373952474
 30
0.0
 11
4061.9924755586
 21
7493.0373952474
 31
0.0
  0
LINE
  5
4BB
330
1F
100
AcDbEntity
  8
0
  6
Continuous
 62
     7
370
    25
100
AcDbLine
 10
4078.3397100594
 20
7496.0373952474
 30
0.0
 11
4061.9924755586
 21
7496.0373952474
 31
0.0
  0
LINE
  5
4BC
330
1F
100
AcDbEntity
  8
0
  6
Continuous
 62
     7
370
    25
100
AcDbLine
 10
4061.9924755586
 20
7493.0373952474
 30
0.0
 11
4078.3397100594
 21
7493.0373952474
 31
0.0
  0
LINE
  5
4BD
330
1F
100
AcDbEntity
  8
0
  6
Continuous
 62
     7
370
    25
100
AcDbLine
 10
4049.9621690553
 20
7482.3873952474
 30
0.0
 11
4050.7261343197
 21
7482.3873952474
 31
0.0
  0
LINE
  5
4BE
330
1F
100
AcDbEntity
  8
0
  6
Continuous
 62
     7
370
    25
100
AcDbLine
 10
4089.6060512983
 20
7482.3873952474
 30
0.0
 11
4090.3700165628
 21
7482.3873952474
 31
0.0
  0
LINE
  5
4BF
330
1F
100
AcDbEntity
  8
0
  6
Continuous
 62
     7
370
    25
100
AcDbLine
 10
4038.6958278164
 20
7471.7373952474
 30
0.0
 11
4039.4597930809
 21
7471.7373952474
 31
0.0
  0
LINE
  5
4C0
330
1F
100
AcDbEntity
  8
0
  6
Continuous
 62
     7
370
    25
100
AcDbLine
 10
4112.2760389645
 20
7461.0873952474
 30
0.0
 11
4112.9026990405
 21
7461.0873952474
 31
0.0
  0
LINE
  5
4C1
330
1F
100
AcDbEntity
  8
0
  6
Continuous
 62
     7
370
    25
100
AcDbLine
 10
4027.4294865775
 20
7461.0873952474
 30
0.0
 11
4028.193451842
 21
7461.0873952474
 31
0.0
  0
LINE
  5
4C2
330
1F
100
AcDbEntity
  8
0
  6
Continuous
 62
     7
370
    25
100
AcDbLine
 10
4123.405075015
 20
7450.4373952474
 30
0.0
 11
4124.1690402794
 21
7450.4373952474
 31
0.0
  0
LINE
  5
4C3
330
1F
100
AcDbEntity
  8
0
  6
Continuous
 62
     7
370
    25
100
AcDbLine
 10
4016.1631453386
 20
7450.4373952474
 30
0.0
 11
4016.9271106031
 21
7450.4373952474
 31
0.0
  0
LINE
  5
4C4
330
1F
100
AcDbEntity
  8
0
  6
Continuous
 62
     7
370
    25
100
AcDbLine
 10
4004.8968040997
 20
7439.7873952474
 30
0.0
 11
4005.6607693642
 21
7439.7873952474
 31
0.0
  0
LINE
  5
4C5
330
1F
100
AcDbEntity
  8
0
  6
Continuous
 62
     7
370
    25
100
AcDbLine
 10
4134.6714162538
 20
7439.7873952474
 30
0.0
 11
4135.4353815183
 21
7439.7873952474
 31
0.0
  0
LINE
  5
4C6
330
1F
100
AcDbEntity
  8
0
  6
Continuous
 62
     7
370
    25
100
AcDbLine
 10
4145.9377574927
 20
7429.1373952474
 30
0.0
 11
4146.7017227572
 21
7429.1373952474
 31
0.0
  0
LINE
  5
4C7
330
1F
100
AcDbEntity
  8
0
  6
Continuous
 62
     7
370
    25
100
AcDbLine
 10
3982.364121622
 20
7418.4873952474
 30
0.0
 11
3982.990781698
 21
7418.4873952474
 31
0.0
  0
LINE
  5
4C8
330
1F
100
AcDbEntity
  8
0
  6
Continuous
 62
     7
370
    25
100
AcDbLine
 10
4157.2040987316
 20
7418.4873952474
 30
0.0
 11
4157.9680639961
 21
7418.4873952474
 31
0.0
  0
LINE
  5
4C9
330
1F
100
AcDbEntity
  8
0
  6
Continuous
 62
     7
370
    25
100
AcDbLine
 10
3971.0977803831
 20
7407.8373952474
 30
0.0
 11
3971.8617456475
 21
7407.8373952474
 31
0.0
  0
LINE
  5
4CA
330
1F
100
AcDbEntity
  8
0
  6
Continuous
 62
     7
370
    25
100
AcDbLine
 10
4168.4704399705
 20
7407.8373952474
 30
0.0
 11
4169.234405235
 21
7407.8373952474
 31
0.0
  0
LINE
  5
4CB
330
1F
100
AcDbEntity
  8
0
  6
Continuous
 62
     7
370
    25
100
AcDbLine
 10
3959.8314391442
 20
7397.1873952474
 30
0.0
 11
3960.5954044087
 21
7397.1873952474
 31
0.0
  0
LINE
  5
4CC
330
1F
100
AcDbEntity
  8
0
  6
Continuous
 62
     7
370
    25
100
AcDbLine
 10
4191.1404276367
 20
7386.5373952474
 30
0.0
 11
4191.7670877127
 21
7386.5373952474
 31
0.0
  0
LINE
  5
4CD
330
1F
100
AcDbEntity
  8
0
  6
Continuous
 62
     7
370
    25
100
AcDbLine
 10
3948.5650979053
 20
7386.5373952474
 30
0.0
 11
3949.3290631698
 21
7386.5373952474
 31
0.0
  0
LINE
  5
4CE
330
1F
100
AcDbEntity
  8
0
  6
Continuous
 62
     7
370
    25
100
AcDbLine
 10
4200.9070210375
 20
7375.8873952474
 30
0.0
 11
4202.1315695956
 21
7375.8873952474
 31
0.0
  0
LINE
  5
4CF
330
1F
100
AcDbEntity
  8
0
  6
Continuous
 62
     7
370
    25
100
AcDbLine
 10
3938.2006160225
 20
7375.8873952474
 30
0.0
 11
3939.4251645805
 21
7375.8873952474
 31
0.0
  0
LINE
  5
4D0
330
1F
100
AcDbEntity
  8
0
  6
Continuous
 62
     7
370
    25
100
AcDbLine
 10
3934.891551514
 20
7365.2373952474
 30
0.0
 11
3935.9759002273
 21
7365.2373952474
 31
0.0
  0
LINE
  5
4D1
330
1F
100
AcDbEntity
  8
0
  6
Continuous
 62
     7
370
    25
100
AcDbLine
 10
3935.9759002273
 20
7368.2373952474
 30
0.0
 11
3935.2058393135
 21
7368.2373952474
 31
0.0
  0
LINE
  5
4D2
330
1F
100
AcDbEntity
  8
0
  6
Continuous
 62
     7
370
    25
100
AcDbLine
 10
4204.3562853907
 20
7365.2373952474
 30
0.0
 11
4205.440634104
 21
7365.2373952474
 31
0.0
  0
LINE
  5
4D3
330
1F
100
AcDbEntity
  8
0
  6
Continuous
 62
     7
370
    25
100
AcDbLine
 10
4205.1263463046
 20
7368.2373952474
 30
0.0
 11
4204.3562853907
 21
7368.2373952474
 31
0.0
  0
LINE
  5
4D4
330
1F
100
AcDbEntity
  8
0
  6
Continuous
 62
     7
370
    25
100
AcDbLine
 10
4204.262135753
 20
7357.5873952474
 30
0.0
 11
4202.9740449817
 21
7357.5873952474
 31
0.0
  0
LINE
  5
4D5
330
1F
100
AcDbEntity
  8
0
  6
Continuous
 62
     7
370
    25
100
AcDbLine
 10
3937.3581406363
 20
7357.5873952474
 30
0.0
 11
3936.070049865
 21
7357.5873952474
 31
0.0
  0
LINE
  5
4D6
330
1F
100
AcDbEntity
  8
0
  6
Continuous
 62
     7
370
    25
100
AcDbLine
 10
3944.7709305981
 20
7346.9373952474
 30
0.0
 11
3944.3943256571
 21
7346.9373952474
 31
0.0
  0
LINE
  5
4D7
330
1F
100
AcDbEntity
  8
0
  6
Continuous
 62
     7
370
    25
100
AcDbLine
 10
4195.9378599609
 20
7346.9373952474
 30
0.0
 11
4195.56125502
 21
7346.9373952474
 31
0.0
  0
LINE
  5
4D8
330
1F
100
AcDbEntity
  8
0
  6
Continuous
 62
     7
370
    25
100
AcDbLine
 10
4019.9031456802
 20
7311.9873952474
 30
0.0
 11
4120.4290399378
 21
7311.9873952474
 31
0.0
  0
LINE
  5
4D9
330
1F
100
AcDbEntity
  8
0
  6
Continuous
 62
     7
370
    25
100
AcDbLine
 10
4131.5107988382
 20
7314.9873952474
 30
0.0
 11
4008.8213867799
 21
7314.9873952474
 31
0.0
  0
LINE
  5
4DA
330
1F
100
AcDbEntity
  8
0
  6
Continuous
 62
     7
370
    25
100
AcDbLine
 10
4087.1963993124
 20
7485.3873952474
 30
0.0
 11
4053.1357863057
 21
7485.3873952474
 31
0.0
  0
LINE
  5
4DB
330
1F
100
AcDbEntity
  8
0
  6
Continuous
 62
     7
370
    25
100
AcDbLine
 10
4050.7261343197
 20
7482.3873952474
 30
0.0
 11
4089.6060512983
 21
7482.3873952474
 31
0.0
  0
LINE
  5
4DC
330
1F
100
AcDbEntity
  8
0
  6
Continuous
 62
     7
370
    25
100
AcDbLine
 10
4039.4597930809
 20
7471.7373952474
 30
0.0
 11
4100.1806469615
 21
7471.7373952474
 31
0.0
  0
LINE
  5
4DD
330
1F
100
AcDbEntity
  8
0
  6
Continuous
 62
     7
370
    25
100
AcDbLine
 10
4097.0070297111
 20
7474.7373952474
 30
0.0
 11
4041.8694450668
 21
7474.7373952474
 31
0.0
  0
LINE
  5
4DE
330
1F
100
AcDbEntity
  8
0
  6
Continuous
 62
     7
370
    25
100
AcDbLine
 10
4028.193451842
 20
7461.0873952474
 30
0.0
 11
4111.4469882004
 21
7461.0873952474
 31
0.0
  0
LINE
  5
4DF
330
1F
100
AcDbEntity
  8
0
  6
Continuous
 62
     7
370
    25
100
AcDbLine
 10
4108.27337095
 20
7464.0873952474
 30
0.0
 11
4030.6031038279
 21
7464.0873952474
 31
0.0
  0
LINE
  5
4E0
330
1F
100
AcDbEntity
  8
0
  6
Continuous
 62
     7
370
    25
100
AcDbLine
 10
4016.9271106031
 20
7450.4373952474
 30
0.0
 11
4123.405075015
 21
7450.4373952474
 31
0.0
  0
LINE
  5
4E1
330
1F
100
AcDbEntity
  8
0
  6
Continuous
 62
     7
370
    25
100
AcDbLine
 10
4120.995423029
 20
7453.4373952474
 30
0.0
 11
4019.336762589
 21
7453.4373952474
 31
0.0
  0
LINE
  5
4E2
330
1F
100
AcDbEntity
  8
0
  6
Continuous
 62
     7
370
    25
100
AcDbLine
 10
4005.6607693642
 20
7439.7873952474
 30
0.0
 11
4134.6714162538
 21
7439.7873952474
 31
0.0
  0
LINE
  5
4E3
330
1F
100
AcDbEntity
  8
0
  6
Continuous
 62
     7
370
    25
100
AcDbLine
 10
4132.2617642679
 20
7442.7873952474
 30
0.0
 11
4008.0704213501
 21
7442.7873952474
 31
0.0
  0
LINE
  5
4E4
330
1F
100
AcDbEntity
  8
0
  6
Continuous
 62
     7
370
    25
100
AcDbLine
 10
3995.086173701
 20
7429.1373952474
 30
0.0
 11
4145.9377574927
 21
7429.1373952474
 31
0.0
  0
LINE
  5
4E5
330
1F
100
AcDbEntity
  8
0
  6
Continuous
 62
     7
370
    25
100
AcDbLine
 10
4143.5281055068
 20
7432.1373952474
 30
0.0
 11
3998.2597909514
 21
7432.1373952474
 31
0.0
  0
LINE
  5
4E6
330
1F
100
AcDbEntity
  8
0
  6
Continuous
 62
     7
370
    25
100
AcDbLine
 10
3983.8198324621
 20
7418.4873952474
 30
0.0
 11
4157.2040987316
 21
7418.4873952474
 31
0.0
  0
LINE
  5
4E7
330
1F
100
AcDbEntity
  8
0
  6
Continuous
 62
     7
370
    25
100
AcDbLine
 10
4154.7944467457
 20
7421.4873952474
 30
0.0
 11
3986.9934497125
 21
7421.4873952474
 31
0.0
  0
LINE
  5
4E8
330
1F
100
AcDbEntity
  8
0
  6
Continuous
 62
     7
370
    25
100
AcDbLine
 10
3971.8617456475
 20
7407.8373952474
 30
0.0
 11
4168.4704399705
 21
7407.8373952474
 31
0.0
  0
LINE
  5
4E9
330
1F
100
AcDbEntity
  8
0
  6
Continuous
 62
     7
370
    25
100
AcDbLine
 10
4166.0607879846
 20
7410.8373952474
 30
0.0
 11
3974.2713976335
 21
7410.8373952474
 31
0.0
  0
LINE
  5
4EA
330
1F
100
AcDbEntity
  8
0
  6
Continuous
 62
     7
370
    25
100
AcDbLine
 10
3960.5954044087
 20
7397.1873952474
 30
0.0
 11
4174.6779031131
 21
7397.1873952474
 31
0.0
  0
LINE
  5
4EB
330
1F
100
AcDbEntity
  8
0
  6
Continuous
 62
     7
370
    25
100
AcDbLine
 10
4171.5042858627
 20
7400.1873952474
 30
0.0
 11
3963.0050563946
 21
7400.1873952474
 31
0.0
  0
LINE
  5
4EC
330
1F
100
AcDbEntity
  8
0
  6
Continuous
 62
     7
370
    25
100
AcDbLine
 10
3949.3290631698
 20
7386.5373952474
 30
0.0
 11
4185.944244352
 21
7386.5373952474
 31
0.0
  0
LINE
  5
4ED
330
1F
100
AcDbEntity
  8
0
  6
Continuous
 62
     7
370
    25
100
AcDbLine
 10
4182.7706271016
 20
7389.5373952474
 30
0.0
 11
3951.7387151557
 21
7389.5373952474
 31
0.0
  0
LINE
  5
4EE
330
1F
100
AcDbEntity
  8
0
  6
Continuous
 62
     7
370
    25
100
AcDbLine
 10
3939.4251645805
 20
7375.8873952474
 30
0.0
 11
4200.9070210375
 21
7375.8873952474
 31
0.0
  0
LINE
  5
4EF
330
1F
100
AcDbEntity
  8
0
  6
Continuous
 62
     7
370
    25
100
AcDbLine
 10
4199.8004242718
 20
7378.8873952474
 30
0.0
 11
3940.5317613462
 21
7378.8873952474
 31
0.0
  0
LINE
  5
4F0
330
1F
100
AcDbEntity
  8
0
  6
Continuous
 62
     7
370
    25
100
AcDbLine
 10
3935.9759002273
 20
7365.2373952474
 30
0.0
 11
4204.3562853907
 21
7365.2373952474
 31
0.0
  0
LINE
  5
4F1
330
1F
100
AcDbEntity
  8
0
  6
Continuous
 62
     7
370
    25
100
AcDbLine
 10
4204.3562853907
 20
7368.2373952474
 30
0.0
 11
3935.9759002273
 21
7368.2373952474
 31
0.0
  0
LINE
  5
4F2
330
1F
100
AcDbEntity
  8
0
  6
Continuous
 62
     7
370
    25
100
AcDbLine
 10
3937.3967727688
 20
7354.5873952474
 30
0.0
 11
4202.9354128492
 21
7354.5873952474
 31
0.0
  0
LINE
  5
4F3
330
1F
100
AcDbEntity
  8
0
  6
Continuous
 62
     7
370
    25
100
AcDbLine
 10
4202.9740449817
 20
7357.5873952474
 30
0.0
 11
3937.3581406363
 21
7357.5873952474
 31
0.0
  0
LINE
  5
4F4
330
1F
100
AcDbEntity
  8
0
  6
Continuous
 62
     7
370
    25
100
AcDbLine
 10
3948.6201002433
 20
7343.9373952474
 30
0.0
 11
4191.7120853747
 21
7343.9373952474
 31
0.0
  0
LINE
  5
4F5
330
1F
100
AcDbEntity
  8
0
  6
Continuous
 62
     7
370
    25
100
AcDbLine
 10
4195.56125502
 20
7346.9373952474
 30
0.0
 11
3944.7709305981
 21
7346.9373952474
 31
0.0
  0
LINE
  5
4F6
330
1F
100
AcDbEntity
  8
0
  6
Continuous
 62
     7
370
    25
100
AcDbLine
 10
3965.6772489522
 20
7333.2873952474
 30
0.0
 11
4174.6549366659
 21
7333.2873952474
 31
0.0
  0
LINE
  5
4F7
330
1F
100
AcDbEntity
  8
0
  6
Continuous
 62
     7
370
    25
100
AcDbLine
 10
4179.8334425275
 20
7336.2873952474
 30
0.0
 11
3960.4987430906
 21
7336.2873952474
 31
0.0
  0
LINE
  5
4F8
330
1F
100
AcDbEntity
  8
0
  6
Continuous
 62
     7
370
    25
100
AcDbLine
 10
3987.4886250665
 20
7322.6373952474
 30
0.0
 11
4152.8435605515
 21
7322.6373952474
 31
0.0
  0
LINE
  5
4F9
330
1F
100
AcDbEntity
  8
0
  6
Continuous
 62
     7
370
    25
100
AcDbLine
 10
4159.6561636328
 20
7325.6373952474
 30
0.0
 11
3980.6760219853
 21
7325.6373952474
 31
0.0
  0
LINE
  5
4FA
330
1F
100
AcDbEntity
  8
0
  6
Continuous
 62
     7
370
    25
100
AcDbLine
 10
4000.5737111259
 20
7437.7353810439
 30
0.0
 11
4002.2763418373
 21
7435.9342149783
 31
0.0
  0
LINE
  5
4FB
330
1F
100
AcDbEntity
  8
0
  6
Continuous
 62
     7
370
    25
100
AcDbLine
 10
3981.6793798634
 20
7419.8746910756
 30
0.0
 11
3983.3820105749
 21
7418.0735250099
 31
0.0
  0
LINE
  5
4FC
330
1F
100
AcDbEntity
  8
0
  6
Continuous
 62
     7
370
    25
100
AcDbLine
 10
3989.8548116597
 20
7427.602874235
 30
0.0
 11
3981.6793798634
 21
7419.8746910756
 31
0.0
  0
LINE
  5
4FD
330
1F
100
AcDbEntity
  8
0
  6
Continuous
 62
     7
370
    25
100
AcDbLine
 10
3991.5574423711
 20
7425.8017081693
 30
0.0
 11
3989.8548116597
 21
7427.602874235
 31
0.0
  0
LINE
  5
4FE
330
1F
100
AcDbEntity
  8
0
  6
Continuous
 62
     7
370
    25
100
AcDbLine
 10
3992.3982793296
 20
7430.0071978845
 30
0.0
 11
3994.1009100411
 21
7428.2060318189
 31
0.0
  0
LINE
  5
4FF
330
1F
100
AcDbEntity
  8
0
  6
Continuous
 62
     7
370
    25
100
AcDbLine
 10
4000.5737111259
 20
7437.7353810439
 30
0.0
 11
3992.3982793296
 21
7430.0071978845
 31
0.0
  0
LINE
  5
500
330
1F
100
AcDbEntity
  8
0
  6
Continuous
 62
     7
370
    25
100
AcDbLine
 10
4000.227287644
 20
7438.1018528899
 30
0.0
 11
3992.0518558478
 21
7430.3736697305
 31
0.0
  0
LINE
  5
501
330
1F
100
AcDbEntity
  8
0
  6
Continuous
 62
     7
370
    25
100
AcDbLine
 10
4000.227287644
 20
7438.1018528899
 30
0.0
 11
4000.5737111259
 21
7437.7353810439
 31
0.0
  0
LINE
  5
502
330
1F
100
AcDbEntity
  8
0
  6
Continuous
 62
     7
370
    25
100
AcDbLine
 10
3992.0518558478
 20
7430.3736697305
 30
0.0
 11
3992.3982793296
 21
7430.0071978845
 31
0.0
  0
LINE
  5
503
330
1F
100
AcDbEntity
  8
0
  6
Continuous
 62
     7
370
    25
100
AcDbLine
 10
3989.5083881778
 20
7427.9693460809
 30
0.0
 11
3981.3329563816
 21
7420.2411629215
 31
0.0
  0
LINE
  5
504
330
1F
100
AcDbEntity
  8
0
  6
Continuous
 62
     7
370
    25
100
AcDbLine
 10
3981.3329563816
 20
7420.2411629215
 30
0.0
 11
3981.6793798634
 21
7419.8746910756
 31
0.0
  0
LINE
  5
505
330
1F
100
AcDbEntity
  8
0
  6
Continuous
 62
     7
370
    25
100
AcDbLine
 10
3989.8548116597
 20
7427.602874235
 30
0.0
 11
3989.5083881778
 21
7427.9693460809
 31
0.0
  0
LINE
  5
506
330
1F
100
AcDbEntity
  8
0
  6
Continuous
 62
     7
370
    25
100
AcDbLine
 10
3993.3463831573
 20
7445.380971949
 30
0.0
 11
3974.4520518949
 21
7427.5202819807
 31
0.0
  0
LINE
  5
507
330
1F
100
AcDbEntity
  8
0
  6
Continuous
 62
     7
370
    25
100
AcDbLine
 10
3974.4520518949
 20
7427.5202819807
 30
0.0
 11
3977.1996571945
 21
7424.613666122
 31
0.0
  0
LINE
  5
508
330
1F
100
AcDbEntity
  8
0
  6
Continuous
 62
     7
370
    25
100
AcDbLine
 10
3993.3463831573
 20
7445.380971949
 30
0.0
 11
3996.0939884569
 21
7442.4743560903
 31
0.0
  0
LINE
  5
509
330
1F
100
AcDbEntity
  8
0
  6
Continuous
 62
     7
370
    25
100
AcDbLine
 10
4113.5874407991
 20
7462.4746910756
 30
0.0
 11
4111.8848100876
 21
7460.6735250099
 31
0.0
  0
LINE
  5
50A
330
1F
100
AcDbEntity
  8
0
  6
Continuous
 62
     7
370
    25
100
AcDbLine
 10
4094.6931095366
 20
7480.3353810439
 30
0.0
 11
4092.9904788252
 21
7478.5342149783
 31
0.0
  0
LINE
  5
50B
330
1F
100
AcDbEntity
  8
0
  6
Continuous
 62
     7
370
    25
100
AcDbLine
 10
4102.8685413329
 20
7472.6071978845
 30
0.0
 11
4094.6931095366
 21
7480.3353810439
 31
0.0
  0
LINE
  5
50C
330
1F
100
AcDbEntity
  8
0
  6
Continuous
 62
     7
370
    25
100
AcDbLine
 10
4101.1659106214
 20
7470.8060318189
 30
0.0
 11
4102.8685413329
 21
7472.6071978845
 31
0.0
  0
LINE
  5
50D
330
1F
100
AcDbEntity
  8
0
  6
Continuous
 62
     7
370
    25
100
AcDbLine
 10
4105.4120090028
 20
7470.202874235
 30
0.0
 11
4103.7093782914
 21
7468.4017081693
 31
0.0
  0
LINE
  5
50E
330
1F
100
AcDbEntity
  8
0
  6
Continuous
 62
     7
370
    25
100
AcDbLine
 10
4113.5874407991
 20
7462.4746910756
 30
0.0
 11
4105.4120090028
 21
7470.202874235
 31
0.0
  0
LINE
  5
50F
330
1F
100
AcDbEntity
  8
0
  6
Continuous
 62
     7
370
    25
100
AcDbLine
 10
4103.2149648147
 20
7472.9736697305
 30
0.0
 11
4095.0395330185
 21
7480.7018528899
 31
0.0
  0
LINE
  5
510
330
1F
100
AcDbEntity
  8
0
  6
Continuous
 62
     7
370
    25
100
AcDbLine
 10
4095.0395330185
 20
7480.7018528899
 30
0.0
 11
4094.6931095366
 21
7480.3353810439
 31
0.0
  0
LINE
  5
511
330
1F
100
AcDbEntity
  8
0
  6
Continuous
 62
     7
370
    25
100
AcDbLine
 10
4102.8685413329
 20
7472.6071978845
 30
0.0
 11
4103.2149648147
 21
7472.9736697305
 31
0.0
  0
LINE
  5
512
330
1F
100
AcDbEntity
  8
0
  6
Continuous
 62
     7
370
    25
100
AcDbLine
 10
4113.9338642809
 20
7462.8411629215
 30
0.0
 11
4105.7584324847
 21
7470.5693460809
 31
0.0
  0
LINE
  5
513
330
1F
100
AcDbEntity
  8
0
  6
Continuous
 62
     7
370
    25
100
AcDbLine
 10
4113.9338642809
 20
7462.8411629215
 30
0.0
 11
4113.5874407991
 21
7462.4746910756
 31
0.0
  0
LINE
  5
514
330
1F
100
AcDbEntity
  8
0
  6
Continuous
 62
     7
370
    25
100
AcDbLine
 10
4105.7584324847
 20
7470.5693460809
 30
0.0
 11
4105.4120090028
 21
7470.202874235
 31
0.0
  0
LINE
  5
515
330
1F
100
AcDbEntity
  8
0
  6
Continuous
 62
     7
370
    25
100
AcDbLine
 10
4120.8147687677
 20
7470.1202819807
 30
0.0
 11
4101.9204375052
 21
7487.980971949
 31
0.0
  0
LINE
  5
516
330
1F
100
AcDbEntity
  8
0
  6
Continuous
 62
     7
370
    25
100
AcDbLine
 10
4120.8147687677
 20
7470.1202819807
 30
0.0
 11
4118.067163468
 21
7467.213666122
 31
0.0
  0
LINE
  5
517
330
1F
100
AcDbEntity
  8
0
  6
Continuous
 62
     7
370
    25
100
AcDbLine
 10
4101.9204375052
 20
7487.980971949
 30
0.0
 11
4099.1728322056
 21
7485.0743560903
 31
0.0
  0
LINE
  5
518
330
1F
100
AcDbEntity
  8
0
  6
Continuous
 62
     7
370
    25
100
AcDbLine
 10
4190.3559346947
 20
7385.7075018029
 30
0.0
 11
4188.6883499273
 21
7383.9434098748
 31
0.0
  0
LINE
  5
519
330
1F
100
AcDbEntity
  8
0
  6
Continuous
 62
     7
370
    25
100
AcDbLine
 10
4171.4616034322
 20
7403.5681917713
 30
0.0
 11
4169.7940186648
 21
7401.8040998431
 31
0.0
  0
LINE
  5
51A
330
1F
100
AcDbEntity
  8
0
  6
Continuous
 62
     7
370
    25
100
AcDbLine
 10
4179.6370352285
 20
7395.8400086119
 30
0.0
 11
4171.4616034322
 21
7403.5681917713
 31
0.0
  0
LINE
  5
51B
330
1F
100
AcDbEntity
  8
0
  6
Continuous
 62
     7
370
    25
100
AcDbLine
 10
4177.9694504611
 20
7394.0759166837
 30
0.0
 11
4179.6370352285
 21
7395.8400086119
 31
0.0
  0
LINE
  5
51C
330
1F
100
AcDbEntity
  8
0
  6
Continuous
 62
     7
370
    25
100
AcDbLine
 10
4182.1805028984
 20
7393.4356849623
 30
0.0
 11
4180.512918131
 21
7391.6715930342
 31
0.0
  0
LINE
  5
51D
330
1F
100
AcDbEntity
  8
0
  6
Continuous
 62
     7
370
    25
100
AcDbLine
 10
4190.3559346947
 20
7385.7075018029
 30
0.0
 11
4182.1805028984
 21
7393.4356849623
 31
0.0
  0
LINE
  5
51E
330
1F
100
AcDbEntity
  8
0
  6
Continuous
 62
     7
370
    25
100
AcDbLine
 10
4179.9904678892
 20
7396.2138952748
 30
0.0
 11
4171.8150360929
 21
7403.9420784342
 31
0.0
  0
LINE
  5
51F
330
1F
100
AcDbEntity
  8
0
  6
Continuous
 62
     7
370
    25
100
AcDbLine
 10
4171.8150360929
 20
7403.9420784342
 30
0.0
 11
4171.4616034322
 21
7403.5681917713
 31
0.0
  0
LINE
  5
520
330
1F
100
AcDbEntity
  8
0
  6
Continuous
 62
     7
370
    25
100
AcDbLine
 10
4179.6370352285
 20
7395.8400086119
 30
0.0
 11
4179.9904678892
 21
7396.2138952748
 31
0.0
  0
LINE
  5
521
330
1F
100
AcDbEntity
  8
0
  6
Continuous
 62
     7
370
    25
100
AcDbLine
 10
4190.7093673554
 20
7386.0813884659
 30
0.0
 11
4182.5339355591
 21
7393.8095716252
 31
0.0
  0
LINE
  5
522
330
1F
100
AcDbEntity
  8
0
  6
Continuous
 62
     7
370
    25
100
AcDbLine
 10
4190.7093673554
 20
7386.0813884659
 30
0.0
 11
4190.3559346947
 21
7385.7075018029
 31
0.0
  0
LINE
  5
523
330
1F
100
AcDbEntity
  8
0
  6
Continuous
 62
     7
370
    25
100
AcDbLine
 10
4182.5339355591
 20
7393.8095716252
 30
0.0
 11
4182.1805028984
 21
7393.4356849623
 31
0.0
  0
LINE
  5
524
330
1F
100
AcDbEntity
  8
0
  6
Continuous
 62
     7
370
    25
100
AcDbLine
 10
4191.4361483839
 20
7386.850230069
 30
0.0
 11
4190.7491987698
 21
7386.1235250205
 31
0.0
  0
LINE
  5
525
330
1F
100
AcDbEntity
  8
0
  6
Continuous
 62
     7
370
    25
100
AcDbLine
 10
4172.5418171215
 20
7404.7109200373
 30
0.0
 11
4171.8548675073
 21
7403.9842149888
 31
0.0
  0
LINE
  5
526
330
1F
100
AcDbEntity
  8
0
  6
Continuous
 62
     7
370
    25
100
AcDbLine
 10
4183.2607165877
 20
7394.5784132284
 30
0.0
 11
4182.5737669735
 21
7393.8517081798
 31
0.0
  0
LINE
  5
527
330
1F
100
AcDbEntity
  8
0
  6
Continuous
 62
     7
370
    25
100
AcDbLine
 10
4180.0302993036
 20
7396.2560318294
 30
0.0
 11
4180.7172489177
 21
7396.982736878
 31
0.0
  0
LINE
  5
528
330
1F
100
AcDbEntity
  8
0
  6
Continuous
 62
     7
370
    25
100
AcDbLine
 10
4197.6186949114
 20
7393.390575506
 30
0.0
 11
4178.724363649
 21
7411.2512654743
 31
0.0
  0
LINE
  5
529
330
1F
100
AcDbEntity
  8
0
  6
Continuous
 62
     7
370
    25
100
AcDbLine
 10
4197.6186949114
 20
7393.390575506
 30
0.0
 11
4196.5961088392
 21
7392.3088099064
 31
0.0
  0
LINE
  5
52A
330
1F
100
AcDbEntity
  8
0
  6
Continuous
 62
     7
370
    25
100
AcDbLine
 10
4178.724363649
 20
7411.2512654743
 30
0.0
 11
4177.7017775767
 21
7410.1694998747
 31
0.0
  0
LINE
  5
52B
330
1F
100
AcDbEntity
  8
0
  6
Continuous
 62
     7
370
    25
100
AcDbLine
 10
4082.9138912657
 20
7500.4442154416
 30
0.0
 11
4077.4182943524
 21
7494.6305750532
 31
0.0
  0
LINE
  5
52C
330
1F
100
AcDbEntity
  8
0
  6
Continuous
 62
     7
370
    25
100
AcDbLine
 10
4057.4182943524
 20
7500.4442154416
 30
0.0
 11
4062.9138912657
 21
7494.6305750532
 31
0.0
  0
LINE
  5
52D
330
1F
100
AcDbEntity
  8
0
  6
Continuous
 62
     8
370
    25
100
AcDbLine
 10
4204.3732628927
 20
7385.6294516776
 30
0.0
 11
4198.8776659794
 21
7379.8158112891
 31
0.0
  0
LINE
  5
52E
330
1F
100
AcDbEntity
  8
0
  6
Continuous
 62
     8
370
    25
100
AcDbLine
 10
3935.9589227253
 20
7385.6294516776
 30
0.0
 11
3941.4545196387
 21
7379.8158112891
 31
0.0
  0
LINE
  5
52F
330
1F
100
AcDbEntity
  8
0
  6
Continuous
 62
     8
370
    25
100
AcDbLine
 10
4201.6569899348
 20
7341.2102236913
 30
0.0
 11
4196.9107096995
 21
7347.650163437
 31
0.0
  0
LINE
  5
530
330
1F
100
AcDbEntity
  8
0
  6
Continuous
 62
     8
370
    25
100
AcDbLine
 10
3938.6751956833
 20
7341.2102236913
 30
0.0
 11
3943.4214759185
 21
7347.650163437
 31
0.0
  0
LINE
  5
531
330
1F
100
AcDbEntity
  8
0
  6
Continuous
 62
     8
370
    25
100
AcDbLine
 10
4078.3397100594
 20
7496.0373952474
 30
0.0
 11
4078.3397100594
 21
7495.6053153141
 31
0.0
  0
LINE
  5
532
330
1F
100
AcDbEntity
  8
0
  6
Continuous
 62
     8
370
    25
100
AcDbLine
 10
4078.3397100594
 20
7493.7595667043
 30
0.0
 11
4078.3397100594
 21
7493.0373952474
 31
0.0
  0
LINE
  5
533
330
1F
100
AcDbEntity
  8
0
  6
Continuous
 62
     8
370
    25
100
AcDbLine
 10
4061.9924755586
 20
7496.0373952474
 30
0.0
 11
4061.9924755586
 21
7495.6053153141
 31
0.0
  0
LINE
  5
534
330
1F
100
AcDbEntity
  8
0
  6
Continuous
 62
     8
370
    25
100
AcDbLine
 10
4061.9924755586
 20
7493.7595667043
 30
0.0
 11
4061.9924755586
 21
7493.0373952474
 31
0.0
  0
LINE
  5
535
330
1F
100
AcDbEntity
  8
0
  6
Continuous
 62
     8
370
    25
100
AcDbLine
 10
4050.7261343197
 20
7483.1095667043
 30
0.0
 11
4050.7261343197
 21
7482.3873952474
 31
0.0
  0
LINE
  5
536
330
1F
100
AcDbEntity
  8
0
  6
Continuous
 62
     8
370
    25
100
AcDbLine
 10
4089.6060512983
 20
7483.1095667043
 30
0.0
 11
4089.6060512983
 21
7482.3873952474
 31
0.0
  0
LINE
  5
537
330
1F
100
AcDbEntity
  8
0
  6
Continuous
 62
     8
370
    25
100
AcDbLine
 10
4039.4597930809
 20
7472.4595667043
 30
0.0
 11
4039.4597930809
 21
7471.7373952474
 31
0.0
  0
LINE
  5
538
330
1F
100
AcDbEntity
  8
0
  6
Continuous
 62
     8
370
    25
100
AcDbLine
 10
4028.193451842
 20
7461.8095667043
 30
0.0
 11
4028.193451842
 21
7461.0873952474
 31
0.0
  0
LINE
  5
539
330
1F
100
AcDbEntity
  8
0
  6
Continuous
 62
     8
370
    25
100
AcDbLine
 10
4123.405075015
 20
7451.1595667043
 30
0.0
 11
4123.405075015
 21
7450.4373952474
 31
0.0
  0
LINE
  5
53A
330
1F
100
AcDbEntity
  8
0
  6
Continuous
 62
     8
370
    25
100
AcDbLine
 10
4016.9271106031
 20
7451.1595667043
 30
0.0
 11
4016.9271106031
 21
7450.4373952474
 31
0.0
  0
LINE
  5
53B
330
1F
100
AcDbEntity
  8
0
  6
Continuous
 62
     8
370
    25
100
AcDbLine
 10
4005.6607693642
 20
7440.5095667043
 30
0.0
 11
4005.6607693642
 21
7439.7873952474
 31
0.0
  0
LINE
  5
53C
330
1F
100
AcDbEntity
  8
0
  6
Continuous
 62
     8
370
    25
100
AcDbLine
 10
4134.6714162538
 20
7440.5095667043
 30
0.0
 11
4134.6714162538
 21
7439.7873952474
 31
0.0
  0
LINE
  5
53D
330
1F
100
AcDbEntity
  8
0
  6
Continuous
 62
     8
370
    25
100
AcDbLine
 10
4145.9377574927
 20
7429.8595667043
 30
0.0
 11
4145.9377574927
 21
7429.1373952474
 31
0.0
  0
LINE
  5
53E
330
1F
100
AcDbEntity
  8
0
  6
Continuous
 62
     8
370
    25
100
AcDbLine
 10
4157.2040987316
 20
7419.2095667043
 30
0.0
 11
4157.2040987316
 21
7418.4873952474
 31
0.0
  0
LINE
  5
53F
330
1F
100
AcDbEntity
  8
0
  6
Continuous
 62
     8
370
    25
100
AcDbLine
 10
3971.8617456475
 20
7408.5595667043
 30
0.0
 11
3971.8617456475
 21
7407.8373952474
 31
0.0
  0
LINE
  5
540
330
1F
100
AcDbEntity
  8
0
  6
Continuous
 62
     8
370
    25
100
AcDbLine
 10
4168.4704399705
 20
7408.5595667043
 30
0.0
 11
4168.4704399705
 21
7407.8373952474
 31
0.0
  0
LINE
  5
541
330
1F
100
AcDbEntity
  8
0
  6
Continuous
 62
     8
370
    25
100
AcDbLine
 10
3960.5954044087
 20
7397.9095667043
 30
0.0
 11
3960.5954044087
 21
7397.1873952474
 31
0.0
  0
LINE
  5
542
330
1F
100
AcDbEntity
  8
0
  6
Continuous
 62
     8
370
    25
100
AcDbLine
 10
3949.3290631698
 20
7387.2595667043
 30
0.0
 11
3949.3290631698
 21
7386.5373952474
 31
0.0
  0
LINE
  5
543
330
1F
100
AcDbEntity
  8
0
  6
Continuous
 62
     8
370
    25
100
AcDbLine
 10
4200.9070210375
 20
7377.6019666821
 30
0.0
 11
4200.9070210375
 21
7375.8873952474
 31
0.0
  0
LINE
  5
544
330
1F
100
AcDbEntity
  8
0
  6
Continuous
 62
     8
370
    25
100
AcDbLine
 10
3939.4251645805
 20
7377.6019666821
 30
0.0
 11
3939.4251645805
 21
7375.8873952474
 31
0.0
  0
LINE
  5
545
330
1F
100
AcDbEntity
  8
0
  6
Continuous
 62
     8
370
    25
100
AcDbLine
 10
3935.9759002273
 20
7368.2373952474
 30
0.0
 11
3935.9759002273
 21
7365.2373952474
 31
0.0
  0
LINE
  5
546
330
1F
100
AcDbEntity
  8
0
  6
Continuous
 62
     8
370
    25
100
AcDbLine
 10
4204.3562853907
 20
7368.2373952474
 30
0.0
 11
4204.3562853907
 21
7365.2373952474
 31
0.0
  0
LINE
  5
547
330
1F
100
AcDbEntity
  8
0
  6
Continuous
 62
     8
370
    25
100
AcDbLine
 10
4202.9740449817
 20
7357.5873952474
 30
0.0
 11
4202.9740449817
 21
7354.6593684287
 31
0.0
  0
LINE
  5
548
330
1F
100
AcDbEntity
  8
0
  6
Continuous
 62
     8
370
    25
100
AcDbLine
 10
3937.3581406363
 20
7357.5873952474
 30
0.0
 11
3937.3581406363
 21
7354.6593684287
 31
0.0
  0
LINE
  5
549
330
1F
100
AcDbEntity
  8
0
  6
Continuous
 62
     8
370
    25
100
AcDbLine
 10
3944.7709305981
 20
7346.9373952474
 30
0.0
 11
3944.7709305981
 21
7346.6637296265
 31
0.0
  0
LINE
  5
54A
330
1F
100
AcDbEntity
  8
0
  6
Continuous
 62
     8
370
    25
100
AcDbLine
 10
4195.56125502
 20
7346.9373952474
 30
0.0
 11
4195.56125502
 21
7346.6637296265
 31
0.0
  0
ENDSEC
  0
SECTION
  2
OBJECTS
  0
DICTIONARY
  5
C
330
0
100
AcDbDictionary
281
     1
  3
ACAD_GROUP
350
D
  3
ACAD_LAYOUT
350
1A
  3
ACAD_MLINESTYLE
350
17
  3
ACAD_PLOTSETTINGS
350
19
  3
ACAD_PLOTSTYLENAME
350
E
  3
ACAD_SCALELIST
350
47
  3
DWGPROPS
350
54B
  0
DICTIONARY
  5
D
102
{ACAD_REACTORS
330
C
102
}
330
C
100
AcDbDictionary
281
     1
  0
DICTIONARY
  5
1A
102
{ACAD_REACTORS
330
C
102
}
330
C
100
AcDbDictionary
281
     1
  3
Layout1
350
1E
  3
Layout2
350
26
  3
Model
350
22
  0
DICTIONARY
  5
17
102
{ACAD_REACTORS
330
C
102
}
330
C
100
AcDbDictionary
281
     1
  3
Standard
350
18
  0
DICTIONARY
  5
19
102
{ACAD_REACTORS
330
C
102
}
330
C
100
AcDbDictionary
281
     1
  0
ACDBDICTIONARYWDFLT
  5
E
102
{ACAD_REACTORS
330
C
102
}
330
C
100
AcDbDictionary
281
     1
  3
Normal
350
F
100
AcDbDictionaryWithDefault
340
F
  0
DICTIONARY
  5
47
102
{ACAD_REACTORS
330
C
102
}
330
C
100
AcDbDictionary
281
     1
  3
A0
350
48
  3
A1
350
49
  3
A2
350
4A
  3
A3
350
4B
  3
A4
350
4C
  3
A5
350
4D
  3
A6
350
4E
  3
A7
350
4F
  3
A8
350
50
  3
A9
350
51
  3
B0
350
52
  3
B1
350
53
  3
B2
350
54
  3
B3
350
55
  3
B4
350
56
  3
B5
350
57
  3
B6
350
58
  3
B7
350
59
  3
B8
350
5A
  3
B9
350
5B
  3
C0
350
5C
  3
C1
350
5D
  3
C2
350
5E
  3
C3
350
5F
  3
C4
350
60
  3
C5
350
61
  3
C6
350
62
  3
C7
350
63
  3
C8
350
64
  3
C9
350
65
  3
D0
350
66
  3
D1
350
67
  3
D2
350
68
  0
XRECORD
  5
54B
102
{ACAD_REACTORS
330
C
102
}
330
C
100
AcDbXrecord
280
     1
  1
DWGPROPS COOKIE
  2

  3

  4

  6

  7

  8
radek.stransky
  9

300
=
301
=
302
=
303
=
304
=
305
=
306
=
307
=
308
=
309
=
 40
0.0
 41
2459179.217312442
 42
2459179.21731265
  1

 90
        0
  0
LAYOUT
  5
1E
102
{ACAD_REACTORS
330
1A
102
}
330
1A
100
AcDbPlotSettings
  1

  2
none_device
  4

  6

 40
0.0
 41
0.0
 42
0.0
 43
0.0
 44
0.0
 45
0.0
 46
0.0
 47
0.0
 48
0.0
 49
0.0
140
0.0
141
0.0
142
1.0
143
1.0
 70
   688
 72
     1
 73
     0
 74
     5
  7

 75
    16
147
1.0
148
0.0
149
0.0
100
AcDbLayout
  1
Layout1
 70
     1
 71
     1
 10
0.0
 20
0.0
 11
420.0
 21
297.0
 12
0.0
 22
0.0
 32
0.0
 14
1.0000000000E+20
 24
1.0000000000E+20
 34
1.0000000000E+20
 15
-1.0000000000E+20
 25
-1.0000000000E+20
 35
-1.0000000000E+20
146
0.0
 13
0.0
 23
0.0
 33
0.0
 16
1.0
 26
0.0
 36
0.0
 17
0.0
 27
1.0
 37
0.0
 76
     0
330
1B
  0
LAYOUT
  5
26
102
{ACAD_REACTORS
330
1A
102
}
330
1A
100
AcDbPlotSettings
  1

  2
none_device
  4

  6

 40
0.0
 41
0.0
 42
0.0
 43
0.0
 44
0.0
 45
0.0
 46
0.0
 47
0.0
 48
0.0
 49
0.0
140
0.0
141
0.0
142
1.0
143
1.0
 70
   688
 72
     1
 73
     0
 74
     5
  7

 75
    16
147
1.0
148
0.0
149
0.0
100
AcDbLayout
  1
Layout2
 70
     1
 71
     2
 10
0.0
 20
0.0
 11
0.0
 21
0.0
 12
0.0
 22
0.0
 32
0.0
 14
0.0
 24
0.0
 34
0.0
 15
0.0
 25
0.0
 35
0.0
146
0.0
 13
0.0
 23
0.0
 33
0.0
 16
1.0
 26
0.0
 36
0.0
 17
0.0
 27
1.0
 37
0.0
 76
     0
330
23
  0
LAYOUT
  5
22
102
{ACAD_REACTORS
330
1A
102
}
330
1A
100
AcDbPlotSettings
  1

  2
none_device
  4
Letter_(8.50_x_11.00_Inches)
  6

 40
6.35
 41
6.35
 42
6.35000508
 43
6.35000508
 44
215.9
 45
279.4
 46
0.0
 47
0.0
 48
0.0
 49
0.0
140
0.0
141
0.0
142
1.0
143
1.0
 70
  1712
 72
     1
 73
     0
 74
     0
  7

 75
     0
147
1.0
148
0.0
149
0.0
100
AcDbLayout
  1
Model
 70
     1
 71
     0
 10
0.0
 20
0.0
 11
20000.0
 21
10000.0
 12
0.0
 22
0.0
 32
0.0
 14
0.0
 24
0.0
 34
0.0
 15
20000.0
 25
10000.0
 35
0.0
146
0.0
 13
0.0
 23
0.0
 33
0.0
 16
1.0
 26
0.0
 36
0.0
 17
0.0
 27
1.0
 37
0.0
 76
     0
330
1F
331
29
  0
MLINESTYLE
  5
18
102
{ACAD_REACTORS
330
17
102
}
330
17
100
AcDbMlineStyle
  2
Standard
 70
     0
  3

 62
   256
 51
90.0
 52
90.0
 71
     2
 49
0.5
 62
   256
  6
BYLAYER
 49
-0.5
 62
   256
  6
BYLAYER
  0
ACDBPLACEHOLDER
  5
F
102
{ACAD_REACTORS
330
E
102
}
330
E
  0
SCALE
  5
48
102
{ACAD_REACTORS
330
47
102
}
330
47
100
AcDbScale
 70
     0
300
1:1
140
1.0
141
1.0
290
     1
  0
SCALE
  5
49
102
{ACAD_REACTORS
330
47
102
}
330
47
100
AcDbScale
 70
     0
300
1:2
140
1.0
141
2.0
290
     0
  0
SCALE
  5
4A
102
{ACAD_REACTORS
330
47
102
}
330
47
100
AcDbScale
 70
     0
300
1:4
140
1.0
141
4.0
290
     0
  0
SCALE
  5
4B
102
{ACAD_REACTORS
330
47
102
}
330
47
100
AcDbScale
 70
     0
300
1:5
140
1.0
141
5.0
290
     0
  0
SCALE
  5
4C
102
{ACAD_REACTORS
330
47
102
}
330
47
100
AcDbScale
 70
     0
300
1:8
140
1.0
141
8.0
290
     0
  0
SCALE
  5
4D
102
{ACAD_REACTORS
330
47
102
}
330
47
100
AcDbScale
 70
     0
300
1:10
140
1.0
141
10.0
290
     0
  0
SCALE
  5
4E
102
{ACAD_REACTORS
330
47
102
}
330
47
100
AcDbScale
 70
     0
300
1:16
140
1.0
141
16.0
290
     0
  0
SCALE
  5
4F
102
{ACAD_REACTORS
330
47
102
}
330
47
100
AcDbScale
 70
     0
300
1:20
140
1.0
141
20.0
290
     0
  0
SCALE
  5
50
102
{ACAD_REACTORS
330
47
102
}
330
47
100
AcDbScale
 70
     0
300
1:30
140
1.0
141
30.0
290
     0
  0
SCALE
  5
51
102
{ACAD_REACTORS
330
47
102
}
330
47
100
AcDbScale
 70
     0
300
1:40
140
1.0
141
40.0
290
     0
  0
SCALE
  5
52
102
{ACAD_REACTORS
330
47
102
}
330
47
100
AcDbScale
 70
     0
300
1:50
140
1.0
141
50.0
290
     0
  0
SCALE
  5
53
102
{ACAD_REACTORS
330
47
102
}
330
47
100
AcDbScale
 70
     0
300
1:100
140
1.0
141
100.0
290
     0
  0
SCALE
  5
54
102
{ACAD_REACTORS
330
47
102
}
330
47
100
AcDbScale
 70
     0
300
2:1
140
2.0
141
1.0
290
     0
  0
SCALE
  5
55
102
{ACAD_REACTORS
330
47
102
}
330
47
100
AcDbScale
 70
     0
300
4:1
140
4.0
141
1.0
290
     0
  0
SCALE
  5
56
102
{ACAD_REACTORS
330
47
102
}
330
47
100
AcDbScale
 70
     0
300
8:1
140
8.0
141
1.0
290
     0
  0
SCALE
  5
57
102
{ACAD_REACTORS
330
47
102
}
330
47
100
AcDbScale
 70
     0
300
10:1
140
10.0
141
1.0
290
     0
  0
SCALE
  5
58
102
{ACAD_REACTORS
330
47
102
}
330
47
100
AcDbScale
 70
     0
300
100:1
140
100.0
141
1.0
290
     0
  0
SCALE
  5
59
102
{ACAD_REACTORS
330
47
102
}
330
47
100
AcDbScale
 70
     0
300
1/128" = 1'-0"
140
0.0078125
141
12.0
290
     0
  0
SCALE
  5
5A
102
{ACAD_REACTORS
330
47
102
}
330
47
100
AcDbScale
 70
     0
300
1/64" = 1'-0"
140
0.015625
141
12.0
290
     0
  0
SCALE
  5
5B
102
{ACAD_REACTORS
330
47
102
}
330
47
100
AcDbScale
 70
     0
300
1/32" = 1'-0"
140
0.03125
141
12.0
290
     0
  0
SCALE
  5
5C
102
{ACAD_REACTORS
330
47
102
}
330
47
100
AcDbScale
 70
     0
300
1/16" = 1'-0"
140
0.0625
141
12.0
290
     0
  0
SCALE
  5
5D
102
{ACAD_REACTORS
330
47
102
}
330
47
100
AcDbScale
 70
     0
300
3/32" = 1'-0"
140
0.09375
141
12.0
290
     0
  0
SCALE
  5
5E
102
{ACAD_REACTORS
330
47
102
}
330
47
100
AcDbScale
 70
     0
300
1/8" = 1'-0"
140
0.125
141
12.0
290
     0
  0
SCALE
  5
5F
102
{ACAD_REACTORS
330
47
102
}
330
47
100
AcDbScale
 70
     0
300
3/16" = 1'-0"
140
0.1875
141
12.0
290
     0
  0
SCALE
  5
60
102
{ACAD_REACTORS
330
47
102
}
330
47
100
AcDbScale
 70
     0
300
1/4" = 1'-0"
140
0.25
141
12.0
290
     0
  0
SCALE
  5
61
102
{ACAD_REACTORS
330
47
102
}
330
47
100
AcDbScale
 70
     0
300
3/8" = 1'-0"
140
0.375
141
12.0
290
     0
  0
SCALE
  5
62
102
{ACAD_REACTORS
330
47
102
}
330
47
100
AcDbScale
 70
     0
300
1/2" = 1'-0"
140
0.5
141
12.0
290
     0
  0
SCALE
  5
63
102
{ACAD_REACTORS
330
47
102
}
330
47
100
AcDbScale
 70
     0
300
3/4" = 1'-0"
140
0.75
141
12.0
290
     0
  0
SCALE
  5
64
102
{ACAD_REACTORS
330
47
102
}
330
47
100
AcDbScale
 70
     0
300
1" = 1'-0"
140
1.0
141
12.0
290
     0
  0
SCALE
  5
65
102
{ACAD_REACTORS
330
47
102
}
330
47
100
AcDbScale
 70
     0
300
1-1/2" = 1'-0"
140
1.5
141
12.0
290
     0
  0
SCALE
  5
66
102
{ACAD_REACTORS
330
47
102
}
330
47
100
AcDbScale
 70
     0
300
3" = 1'-0"
140
3.0
141
12.0
290
     0
  0
SCALE
  5
67
102
{ACAD_REACTORS
330
47
102
}
330
47
100
AcDbScale
 70
     0
300
6" = 1'-0"
140
6.0
141
12.0
290
     0
  0
SCALE
  5
68
102
{ACAD_REACTORS
330
47
102
}
330
47
100
AcDbScale
 70
     0
300
1'-0" = 1'-0"
140
12.0
141
12.0
290
     0
  0
ENDSEC
  0
EOF
