  0
SECTION
  2
HEADER
  9
$ACADVER
  1
AC1015
  9
$ACADMAINTVER
 70
     6
  9
$DWGCODEPAGE
  3
ANSI_1250
  9
$INSBASE
 10
0.0
 20
0.0
 30
0.0
  9
$EXTMIN
 10
0.0
 20
0.0
 30
0.0
  9
$EXTMAX
 10
20000.0
 20
10000.0
 30
0.0
  9
$LIMMIN
 10
0.0
 20
0.0
  9
$LIMMAX
 10
20000.0
 20
10000.0
  9
$ORTHOMODE
 70
     0
  9
$REGENMODE
 70
     1
  9
$FILLMODE
 70
     1
  9
$QTEXTMODE
 70
     0
  9
$MIRRTEXT
 70
     1
  9
$LTSCALE
 40
1.0
  9
$ATTMODE
 70
     1
  9
$TEXTSIZE
 40
2.0
  9
$TRACEWID
 40
1.0
  9
$TEXTSTYLE
  7
Standard
  9
$CLAYER
  8
0
  9
$CELTYPE
  6
ByLayer
  9
$CECOLOR
 62
   256
  9
$CELTSCALE
 40
1.0
  9
$DISPSILH
 70
     0
  9
$DIMSCALE
 40
1.0
  9
$DIMASZ
 40
2.0
  9
$DIMEXO
 40
1.0
  9
$DIMDLI
 40
3.75
  9
$DIMRND
 40
0.0
  9
$DIMDLE
 40
0.0
  9
$DIMEXE
 40
1.0
  9
$DIMTP
 40
0.0
  9
$DIMTM
 40
0.0
  9
$DIMTXT
 40
2.0
  9
$DIMCEN
 40
2.5
  9
$DIMTSZ
 40
0.0
  9
$DIMTOL
 70
     0
  9
$DIMLIM
 70
     0
  9
$DIMTIH
 70
     1
  9
$DIMTOH
 70
     1
  9
$DIMSE1
 70
     0
  9
$DIMSE2
 70
     0
  9
$DIMTAD
 70
     1
  9
$DIMZIN
 70
     0
  9
$DIMBLK
  1

  9
$DIMASO
 70
     1
  9
$DIMSHO
 70
     1
  9
$DIMPOST
  1

  9
$DIMAPOST
  1

  9
$DIMALT
 70
     0
  9
$DIMALTD
 70
     3
  9
$DIMALTF
 40
0.0393700787
  9
$DIMLFAC
 40
1.0
  9
$DIMTOFL
 70
     1
  9
$DIMTVP
 40
0.0
  9
$DIMTIX
 70
     0
  9
$DIMSOXD
 70
     0
  9
$DIMSAH
 70
     0
  9
$DIMBLK1
  1

  9
$DIMBLK2
  1

  9
$DIMSTYLE
  2
ISO-25
  9
$DIMCLRD
 70
     0
  9
$DIMCLRE
 70
     0
  9
$DIMCLRT
 70
     0
  9
$DIMTFAC
 40
1.0
  9
$DIMGAP
 40
1.524
  9
$DIMJUST
 70
     0
  9
$DIMSD1
 70
     0
  9
$DIMSD2
 70
     0
  9
$DIMTOLJ
 70
     0
  9
$DIMTZIN
 70
     0
  9
$DIMALTZ
 70
     0
  9
$DIMALTTZ
 70
     0
  9
$DIMUPT
 70
     0
  9
$DIMDEC
 70
     2
  9
$DIMTDEC
 70
     0
  9
$DIMALTU
 70
     2
  9
$DIMALTTD
 70
     3
  9
$DIMTXSTY
  7
Standard
  9
$DIMAUNIT
 70
     0
  9
$DIMADEC
 70
     2
  9
$DIMALTRND
 40
0.0
  9
$DIMAZIN
 70
     0
  9
$DIMDSEP
 70
    44
  9
$DIMATFIT
 70
     3
  9
$DIMFRAC
 70
     0
  9
$DIMLDRBLK
  1

  9
$DIMLUNIT
 70
     2
  9
$DIMLWD
 70
    -2
  9
$DIMLWE
 70
    -2
  9
$DIMTMOVE
 70
     0
  9
$LUNITS
 70
     2
  9
$LUPREC
 70
     3
  9
$SKETCHINC
 40
1.0
  9
$FILLETRAD
 40
10.0
  9
$AUNITS
 70
     0
  9
$AUPREC
 70
     2
  9
$MENU
  1
.
  9
$ELEVATION
 40
0.0
  9
$PELEVATION
 40
0.0
  9
$THICKNESS
 40
0.0
  9
$LIMCHECK
 70
     0
  9
$CHAMFERA
 40
0.0
  9
$CHAMFERB
 40
0.0
  9
$CHAMFERC
 40
0.0
  9
$CHAMFERD
 40
0.0
  9
$SKPOLY
 70
     0
  9
$TDCREATE
 40
2459179.256112986
  9
$TDUCREATE
 40
2459179.214446319
  9
$TDUPDATE
 40
2459179.256113426
  9
$TDUUPDATE
 40
2459179.214446759
  9
$TDINDWG
 40
0.0000000116
  9
$TDUSRTIMER
 40
0.0000000116
  9
$USRTIMER
 70
     1
  9
$ANGBASE
 50
0.0
  9
$ANGDIR
 70
     0
  9
$PDMODE
 70
     0
  9
$PDSIZE
 40
-1.0
  9
$PLINEWID
 40
0.0
  9
$SPLFRAME
 70
     0
  9
$SPLINETYPE
 70
     6
  9
$SPLINESEGS
 70
     8
  9
$HANDSEED
  5
35D
  9
$SURFTAB1
 70
     6
  9
$SURFTAB2
 70
     6
  9
$SURFTYPE
 70
     6
  9
$SURFU
 70
     6
  9
$SURFV
 70
     6
  9
$UCSBASE
  2

  9
$UCSNAME
  2

  9
$UCSORG
 10
0.0
 20
0.0
 30
0.0
  9
$UCSXDIR
 10
1.0
 20
0.0
 30
0.0
  9
$UCSYDIR
 10
0.0
 20
1.0
 30
0.0
  9
$UCSORTHOREF
  2

  9
$UCSORTHOVIEW
 70
     0
  9
$UCSORGTOP
 10
0.0
 20
0.0
 30
0.0
  9
$UCSORGBOTTOM
 10
0.0
 20
0.0
 30
0.0
  9
$UCSORGLEFT
 10
0.0
 20
0.0
 30
0.0
  9
$UCSORGRIGHT
 10
0.0
 20
0.0
 30
0.0
  9
$UCSORGFRONT
 10
0.0
 20
0.0
 30
0.0
  9
$UCSORGBACK
 10
0.0
 20
0.0
 30
0.0
  9
$PUCSBASE
  2

  9
$PUCSNAME
  2

  9
$PUCSORG
 10
0.0
 20
0.0
 30
0.0
  9
$PUCSXDIR
 10
1.0
 20
0.0
 30
0.0
  9
$PUCSYDIR
 10
0.0
 20
1.0
 30
0.0
  9
$PUCSORTHOREF
  2

  9
$PUCSORTHOVIEW
 70
     0
  9
$PUCSORGTOP
 10
0.0
 20
0.0
 30
0.0
  9
$PUCSORGBOTTOM
 10
0.0
 20
0.0
 30
0.0
  9
$PUCSORGLEFT
 10
0.0
 20
0.0
 30
0.0
  9
$PUCSORGRIGHT
 10
0.0
 20
0.0
 30
0.0
  9
$PUCSORGFRONT
 10
0.0
 20
0.0
 30
0.0
  9
$PUCSORGBACK
 10
0.0
 20
0.0
 30
0.0
  9
$USERI1
 70
     0
  9
$USERI2
 70
     0
  9
$USERI3
 70
     0
  9
$USERI4
 70
     0
  9
$USERI5
 70
     0
  9
$USERR1
 40
0.0
  9
$USERR2
 40
0.0
  9
$USERR3
 40
0.0
  9
$USERR4
 40
0.0
  9
$USERR5
 40
0.0
  9
$WORLDVIEW
 70
     1
  9
$SHADEDGE
 70
     3
  9
$SHADEDIF
 70
    70
  9
$TILEMODE
 70
     1
  9
$MAXACTVP
 70
    64
  9
$PINSBASE
 10
0.0
 20
0.0
 30
0.0
  9
$PLIMCHECK
 70
     0
  9
$PEXTMIN
 10
1.0000000000E+20
 20
1.0000000000E+20
 30
1.0000000000E+20
  9
$PEXTMAX
 10
-1.0000000000E+20
 20
-1.0000000000E+20
 30
-1.0000000000E+20
  9
$PLIMMIN
 10
0.0
 20
0.0
  9
$PLIMMAX
 10
420.0
 20
297.0
  9
$UNITMODE
 70
     0
  9
$VISRETAIN
 70
     1
  9
$PLINEGEN
 70
     0
  9
$PSLTSCALE
 70
     1
  9
$TREEDEPTH
 70
  3020
  9
$CMLSTYLE
  2
Standard
  9
$CMLJUST
 70
     0
  9
$CMLSCALE
 40
20.0
  9
$PROXYGRAPHICS
 70
     1
  9
$MEASUREMENT
 70
     1
  9
$CELWEIGHT
370
    -1
  9
$ENDCAPS
280
     0
  9
$JOINSTYLE
280
     0
  9
$LWDISPLAY
290
     1
  9
$INSUNITS
 70
     4
  9
$HYPERLINKBASE
  1

  9
$STYLESHEET
  1

  9
$XEDIT
290
     1
  9
$CEPSNTYPE
380
     0
  9
$PSTYLEMODE
290
     1
  9
$FINGERPRINTGUID
  2
{e5be0445-214a-4c0f-be03-f503f52fe09f}
  9
$VERSIONGUID
  2
{FAEB1C32-E019-11D5-929B-00C0DF256EC4}
  9
$EXTNAMES
290
     1
  9
$PSVPSCALE
 40
0.0
  9
$OLESTARTUP
290
     0
  0
ENDSEC
  0
SECTION
  2
CLASSES
  0
CLASS
  1
ACDBDICTIONARYWDFLT
  2
AcDbDictionaryWithDefault
  3
ObjectDBX Classes
 90
        0
280
     0
281
     0
  0
CLASS
  1
VISUALSTYLE
  2
AcDbVisualStyle
  3
ObjectDBX Classes
 90
     4095
280
     0
281
     0
  0
CLASS
  1
MATERIAL
  2
AcDbMaterial
  3
ObjectDBX Classes
 90
     1153
280
     0
281
     0
  0
CLASS
  1
SCALE
  2
AcDbScale
  3
ObjectDBX Classes
 90
     1153
280
     0
281
     0
  0
CLASS
  1
TABLESTYLE
  2
AcDbTableStyle
  3
ObjectDBX Classes
 90
     4095
280
     0
281
     0
  0
CLASS
  1
MLEADERSTYLE
  2
AcDbMLeaderStyle
  3
ACDB_MLEADERSTYLE_CLASS
 90
     4095
280
     0
281
     0
  0
CLASS
  1
SUN
  2
AcDbSun
  3
SCENEOE
 90
     1153
280
     0
281
     0
  0
CLASS
  1
ACDBPLACEHOLDER
  2
AcDbPlaceHolder
  3
ObjectDBX Classes
 90
        0
280
     0
281
     0
  0
CLASS
  1
LAYOUT
  2
AcDbLayout
  3
ObjectDBX Classes
 90
        0
280
     0
281
     0
  0
ENDSEC
  0
SECTION
  2
TABLES
  0
TABLE
  2
VPORT
  5
8
330
0
100
AcDbSymbolTable
 70
     1
  0
VPORT
  5
29
330
8
100
AcDbSymbolTableRecord
100
AcDbViewportTableRecord
  2
*Active
 70
     0
 10
0.0
 20
0.0
 11
1.0
 21
1.0
 12
10000.0
 22
5000.0
 13
0.0
 23
0.0
 14
10.0
 24
10.0
 15
10.0
 25
10.0
 16
0.0
 26
0.0
 36
1.0
 17
0.0
 27
0.0
 37
0.0
 40
10000.0
 41
2.0
 42
50.0
 43
0.0
 44
0.0
 50
0.0
 51
0.0
 71
     0
 72
  2000
 73
     1
 74
     3
 75
     0
 76
     0
 77
     0
 78
     0
281
     0
 65
     1
110
0.0
120
0.0
130
0.0
111
1.0
121
0.0
131
0.0
112
0.0
122
1.0
132
0.0
 79
     0
146
0.0
  0
ENDTAB
  0
TABLE
  2
LTYPE
  5
5
330
0
100
AcDbSymbolTable
 70
     6
  0
LTYPE
  5
14
330
5
100
AcDbSymbolTableRecord
100
AcDbLinetypeTableRecord
  2
ByBlock
 70
     0
  3

 72
    65
 73
     0
 40
0.0
  0
LTYPE
  5
15
330
5
100
AcDbSymbolTableRecord
100
AcDbLinetypeTableRecord
  2
ByLayer
 70
     0
  3

 72
    65
 73
     0
 40
0.0
  0
LTYPE
  5
16
330
5
100
AcDbSymbolTableRecord
100
AcDbLinetypeTableRecord
  2
Continuous
 70
     0
  3
Solid line
 72
    65
 73
     0
 40
0.0
  0
LTYPE
  5
6E
330
5
100
AcDbSymbolTableRecord
100
AcDbLinetypeTableRecord
  2
HIDDEN
 70
     0
  3
Hidden __ __ __ __ __ __ __ __ __ __ __ __ __ __
 72
    65
 73
     2
 40
1.905
 49
1.27
 74
     0
 49
-0.635
 74
     0
  0
LTYPE
  5
6F
330
5
100
AcDbSymbolTableRecord
100
AcDbLinetypeTableRecord
  2
PHANTOM
 70
     0
  3
Phantom ______  __  __  ______  __  __  ______
 72
    65
 73
     6
 40
12.7
 49
6.35
 74
     0
 49
-1.27
 74
     0
 49
1.27
 74
     0
 49
-1.27
 74
     0
 49
1.27
 74
     0
 49
-1.27
 74
     0
  0
LTYPE
  5
70
330
5
100
AcDbSymbolTableRecord
100
AcDbLinetypeTableRecord
  2
CENTER
 70
     0
  3
Center ____ _ ____ _ ____ _ ____ _ ____ _ ____
 72
    65
 73
     4
 40
10.16
 49
6.35
 74
     0
 49
-1.27
 74
     0
 49
1.27
 74
     0
 49
-1.27
 74
     0
  0
LTYPE
  5
71
330
5
100
AcDbSymbolTableRecord
100
AcDbLinetypeTableRecord
  2
CENTERX2
 70
     0
  3
Center (2x) ________  __  ________  __  _____
 72
    65
 73
     4
 40
20.32
 49
12.7
 74
     0
 49
-2.54
 74
     0
 49
2.54
 74
     0
 49
-2.54
 74
     0
  0
LTYPE
  5
72
330
5
100
AcDbSymbolTableRecord
100
AcDbLinetypeTableRecord
  2
DOT2
 70
     0
  3
Dot (.5x) ........................................
 72
    65
 73
     2
 40
0.635
 49
0.0
 74
     0
 49
-0.635
 74
     0
  0
ENDTAB
  0
TABLE
  2
LAYER
  5
2
330
0
100
AcDbSymbolTable
 70
    13
  0
LAYER
  5
10
330
2
100
AcDbSymbolTableRecord
100
AcDbLayerTableRecord
  2
0
 70
     0
 62
     7
  6
Continuous
370
    -3
390
F
  0
LAYER
  5
73
330
2
100
AcDbSymbolTableRecord
100
AcDbLayerTableRecord
  2
FORMAT
 70
     0
 62
     7
  6
Continuous
370
    -3
390
F
  0
LAYER
  5
74
330
2
100
AcDbSymbolTableRecord
100
AcDbLayerTableRecord
  2
OSA
 70
     0
 62
     7
  6
CENTER
370
    -3
390
F
  0
LAYER
  5
75
330
2
100
AcDbSymbolTableRecord
100
AcDbLayerTableRecord
  2
0_35
 70
     0
 62
     7
  6
Continuous
370
    35
390
F
  0
LAYER
  5
76
330
2
100
AcDbSymbolTableRecord
100
AcDbLayerTableRecord
  2
0_5
 70
     0
 62
     7
  6
Continuous
370
    50
390
F
  0
LAYER
  5
77
330
2
100
AcDbSymbolTableRecord
100
AcDbLayerTableRecord
  2
0_25
 70
     0
 62
     7
  6
Continuous
370
    25
390
F
  0
LAYER
  5
78
330
2
100
AcDbSymbolTableRecord
100
AcDbLayerTableRecord
  2
0_18
 70
     0
 62
     7
  6
Continuous
370
    -3
390
F
  0
LAYER
  5
79
330
2
100
AcDbSymbolTableRecord
100
AcDbLayerTableRecord
  2
SLD-0
 70
     0
 62
   179
  6
Continuous
370
    -3
390
F
  0
LAYER
  5
7A
330
2
100
AcDbSymbolTableRecord
100
AcDbLayerTableRecord
  2
KOTY
 70
     0
 62
     7
  6
Continuous
370
    -3
390
F
  0
LAYER
  5
7B
330
2
100
AcDbSymbolTableRecord
100
AcDbLayerTableRecord
  2
SILNA
 70
     0
 62
   179
  6
Continuous
370
    -3
390
F
  0
LAYER
  5
7C
330
2
100
AcDbSymbolTableRecord
100
AcDbLayerTableRecord
  2
0_18_1
 70
     0
 62
   179
  6
Continuous
370
    -3
390
F
  0
LAYER
  5
7D
330
2
100
AcDbSymbolTableRecord
100
AcDbLayerTableRecord
  2
0_35_1
 70
     0
 62
   179
  6
Continuous
370
    35
390
F
  0
LAYER
  5
7E
330
2
100
AcDbSymbolTableRecord
100
AcDbLayerTableRecord
  2
0_5_1
 70
     0
 62
   179
  6
Continuous
370
    50
390
F
  0
ENDTAB
  0
TABLE
  2
STYLE
  5
3
330
0
100
AcDbSymbolTable
 70
     1
  0
STYLE
  5
11
330
3
100
AcDbSymbolTableRecord
100
AcDbTextStyleTableRecord
  2
Standard
 70
     0
 40
0.0
 41
1.0
 50
0.0
 71
     0
 42
2.0
  3
txt
  4

  0
ENDTAB
  0
TABLE
  2
VIEW
  5
6
330
0
100
AcDbSymbolTable
 70
     0
  0
ENDTAB
  0
TABLE
  2
UCS
  5
7
330
0
100
AcDbSymbolTable
 70
     0
  0
ENDTAB
  0
TABLE
  2
APPID
  5
9
330
0
100
AcDbSymbolTable
 70
     1
  0
APPID
  5
12
330
9
100
AcDbSymbolTableRecord
100
AcDbRegAppTableRecord
  2
ACAD
 70
     0
  0
ENDTAB
  0
TABLE
  2
DIMSTYLE
  5
A
330
0
100
AcDbSymbolTable
 70
     1
100
AcDbDimStyleTable
  0
DIMSTYLE
105
27
330
A
100
AcDbSymbolTableRecord
100
AcDbDimStyleTableRecord
  2
ISO-25
 70
     0
 41
2.5
 42
0.625
 43
3.75
 44
1.25
 73
     0
 74
     0
 77
     1
 78
     8
140
2.5
141
2.5
143
0.0393700787
147
0.625
171
     3
172
     1
178
     0
271
     2
272
     2
274
     3
278
    44
283
     0
284
     8
340
11
  0
ENDTAB
  0
TABLE
  2
BLOCK_RECORD
  5
1
330
0
100
AcDbSymbolTable
 70
     1
  0
BLOCK_RECORD
  5
1F
330
1
100
AcDbSymbolTableRecord
100
AcDbBlockTableRecord
  2
*Model_Space
340
22
  0
BLOCK_RECORD
  5
1B
330
1
100
AcDbSymbolTableRecord
100
AcDbBlockTableRecord
  2
*Paper_Space
340
1E
  0
BLOCK_RECORD
  5
23
330
1
100
AcDbSymbolTableRecord
100
AcDbBlockTableRecord
  2
*Paper_Space0
340
26
  0
ENDTAB
  0
ENDSEC
  0
SECTION
  2
BLOCKS
  0
BLOCK
  5
20
330
1F
100
AcDbEntity
  8
0
100
AcDbBlockBegin
  2
*Model_Space
 70
     0
 10
0.0
 20
0.0
 30
0.0
  3
*Model_Space
  1

  0
ENDBLK
  5
21
330
1F
100
AcDbEntity
  8
0
100
AcDbBlockEnd
  0
BLOCK
  5
1C
330
1B
100
AcDbEntity
 67
     1
  8
0
100
AcDbBlockBegin
  2
*Paper_Space
 70
     0
 10
0.0
 20
0.0
 30
0.0
  3
*Paper_Space
  1

  0
ENDBLK
  5
1D
330
1B
100
AcDbEntity
 67
     1
  8
0
100
AcDbBlockEnd
  0
BLOCK
  5
24
330
23
100
AcDbEntity
  8
0
100
AcDbBlockBegin
  2
*Paper_Space0
 70
     0
 10
0.0
 20
0.0
 30
0.0
  3
*Paper_Space0
  1

  0
ENDBLK
  5
25
330
23
100
AcDbEntity
  8
0
100
AcDbBlockEnd
  0
ENDSEC
  0
SECTION
  2
ENTITIES
  0
LINE
  5
7F
330
1F
100
AcDbEntity
  8
0
  6
Continuous
 62
     7
370
    25
100
AcDbLine
 10
5004.1186383758
 20
7455.070015678
 30
0.0
 11
4986.2579484074
 21
7455.070015678
 31
0.0
  0
LINE
  5
80
330
1F
100
AcDbEntity
  8
0
  6
Continuous
 62
     7
370
    25
100
AcDbLine
 10
5003.3919333272
 20
7448.070015678
 30
0.0
 11
5008.4788686671
 21
7448.070015678
 31
0.0
  0
LINE
  5
81
330
1F
100
AcDbEntity
  8
0
  6
Continuous
 62
     7
370
    25
100
AcDbLine
 10
4993.2104304523
 20
7448.070015678
 30
0.0
 11
4994.9860411853
 21
7448.070015678
 31
0.0
  0
LINE
  5
82
330
1F
100
AcDbEntity
  8
0
  6
Continuous
 62
     7
370
    25
100
AcDbLine
 10
5032.9985236829
 20
7448.070015678
 30
0.0
 11
5040.4288686671
 21
7448.070015678
 31
0.0
  0
LINE
  5
83
330
1F
100
AcDbEntity
  8
0
  6
Continuous
 62
     7
370
    25
100
AcDbLine
 10
5022.5681786988
 20
7448.070015678
 30
0.0
 11
5029.9985236829
 21
7448.070015678
 31
0.0
  0
LINE
  5
84
330
1F
100
AcDbEntity
  8
0
  6
Continuous
 62
     7
370
    25
100
AcDbLine
 10
4958.4485236829
 20
7448.070015678
 30
0.0
 11
4965.8788686671
 21
7448.070015678
 31
0.0
  0
LINE
  5
85
330
1F
100
AcDbEntity
  8
0
  6
Continuous
 62
     7
370
    25
100
AcDbLine
 10
4948.0181786988
 20
7448.070015678
 30
0.0
 11
4955.4485236829
 21
7448.070015678
 31
0.0
  0
LINE
  5
86
330
1F
100
AcDbEntity
  8
0
  6
Continuous
 62
     7
370
    25
100
AcDbLine
 10
5085.7557253662
 20
7457.070015678
 30
0.0
 11
5047.463287447
 21
7457.070015678
 31
0.0
  0
LINE
  5
87
330
1F
100
AcDbEntity
  8
0
  6
Continuous
 62
     7
370
    25
100
AcDbLine
 10
5075.4897114414
 20
7449.070015678
 30
0.0
 11
5083.7578294576
 21
7449.070015678
 31
0.0
  0
LINE
  5
88
330
1F
100
AcDbEntity
  8
0
  6
Continuous
 62
     7
370
    25
100
AcDbLine
 10
5064.9433375577
 20
7449.070015678
 30
0.0
 11
5072.6800421524
 21
7449.070015678
 31
0.0
  0
LINE
  5
89
330
1F
100
AcDbEntity
  8
0
  6
Continuous
 62
     7
370
    25
100
AcDbLine
 10
5054.0927847099
 20
7449.070015678
 30
0.0
 11
5061.9622832727
 21
7449.070015678
 31
0.0
  0
LINE
  5
8A
330
1F
100
AcDbEntity
  8
0
  6
Continuous
 62
     7
370
    25
100
AcDbLine
 10
5047.463287447
 20
7449.070015678
 30
0.0
 11
5051.2985236829
 21
7449.070015678
 31
0.0
  0
LINE
  5
8B
330
1F
100
AcDbEntity
  8
0
  6
Continuous
 62
     7
370
    25
100
AcDbLine
 10
5061.9485236829
 20
7449.0808007256
 30
0.0
 11
5061.9485236829
 21
7434.070015678
 31
0.0
  0
LINE
  5
8C
330
1F
100
AcDbEntity
  8
0
  6
Continuous
 62
     7
370
    25
100
AcDbLine
 10
5064.9485236829
 20
7434.070015678
 30
0.0
 11
5064.9485236829
 21
7449.0727168612
 31
0.0
  0
LINE
  5
8D
330
1F
100
AcDbEntity
  8
0
  6
Continuous
 62
     7
370
    25
100
AcDbLine
 10
5064.9485236829
 20
7429.070015678
 30
0.0
 11
5064.9485236829
 21
7434.070015678
 31
0.0
  0
LINE
  5
8E
330
1F
100
AcDbEntity
  8
0
  6
Continuous
 62
     7
370
    25
100
AcDbLine
 10
5061.9485236829
 20
7434.070015678
 30
0.0
 11
5061.9485236829
 21
7429.070015678
 31
0.0
  0
LINE
  5
8F
330
1F
100
AcDbEntity
  8
0
  6
Continuous
 62
     7
370
    25
100
AcDbLine
 10
5072.5985236829
 20
7449.070015678
 30
0.0
 11
5072.5985236829
 21
7434.070015678
 31
0.0
  0
LINE
  5
90
330
1F
100
AcDbEntity
  8
0
  6
Continuous
 62
     7
370
    25
100
AcDbLine
 10
5075.5985236829
 20
7434.070015678
 30
0.0
 11
5075.5985236829
 21
7449.1088381623
 31
0.0
  0
LINE
  5
91
330
1F
100
AcDbEntity
  8
0
  6
Continuous
 62
     7
370
    25
100
AcDbLine
 10
5075.5985236829
 20
7429.070015678
 30
0.0
 11
5075.5985236829
 21
7434.070015678
 31
0.0
  0
LINE
  5
92
330
1F
100
AcDbEntity
  8
0
  6
Continuous
 62
     7
370
    25
100
AcDbLine
 10
5072.5985236829
 20
7434.070015678
 30
0.0
 11
5072.5985236829
 21
7429.070015678
 31
0.0
  0
LINE
  5
93
330
1F
100
AcDbEntity
  8
0
  6
Continuous
 62
     7
370
    25
100
AcDbLine
 10
5054.2985236829
 20
7429.070015678
 30
0.0
 11
5054.2985236829
 21
7434.070015678
 31
0.0
  0
LINE
  5
94
330
1F
100
AcDbEntity
  8
0
  6
Continuous
 62
     7
370
    25
100
AcDbLine
 10
5051.2985236829
 20
7434.070015678
 30
0.0
 11
5051.2985236829
 21
7429.070015678
 31
0.0
  0
LINE
  5
95
330
1F
100
AcDbEntity
  8
0
  6
Continuous
 62
     7
370
    25
100
AcDbLine
 10
5051.2985236829
 20
7449.1545080373
 30
0.0
 11
5051.2985236829
 21
7434.070015678
 31
0.0
  0
LINE
  5
96
330
1F
100
AcDbEntity
  8
0
  6
Continuous
 62
     7
370
    25
100
AcDbLine
 10
5054.2985236829
 20
7434.070015678
 30
0.0
 11
5054.2985236829
 21
7449.070015678
 31
0.0
  0
LINE
  5
97
330
1F
100
AcDbEntity
  8
0
  6
Continuous
 62
     7
370
    25
100
AcDbLine
 10
5043.176902725
 20
7449.070015678
 30
0.0
 11
5047.463287447
 21
7449.070015678
 31
0.0
  0
LINE
  5
98
330
1F
100
AcDbEntity
  8
0
  6
Continuous
 62
     7
370
    25
100
AcDbLine
 10
5032.526902725
 20
7449.070015678
 30
0.0
 11
5040.6485236829
 21
7449.070015678
 31
0.0
  0
LINE
  5
99
330
1F
100
AcDbEntity
  8
0
  6
Continuous
 62
     7
370
    25
100
AcDbLine
 10
5021.876902725
 20
7449.070015678
 30
0.0
 11
5029.9985236829
 21
7449.070015678
 31
0.0
  0
LINE
  5
9A
330
1F
100
AcDbEntity
  8
0
  6
Continuous
 62
     7
370
    25
100
AcDbLine
 10
5011.2279852986
 20
7449.070015678
 30
0.0
 11
5019.3485236829
 21
7449.070015678
 31
0.0
  0
LINE
  5
9B
330
1F
100
AcDbEntity
  8
0
  6
Continuous
 62
     7
370
    25
100
AcDbLine
 10
5008.4788686671
 20
7449.070015678
 30
0.0
 11
5008.6985236829
 21
7449.070015678
 31
0.0
  0
LINE
  5
9C
330
1F
100
AcDbEntity
  8
0
  6
Continuous
 62
     7
370
    25
100
AcDbLine
 10
4979.276902725
 20
7449.070015678
 30
0.0
 11
4984.8045383103
 21
7449.070015678
 31
0.0
  0
LINE
  5
9D
330
1F
100
AcDbEntity
  8
0
  6
Continuous
 62
     7
370
    25
100
AcDbLine
 10
4968.626902725
 20
7449.070015678
 30
0.0
 11
4976.7485236829
 21
7449.070015678
 31
0.0
  0
LINE
  5
9E
330
1F
100
AcDbEntity
  8
0
  6
Continuous
 62
     7
370
    25
100
AcDbLine
 10
4957.976902725
 20
7449.070015678
 30
0.0
 11
4966.0985236829
 21
7449.070015678
 31
0.0
  0
LINE
  5
9F
330
1F
100
AcDbEntity
  8
0
  6
Continuous
 62
     7
370
    25
100
AcDbLine
 10
4947.3155369461
 20
7449.070015678
 30
0.0
 11
4955.4485236829
 21
7449.070015678
 31
0.0
  0
LINE
  5
A0
330
1F
100
AcDbEntity
  8
0
  6
Continuous
 62
     7
370
    25
100
AcDbLine
 10
4936.6655369461
 20
7449.070015678
 30
0.0
 11
4944.7985236829
 21
7449.070015678
 31
0.0
  0
LINE
  5
A1
330
1F
100
AcDbEntity
  8
0
  6
Continuous
 62
     7
370
    25
100
AcDbLine
 10
4932.6485236829
 20
7449.070015678
 30
0.0
 11
4934.1485236829
 21
7449.070015678
 31
0.0
  0
LINE
  5
A2
330
1F
100
AcDbEntity
  8
0
  6
Continuous
 62
     7
370
    25
100
AcDbLine
 10
5047.463287447
 20
7457.070015678
 30
0.0
 11
4932.6485236829
 21
7457.070015678
 31
0.0
  0
LINE
  5
A3
330
1F
100
AcDbEntity
  8
0
  6
Continuous
 62
     7
370
    25
100
AcDbLine
 10
5083.2485236829
 20
7449.070015678
 30
0.0
 11
5083.2485236829
 21
7434.070015678
 31
0.0
  0
LINE
  5
A4
330
1F
100
AcDbEntity
  8
0
  6
Continuous
 62
     7
370
    25
100
AcDbLine
 10
5086.2485236829
 20
7434.070015678
 30
0.0
 11
5086.2485236829
 21
7449.2433772873
 31
0.0
  0
LINE
  5
A5
330
1F
100
AcDbEntity
  8
0
  6
Continuous
 62
     7
370
    25
100
AcDbLine
 10
5086.2485236829
 20
7429.070015678
 30
0.0
 11
5086.2485236829
 21
7434.070015678
 31
0.0
  0
LINE
  5
A6
330
1F
100
AcDbEntity
  8
0
  6
Continuous
 62
     7
370
    25
100
AcDbLine
 10
5083.2485236829
 20
7434.070015678
 30
0.0
 11
5083.2485236829
 21
7429.070015678
 31
0.0
  0
ARC
  5
A7
330
1F
100
AcDbEntity
  8
0
  6
Continuous
 62
     7
370
    25
100
AcDbCircle
 10
5128.1955879213
 20
7453.070015678
 30
0.0
 40
4.000000000000321
100
AcDbArc
 50
279.3946558174
 51
90.0
  0
LINE
  5
A8
330
1F
100
AcDbEntity
  8
0
  6
Continuous
 62
     7
370
    25
100
AcDbLine
 10
5128.1955879213
 20
7457.070015678
 30
0.0
 11
5085.7557253662
 21
7457.070015678
 31
0.0
  0
LINE
  5
A9
330
1F
100
AcDbEntity
  8
0
  6
Continuous
 62
     7
370
    25
100
AcDbLine
 10
5118.1985236829
 20
7449.070015678
 30
0.0
 11
5127.2131092809
 21
7449.070015678
 31
0.0
  0
LINE
  5
AA
330
1F
100
AcDbEntity
  8
0
  6
Continuous
 62
     7
370
    25
100
AcDbLine
 10
5107.5485236829
 20
7449.070015678
 30
0.0
 11
5116.2150330781
 21
7449.070015678
 31
0.0
  0
LINE
  5
AB
330
1F
100
AcDbEntity
  8
0
  6
Continuous
 62
     7
370
    25
100
AcDbLine
 10
5096.8985236829
 20
7449.070015678
 30
0.0
 11
5105.3955683362
 21
7449.070015678
 31
0.0
  0
LINE
  5
AC
330
1F
100
AcDbEntity
  8
0
  6
Continuous
 62
     7
370
    25
100
AcDbLine
 10
5086.2485236829
 20
7449.070015678
 30
0.0
 11
5094.6116960164
 21
7449.070015678
 31
0.0
  0
LINE
  5
AD
330
1F
100
AcDbEntity
  8
0
  6
Continuous
 62
     7
370
    25
100
AcDbLine
 10
5043.6485236829
 20
7429.070015678
 30
0.0
 11
5043.6485236829
 21
7434.070015678
 31
0.0
  0
LINE
  5
AE
330
1F
100
AcDbEntity
  8
0
  6
Continuous
 62
     7
370
    25
100
AcDbLine
 10
5040.6485236829
 20
7434.070015678
 30
0.0
 11
5040.6485236829
 21
7429.070015678
 31
0.0
  0
LINE
  5
AF
330
1F
100
AcDbEntity
  8
0
  6
Continuous
 62
     7
370
    25
100
AcDbLine
 10
5040.6485236829
 20
7449.2214088537
 30
0.0
 11
5040.6485236829
 21
7434.070015678
 31
0.0
  0
LINE
  5
B0
330
1F
100
AcDbEntity
  8
0
  6
Continuous
 62
     7
370
    25
100
AcDbLine
 10
5043.6485236829
 20
7434.070015678
 30
0.0
 11
5043.6485236829
 21
7449.070015678
 31
0.0
  0
LINE
  5
B1
330
1F
100
AcDbEntity
  8
0
  6
Continuous
 62
     7
370
    25
100
AcDbLine
 10
5093.8985236829
 20
7449.070015678
 30
0.0
 11
5093.8985236829
 21
7434.070015678
 31
0.0
  0
LINE
  5
B2
330
1F
100
AcDbEntity
  8
0
  6
Continuous
 62
     7
370
    25
100
AcDbLine
 10
5096.8985236829
 20
7434.070015678
 30
0.0
 11
5096.8985236829
 21
7449.2787479681
 31
0.0
  0
LINE
  5
B3
330
1F
100
AcDbEntity
  8
0
  6
Continuous
 62
     7
370
    25
100
AcDbLine
 10
5096.8985236829
 20
7429.070015678
 30
0.0
 11
5096.8985236829
 21
7434.070015678
 31
0.0
  0
LINE
  5
B4
330
1F
100
AcDbEntity
  8
0
  6
Continuous
 62
     7
370
    25
100
AcDbLine
 10
5093.8985236829
 20
7434.070015678
 30
0.0
 11
5093.8985236829
 21
7429.070015678
 31
0.0
  0
LINE
  5
B5
330
1F
100
AcDbEntity
  8
0
  6
Continuous
 62
     7
370
    25
100
AcDbLine
 10
5032.9985236829
 20
7429.070015678
 30
0.0
 11
5032.9985236829
 21
7434.070015678
 31
0.0
  0
LINE
  5
B6
330
1F
100
AcDbEntity
  8
0
  6
Continuous
 62
     7
370
    25
100
AcDbLine
 10
5029.9985236829
 20
7434.070015678
 30
0.0
 11
5029.9985236829
 21
7429.070015678
 31
0.0
  0
LINE
  5
B7
330
1F
100
AcDbEntity
  8
0
  6
Continuous
 62
     7
370
    25
100
AcDbLine
 10
5029.9985236829
 20
7449.2214088537
 30
0.0
 11
5029.9985236829
 21
7434.070015678
 31
0.0
  0
LINE
  5
B8
330
1F
100
AcDbEntity
  8
0
  6
Continuous
 62
     7
370
    25
100
AcDbLine
 10
5032.9985236829
 20
7434.070015678
 30
0.0
 11
5032.9985236829
 21
7449.070015678
 31
0.0
  0
LINE
  5
B9
330
1F
100
AcDbEntity
  8
0
  6
Continuous
 62
     7
370
    25
100
AcDbLine
 10
5022.3485236829
 20
7429.070015678
 30
0.0
 11
5022.3485236829
 21
7434.070015678
 31
0.0
  0
LINE
  5
BA
330
1F
100
AcDbEntity
  8
0
  6
Continuous
 62
     7
370
    25
100
AcDbLine
 10
5019.3485236829
 20
7434.070015678
 30
0.0
 11
5019.3485236829
 21
7429.070015678
 31
0.0
  0
LINE
  5
BB
330
1F
100
AcDbEntity
  8
0
  6
Continuous
 62
     7
370
    25
100
AcDbLine
 10
5019.3485236829
 20
7449.2214088537
 30
0.0
 11
5019.3485236829
 21
7434.070015678
 31
0.0
  0
LINE
  5
BC
330
1F
100
AcDbEntity
  8
0
  6
Continuous
 62
     7
370
    25
100
AcDbLine
 10
5022.3485236829
 20
7434.070015678
 30
0.0
 11
5022.3485236829
 21
7449.070015678
 31
0.0
  0
LINE
  5
BD
330
1F
100
AcDbEntity
  8
0
  6
Continuous
 62
     7
370
    25
100
AcDbLine
 10
5107.5485236829
 20
7429.070015678
 30
0.0
 11
5107.5485236829
 21
7434.070015678
 31
0.0
  0
LINE
  5
BE
330
1F
100
AcDbEntity
  8
0
  6
Continuous
 62
     7
370
    25
100
AcDbLine
 10
5104.5485236829
 20
7434.070015678
 30
0.0
 11
5104.5485236829
 21
7429.070015678
 31
0.0
  0
LINE
  5
BF
330
1F
100
AcDbEntity
  8
0
  6
Continuous
 62
     7
370
    25
100
AcDbLine
 10
5104.5485236829
 20
7449.070015678
 30
0.0
 11
5104.5485236829
 21
7434.070015678
 31
0.0
  0
LINE
  5
C0
330
1F
100
AcDbEntity
  8
0
  6
Continuous
 62
     7
370
    25
100
AcDbLine
 10
5107.5485236829
 20
7434.070015678
 30
0.0
 11
5107.5485236829
 21
7449.3036137896
 31
0.0
  0
LINE
  5
C1
330
1F
100
AcDbEntity
  8
0
  6
Continuous
 62
     7
370
    25
100
AcDbLine
 10
5008.6985236829
 20
7449.2214088537
 30
0.0
 11
5008.6985236829
 21
7434.070015678
 31
0.0
  0
LINE
  5
C2
330
1F
100
AcDbEntity
  8
0
  6
Continuous
 62
     7
370
    25
100
AcDbLine
 10
5011.6985236829
 20
7434.070015678
 30
0.0
 11
5011.6985236829
 21
7449.070015678
 31
0.0
  0
LINE
  5
C3
330
1F
100
AcDbEntity
  8
0
  6
Continuous
 62
     7
370
    25
100
AcDbLine
 10
5011.6985236829
 20
7429.070015678
 30
0.0
 11
5011.6985236829
 21
7434.070015678
 31
0.0
  0
LINE
  5
C4
330
1F
100
AcDbEntity
  8
0
  6
Continuous
 62
     7
370
    25
100
AcDbLine
 10
5008.6985236829
 20
7434.070015678
 30
0.0
 11
5008.6985236829
 21
7429.070015678
 31
0.0
  0
LINE
  5
C5
330
1F
100
AcDbEntity
  8
0
  6
Continuous
 62
     7
370
    25
100
AcDbLine
 10
5118.1985236829
 20
7432.570015678
 30
0.0
 11
5118.1985236829
 21
7437.570015678
 31
0.0
  0
LINE
  5
C6
330
1F
100
AcDbEntity
  8
0
  6
Continuous
 62
     7
370
    25
100
AcDbLine
 10
5115.1985236829
 20
7437.570015678
 30
0.0
 11
5115.1985236829
 21
7432.570015678
 31
0.0
  0
LINE
  5
C7
330
1F
100
AcDbEntity
  8
0
  6
Continuous
 62
     7
370
    25
100
AcDbLine
 10
5115.1985236829
 20
7449.070015678
 30
0.0
 11
5115.1985236829
 21
7437.570015678
 31
0.0
  0
LINE
  5
C8
330
1F
100
AcDbEntity
  8
0
  6
Continuous
 62
     7
370
    25
100
AcDbLine
 10
5118.1985236829
 20
7437.570015678
 30
0.0
 11
5118.1985236829
 21
7449.3292285394
 31
0.0
  0
LINE
  5
C9
330
1F
100
AcDbEntity
  8
0
  6
Continuous
 62
     7
370
    25
100
AcDbLine
 10
4979.7485236829
 20
7429.070015678
 30
0.0
 11
4979.7485236829
 21
7434.070015678
 31
0.0
  0
LINE
  5
CA
330
1F
100
AcDbEntity
  8
0
  6
Continuous
 62
     7
370
    25
100
AcDbLine
 10
4976.7485236829
 20
7434.070015678
 30
0.0
 11
4976.7485236829
 21
7429.070015678
 31
0.0
  0
LINE
  5
CB
330
1F
100
AcDbEntity
  8
0
  6
Continuous
 62
     7
370
    25
100
AcDbLine
 10
4976.7485236829
 20
7449.2214088537
 30
0.0
 11
4976.7485236829
 21
7434.070015678
 31
0.0
  0
LINE
  5
CC
330
1F
100
AcDbEntity
  8
0
  6
Continuous
 62
     7
370
    25
100
AcDbLine
 10
4979.7485236829
 20
7434.070015678
 30
0.0
 11
4979.7485236829
 21
7449.070015678
 31
0.0
  0
LINE
  5
CD
330
1F
100
AcDbEntity
  8
0
  6
Continuous
 62
     7
370
    25
100
AcDbLine
 10
4969.0985236829
 20
7429.070015678
 30
0.0
 11
4969.0985236829
 21
7434.070015678
 31
0.0
  0
LINE
  5
CE
330
1F
100
AcDbEntity
  8
0
  6
Continuous
 62
     7
370
    25
100
AcDbLine
 10
4966.0985236829
 20
7434.070015678
 30
0.0
 11
4966.0985236829
 21
7429.070015678
 31
0.0
  0
LINE
  5
CF
330
1F
100
AcDbEntity
  8
0
  6
Continuous
 62
     7
370
    25
100
AcDbLine
 10
4966.0985236829
 20
7449.2214088537
 30
0.0
 11
4966.0985236829
 21
7434.070015678
 31
0.0
  0
LINE
  5
D0
330
1F
100
AcDbEntity
  8
0
  6
Continuous
 62
     7
370
    25
100
AcDbLine
 10
4969.0985236829
 20
7434.070015678
 30
0.0
 11
4969.0985236829
 21
7449.070015678
 31
0.0
  0
LINE
  5
D1
330
1F
100
AcDbEntity
  8
0
  6
Continuous
 62
     7
370
    25
100
AcDbLine
 10
4955.4485236829
 20
7449.2214088537
 30
0.0
 11
4955.4485236829
 21
7434.070015678
 31
0.0
  0
LINE
  5
D2
330
1F
100
AcDbEntity
  8
0
  6
Continuous
 62
     7
370
    25
100
AcDbLine
 10
4958.4485236829
 20
7434.070015678
 30
0.0
 11
4958.4485236829
 21
7449.070015678
 31
0.0
  0
LINE
  5
D3
330
1F
100
AcDbEntity
  8
0
  6
Continuous
 62
     7
370
    25
100
AcDbLine
 10
4958.4485236829
 20
7429.070015678
 30
0.0
 11
4958.4485236829
 21
7434.070015678
 31
0.0
  0
LINE
  5
D4
330
1F
100
AcDbEntity
  8
0
  6
Continuous
 62
     7
370
    25
100
AcDbLine
 10
4955.4485236829
 20
7434.070015678
 30
0.0
 11
4955.4485236829
 21
7429.070015678
 31
0.0
  0
LINE
  5
D5
330
1F
100
AcDbEntity
  8
0
  6
Continuous
 62
     7
370
    25
100
AcDbLine
 10
4947.7985236829
 20
7434.070015678
 30
0.0
 11
4947.7985236829
 21
7449.070015678
 31
0.0
  0
LINE
  5
D6
330
1F
100
AcDbEntity
  8
0
  6
Continuous
 62
     7
370
    25
100
AcDbLine
 10
4944.7985236829
 20
7449.2210105445
 30
0.0
 11
4944.7985236829
 21
7434.070015678
 31
0.0
  0
LINE
  5
D7
330
1F
100
AcDbEntity
  8
0
  6
Continuous
 62
     7
370
    25
100
AcDbLine
 10
4944.7985236829
 20
7434.070015678
 30
0.0
 11
4944.7985236829
 21
7429.070015678
 31
0.0
  0
LINE
  5
D8
330
1F
100
AcDbEntity
  8
0
  6
Continuous
 62
     7
370
    25
100
AcDbLine
 10
4947.7985236829
 20
7429.070015678
 30
0.0
 11
4947.7985236829
 21
7434.070015678
 31
0.0
  0
LINE
  5
D9
330
1F
100
AcDbEntity
  8
0
  6
Continuous
 62
     7
370
    25
100
AcDbLine
 10
5128.8485236829
 20
7436.070015678
 30
0.0
 11
5128.8485236829
 21
7441.070015678
 31
0.0
  0
LINE
  5
DA
330
1F
100
AcDbEntity
  8
0
  6
Continuous
 62
     7
370
    25
100
AcDbLine
 10
5125.8485236829
 20
7441.070015678
 30
0.0
 11
5125.8485236829
 21
7436.070015678
 31
0.0
  0
LINE
  5
DB
330
1F
100
AcDbEntity
  8
0
  6
Continuous
 62
     7
370
    25
100
AcDbLine
 10
5125.8485236829
 20
7449.070015678
 30
0.0
 11
5125.8485236829
 21
7441.070015678
 31
0.0
  0
LINE
  5
DC
330
1F
100
AcDbEntity
  8
0
  6
Continuous
 62
     7
370
    25
100
AcDbLine
 10
5128.8485236829
 20
7441.070015678
 30
0.0
 11
5128.8485236829
 21
7449.3543406432
 31
0.0
  0
LINE
  5
DD
330
1F
100
AcDbEntity
  8
0
  6
Continuous
 62
     7
370
    25
100
AcDbLine
 10
4937.1485236829
 20
7440.570015678
 30
0.0
 11
4937.1485236829
 21
7449.070015678
 31
0.0
  0
LINE
  5
DE
330
1F
100
AcDbEntity
  8
0
  6
Continuous
 62
     7
370
    25
100
AcDbLine
 10
4934.1485236829
 20
7449.2210105445
 30
0.0
 11
4934.1485236829
 21
7440.570015678
 31
0.0
  0
LINE
  5
DF
330
1F
100
AcDbEntity
  8
0
  6
Continuous
 62
     7
370
    25
100
AcDbLine
 10
4934.1485236829
 20
7440.570015678
 30
0.0
 11
4934.1485236829
 21
7435.570015678
 31
0.0
  0
LINE
  5
E0
330
1F
100
AcDbEntity
  8
0
  6
Continuous
 62
     7
370
    25
100
AcDbLine
 10
4937.1485236829
 20
7435.570015678
 30
0.0
 11
4937.1485236829
 21
7440.570015678
 31
0.0
  0
LWPOLYLINE
  5
E1
330
1F
100
AcDbEntity
  8
0
  6
Continuous
 62
     7
370
    25
100
AcDbPolyline
 90
       10
 70
   128
 43
0.0
 10
5002.6652282787
 20
7453.070015678
 10
5002.7528796325
 20
7453.7540559647
 10
5003.0052616473
 20
7454.3555908974
 10
5003.3919333272
 20
7454.8020664856
 10
5003.866256361
 20
7455.039631184
 10
5004.3710203905
 20
7455.039631184
 10
5004.8453434243
 20
7454.8020664856
 10
5005.2320151042
 20
7454.3555908974
 10
5005.484397119
 20
7453.7540559647
 10
5005.5720484729
 20
7453.070015678
  0
LWPOLYLINE
  5
E2
330
1F
100
AcDbEntity
  8
0
  6
Continuous
 62
     7
370
    25
100
AcDbPolyline
 90
        8
 70
   128
 43
0.0
 10
5005.5720484729
 20
7453.070015678
 10
5005.6703065889
 20
7452.0388019621
 10
5005.9584381751
 20
7451.077303681
 10
5006.4169640307
 20
7450.250523142
 10
5007.0148854124
 20
7449.6143550292
 10
5007.7117797108
 20
7449.2118076307
 10
5008.4605332304
 20
7449.0700952537
 10
5008.4788686671
 20
7449.070015678
  0
LINE
  5
E3
330
1F
100
AcDbEntity
  8
0
  6
Continuous
 62
     7
370
    25
100
AcDbLine
 10
5010.222961138
 20
7457.070015678
 30
0.0
 11
5010.3483023737
 21
7457.357479983
 31
0.0
  0
LINE
  5
E4
330
1F
100
AcDbEntity
  8
0
  6
Continuous
 62
     7
370
    25
100
AcDbLine
 10
5010.3483023737
 20
7457.357479983
 30
0.0
 11
5010.6589838128
 21
7457.070015678
 31
0.0
  0
LWPOLYLINE
  5
E5
330
1F
100
AcDbEntity
  8
0
  6
Continuous
 62
     7
370
    25
100
AcDbPolyline
 90
        9
 70
   128
 43
0.0
 10
5008.6985236829
 20
7448.0791602466
 10
5008.6664067382
 20
7448.0766799399
 10
5007.8278601699
 20
7448.1509224713
 10
5007.0241295955
 20
7448.4882385571
 10
5006.2981985997
 20
7449.070588502
 10
5005.6888900384
 20
7449.866828178
 10
5005.2287897891
 20
7450.8343746142
 10
5004.9425040554
 20
7451.9214833389
 10
5004.8453434243
 20
7453.070015678
  0
LWPOLYLINE
  5
E6
330
1F
100
AcDbEntity
  8
0
  6
Continuous
 62
     7
370
    25
100
AcDbPolyline
 90
        9
 70
   128
 43
0.0
 10
5004.8453434243
 20
7453.070015678
 10
5004.7900262963
 20
7453.4526991104
 10
5004.6324964435
 20
7453.7771224592
 10
5004.3967363581
 20
7453.9938952105
 10
5004.1186383758
 20
7454.070015678
 10
5003.8405403935
 20
7453.9938952105
 10
5003.604780308
 20
7453.7771224592
 10
5003.4472504552
 20
7453.4526991104
 10
5003.3919333272
 20
7453.070015678
  0
LINE
  5
E7
330
1F
100
AcDbEntity
  8
0
  6
Continuous
 62
     7
370
    25
100
AcDbLine
 10
5003.3919333272
 20
7453.070015678
 30
0.0
 11
5003.3919333272
 21
7423.8790524816
 31
0.0
  0
LINE
  5
E8
330
1F
100
AcDbEntity
  8
0
  6
Continuous
 62
     7
370
    25
100
AcDbLine
 10
5002.6652282787
 20
7423.8790524816
 30
0.0
 11
5003.3919333272
 21
7423.8790524816
 31
0.0
  0
LINE
  5
E9
330
1F
100
AcDbEntity
  8
0
  6
Continuous
 62
     7
370
    25
100
AcDbLine
 10
5002.6652282787
 20
7423.8790524816
 30
0.0
 11
5002.6652282787
 21
7453.070015678
 31
0.0
  0
LINE
  5
EA
330
1F
100
AcDbEntity
  8
0
  6
Continuous
 62
     7
370
    25
100
AcDbLine
 10
4984.8045383103
 20
7453.070015678
 30
0.0
 11
5002.6652282787
 21
7453.070015678
 31
0.0
  0
LINE
  5
EB
330
1F
100
AcDbEntity
  8
0
  6
Continuous
 62
     7
370
    25
100
AcDbLine
 10
4984.8045383103
 20
7423.8790524816
 30
0.0
 11
5002.6652282787
 21
7423.8790524816
 31
0.0
  0
LINE
  5
EC
330
1F
100
AcDbEntity
  8
0
  6
Continuous
 62
     7
370
    25
100
AcDbLine
 10
4984.8045383103
 20
7423.8790524816
 30
0.0
 11
4984.8045383103
 21
7453.070015678
 31
0.0
  0
LWPOLYLINE
  5
ED
330
1F
100
AcDbEntity
  8
0
  6
Continuous
 62
     7
370
    25
100
AcDbPolyline
 90
       21
 70
   128
 43
0.0
 10
4995.4522573299
 20
7446.357479983
 10
4995.3682030618
 20
7447.1300224689
 10
4995.1242680748
 20
7447.8269431137
 10
4994.7443304252
 20
7448.3800224689
 10
4994.2655810571
 20
7448.7351212737
 10
4993.7348832945
 20
7448.857479983
 10
4993.2041855319
 20
7448.7351212737
 10
4992.7254361638
 20
7448.3800224689
 10
4992.3454985141
 20
7447.8269431137
 10
4992.1015635272
 20
7447.1300224689
 10
4992.0175092591
 20
7446.357479983
 10
4992.1015635272
 20
7445.5849374971
 10
4992.3454985141
 20
7444.8880168523
 10
4992.7254361638
 20
7444.3349374971
 10
4993.2041855319
 20
7443.9798386923
 10
4993.7348832945
 20
7443.857479983
 10
4994.2655810571
 20
7443.9798386923
 10
4994.7443304252
 20
7444.3349374971
 10
4995.1242680748
 20
7444.8880168523
 10
4995.3682030618
 20
7445.5849374971
 10
4995.4522573299
 20
7446.357479983
  0
LWPOLYLINE
  5
EE
330
1F
100
AcDbEntity
  8
0
  6
Continuous
 62
     7
370
    25
100
AcDbPolyline
 90
        6
 70
   128
 43
0.0
 10
4984.8045383103
 20
7453.070015678
 10
4984.8921896642
 20
7453.7540559647
 10
4985.144571679
 20
7454.3555908974
 10
4985.5312433589
 20
7454.8020664856
 10
4986.0055663927
 20
7455.039631184
 10
4986.2579484074
 20
7455.070015678
  0
LINE
  5
EF
330
1F
100
AcDbEntity
  8
0
  6
Continuous
 62
     7
370
    25
100
AcDbLine
 10
4992.4876124053
 20
7457.357479983
 30
0.0
 11
5000.1127531226
 21
7457.357479983
 31
0.0
  0
LINE
  5
F0
330
1F
100
AcDbEntity
  8
0
  6
Continuous
 62
     7
370
    25
100
AcDbLine
 10
5002.7231616564
 20
7457.357479983
 30
0.0
 11
5010.3483023737
 21
7457.357479983
 31
0.0
  0
LINE
  5
F1
330
1F
100
AcDbEntity
  8
0
  6
Continuous
 62
     7
370
    25
100
AcDbLine
 10
5000.4234345617
 20
7457.070015678
 30
0.0
 11
5000.1127531226
 21
7457.357479983
 31
0.0
  0
LINE
  5
F2
330
1F
100
AcDbEntity
  8
0
  6
Continuous
 62
     7
370
    25
100
AcDbLine
 10
5002.5978204207
 20
7457.070015678
 30
0.0
 11
5002.7231616564
 21
7457.357479983
 31
0.0
  0
LWPOLYLINE
  5
F3
330
1F
100
AcDbEntity
  8
0
  6
Continuous
 62
     7
370
    25
100
AcDbPolyline
 90
       11
 70
   128
 43
0.0
 10
4994.0982358188
 20
7443.9140752913
 10
4993.9308905804
 20
7443.9798386923
 10
4993.4521412124
 20
7444.3349374971
 10
4993.0722035627
 20
7444.8880168523
 10
4992.8282685758
 20
7445.5849374971
 10
4992.7442143076
 20
7446.357479983
 10
4992.8282685758
 20
7447.1300224689
 10
4993.0722035627
 20
7447.8269431137
 10
4993.4521412124
 20
7448.3800224689
 10
4993.9308905804
 20
7448.7351212737
 10
4994.098235819
 20
7448.8008846748
  0
LINE
  5
F4
330
1F
100
AcDbEntity
  8
0
  6
Continuous
 62
     7
370
    25
100
AcDbLine
 10
5000.1127531226
 20
7457.357479983
 30
0.0
 11
4999.9874118869
 21
7457.070015678
 31
0.0
  0
LINE
  5
F5
330
1F
100
AcDbEntity
  8
0
  6
Continuous
 62
     7
370
    25
100
AcDbLine
 10
4992.3622711696
 20
7457.070015678
 30
0.0
 11
4992.4876124053
 21
7457.357479983
 31
0.0
  0
LINE
  5
F6
330
1F
100
AcDbEntity
  8
0
  6
Continuous
 62
     7
370
    25
100
AcDbLine
 10
5042.2983023737
 20
7457.357479983
 30
0.0
 11
5034.6731616564
 21
7457.357479983
 31
0.0
  0
LINE
  5
F7
330
1F
100
AcDbEntity
  8
0
  6
Continuous
 62
     7
370
    25
100
AcDbLine
 10
5042.2983023737
 20
7457.357479983
 30
0.0
 11
5042.6089838128
 21
7457.070015678
 31
0.0
  0
LWPOLYLINE
  5
F8
330
1F
100
AcDbEntity
  8
0
  6
Continuous
 62
     7
370
    25
100
AcDbPolyline
 90
        3
 70
   128
 43
0.0
 10
5040.6485236829
 20
7448.0791602466
 10
5040.6164067382
 20
7448.0766799399
 10
5040.4288686671
 20
7448.070015678
  0
LINE
  5
F9
330
1F
100
AcDbEntity
  8
0
  6
Continuous
 62
     7
370
    25
100
AcDbLine
 10
5024.4376124053
 20
7457.357479983
 30
0.0
 11
5024.7482938445
 21
7457.070015678
 31
0.0
  0
ARC
  5
FA
330
1F
100
AcDbEntity
  8
0
  6
Continuous
 62
     7
370
    25
100
AcDbCircle
 10
5022.5147988127
 20
7451.0779060453
 30
0.0
 40
3.003352091241511
100
AcDbArc
 50
266.8263006217
 51
318.0447657576
  0
LINE
  5
FB
330
1F
100
AcDbEntity
  8
0
  6
Continuous
 62
     7
370
    25
100
AcDbLine
 10
5032.0627531226
 20
7457.357479983
 30
0.0
 11
5024.4376124053
 21
7457.357479983
 31
0.0
  0
LINE
  5
FC
330
1F
100
AcDbEntity
  8
0
  6
Continuous
 62
     7
370
    25
100
AcDbLine
 10
5032.0627531226
 20
7457.357479983
 30
0.0
 11
5032.3734345617
 21
7457.070015678
 31
0.0
  0
ARC
  5
FD
330
1F
100
AcDbEntity
  8
0
  6
Continuous
 62
     7
370
    25
100
AcDbCircle
 10
5032.704704366
 20
7451.1461805564
 30
0.0
 40
3.083007290118799
100
AcDbArc
 50
275.4687497262
 51
317.6682724218
  0
LINE
  5
FE
330
1F
100
AcDbEntity
  8
0
  6
Continuous
 62
     7
370
    25
100
AcDbLine
 10
5034.9838430955
 20
7457.070015678
 30
0.0
 11
5034.6731616564
 21
7457.357479983
 31
0.0
  0
LINE
  5
FF
330
1F
100
AcDbEntity
  8
0
  6
Continuous
 62
     7
370
    25
100
AcDbLine
 10
5024.3122711696
 20
7457.070015678
 30
0.0
 11
5024.4376124053
 21
7457.357479983
 31
0.0
  0
LINE
  5
100
330
1F
100
AcDbEntity
  8
0
  6
Continuous
 62
     7
370
    25
100
AcDbLine
 10
5017.4812433589
 20
7449.070015678
 30
0.0
 11
5017.4812433589
 21
7423.8790524816
 31
0.0
  0
LINE
  5
101
330
1F
100
AcDbEntity
  8
0
  6
Continuous
 62
     7
370
    25
100
AcDbLine
 10
5016.7545383103
 20
7423.8790524816
 30
0.0
 11
5017.4812433589
 21
7423.8790524816
 31
0.0
  0
LINE
  5
102
330
1F
100
AcDbEntity
  8
0
  6
Continuous
 62
     7
370
    25
100
AcDbLine
 10
5016.7545383103
 20
7423.8790524816
 30
0.0
 11
5016.7545383103
 21
7449.070015678
 31
0.0
  0
LINE
  5
103
330
1F
100
AcDbEntity
  8
0
  6
Continuous
 62
     7
370
    25
100
AcDbLine
 10
5035.3419333272
 20
7448.070015678
 30
0.0
 11
5035.3419333272
 21
7423.8790524816
 31
0.0
  0
LINE
  5
104
330
1F
100
AcDbEntity
  8
0
  6
Continuous
 62
     7
370
    25
100
AcDbLine
 10
5017.4812433589
 20
7423.8790524816
 30
0.0
 11
5035.3419333272
 21
7423.8790524816
 31
0.0
  0
LWPOLYLINE
  5
105
330
1F
100
AcDbEntity
  8
0
  6
Continuous
 62
     7
370
    25
100
AcDbPolyline
 90
        9
 70
   128
 43
0.0
 10
5026.4115883431
 20
7443.857479983
 10
5026.9422861057
 20
7443.9798386923
 10
5027.4210354737
 20
7444.3349374971
 10
5027.8009731234
 20
7444.8880168523
 10
5028.0449081104
 20
7445.5849374971
 10
5028.1289623785
 20
7446.357479983
 10
5028.0449081104
 20
7447.1300224689
 10
5027.8009731234
 20
7447.8269431137
 10
5027.6627462338
 20
7448.070015678
  0
LWPOLYLINE
  5
106
330
1F
100
AcDbEntity
  8
0
  6
Continuous
 62
     7
370
    25
100
AcDbPolyline
 90
        9
 70
   128
 43
0.0
 10
5025.1604304523
 20
7448.070015678
 10
5025.0222035627
 20
7447.8269431137
 10
5024.7782685758
 20
7447.1300224689
 10
5024.6942143076
 20
7446.357479983
 10
5024.7782685758
 20
7445.5849374971
 10
5025.0222035627
 20
7444.8880168523
 10
5025.4021412124
 20
7444.3349374971
 10
5025.8808905804
 20
7443.9798386923
 10
5026.4115883431
 20
7443.857479983
  0
LINE
  5
107
330
1F
100
AcDbEntity
  8
0
  6
Continuous
 62
     7
370
    25
100
AcDbLine
 10
5034.6731616564
 20
7457.357479983
 30
0.0
 11
5034.5478204207
 21
7457.070015678
 31
0.0
  0
ARC
  5
108
330
1F
100
AcDbEntity
  8
0
  6
Continuous
 62
     7
370
    25
100
AcDbCircle
 10
5024.5794358493
 20
7446.4006431838
 30
0.0
 40
2.887973897754011
100
AcDbArc
 50
300.5700786067
 51
35.3130004537
  0
LINE
  5
109
330
1F
100
AcDbEntity
  8
0
  6
Continuous
 62
     7
370
    25
100
AcDbLine
 10
4967.7483023737
 20
7457.357479983
 30
0.0
 11
4960.1231616564
 21
7457.357479983
 31
0.0
  0
LINE
  5
10A
330
1F
100
AcDbEntity
  8
0
  6
Continuous
 62
     7
370
    25
100
AcDbLine
 10
4967.7483023737
 20
7457.357479983
 30
0.0
 11
4968.0589838128
 21
7457.070015678
 31
0.0
  0
LWPOLYLINE
  5
10B
330
1F
100
AcDbEntity
  8
0
  6
Continuous
 62
     7
370
    25
100
AcDbPolyline
 90
        3
 70
   128
 43
0.0
 10
4966.0985236829
 20
7448.0791602466
 10
4966.0664067382
 20
7448.0766799399
 10
4965.8788686671
 20
7448.070015678
  0
LINE
  5
10C
330
1F
100
AcDbEntity
  8
0
  6
Continuous
 62
     7
370
    25
100
AcDbLine
 10
4949.8876124053
 20
7457.357479983
 30
0.0
 11
4950.1982938444
 21
7457.070015678
 31
0.0
  0
ARC
  5
10D
330
1F
100
AcDbEntity
  8
0
  6
Continuous
 62
     7
370
    25
100
AcDbCircle
 10
4947.9647988127
 20
7451.0779060453
 30
0.0
 40
3.003352091246001
100
AcDbArc
 50
266.8263006217
 51
318.0447657575
  0
LINE
  5
10E
330
1F
100
AcDbEntity
  8
0
  6
Continuous
 62
     7
370
    25
100
AcDbLine
 10
4957.5127531226
 20
7457.357479983
 30
0.0
 11
4949.8876124053
 21
7457.357479983
 31
0.0
  0
LINE
  5
10F
330
1F
100
AcDbEntity
  8
0
  6
Continuous
 62
     7
370
    25
100
AcDbLine
 10
4957.5127531226
 20
7457.357479983
 30
0.0
 11
4957.8234345617
 21
7457.070015678
 31
0.0
  0
ARC
  5
110
330
1F
100
AcDbEntity
  8
0
  6
Continuous
 62
     7
370
    25
100
AcDbCircle
 10
4958.154704366
 20
7451.1461805564
 30
0.0
 40
3.083007290121921
100
AcDbArc
 50
275.4687497263
 51
317.6682724218
  0
LINE
  5
111
330
1F
100
AcDbEntity
  8
0
  6
Continuous
 62
     7
370
    25
100
AcDbLine
 10
4960.4338430955
 20
7457.070015678
 30
0.0
 11
4960.1231616564
 21
7457.357479983
 31
0.0
  0
LINE
  5
112
330
1F
100
AcDbEntity
  8
0
  6
Continuous
 62
     7
370
    25
100
AcDbLine
 10
4949.7622711696
 20
7457.070015678
 30
0.0
 11
4949.8876124053
 21
7457.357479983
 31
0.0
  0
LINE
  5
113
330
1F
100
AcDbEntity
  8
0
  6
Continuous
 62
     7
370
    25
100
AcDbLine
 10
4942.9312433589
 20
7449.070015678
 30
0.0
 11
4942.9312433589
 21
7423.8790524816
 31
0.0
  0
LINE
  5
114
330
1F
100
AcDbEntity
  8
0
  6
Continuous
 62
     7
370
    25
100
AcDbLine
 10
4942.2045383103
 20
7423.8790524816
 30
0.0
 11
4942.9312433589
 21
7423.8790524816
 31
0.0
  0
LINE
  5
115
330
1F
100
AcDbEntity
  8
0
  6
Continuous
 62
     7
370
    25
100
AcDbLine
 10
4942.2045383103
 20
7423.8790524816
 30
0.0
 11
4942.2045383103
 21
7449.070015678
 31
0.0
  0
LINE
  5
116
330
1F
100
AcDbEntity
  8
0
  6
Continuous
 62
     7
370
    25
100
AcDbLine
 10
4960.7919333272
 20
7448.070015678
 30
0.0
 11
4960.7919333272
 21
7423.8790524816
 31
0.0
  0
LINE
  5
117
330
1F
100
AcDbEntity
  8
0
  6
Continuous
 62
     7
370
    25
100
AcDbLine
 10
4942.9312433589
 20
7423.8790524816
 30
0.0
 11
4960.7919333272
 21
7423.8790524816
 31
0.0
  0
LWPOLYLINE
  5
118
330
1F
100
AcDbEntity
  8
0
  6
Continuous
 62
     7
370
    25
100
AcDbPolyline
 90
        9
 70
   128
 43
0.0
 10
4951.8615883431
 20
7443.857479983
 10
4952.3922861057
 20
7443.9798386923
 10
4952.8710354737
 20
7444.3349374971
 10
4953.2509731234
 20
7444.8880168523
 10
4953.4949081104
 20
7445.5849374971
 10
4953.5789623785
 20
7446.357479983
 10
4953.4949081104
 20
7447.1300224689
 10
4953.2509731234
 20
7447.8269431137
 10
4953.1127462338
 20
7448.070015678
  0
LWPOLYLINE
  5
119
330
1F
100
AcDbEntity
  8
0
  6
Continuous
 62
     7
370
    25
100
AcDbPolyline
 90
        9
 70
   128
 43
0.0
 10
4950.6104304523
 20
7448.070015678
 10
4950.4722035627
 20
7447.8269431137
 10
4950.2282685758
 20
7447.1300224689
 10
4950.1442143076
 20
7446.357479983
 10
4950.2282685758
 20
7445.5849374971
 10
4950.4722035627
 20
7444.8880168523
 10
4950.8521412124
 20
7444.3349374971
 10
4951.3308905804
 20
7443.9798386923
 10
4951.8615883431
 20
7443.857479983
  0
LINE
  5
11A
330
1F
100
AcDbEntity
  8
0
  6
Continuous
 62
     7
370
    25
100
AcDbLine
 10
4960.1231616564
 20
7457.357479983
 30
0.0
 11
4959.9978204207
 21
7457.070015678
 31
0.0
  0
ARC
  5
11B
330
1F
100
AcDbEntity
  8
0
  6
Continuous
 62
     7
370
    25
100
AcDbCircle
 10
4950.0294358493
 20
7446.4006431838
 30
0.0
 40
2.887973897760164
100
AcDbArc
 50
300.570078607
 51
35.3130004536
  0
LWPOLYLINE
  5
11C
330
1F
100
AcDbEntity
  8
0
  6
Continuous
 62
     7
370
    25
100
AcDbPolyline
 90
        9
 70
   128
 43
0.0
 10
5083.715161107
 20
7449.0749314343
 10
5083.7712424281
 20
7449.0701351912
 10
5084.1762915741
 20
7449.1008825093
 10
5084.6361289476
 20
7449.1740808213
 10
5085.1297719914
 20
7449.2672622932
 10
5085.5985126162
 20
7449.3418414293
 10
5085.9580736726
 20
7449.3606182449
 10
5086.1740443497
 20
7449.321847592
 10
5086.2483588501
 20
7449.2433772873
  0
LWPOLYLINE
  5
11D
330
1F
100
AcDbEntity
  8
0
  6
Continuous
 62
     7
370
    25
100
AcDbPolyline
 90
       12
 70
   128
 43
0.0
 10
5061.967709175
 20
7449.0808007256
 10
5061.9644186243
 20
7449.0889264394
 10
5062.1047938775
 20
7449.153541038
 10
5062.3906117766
 20
7449.2447534296
 10
5062.8110187357
 20
7449.3280157416
 10
5063.3004511262
 20
7449.3618787864
 10
5063.7773009727
 20
7449.3355736399
 10
5064.2142039419
 20
7449.2646976899
 10
5064.5913069356
 20
7449.1719022245
 10
5064.8526619528
 20
7449.0947450401
 10
5064.9481498897
 20
7449.0703616567
 10
5064.9475889579
 20
7449.0706539684
  0
LWPOLYLINE
  5
11E
330
1F
100
AcDbEntity
  8
0
  6
Continuous
 62
     7
370
    25
100
AcDbPolyline
 90
       10
 70
   128
 43
0.0
 10
5051.31706282
 20
7449.1545080373
 10
5051.3124901675
 20
7449.1880227383
 10
5051.4621601915
 20
7449.2812648172
 10
5051.7720493766
 20
7449.3489372798
 10
5052.1849166896
 20
7449.3579779746
 10
5052.6389132945
 20
7449.3117365599
 10
5053.1151865861
 20
7449.2288107354
 10
5053.5835165383
 20
7449.1368989761
 10
5053.9695052989
 20
7449.0776641679
 10
5054.1483321383
 20
7449.0775213343
  0
ARC
  5
11F
330
1F
100
AcDbEntity
  8
0
  6
Continuous
 62
     7
370
    25
100
AcDbCircle
 10
5074.1782697737
 20
7444.0985399979
 30
0.0
 40
5.206149002782559
100
AcDbArc
 50
74.2343086012
 51
107.1199333735
  0
ARC
  5
120
330
1F
100
AcDbEntity
  8
0
  6
Continuous
 62
     7
370
    25
100
AcDbCircle
 10
5063.4485236829
 20
7429.070015678
 30
0.0
 40
1.5
100
AcDbArc
 50
180.0
 51
0.0
  0
ARC
  5
121
330
1F
100
AcDbEntity
  8
0
  6
Continuous
 62
     7
370
    25
100
AcDbCircle
 10
5074.0985236829
 20
7429.070015678
 30
0.0
 40
1.5
100
AcDbArc
 50
180.0
 51
0.0
  0
ARC
  5
122
330
1F
100
AcDbEntity
  8
0
  6
Continuous
 62
     7
370
    25
100
AcDbCircle
 10
5052.7985236829
 20
7429.070015678
 30
0.0
 40
1.5
100
AcDbArc
 50
180.0
 51
0.0
  0
LWPOLYLINE
  5
123
330
1F
100
AcDbEntity
  8
0
  6
Continuous
 62
     7
370
    25
100
AcDbPolyline
 90
        9
 70
   128
 43
0.0
 10
5040.6485236829
 20
7449.2214088537
 10
5040.7312269604
 20
7449.3109906927
 10
5040.9743808374
 20
7449.3597005917
 10
5041.3311208374
 20
7449.3452017846
 10
5041.7555270203
 20
7449.2803532039
 10
5042.2391723499
 20
7449.1875842656
 10
5042.7392949964
 20
7449.1036750968
 10
5043.1648332581
 20
7449.0700622667
 10
5043.17685939
 20
7449.0711105243
  0
LWPOLYLINE
  5
124
330
1F
100
AcDbEntity
  8
0
  6
Continuous
 62
     7
370
    25
100
AcDbPolyline
 90
        9
 70
   128
 43
0.0
 10
5019.3485236829
 20
7449.2214088537
 10
5019.4312269604
 20
7449.3109906927
 10
5019.6743808374
 20
7449.3597005917
 10
5020.0311208374
 20
7449.3452017846
 10
5020.4555270203
 20
7449.2803532039
 10
5020.9391723499
 20
7449.1875842656
 10
5021.4392949964
 20
7449.1036750968
 10
5021.8648332581
 20
7449.0700622667
 10
5021.87685939
 20
7449.0711105243
  0
LWPOLYLINE
  5
125
330
1F
100
AcDbEntity
  8
0
  6
Continuous
 62
     7
370
    25
100
AcDbPolyline
 90
        9
 70
   128
 43
0.0
 10
4976.7485236829
 20
7449.2214088537
 10
4976.8312269604
 20
7449.3109906927
 10
4977.0743808374
 20
7449.3597005917
 10
4977.4311208374
 20
7449.3452017846
 10
4977.8555270203
 20
7449.2803532039
 10
4978.3391723499
 20
7449.1875842656
 10
4978.8392949964
 20
7449.1036750968
 10
4979.2648332581
 20
7449.0700622667
 10
4979.27685939
 20
7449.0711105243
  0
LWPOLYLINE
  5
126
330
1F
100
AcDbEntity
  8
0
  6
Continuous
 62
     7
370
    25
100
AcDbPolyline
 90
        9
 70
   128
 43
0.0
 10
4955.4485236829
 20
7449.2214088537
 10
4955.5312269604
 20
7449.3109906927
 10
4955.7743808374
 20
7449.3597005917
 10
4956.1311208374
 20
7449.3452017846
 10
4956.5555270203
 20
7449.2803532039
 10
4957.0391723499
 20
7449.1875842656
 10
4957.5392949964
 20
7449.1036750968
 10
4957.9648332581
 20
7449.0700622667
 10
4957.97685939
 20
7449.0711105243
  0
LWPOLYLINE
  5
127
330
1F
100
AcDbEntity
  8
0
  6
Continuous
 62
     7
370
    25
100
AcDbPolyline
 90
        9
 70
   128
 43
0.0
 10
4947.3155858513
 20
7449.0772917858
 10
4947.1065945108
 20
7449.0798903969
 10
4946.6763219761
 20
7449.1358365349
 10
4946.1967422172
 20
7449.2248155895
 10
4945.7018692086
 20
7449.3152342516
 10
4945.273465722
 20
7449.3607838515
 10
4944.9800545781
 20
7449.341888515
 10
4944.824283558
 20
7449.2741414122
 10
4944.8181849659
 20
7449.2210105445
  0
LWPOLYLINE
  5
128
330
1F
100
AcDbEntity
  8
0
  6
Continuous
 62
     7
370
    25
100
AcDbPolyline
 90
        9
 70
   128
 43
0.0
 10
4936.6655858513
 20
7449.0772917858
 10
4936.4565945108
 20
7449.0798903969
 10
4936.0263219761
 20
7449.1358365349
 10
4935.5467422172
 20
7449.2248155895
 10
4935.0518692086
 20
7449.3152342516
 10
4934.623465722
 20
7449.3607838515
 10
4934.3300545781
 20
7449.341888515
 10
4934.174283558
 20
7449.2741414122
 10
4934.1681849659
 20
7449.2210105445
  0
LWPOLYLINE
  5
129
330
1F
100
AcDbEntity
  8
0
  6
Continuous
 62
     7
370
    25
100
AcDbPolyline
 90
       14
 70
   128
 43
0.0
 10
4932.6485236829
 20
7449.070015678
 10
4932.1038398937
 20
7449.1408666751
 10
4931.4108598399
 20
7449.4507074682
 10
4930.7956467573
 20
7449.9879627069
 10
4930.2968567462
 20
7450.7188746688
 10
4929.9458306177
 20
7451.5975174673
 10
4929.7646246342
 20
7452.5686827438
 10
4929.7646246342
 20
7453.5713486123
 10
4929.9458306177
 20
7454.5425138888
 10
4930.2968567462
 20
7455.4211566872
 10
4930.7956467573
 20
7456.1520686491
 10
4931.4108598399
 20
7456.6893238879
 10
4932.1038398937
 20
7456.9991646809
 10
4932.6485236829
 20
7457.070015678
  0
LWPOLYLINE
  5
12A
330
1F
100
AcDbEntity
  8
0
  6
Continuous
 62
     7
370
    25
100
AcDbPolyline
 90
        9
 70
   128
 43
0.0
 10
4966.0985236829
 20
7449.2214088537
 10
4966.1812269604
 20
7449.3109906927
 10
4966.4243808374
 20
7449.3597005917
 10
4966.7811208374
 20
7449.3452017846
 10
4967.2055270203
 20
7449.2803532039
 10
4967.6891723499
 20
7449.1875842656
 10
4968.1892949964
 20
7449.1036750968
 10
4968.6148332581
 20
7449.0700622667
 10
4968.62685939
 20
7449.0711105243
  0
LWPOLYLINE
  5
12B
330
1F
100
AcDbEntity
  8
0
  6
Continuous
 62
     7
370
    25
100
AcDbPolyline
 90
       16
 70
   128
 43
0.0
 10
5008.6985236829
 20
7449.2214088537
 10
5008.7186977226
 20
7449.2683190846
 10
5008.7812269604
 20
7449.3109906927
 10
5008.8818116819
 20
7449.3422547146
 10
5009.0243808374
 20
7449.3597005917
 10
5009.1870928923
 20
7449.3602801265
 10
5009.3811208374
 20
7449.3452017846
 10
5009.5837762984
 20
7449.3180571402
 10
5009.8055270203
 20
7449.2803532039
 10
5010.0423410086
 20
7449.235407192
 10
5010.2891723499
 20
7449.1875842656
 10
5010.5399067374
 20
7449.1419723899
 10
5010.7892949964
 20
7449.1036750968
 10
5011.0099247851
 20
7449.0796186514
 10
5011.2148332581
 20
7449.0700622667
 10
5011.2279758981
 20
7449.0705390809
  0
LWPOLYLINE
  5
12C
330
1F
100
AcDbEntity
  8
0
  6
Continuous
 62
     7
370
    25
100
AcDbPolyline
 90
        9
 70
   128
 43
0.0
 10
5029.9985236829
 20
7449.2214088537
 10
5030.0812269604
 20
7449.3109906927
 10
5030.3243808374
 20
7449.3597005917
 10
5030.6811208374
 20
7449.3452017846
 10
5031.1055270203
 20
7449.2803532039
 10
5031.5891723499
 20
7449.1875842656
 10
5032.0892949964
 20
7449.1036750968
 10
5032.5148332581
 20
7449.0700622667
 10
5032.52685939
 20
7449.0711105243
  0
ARC
  5
12D
330
1F
100
AcDbEntity
  8
0
  6
Continuous
 62
     7
370
    25
100
AcDbCircle
 10
5084.7485236829
 20
7429.070015678
 30
0.0
 40
1.5
100
AcDbArc
 50
180.0
 51
0.0
  0
LWPOLYLINE
  5
12E
330
1F
100
AcDbEntity
  8
0
  6
Continuous
 62
     7
370
    25
100
AcDbPolyline
 90
        8
 70
   128
 43
0.0
 10
5094.542109566
 20
7449.0770866137
 10
5094.8374506073
 20
7449.0786628541
 10
5095.2951773476
 20
7449.1328552061
 10
5095.7740119619
 20
7449.2208281962
 10
5096.2375147898
 20
7449.3118815524
 10
5096.6075295492
 20
7449.3601204976
 10
5096.8266305932
 20
7449.3441882428
 10
5096.898355522
 20
7449.2787479681
  0
LWPOLYLINE
  5
12F
330
1F
100
AcDbEntity
  8
0
  6
Continuous
 62
     7
370
    25
100
AcDbPolyline
 90
        8
 70
   128
 43
0.0
 10
5105.3051051039
 20
7449.0789173596
 10
5105.4938984689
 20
7449.0718011136
 10
5105.9550586454
 20
7449.1120601154
 10
5106.4273805141
 20
7449.1922155755
 10
5106.8837122861
 20
7449.2868545701
 10
5107.2567754061
 20
7449.3523528798
 10
5107.4795132741
 20
7449.3551447563
 10
5107.5468443449
 20
7449.3036137896
  0
ARC
  5
130
330
1F
100
AcDbEntity
  8
0
  6
Continuous
 62
     7
370
    25
100
AcDbCircle
 10
5120.3296430858
 20
7423.8010506041
 30
0.0
 40
25.61740010146316
100
AcDbArc
 50
94.7833550255
 51
99.4263863106
  0
LWPOLYLINE
  5
131
330
1F
100
AcDbEntity
  8
0
  6
Continuous
 62
     7
370
    25
100
AcDbPolyline
 90
        7
 70
   128
 43
0.0
 10
5127.1412701663
 20
7449.0780909939
 10
5127.3379533941
 20
7449.0720264301
 10
5127.8049612037
 20
7449.1130234156
 10
5128.2286767852
 20
7449.1936280624
 10
5128.5794888746
 20
7449.2881904011
 10
5128.7972183148
 20
7449.352891393
 10
5128.8354278603
 20
7449.3543406432
  0
ARC
  5
132
330
1F
100
AcDbEntity
  8
0
  6
Continuous
 62
     7
370
    25
100
AcDbCircle
 10
5042.1485236829
 20
7429.070015678
 30
0.0
 40
1.5
100
AcDbArc
 50
180.0
 51
0.0
  0
ARC
  5
133
330
1F
100
AcDbEntity
  8
0
  6
Continuous
 62
     7
370
    25
100
AcDbCircle
 10
5095.3985236829
 20
7429.070015678
 30
0.0
 40
1.500000000000909
100
AcDbArc
 50
180.0
 51
0.0
  0
ARC
  5
134
330
1F
100
AcDbEntity
  8
0
  6
Continuous
 62
     7
370
    25
100
AcDbCircle
 10
5031.4985236829
 20
7429.070015678
 30
0.0
 40
1.5
100
AcDbArc
 50
180.0
 51
0.0
  0
ARC
  5
135
330
1F
100
AcDbEntity
  8
0
  6
Continuous
 62
     7
370
    25
100
AcDbCircle
 10
5020.8485236829
 20
7429.070015678
 30
0.0
 40
1.5
100
AcDbArc
 50
180.0
 51
0.0
  0
ARC
  5
136
330
1F
100
AcDbEntity
  8
0
  6
Continuous
 62
     7
370
    25
100
AcDbCircle
 10
5106.0485236829
 20
7429.070015678
 30
0.0
 40
1.5
100
AcDbArc
 50
180.0
 51
0.0
  0
ARC
  5
137
330
1F
100
AcDbEntity
  8
0
  6
Continuous
 62
     7
370
    25
100
AcDbCircle
 10
5010.1985236829
 20
7429.070015678
 30
0.0
 40
1.5
100
AcDbArc
 50
180.0
 51
0.0
  0
ARC
  5
138
330
1F
100
AcDbEntity
  8
0
  6
Continuous
 62
     7
370
    25
100
AcDbCircle
 10
5116.6985236829
 20
7432.570015678
 30
0.0
 40
1.5
100
AcDbArc
 50
180.0
 51
0.0
  0
ARC
  5
139
330
1F
100
AcDbEntity
  8
0
  6
Continuous
 62
     7
370
    25
100
AcDbCircle
 10
4978.2485236829
 20
7429.070015678
 30
0.0
 40
1.5
100
AcDbArc
 50
180.0
 51
0.0
  0
ARC
  5
13A
330
1F
100
AcDbEntity
  8
0
  6
Continuous
 62
     7
370
    25
100
AcDbCircle
 10
4967.5985236829
 20
7429.070015678
 30
0.0
 40
1.5
100
AcDbArc
 50
180.0
 51
0.0
  0
ARC
  5
13B
330
1F
100
AcDbEntity
  8
0
  6
Continuous
 62
     7
370
    25
100
AcDbCircle
 10
4956.9485236829
 20
7429.070015678
 30
0.0
 40
1.500000000000909
100
AcDbArc
 50
180.0
 51
0.0
  0
ARC
  5
13C
330
1F
100
AcDbEntity
  8
0
  6
Continuous
 62
     7
370
    25
100
AcDbCircle
 10
4946.2985236829
 20
7429.070015678
 30
0.0
 40
1.5
100
AcDbArc
 50
180.0
 51
0.0
  0
ARC
  5
13D
330
1F
100
AcDbEntity
  8
0
  6
Continuous
 62
     7
370
    25
100
AcDbCircle
 10
5127.3485236829
 20
7436.070015678
 30
0.0
 40
1.5
100
AcDbArc
 50
180.0
 51
0.0
  0
ARC
  5
13E
330
1F
100
AcDbEntity
  8
0
  6
Continuous
 62
     7
370
    25
100
AcDbCircle
 10
4935.6485236829
 20
7435.570015678
 30
0.0
 40
1.5
100
AcDbArc
 50
180.0
 51
0.0
  0
LINE
  5
13F
330
1F
100
AcDbEntity
  8
0
  6
Continuous
 62
     8
370
    25
100
AcDbLine
 10
5003.3919333272
 20
7453.070015678
 30
0.0
 11
5004.8453434243
 21
7453.070015678
 31
0.0
  0
LWPOLYLINE
  5
140
330
1F
100
AcDbEntity
  8
0
  6
Continuous
 62
     8
370
    25
100
AcDbPolyline
 90
       14
 70
   128
 43
0.0
 10
5086.2485236829
 20
7449.1171384161
 10
5086.3590875539
 20
7449.1408666751
 10
5087.1267218575
 20
7449.4507074682
 10
5087.8082114094
 20
7449.9879627069
 10
5088.3607357147
 20
7450.7188746688
 10
5088.7495776392
 20
7451.5975174673
 10
5088.9503048148
 20
7452.5686827438
 10
5088.9503048148
 20
7453.5713486123
 10
5088.7495776392
 20
7454.5425138888
 10
5088.3607357147
 20
7455.4211566872
 10
5087.8082114094
 20
7456.1520686491
 10
5087.1267218575
 20
7456.6893238879
 10
5086.3590875539
 20
7456.9991646809
 10
5085.7557253662
 20
7457.070015678
  0
LWPOLYLINE
  5
141
330
1F
100
AcDbEntity
  8
0
  6
Continuous
 62
     8
370
    25
100
AcDbPolyline
 90
       14
 70
   128
 43
0.0
 10
5047.463287447
 20
7449.070015678
 10
5046.9186036577
 20
7449.1408666751
 10
5046.225623604
 20
7449.4507074682
 10
5045.6104105213
 20
7449.9879627069
 10
5045.1116205103
 20
7450.7188746688
 10
5044.7605943817
 20
7451.5975174673
 10
5044.5793883982
 20
7452.5686827438
 10
5044.5793883982
 20
7453.5713486123
 10
5044.7605943817
 20
7454.5425138888
 10
5045.1116205103
 20
7455.4211566872
 10
5045.6104105213
 20
7456.1520686491
 10
5046.225623604
 20
7456.6893238879
 10
5046.9186036577
 20
7456.9991646809
 10
5047.463287447
 20
7457.070015678
  0
LINE
  5
142
330
1F
100
AcDbEntity
  8
0
  6
Continuous
 62
     8
370
    25
100
AcDbLine
 10
5064.9485236829
 20
7434.070015678
 30
0.0
 11
5061.9485236829
 21
7434.070015678
 31
0.0
  0
LINE
  5
143
330
1F
100
AcDbEntity
  8
0
  6
Continuous
 62
     8
370
    25
100
AcDbLine
 10
5075.5985236829
 20
7434.070015678
 30
0.0
 11
5072.5985236829
 21
7434.070015678
 31
0.0
  0
LINE
  5
144
330
1F
100
AcDbEntity
  8
0
  6
Continuous
 62
     8
370
    25
100
AcDbLine
 10
5054.2985236829
 20
7434.070015678
 30
0.0
 11
5051.2985236829
 21
7434.070015678
 31
0.0
  0
LINE
  5
145
330
1F
100
AcDbEntity
  8
0
  6
Continuous
 62
     8
370
    25
100
AcDbLine
 10
5086.2485236829
 20
7434.070015678
 30
0.0
 11
5083.2485236829
 21
7434.070015678
 31
0.0
  0
LINE
  5
146
330
1F
100
AcDbEntity
  8
0
  6
Continuous
 62
     8
370
    25
100
AcDbLine
 10
5043.6485236829
 20
7434.070015678
 30
0.0
 11
5040.6485236829
 21
7434.070015678
 31
0.0
  0
LINE
  5
147
330
1F
100
AcDbEntity
  8
0
  6
Continuous
 62
     8
370
    25
100
AcDbLine
 10
5096.8985236829
 20
7434.070015678
 30
0.0
 11
5093.8985236829
 21
7434.070015678
 31
0.0
  0
LINE
  5
148
330
1F
100
AcDbEntity
  8
0
  6
Continuous
 62
     8
370
    25
100
AcDbLine
 10
5032.9985236829
 20
7434.070015678
 30
0.0
 11
5029.9985236829
 21
7434.070015678
 31
0.0
  0
LINE
  5
149
330
1F
100
AcDbEntity
  8
0
  6
Continuous
 62
     8
370
    25
100
AcDbLine
 10
5022.3485236829
 20
7434.070015678
 30
0.0
 11
5019.3485236829
 21
7434.070015678
 31
0.0
  0
LINE
  5
14A
330
1F
100
AcDbEntity
  8
0
  6
Continuous
 62
     8
370
    25
100
AcDbLine
 10
5107.5485236829
 20
7434.070015678
 30
0.0
 11
5104.5485236829
 21
7434.070015678
 31
0.0
  0
LINE
  5
14B
330
1F
100
AcDbEntity
  8
0
  6
Continuous
 62
     8
370
    25
100
AcDbLine
 10
5011.6985236829
 20
7434.070015678
 30
0.0
 11
5008.6985236829
 21
7434.070015678
 31
0.0
  0
LINE
  5
14C
330
1F
100
AcDbEntity
  8
0
  6
Continuous
 62
     8
370
    25
100
AcDbLine
 10
5118.1985236829
 20
7437.570015678
 30
0.0
 11
5115.1985236829
 21
7437.570015678
 31
0.0
  0
LINE
  5
14D
330
1F
100
AcDbEntity
  8
0
  6
Continuous
 62
     8
370
    25
100
AcDbLine
 10
4979.7485236829
 20
7434.070015678
 30
0.0
 11
4976.7485236829
 21
7434.070015678
 31
0.0
  0
LINE
  5
14E
330
1F
100
AcDbEntity
  8
0
  6
Continuous
 62
     8
370
    25
100
AcDbLine
 10
4969.0985236829
 20
7434.070015678
 30
0.0
 11
4966.0985236829
 21
7434.070015678
 31
0.0
  0
LINE
  5
14F
330
1F
100
AcDbEntity
  8
0
  6
Continuous
 62
     8
370
    25
100
AcDbLine
 10
4958.4485236829
 20
7434.070015678
 30
0.0
 11
4955.4485236829
 21
7434.070015678
 31
0.0
  0
LINE
  5
150
330
1F
100
AcDbEntity
  8
0
  6
Continuous
 62
     8
370
    25
100
AcDbLine
 10
4947.7985236829
 20
7434.070015678
 30
0.0
 11
4944.7985236829
 21
7434.070015678
 31
0.0
  0
LINE
  5
151
330
1F
100
AcDbEntity
  8
0
  6
Continuous
 62
     8
370
    25
100
AcDbLine
 10
5128.8485236829
 20
7441.070015678
 30
0.0
 11
5125.8485236829
 21
7441.070015678
 31
0.0
  0
LINE
  5
152
330
1F
100
AcDbEntity
  8
0
  6
Continuous
 62
     8
370
    25
100
AcDbLine
 10
4937.1485236829
 20
7440.570015678
 30
0.0
 11
4934.1485236829
 21
7440.570015678
 31
0.0
  0
LINE
  5
153
330
1F
100
AcDbEntity
  8
0
  6
Continuous
 62
     7
370
    25
100
AcDbLine
 10
4577.390289866
 20
7448.070015678
 30
0.0
 11
4585.3374554972
 21
7448.070015678
 31
0.0
  0
LINE
  5
154
330
1F
100
AcDbEntity
  8
0
  6
Continuous
 62
     7
370
    25
100
AcDbLine
 10
4566.4431242348
 20
7448.070015678
 30
0.0
 11
4574.5095502737
 21
7448.070015678
 31
0.0
  0
LINE
  5
155
330
1F
100
AcDbEntity
  8
0
  6
Continuous
 62
     7
370
    25
100
AcDbLine
 10
4773.0520253186
 20
7448.070015678
 30
0.0
 11
4780.6798085813
 21
7448.070015678
 31
0.0
  0
LINE
  5
156
330
1F
100
AcDbEntity
  8
0
  6
Continuous
 62
     7
370
    25
100
AcDbLine
 10
4761.7854773188
 20
7448.070015678
 30
0.0
 11
4769.7326429501
 21
7448.070015678
 31
0.0
  0
LINE
  5
157
330
1F
100
AcDbEntity
  8
0
  6
Continuous
 62
     7
370
    25
100
AcDbLine
 10
4693.7489938701
 20
7448.070015678
 30
0.0
 11
4701.8154199091
 21
7448.070015678
 31
0.0
  0
LINE
  5
158
330
1F
100
AcDbEntity
  8
0
  6
Continuous
 62
     7
370
    25
100
AcDbLine
 10
4682.9210886466
 20
7448.070015678
 30
0.0
 11
4690.8682542779
 21
7448.070015678
 31
0.0
  0
LINE
  5
159
330
1F
100
AcDbEntity
  8
0
  6
Continuous
 62
     7
370
    25
100
AcDbLine
 10
4785.7797115578
 20
7457.070015678
 30
0.0
 11
4527.5441975416
 21
7457.070015678
 31
0.0
  0
LINE
  5
15A
330
1F
100
AcDbEntity
  8
0
  6
Continuous
 62
     7
370
    25
100
AcDbLine
 10
4773.0520253186
 20
7449.070015678
 30
0.0
 11
4785.7797115578
 21
7449.070015678
 31
0.0
  0
LINE
  5
15B
330
1F
100
AcDbEntity
  8
0
  6
Continuous
 62
     7
370
    25
100
AcDbLine
 10
4753.8140509358
 20
7449.070015678
 30
0.0
 11
4770.292565308
 21
7449.070015678
 31
0.0
  0
LINE
  5
15C
330
1F
100
AcDbEntity
  8
0
  6
Continuous
 62
     7
370
    25
100
AcDbLine
 10
4727.8604232395
 20
7449.070015678
 30
0.0
 11
4750.972853696
 21
7449.070015678
 31
0.0
  0
LINE
  5
15D
330
1F
100
AcDbEntity
  8
0
  6
Continuous
 62
     7
370
    25
100
AcDbLine
 10
4677.3262294693
 20
7449.070015678
 30
0.0
 11
4725.0627729259
 21
7449.070015678
 31
0.0
  0
LINE
  5
15E
330
1F
100
AcDbEntity
  8
0
  6
Continuous
 62
     7
370
    25
100
AcDbLine
 10
4638.9507819456
 20
7449.070015678
 30
0.0
 11
4674.3552410036
 21
7449.070015678
 31
0.0
  0
LINE
  5
15F
330
1F
100
AcDbEntity
  8
0
  6
Continuous
 62
     7
370
    25
100
AcDbLine
 10
4588.2710693953
 20
7449.070015678
 30
0.0
 11
4636.0081135297
 21
7449.070015678
 31
0.0
  0
LINE
  5
160
330
1F
100
AcDbEntity
  8
0
  6
Continuous
 62
     7
370
    25
100
AcDbLine
 10
4562.3405647311
 20
7449.070015678
 30
0.0
 11
4585.4540133765
 21
7449.070015678
 31
0.0
  0
LINE
  5
161
330
1F
100
AcDbEntity
  8
0
  6
Continuous
 62
     7
370
    25
100
AcDbLine
 10
4543.0334630886
 20
7449.070015678
 30
0.0
 11
4559.5098581636
 21
7449.070015678
 31
0.0
  0
LINE
  5
162
330
1F
100
AcDbEntity
  8
0
  6
Continuous
 62
     7
370
    25
100
AcDbLine
 10
4527.5441975416
 20
7449.070015678
 30
0.0
 11
4540.2718837808
 21
7449.070015678
 31
0.0
  0
LINE
  5
163
330
1F
100
AcDbEntity
  8
0
  6
Continuous
 62
     7
370
    25
100
AcDbLine
 10
4677.3447308498
 20
7441.070015678
 30
0.0
 11
4677.3447308498
 21
7449.0800448436
 31
0.0
  0
LINE
  5
164
330
1F
100
AcDbEntity
  8
0
  6
Continuous
 62
     7
370
    25
100
AcDbLine
 10
4674.3447308498
 20
7449.0737662806
 30
0.0
 11
4674.3447308498
 21
7441.070015678
 31
0.0
  0
ARC
  5
165
330
1F
100
AcDbEntity
  8
0
  6
Continuous
 62
     7
370
    25
100
AcDbCircle
 10
4670.8447308498
 20
7441.070015678
 30
0.0
 40
3.500000000000909
100
AcDbArc
 50
270.0
 51
0.0
  0
ARC
  5
166
330
1F
100
AcDbEntity
  8
0
  6
Continuous
 62
     7
370
    25
100
AcDbCircle
 10
4670.8447308498
 20
7441.070015678
 30
0.0
 40
6.500000000000909
100
AcDbArc
 50
270.0
 51
0.0
  0
LINE
  5
167
330
1F
100
AcDbEntity
  8
0
  6
Continuous
 62
     7
370
    25
100
AcDbLine
 10
4642.4791782496
 20
7434.570015678
 30
0.0
 11
4670.8447308498
 21
7434.570015678
 31
0.0
  0
LINE
  5
168
330
1F
100
AcDbEntity
  8
0
  6
Continuous
 62
     7
370
    25
100
AcDbLine
 10
4670.8447308498
 20
7437.570015678
 30
0.0
 11
4642.4791782496
 21
7437.570015678
 31
0.0
  0
LINE
  5
169
330
1F
100
AcDbEntity
  8
0
  6
Continuous
 62
     7
370
    25
100
AcDbLine
 10
4635.9791782496
 20
7449.0729328546
 30
0.0
 11
4635.9791782496
 21
7441.070015678
 31
0.0
  0
LINE
  5
16A
330
1F
100
AcDbEntity
  8
0
  6
Continuous
 62
     7
370
    25
100
AcDbLine
 10
4638.9791782496
 20
7441.070015678
 30
0.0
 11
4638.9791782496
 21
7449.0791774076
 31
0.0
  0
ARC
  5
16B
330
1F
100
AcDbEntity
  8
0
  6
Continuous
 62
     7
370
    25
100
AcDbCircle
 10
4642.4791782496
 20
7441.070015678
 30
0.0
 40
3.500000000000909
100
AcDbArc
 50
180.0
 51
270.0
  0
ARC
  5
16C
330
1F
100
AcDbEntity
  8
0
  6
Continuous
 62
     7
370
    25
100
AcDbCircle
 10
4642.4791782496
 20
7441.070015678
 30
0.0
 40
6.500000000000909
100
AcDbArc
 50
180.0
 51
270.0
  0
LINE
  5
16D
330
1F
100
AcDbEntity
  8
0
  6
Continuous
 62
     7
370
    25
100
AcDbLine
 10
4727.9621961311
 20
7437.570015678
 30
0.0
 11
4727.9621961311
 21
7449.1063481297
 31
0.0
  0
LINE
  5
16E
330
1F
100
AcDbEntity
  8
0
  6
Continuous
 62
     7
370
    25
100
AcDbLine
 10
4724.9621961311
 20
7449.070015678
 30
0.0
 11
4724.9621961311
 21
7437.570015678
 31
0.0
  0
ARC
  5
16F
330
1F
100
AcDbEntity
  8
0
  6
Continuous
 62
     7
370
    25
100
AcDbCircle
 10
4721.4621961311
 20
7437.570015678
 30
0.0
 40
3.5
100
AcDbArc
 50
270.0
 51
0.0
  0
ARC
  5
170
330
1F
100
AcDbEntity
  8
0
  6
Continuous
 62
     7
370
    25
100
AcDbCircle
 10
4721.4621961311
 20
7437.570015678
 30
0.0
 40
6.5
100
AcDbArc
 50
270.0
 51
0.0
  0
LINE
  5
171
330
1F
100
AcDbEntity
  8
0
  6
Continuous
 62
     7
370
    25
100
AcDbLine
 10
4591.8617129683
 20
7431.070015678
 30
0.0
 11
4721.4621961311
 21
7431.070015678
 31
0.0
  0
LINE
  5
172
330
1F
100
AcDbEntity
  8
0
  6
Continuous
 62
     7
370
    25
100
AcDbLine
 10
4721.4621961311
 20
7434.070015678
 30
0.0
 11
4591.8617129683
 21
7434.070015678
 31
0.0
  0
LINE
  5
173
330
1F
100
AcDbEntity
  8
0
  6
Continuous
 62
     7
370
    25
100
AcDbLine
 10
4585.3617129683
 20
7449.1020950162
 30
0.0
 11
4585.3617129683
 21
7437.570015678
 31
0.0
  0
LINE
  5
174
330
1F
100
AcDbEntity
  8
0
  6
Continuous
 62
     7
370
    25
100
AcDbLine
 10
4588.3617129683
 20
7437.570015678
 30
0.0
 11
4588.3617129683
 21
7449.070015678
 31
0.0
  0
ARC
  5
175
330
1F
100
AcDbEntity
  8
0
  6
Continuous
 62
     7
370
    25
100
AcDbCircle
 10
4591.8617129683
 20
7437.570015678
 30
0.0
 40
3.5
100
AcDbArc
 50
180.0
 51
270.0
  0
ARC
  5
176
330
1F
100
AcDbEntity
  8
0
  6
Continuous
 62
     7
370
    25
100
AcDbCircle
 10
4591.8617129683
 20
7437.570015678
 30
0.0
 40
6.5
100
AcDbArc
 50
180.0
 51
270.0
  0
LINE
  5
177
330
1F
100
AcDbEntity
  8
0
  6
Continuous
 62
     7
370
    25
100
AcDbLine
 10
4753.8140509358
 20
7434.070015678
 30
0.0
 11
4753.8140509358
 21
7449.1306749638
 31
0.0
  0
LINE
  5
178
330
1F
100
AcDbEntity
  8
0
  6
Continuous
 62
     7
370
    25
100
AcDbLine
 10
4750.8140509358
 20
7449.070015678
 30
0.0
 11
4750.8140509358
 21
7434.070015678
 31
0.0
  0
ARC
  5
179
330
1F
100
AcDbEntity
  8
0
  6
Continuous
 62
     7
370
    25
100
AcDbCircle
 10
4747.3140509358
 20
7434.070015678
 30
0.0
 40
3.5
100
AcDbArc
 50
270.0
 51
0.0
  0
ARC
  5
17A
330
1F
100
AcDbEntity
  8
0
  6
Continuous
 62
     7
370
    25
100
AcDbCircle
 10
4747.3140509358
 20
7434.070015678
 30
0.0
 40
6.5
100
AcDbArc
 50
270.0
 51
0.0
  0
LINE
  5
17B
330
1F
100
AcDbEntity
  8
0
  6
Continuous
 62
     7
370
    25
100
AcDbLine
 10
4566.0098581636
 20
7427.570015678
 30
0.0
 11
4747.3140509358
 21
7427.570015678
 31
0.0
  0
LINE
  5
17C
330
1F
100
AcDbEntity
  8
0
  6
Continuous
 62
     7
370
    25
100
AcDbLine
 10
4747.3140509358
 20
7430.570015678
 30
0.0
 11
4566.0098581636
 21
7430.570015678
 31
0.0
  0
LINE
  5
17D
330
1F
100
AcDbEntity
  8
0
  6
Continuous
 62
     7
370
    25
100
AcDbLine
 10
4559.5098581636
 20
7449.1277269532
 30
0.0
 11
4559.5098581636
 21
7434.070015678
 31
0.0
  0
LINE
  5
17E
330
1F
100
AcDbEntity
  8
0
  6
Continuous
 62
     7
370
    25
100
AcDbLine
 10
4562.5098581636
 20
7434.070015678
 30
0.0
 11
4562.5098581636
 21
7449.070015678
 31
0.0
  0
ARC
  5
17F
330
1F
100
AcDbEntity
  8
0
  6
Continuous
 62
     7
370
    25
100
AcDbCircle
 10
4566.0098581636
 20
7434.070015678
 30
0.0
 40
3.5
100
AcDbArc
 50
180.0
 51
270.0
  0
ARC
  5
180
330
1F
100
AcDbEntity
  8
0
  6
Continuous
 62
     7
370
    25
100
AcDbCircle
 10
4566.0098581636
 20
7434.070015678
 30
0.0
 40
6.5
100
AcDbArc
 50
180.0
 51
270.0
  0
LINE
  5
181
330
1F
100
AcDbEntity
  8
0
  6
Continuous
 62
     7
370
    25
100
AcDbLine
 10
4773.0520253186
 20
7434.070015678
 30
0.0
 11
4773.0520253186
 21
7449.1534459987
 31
0.0
  0
LINE
  5
182
330
1F
100
AcDbEntity
  8
0
  6
Continuous
 62
     7
370
    25
100
AcDbLine
 10
4770.0520253186
 20
7449.070015678
 30
0.0
 11
4770.0520253186
 21
7434.070015678
 31
0.0
  0
ARC
  5
183
330
1F
100
AcDbEntity
  8
0
  6
Continuous
 62
     7
370
    25
100
AcDbCircle
 10
4766.5520253186
 20
7434.070015678
 30
0.0
 40
3.5
100
AcDbArc
 50
270.0
 51
0.0
  0
ARC
  5
184
330
1F
100
AcDbEntity
  8
0
  6
Continuous
 62
     7
370
    25
100
AcDbCircle
 10
4766.5520253186
 20
7434.070015678
 30
0.0
 40
6.5
100
AcDbArc
 50
270.0
 51
0.0
  0
LINE
  5
185
330
1F
100
AcDbEntity
  8
0
  6
Continuous
 62
     7
370
    25
100
AcDbLine
 10
4546.7718837808
 20
7427.570015678
 30
0.0
 11
4566.0098581636
 21
7427.570015678
 31
0.0
  0
LINE
  5
186
330
1F
100
AcDbEntity
  8
0
  6
Continuous
 62
     7
370
    25
100
AcDbLine
 10
4747.3140509358
 20
7427.570015678
 30
0.0
 11
4766.5520253186
 21
7427.570015678
 31
0.0
  0
LINE
  5
187
330
1F
100
AcDbEntity
  8
0
  6
Continuous
 62
     7
370
    25
100
AcDbLine
 10
4766.5520253186
 20
7430.570015678
 30
0.0
 11
4752.7912765108
 21
7430.570015678
 31
0.0
  0
LINE
  5
188
330
1F
100
AcDbEntity
  8
0
  6
Continuous
 62
     7
370
    25
100
AcDbLine
 10
4560.5326325886
 20
7430.570015678
 30
0.0
 11
4546.7718837808
 21
7430.570015678
 31
0.0
  0
LINE
  5
189
330
1F
100
AcDbEntity
  8
0
  6
Continuous
 62
     7
370
    25
100
AcDbLine
 10
4540.2718837808
 20
7449.1516220232
 30
0.0
 11
4540.2718837808
 21
7434.070015678
 31
0.0
  0
LINE
  5
18A
330
1F
100
AcDbEntity
  8
0
  6
Continuous
 62
     7
370
    25
100
AcDbLine
 10
4543.2718837808
 20
7434.070015678
 30
0.0
 11
4543.2718837808
 21
7449.070015678
 31
0.0
  0
ARC
  5
18B
330
1F
100
AcDbEntity
  8
0
  6
Continuous
 62
     7
370
    25
100
AcDbCircle
 10
4546.7718837808
 20
7434.070015678
 30
0.0
 40
3.5
100
AcDbArc
 50
180.0
 51
270.0
  0
ARC
  5
18C
330
1F
100
AcDbEntity
  8
0
  6
Continuous
 62
     7
370
    25
100
AcDbCircle
 10
4546.7718837808
 20
7434.070015678
 30
0.0
 40
6.5
100
AcDbArc
 50
180.0
 51
270.0
  0
ARC
  5
18D
330
1F
100
AcDbEntity
  8
0
  6
Continuous
 62
     7
370
    25
100
AcDbCircle
 10
4795.9475858226
 20
7453.070015678
 30
0.0
 40
4.0
100
AcDbArc
 50
270.0
 51
90.0
  0
LINE
  5
18E
330
1F
100
AcDbEntity
  8
0
  6
Continuous
 62
     7
370
    25
100
AcDbLine
 10
4795.9475858226
 20
7457.070015678
 30
0.0
 11
4785.7797115578
 21
7457.070015678
 31
0.0
  0
LINE
  5
18F
330
1F
100
AcDbEntity
  8
0
  6
Continuous
 62
     7
370
    25
100
AcDbLine
 10
4788.5571167606
 20
7449.070015678
 30
0.0
 11
4793.9206907091
 21
7449.070015678
 31
0.0
  0
LINE
  5
190
330
1F
100
AcDbEntity
  8
0
  6
Continuous
 62
     7
370
    25
100
AcDbLine
 10
4785.7797115578
 20
7449.070015678
 30
0.0
 11
4785.8868554705
 21
7449.070015678
 31
0.0
  0
ARC
  5
191
330
1F
100
AcDbEntity
  8
0
  6
Continuous
 62
     7
370
    25
100
AcDbCircle
 10
4517.3763232768
 20
7453.070015678
 30
0.0
 40
4.0
100
AcDbArc
 50
90.0
 51
270.0
  0
LINE
  5
192
330
1F
100
AcDbEntity
  8
0
  6
Continuous
 62
     7
370
    25
100
AcDbLine
 10
4527.5441975416
 20
7457.070015678
 30
0.0
 11
4517.3763232768
 21
7457.070015678
 31
0.0
  0
LINE
  5
193
330
1F
100
AcDbEntity
  8
0
  6
Continuous
 62
     7
370
    25
100
AcDbLine
 10
4527.431211248
 20
7449.070015678
 30
0.0
 11
4527.5441975416
 21
7449.070015678
 31
0.0
  0
LINE
  5
194
330
1F
100
AcDbEntity
  8
0
  6
Continuous
 62
     7
370
    25
100
AcDbLine
 10
4519.4023759961
 20
7449.070015678
 30
0.0
 11
4524.7667923388
 21
7449.070015678
 31
0.0
  0
LINE
  5
195
330
1F
100
AcDbEntity
  8
0
  6
Continuous
 62
     7
370
    25
100
AcDbLine
 10
4788.5571167606
 20
7434.070015678
 30
0.0
 11
4788.5571167606
 21
7449.195238995
 31
0.0
  0
LINE
  5
196
330
1F
100
AcDbEntity
  8
0
  6
Continuous
 62
     7
370
    25
100
AcDbLine
 10
4785.5571167606
 20
7449.070015678
 30
0.0
 11
4785.5571167606
 21
7434.070015678
 31
0.0
  0
ARC
  5
197
330
1F
100
AcDbEntity
  8
0
  6
Continuous
 62
     7
370
    25
100
AcDbCircle
 10
4782.0571167606
 20
7434.070015678
 30
0.0
 40
3.5
100
AcDbArc
 50
270.0
 51
0.0
  0
ARC
  5
198
330
1F
100
AcDbEntity
  8
0
  6
Continuous
 62
     7
370
    25
100
AcDbCircle
 10
4782.0571167606
 20
7434.070015678
 30
0.0
 40
6.5
100
AcDbArc
 50
270.0
 51
0.0
  0
LINE
  5
199
330
1F
100
AcDbEntity
  8
0
  6
Continuous
 62
     7
370
    25
100
AcDbLine
 10
4531.2667923388
 20
7427.570015678
 30
0.0
 11
4546.7718837808
 21
7427.570015678
 31
0.0
  0
LINE
  5
19A
330
1F
100
AcDbEntity
  8
0
  6
Continuous
 62
     7
370
    25
100
AcDbLine
 10
4766.5520253186
 20
7427.570015678
 30
0.0
 11
4782.0571167606
 21
7427.570015678
 31
0.0
  0
LINE
  5
19B
330
1F
100
AcDbEntity
  8
0
  6
Continuous
 62
     7
370
    25
100
AcDbLine
 10
4782.0571167606
 20
7430.570015678
 30
0.0
 11
4772.0292508937
 21
7430.570015678
 31
0.0
  0
LINE
  5
19C
330
1F
100
AcDbEntity
  8
0
  6
Continuous
 62
     7
370
    25
100
AcDbLine
 10
4541.2946582057
 20
7430.570015678
 30
0.0
 11
4531.2667923388
 21
7430.570015678
 31
0.0
  0
LINE
  5
19D
330
1F
100
AcDbEntity
  8
0
  6
Continuous
 62
     7
370
    25
100
AcDbLine
 10
4524.7667923388
 20
7449.195049569
 30
0.0
 11
4524.7667923388
 21
7434.070015678
 31
0.0
  0
LINE
  5
19E
330
1F
100
AcDbEntity
  8
0
  6
Continuous
 62
     7
370
    25
100
AcDbLine
 10
4527.7667923388
 20
7434.070015678
 30
0.0
 11
4527.7667923388
 21
7449.070015678
 31
0.0
  0
ARC
  5
19F
330
1F
100
AcDbEntity
  8
0
  6
Continuous
 62
     7
370
    25
100
AcDbCircle
 10
4531.2667923388
 20
7434.070015678
 30
0.0
 40
3.5
100
AcDbArc
 50
180.0
 51
270.0
  0
ARC
  5
1A0
330
1F
100
AcDbEntity
  8
0
  6
Continuous
 62
     7
370
    25
100
AcDbCircle
 10
4531.2667923388
 20
7434.070015678
 30
0.0
 40
6.5
100
AcDbArc
 50
180.0
 51
270.0
  0
LINE
  5
1A1
330
1F
100
AcDbEntity
  8
0
  6
Continuous
 62
     7
370
    25
100
AcDbLine
 10
4795.9699067224
 20
7434.070015678
 30
0.0
 11
4795.9699067224
 21
7449.3276760632
 31
0.0
  0
LINE
  5
1A2
330
1F
100
AcDbEntity
  8
0
  6
Continuous
 62
     7
370
    25
100
AcDbLine
 10
4792.9699067224
 20
7449.070015678
 30
0.0
 11
4792.9699067224
 21
7434.070015678
 31
0.0
  0
ARC
  5
1A3
330
1F
100
AcDbEntity
  8
0
  6
Continuous
 62
     7
370
    25
100
AcDbCircle
 10
4789.4699067224
 20
7434.070015678
 30
0.0
 40
3.500000000000909
100
AcDbArc
 50
270.0
 51
0.0
  0
ARC
  5
1A4
330
1F
100
AcDbEntity
  8
0
  6
Continuous
 62
     7
370
    25
100
AcDbCircle
 10
4789.4699067224
 20
7434.070015678
 30
0.0
 40
6.5
100
AcDbArc
 50
270.0
 51
0.0
  0
LINE
  5
1A5
330
1F
100
AcDbEntity
  8
0
  6
Continuous
 62
     7
370
    25
100
AcDbLine
 10
4523.854002377
 20
7427.570015678
 30
0.0
 11
4531.2667923388
 21
7427.570015678
 31
0.0
  0
LINE
  5
1A6
330
1F
100
AcDbEntity
  8
0
  6
Continuous
 62
     7
370
    25
100
AcDbLine
 10
4782.0571167606
 20
7427.570015678
 30
0.0
 11
4789.4699067224
 21
7427.570015678
 31
0.0
  0
LINE
  5
1A7
330
1F
100
AcDbEntity
  8
0
  6
Continuous
 62
     7
370
    25
100
AcDbLine
 10
4789.4699067224
 20
7430.570015678
 30
0.0
 11
4787.5343423357
 21
7430.570015678
 31
0.0
  0
LINE
  5
1A8
330
1F
100
AcDbEntity
  8
0
  6
Continuous
 62
     7
370
    25
100
AcDbLine
 10
4525.7895667637
 20
7430.570015678
 30
0.0
 11
4523.854002377
 21
7430.570015678
 31
0.0
  0
LINE
  5
1A9
330
1F
100
AcDbEntity
  8
0
  6
Continuous
 62
     7
370
    25
100
AcDbLine
 10
4517.354002377
 20
7449.3252297798
 30
0.0
 11
4517.354002377
 21
7434.070015678
 31
0.0
  0
LINE
  5
1AA
330
1F
100
AcDbEntity
  8
0
  6
Continuous
 62
     7
370
    25
100
AcDbLine
 10
4520.354002377
 20
7434.070015678
 30
0.0
 11
4520.354002377
 21
7449.070015678
 31
0.0
  0
ARC
  5
1AB
330
1F
100
AcDbEntity
  8
0
  6
Continuous
 62
     7
370
    25
100
AcDbCircle
 10
4523.854002377
 20
7434.070015678
 30
0.0
 40
3.5
100
AcDbArc
 50
180.0
 51
270.0
  0
ARC
  5
1AC
330
1F
100
AcDbEntity
  8
0
  6
Continuous
 62
     7
370
    25
100
AcDbCircle
 10
4523.854002377
 20
7434.070015678
 30
0.0
 40
6.5
100
AcDbArc
 50
180.0
 51
270.0
  0
LINE
  5
1AD
330
1F
100
AcDbEntity
  8
0
  6
Continuous
 62
     7
370
    25
100
AcDbLine
 10
4797.3521471314
 20
7434.070015678
 30
0.0
 11
4797.3521471314
 21
7449.3247242969
 31
0.0
  0
ARC
  5
1AE
330
1F
100
AcDbEntity
  8
0
  6
Continuous
 62
     7
370
    25
100
AcDbCircle
 10
4790.8521471314
 20
7434.070015678
 30
0.0
 40
6.5
100
AcDbArc
 50
270.0
 51
0.0
  0
LINE
  5
1AF
330
1F
100
AcDbEntity
  8
0
  6
Continuous
 62
     7
370
    25
100
AcDbLine
 10
4522.471761968
 20
7427.570015678
 30
0.0
 11
4523.854002377
 21
7427.570015678
 31
0.0
  0
LINE
  5
1B0
330
1F
100
AcDbEntity
  8
0
  6
Continuous
 62
     7
370
    25
100
AcDbLine
 10
4789.4699067224
 20
7427.570015678
 30
0.0
 11
4790.8521471314
 21
7427.570015678
 31
0.0
  0
LINE
  5
1B1
330
1F
100
AcDbEntity
  8
0
  6
Continuous
 62
     7
370
    25
100
AcDbLine
 10
4515.971761968
 20
7449.3247242969
 30
0.0
 11
4515.971761968
 21
7434.070015678
 31
0.0
  0
ARC
  5
1B2
330
1F
100
AcDbEntity
  8
0
  6
Continuous
 62
     7
370
    25
100
AcDbCircle
 10
4522.471761968
 20
7434.070015678
 30
0.0
 40
6.5
100
AcDbArc
 50
180.0
 51
270.0
  0
LINE
  5
1B3
330
1F
100
AcDbEntity
  8
0
  6
Continuous
 62
     7
370
    25
100
AcDbLine
 10
4790.9028827782
 20
7449.070015678
 30
0.0
 11
4790.9028827782
 21
7434.070015678
 31
0.0
  0
ARC
  5
1B4
330
1F
100
AcDbEntity
  8
0
  6
Continuous
 62
     7
370
    25
100
AcDbCircle
 10
4787.4028827782
 20
7434.070015678
 30
0.0
 40
3.5
100
AcDbArc
 50
272.1790080204
 51
0.0
  0
LINE
  5
1B5
330
1F
100
AcDbEntity
  8
0
  6
Continuous
 62
     7
370
    25
100
AcDbLine
 10
4522.4210263212
 20
7434.070015678
 30
0.0
 11
4522.4210263212
 21
7449.070015678
 31
0.0
  0
ARC
  5
1B6
330
1F
100
AcDbEntity
  8
0
  6
Continuous
 62
     7
370
    25
100
AcDbCircle
 10
4525.9210263212
 20
7434.070015678
 30
0.0
 40
3.499999999999578
100
AcDbArc
 50
180.0
 51
267.8209919796
  0
LINE
  5
1B7
330
1F
100
AcDbEntity
  8
0
  6
Continuous
 62
     7
370
    25
100
AcDbLine
 10
4783.9989841889
 20
7434.070015678
 30
0.0
 11
4783.9989841889
 21
7449.070015678
 31
0.0
  0
LINE
  5
1B8
330
1F
100
AcDbEntity
  8
0
  6
Continuous
 62
     7
370
    25
100
AcDbLine
 10
4780.9989841889
 20
7449.070015678
 30
0.0
 11
4780.9989841889
 21
7434.070015678
 31
0.0
  0
ARC
  5
1B9
330
1F
100
AcDbEntity
  8
0
  6
Continuous
 62
     7
370
    25
100
AcDbCircle
 10
4777.4989841889
 20
7434.070015678
 30
0.0
 40
3.500000000000909
100
AcDbArc
 50
270.0
 51
0.0
  0
ARC
  5
1BA
330
1F
100
AcDbEntity
  8
0
  6
Continuous
 62
     7
370
    25
100
AcDbCircle
 10
4777.4989841889
 20
7434.070015678
 30
0.0
 40
6.500000000000525
100
AcDbArc
 50
328.970920413
 51
0.0
  0
LINE
  5
1BB
330
1F
100
AcDbEntity
  8
0
  6
Continuous
 62
     7
370
    25
100
AcDbLine
 10
4529.3249249105
 20
7449.070015678
 30
0.0
 11
4529.3249249105
 21
7434.070015678
 31
0.0
  0
LINE
  5
1BC
330
1F
100
AcDbEntity
  8
0
  6
Continuous
 62
     7
370
    25
100
AcDbLine
 10
4532.3249249105
 20
7434.070015678
 30
0.0
 11
4532.3249249105
 21
7449.070015678
 31
0.0
  0
ARC
  5
1BD
330
1F
100
AcDbEntity
  8
0
  6
Continuous
 62
     7
370
    25
100
AcDbCircle
 10
4535.8249249105
 20
7434.070015678
 30
0.0
 40
3.5
100
AcDbArc
 50
180.0
 51
270.0
  0
ARC
  5
1BE
330
1F
100
AcDbEntity
  8
0
  6
Continuous
 62
     7
370
    25
100
AcDbCircle
 10
4535.8249249105
 20
7434.070015678
 30
0.0
 40
6.5
100
AcDbArc
 50
180.0
 51
211.029079587
  0
LINE
  5
1BF
330
1F
100
AcDbEntity
  8
0
  6
Continuous
 62
     7
370
    25
100
AcDbLine
 10
4769.7326429501
 20
7449.070015678
 30
0.0
 11
4769.7326429501
 21
7434.070015678
 31
0.0
  0
ARC
  5
1C0
330
1F
100
AcDbEntity
  8
0
  6
Continuous
 62
     7
370
    25
100
AcDbCircle
 10
4766.2326429501
 20
7434.070015678
 30
0.0
 40
3.5
100
AcDbArc
 50
270.0
 51
0.0
  0
LINE
  5
1C1
330
1F
100
AcDbEntity
  8
0
  6
Continuous
 62
     7
370
    25
100
AcDbLine
 10
4543.5912661493
 20
7434.070015678
 30
0.0
 11
4543.5912661493
 21
7449.070015678
 31
0.0
  0
ARC
  5
1C2
330
1F
100
AcDbEntity
  8
0
  6
Continuous
 62
     7
370
    25
100
AcDbCircle
 10
4547.0912661493
 20
7434.070015678
 30
0.0
 40
3.5
100
AcDbArc
 50
180.0
 51
270.0
  0
LINE
  5
1C3
330
1F
100
AcDbEntity
  8
0
  6
Continuous
 62
     7
370
    25
100
AcDbLine
 10
4761.4663017112
 20
7434.070015678
 30
0.0
 11
4761.4663017112
 21
7448.0916503452
 31
0.0
  0
LINE
  5
1C4
330
1F
100
AcDbEntity
  8
0
  6
Continuous
 62
     7
370
    25
100
AcDbLine
 10
4758.4663017112
 20
7449.070015678
 30
0.0
 11
4758.4663017112
 21
7434.070015678
 31
0.0
  0
ARC
  5
1C5
330
1F
100
AcDbEntity
  8
0
  6
Continuous
 62
     7
370
    25
100
AcDbCircle
 10
4754.9663017112
 20
7434.070015678
 30
0.0
 40
3.5
100
AcDbArc
 50
270.0
 51
0.0
  0
ARC
  5
1C6
330
1F
100
AcDbEntity
  8
0
  6
Continuous
 62
     7
370
    25
100
AcDbCircle
 10
4754.9663017112
 20
7434.070015678
 30
0.0
 40
6.5
100
AcDbArc
 50
327.4210296072
 51
0.0
  0
LINE
  5
1C7
330
1F
100
AcDbEntity
  8
0
  6
Continuous
 62
     7
370
    25
100
AcDbLine
 10
4551.8576073882
 20
7449.070015678
 30
0.0
 11
4551.8576073882
 21
7434.070015678
 31
0.0
  0
LINE
  5
1C8
330
1F
100
AcDbEntity
  8
0
  6
Continuous
 62
     7
370
    25
100
AcDbLine
 10
4554.8576073882
 20
7434.070015678
 30
0.0
 11
4554.8576073882
 21
7449.070015678
 31
0.0
  0
ARC
  5
1C9
330
1F
100
AcDbEntity
  8
0
  6
Continuous
 62
     7
370
    25
100
AcDbCircle
 10
4558.3576073882
 20
7434.070015678
 30
0.0
 40
3.5
100
AcDbArc
 50
180.0
 51
270.0
  0
ARC
  5
1CA
330
1F
100
AcDbEntity
  8
0
  6
Continuous
 62
     7
370
    25
100
AcDbCircle
 10
4558.3576073882
 20
7434.070015678
 30
0.0
 40
6.500000000000468
100
AcDbArc
 50
180.0
 51
212.5789703928
  0
LINE
  5
1CB
330
1F
100
AcDbEntity
  8
0
  6
Continuous
 62
     7
370
    25
100
AcDbLine
 10
4750.1999604723
 20
7434.070015678
 30
0.0
 11
4750.1999604723
 21
7449.070015678
 31
0.0
  0
LINE
  5
1CC
330
1F
100
AcDbEntity
  8
0
  6
Continuous
 62
     7
370
    25
100
AcDbLine
 10
4747.1999604723
 20
7449.070015678
 30
0.0
 11
4747.1999604723
 21
7434.070015678
 31
0.0
  0
ARC
  5
1CD
330
1F
100
AcDbEntity
  8
0
  6
Continuous
 62
     7
370
    25
100
AcDbCircle
 10
4743.6999604723
 20
7434.070015678
 30
0.0
 40
3.500000000000909
100
AcDbArc
 50
270.0
 51
0.0
  0
ARC
  5
1CE
330
1F
100
AcDbEntity
  8
0
  6
Continuous
 62
     7
370
    25
100
AcDbCircle
 10
4743.6999604723
 20
7434.070015678
 30
0.0
 40
6.50000000000064
100
AcDbArc
 50
336.4244367852
 51
0.0
  0
LINE
  5
1CF
330
1F
100
AcDbEntity
  8
0
  6
Continuous
 62
     7
370
    25
100
AcDbLine
 10
4563.1239486271
 20
7449.070015678
 30
0.0
 11
4563.1239486271
 21
7434.070015678
 31
0.0
  0
LINE
  5
1D0
330
1F
100
AcDbEntity
  8
0
  6
Continuous
 62
     7
370
    25
100
AcDbLine
 10
4566.1239486271
 20
7434.070015678
 30
0.0
 11
4566.1239486271
 21
7449.070015678
 31
0.0
  0
ARC
  5
1D1
330
1F
100
AcDbEntity
  8
0
  6
Continuous
 62
     7
370
    25
100
AcDbCircle
 10
4569.6239486271
 20
7434.070015678
 30
0.0
 40
3.5
100
AcDbArc
 50
180.0
 51
270.0
  0
ARC
  5
1D2
330
1F
100
AcDbEntity
  8
0
  6
Continuous
 62
     7
370
    25
100
AcDbCircle
 10
4569.6239486271
 20
7434.070015678
 30
0.0
 40
6.499999999999091
100
AcDbArc
 50
180.0
 51
203.5755632148
  0
LINE
  5
1D3
330
1F
100
AcDbEntity
  8
0
  6
Continuous
 62
     7
370
    25
100
AcDbLine
 10
4738.9336192334
 20
7434.070015678
 30
0.0
 11
4738.9336192334
 21
7449.070015678
 31
0.0
  0
LINE
  5
1D4
330
1F
100
AcDbEntity
  8
0
  6
Continuous
 62
     7
370
    25
100
AcDbLine
 10
4735.9336192334
 20
7449.070015678
 30
0.0
 11
4735.9336192334
 21
7434.070015678
 31
0.0
  0
ARC
  5
1D5
330
1F
100
AcDbEntity
  8
0
  6
Continuous
 62
     7
370
    25
100
AcDbCircle
 10
4732.4336192334
 20
7434.070015678
 30
0.0
 40
3.5
100
AcDbArc
 50
270.0
 51
0.0
  0
ARC
  5
1D6
330
1F
100
AcDbEntity
  8
0
  6
Continuous
 62
     7
370
    25
100
AcDbCircle
 10
4732.4336192334
 20
7434.070015678
 30
0.0
 40
6.499999999999702
100
AcDbArc
 50
327.4210296072
 51
0.0
  0
LINE
  5
1D7
330
1F
100
AcDbEntity
  8
0
  6
Continuous
 62
     7
370
    25
100
AcDbLine
 10
4574.390289866
 20
7448.070015678
 30
0.0
 11
4574.390289866
 21
7434.070015678
 31
0.0
  0
LINE
  5
1D8
330
1F
100
AcDbEntity
  8
0
  6
Continuous
 62
     7
370
    25
100
AcDbLine
 10
4577.390289866
 20
7434.070015678
 30
0.0
 11
4577.390289866
 21
7449.070015678
 31
0.0
  0
ARC
  5
1D9
330
1F
100
AcDbEntity
  8
0
  6
Continuous
 62
     7
370
    25
100
AcDbCircle
 10
4580.890289866
 20
7434.070015678
 30
0.0
 40
3.500000000000909
100
AcDbArc
 50
180.0
 51
270.0
  0
ARC
  5
1DA
330
1F
100
AcDbEntity
  8
0
  6
Continuous
 62
     7
370
    25
100
AcDbCircle
 10
4580.890289866
 20
7434.070015678
 30
0.0
 40
6.500000000000909
100
AcDbArc
 50
180.0
 51
212.5789703928
  0
LINE
  5
1DB
330
1F
100
AcDbEntity
  8
0
  6
Continuous
 62
     7
370
    25
100
AcDbLine
 10
4727.6672779945
 20
7434.070015678
 30
0.0
 11
4727.6672779945
 21
7435.6343093295
 31
0.0
  0
LINE
  5
1DC
330
1F
100
AcDbEntity
  8
0
  6
Continuous
 62
     7
370
    25
100
AcDbLine
 10
4724.6672779945
 20
7449.070015678
 30
0.0
 11
4724.6672779945
 21
7436.1637972567
 31
0.0
  0
ARC
  5
1DD
330
1F
100
AcDbEntity
  8
0
  6
Continuous
 62
     7
370
    25
100
AcDbCircle
 10
4721.1672779945
 20
7434.070015678
 30
0.0
 40
3.5
100
AcDbArc
 50
270.0
 51
309.2614665491
  0
ARC
  5
1DE
330
1F
100
AcDbEntity
  8
0
  6
Continuous
 62
     7
370
    25
100
AcDbCircle
 10
4721.1672779945
 20
7434.070015678
 30
0.0
 40
6.5
100
AcDbArc
 50
327.4210296072
 51
0.0
  0
LINE
  5
1DF
330
1F
100
AcDbEntity
  8
0
  6
Continuous
 62
     7
370
    25
100
AcDbLine
 10
4585.6566311049
 20
7435.6343093295
 30
0.0
 11
4585.6566311049
 21
7434.070015678
 31
0.0
  0
LINE
  5
1E0
330
1F
100
AcDbEntity
  8
0
  6
Continuous
 62
     7
370
    25
100
AcDbLine
 10
4588.6566311049
 20
7436.1637972567
 30
0.0
 11
4588.6566311049
 21
7449.070015678
 31
0.0
  0
ARC
  5
1E1
330
1F
100
AcDbEntity
  8
0
  6
Continuous
 62
     7
370
    25
100
AcDbCircle
 10
4592.1566311049
 20
7434.070015678
 30
0.0
 40
3.500000000000642
100
AcDbArc
 50
230.7385334492
 51
270.0
  0
ARC
  5
1E2
330
1F
100
AcDbEntity
  8
0
  6
Continuous
 62
     7
370
    25
100
AcDbCircle
 10
4592.1566311049
 20
7434.070015678
 30
0.0
 40
6.5
100
AcDbArc
 50
180.0
 51
212.5789703928
  0
LINE
  5
1E3
330
1F
100
AcDbEntity
  8
0
  6
Continuous
 62
     7
370
    25
100
AcDbLine
 10
4716.4009367556
 20
7434.070015678
 30
0.0
 11
4716.4009367556
 21
7449.070015678
 31
0.0
  0
LINE
  5
1E4
330
1F
100
AcDbEntity
  8
0
  6
Continuous
 62
     7
370
    25
100
AcDbLine
 10
4713.4009367556
 20
7449.070015678
 30
0.0
 11
4713.4009367556
 21
7434.070015678
 31
0.0
  0
ARC
  5
1E5
330
1F
100
AcDbEntity
  8
0
  6
Continuous
 62
     7
370
    25
100
AcDbCircle
 10
4709.9009367556
 20
7434.070015678
 30
0.0
 40
3.500000000000799
100
AcDbArc
 50
270.0
 51
301.0027191338
  0
LINE
  5
1E6
330
1F
100
AcDbEntity
  8
0
  6
Continuous
 62
     7
370
    25
100
AcDbLine
 10
4715.3781623307
 20
7430.570015678
 30
0.0
 11
4715.667218053
 21
7431.070015678
 31
0.0
  0
LINE
  5
1E7
330
1F
100
AcDbEntity
  8
0
  6
Continuous
 62
     7
370
    25
100
AcDbLine
 10
4596.9229723438
 20
7449.070015678
 30
0.0
 11
4596.9229723438
 21
7434.070015678
 31
0.0
  0
LINE
  5
1E8
330
1F
100
AcDbEntity
  8
0
  6
Continuous
 62
     7
370
    25
100
AcDbLine
 10
4599.9229723438
 20
7434.070015678
 30
0.0
 11
4599.9229723438
 21
7449.070015678
 31
0.0
  0
ARC
  5
1E9
330
1F
100
AcDbEntity
  8
0
  6
Continuous
 62
     7
370
    25
100
AcDbCircle
 10
4603.4229723438
 20
7434.070015678
 30
0.0
 40
3.500000000000799
100
AcDbArc
 50
238.9972808662
 51
270.0
  0
LINE
  5
1EA
330
1F
100
AcDbEntity
  8
0
  6
Continuous
 62
     7
370
    25
100
AcDbLine
 10
4597.6566910464
 20
7431.070015678
 30
0.0
 11
4597.9457467687
 21
7430.570015678
 31
0.0
  0
LINE
  5
1EB
330
1F
100
AcDbEntity
  8
0
  6
Continuous
 62
     7
370
    25
100
AcDbLine
 10
4705.1345955167
 20
7434.070015678
 30
0.0
 11
4705.1345955167
 21
7449.070015678
 31
0.0
  0
LINE
  5
1EC
330
1F
100
AcDbEntity
  8
0
  6
Continuous
 62
     7
370
    25
100
AcDbLine
 10
4702.1345955167
 20
7449.070015678
 30
0.0
 11
4702.1345955167
 21
7434.070015678
 31
0.0
  0
ARC
  5
1ED
330
1F
100
AcDbEntity
  8
0
  6
Continuous
 62
     7
370
    25
100
AcDbCircle
 10
4698.6345955167
 20
7434.070015678
 30
0.0
 40
3.500000000000799
100
AcDbArc
 50
270.0
 51
301.0027191338
  0
LINE
  5
1EE
330
1F
100
AcDbEntity
  8
0
  6
Continuous
 62
     7
370
    25
100
AcDbLine
 10
4704.1118210918
 20
7430.570015678
 30
0.0
 11
4704.4008768141
 21
7431.070015678
 31
0.0
  0
LINE
  5
1EF
330
1F
100
AcDbEntity
  8
0
  6
Continuous
 62
     7
370
    25
100
AcDbLine
 10
4608.1893135827
 20
7449.070015678
 30
0.0
 11
4608.1893135827
 21
7434.070015678
 31
0.0
  0
LINE
  5
1F0
330
1F
100
AcDbEntity
  8
0
  6
Continuous
 62
     7
370
    25
100
AcDbLine
 10
4611.1893135827
 20
7434.070015678
 30
0.0
 11
4611.1893135827
 21
7449.070015678
 31
0.0
  0
ARC
  5
1F1
330
1F
100
AcDbEntity
  8
0
  6
Continuous
 62
     7
370
    25
100
AcDbCircle
 10
4614.6893135827
 20
7434.070015678
 30
0.0
 40
3.500000000000799
100
AcDbArc
 50
238.9972808662
 51
270.0
  0
LINE
  5
1F2
330
1F
100
AcDbEntity
  8
0
  6
Continuous
 62
     7
370
    25
100
AcDbLine
 10
4608.9230322853
 20
7431.070015678
 30
0.0
 11
4609.2120880076
 21
7430.570015678
 31
0.0
  0
LINE
  5
1F3
330
1F
100
AcDbEntity
  8
0
  6
Continuous
 62
     7
370
    25
100
AcDbLine
 10
4693.8682542779
 20
7434.070015678
 30
0.0
 11
4693.8682542779
 21
7448.070015678
 31
0.0
  0
LINE
  5
1F4
330
1F
100
AcDbEntity
  8
0
  6
Continuous
 62
     7
370
    25
100
AcDbLine
 10
4690.8682542779
 20
7449.070015678
 30
0.0
 11
4690.8682542779
 21
7434.070015678
 31
0.0
  0
ARC
  5
1F5
330
1F
100
AcDbEntity
  8
0
  6
Continuous
 62
     7
370
    25
100
AcDbCircle
 10
4687.3682542779
 20
7434.070015678
 30
0.0
 40
3.500000000000331
100
AcDbArc
 50
270.0
 51
301.0027191338
  0
LINE
  5
1F6
330
1F
100
AcDbEntity
  8
0
  6
Continuous
 62
     7
370
    25
100
AcDbLine
 10
4692.8454798529
 20
7430.570015678
 30
0.0
 11
4693.1345355752
 21
7431.070015678
 31
0.0
  0
LINE
  5
1F7
330
1F
100
AcDbEntity
  8
0
  6
Continuous
 62
     7
370
    25
100
AcDbLine
 10
4619.4556548215
 20
7449.070015678
 30
0.0
 11
4619.4556548215
 21
7434.070015678
 31
0.0
  0
LINE
  5
1F8
330
1F
100
AcDbEntity
  8
0
  6
Continuous
 62
     7
370
    25
100
AcDbLine
 10
4622.4556548215
 20
7434.070015678
 30
0.0
 11
4622.4556548215
 21
7449.070015678
 31
0.0
  0
ARC
  5
1F9
330
1F
100
AcDbEntity
  8
0
  6
Continuous
 62
     7
370
    25
100
AcDbCircle
 10
4625.9556548215
 20
7434.070015678
 30
0.0
 40
3.500000000000799
100
AcDbArc
 50
238.9972808662
 51
270.0
  0
LINE
  5
1FA
330
1F
100
AcDbEntity
  8
0
  6
Continuous
 62
     7
370
    25
100
AcDbLine
 10
4620.1893735242
 20
7431.070015678
 30
0.0
 11
4620.4784292465
 21
7430.570015678
 31
0.0
  0
LINE
  5
1FB
330
1F
100
AcDbEntity
  8
0
  6
Continuous
 62
     7
370
    25
100
AcDbLine
 10
4679.601913039
 20
7449.070015678
 30
0.0
 11
4679.601913039
 21
7434.070015678
 31
0.0
  0
LINE
  5
1FC
330
1F
100
AcDbEntity
  8
0
  6
Continuous
 62
     7
370
    25
100
AcDbLine
 10
4682.601913039
 20
7434.070015678
 30
0.0
 11
4682.601913039
 21
7448.0916503452
 31
0.0
  0
ARC
  5
1FD
330
1F
100
AcDbEntity
  8
0
  6
Continuous
 62
     7
370
    25
100
AcDbCircle
 10
4676.101913039
 20
7434.070015678
 30
0.0
 40
3.500000000000799
100
AcDbArc
 50
270.0
 51
301.0027191338
  0
LINE
  5
1FE
330
1F
100
AcDbEntity
  8
0
  6
Continuous
 62
     7
370
    25
100
AcDbLine
 10
4681.579138614
 20
7430.570015678
 30
0.0
 11
4681.8681943363
 21
7431.070015678
 31
0.0
  0
LINE
  5
1FF
330
1F
100
AcDbEntity
  8
0
  6
Continuous
 62
     7
370
    25
100
AcDbLine
 10
4633.7219960604
 20
7434.070015678
 30
0.0
 11
4633.7219960604
 21
7449.070015678
 31
0.0
  0
LINE
  5
200
330
1F
100
AcDbEntity
  8
0
  6
Continuous
 62
     7
370
    25
100
AcDbLine
 10
4630.7219960604
 20
7449.070015678
 30
0.0
 11
4630.7219960604
 21
7434.070015678
 31
0.0
  0
ARC
  5
201
330
1F
100
AcDbEntity
  8
0
  6
Continuous
 62
     7
370
    25
100
AcDbCircle
 10
4637.2219960604
 20
7434.070015678
 30
0.0
 40
3.500000000000331
100
AcDbArc
 50
238.9972808662
 51
270.0
  0
LINE
  5
202
330
1F
100
AcDbEntity
  8
0
  6
Continuous
 62
     7
370
    25
100
AcDbLine
 10
4631.4557147631
 20
7431.070015678
 30
0.0
 11
4631.7447704854
 21
7430.570015678
 31
0.0
  0
LINE
  5
203
330
1F
100
AcDbEntity
  8
0
  6
Continuous
 62
     7
370
    25
100
AcDbLine
 10
4668.3355718001
 20
7449.070015678
 30
0.0
 11
4668.3355718001
 21
7440.570015678
 31
0.0
  0
LINE
  5
204
330
1F
100
AcDbEntity
  8
0
  6
Continuous
 62
     7
370
    25
100
AcDbLine
 10
4671.3355718001
 20
7440.570015678
 30
0.0
 11
4671.3355718001
 21
7449.070015678
 31
0.0
  0
ARC
  5
205
330
1F
100
AcDbEntity
  8
0
  6
Continuous
 62
     7
370
    25
100
AcDbCircle
 10
4664.8355718001
 20
7440.570015678
 30
0.0
 40
3.500000000000331
100
AcDbArc
 50
301.0027191338
 51
0.0
  0
ARC
  5
206
330
1F
100
AcDbEntity
  8
0
  6
Continuous
 62
     7
370
    25
100
AcDbCircle
 10
4664.8355718001
 20
7440.570015678
 30
0.0
 40
6.50000000000028
100
AcDbArc
 50
270.0
 51
292.619864948
  0
ARC
  5
207
330
1F
100
AcDbEntity
  8
0
  6
Continuous
 62
     7
370
    25
100
AcDbCircle
 10
4664.8355718001
 20
7440.570015678
 30
0.0
 40
6.5
100
AcDbArc
 50
332.5135737496
 51
0.0
  0
LINE
  5
208
330
1F
100
AcDbEntity
  8
0
  6
Continuous
 62
     7
370
    25
100
AcDbLine
 10
4644.9883372993
 20
7440.570015678
 30
0.0
 11
4644.9883372993
 21
7449.070015678
 31
0.0
  0
LINE
  5
209
330
1F
100
AcDbEntity
  8
0
  6
Continuous
 62
     7
370
    25
100
AcDbLine
 10
4641.9883372993
 20
7449.070015678
 30
0.0
 11
4641.9883372993
 21
7440.570015678
 31
0.0
  0
ARC
  5
20A
330
1F
100
AcDbEntity
  8
0
  6
Continuous
 62
     7
370
    25
100
AcDbCircle
 10
4648.4883372993
 20
7440.570015678
 30
0.0
 40
3.500000000000909
100
AcDbArc
 50
180.0
 51
238.9972808662
  0
ARC
  5
20B
330
1F
100
AcDbEntity
  8
0
  6
Continuous
 62
     7
370
    25
100
AcDbCircle
 10
4648.4883372993
 20
7440.570015678
 30
0.0
 40
6.500000000000909
100
AcDbArc
 50
180.0
 51
207.4864262504
  0
ARC
  5
20C
330
1F
100
AcDbEntity
  8
0
  6
Continuous
 62
     7
370
    25
100
AcDbCircle
 10
4648.4883372993
 20
7440.570015678
 30
0.0
 40
6.50000000000063
100
AcDbArc
 50
247.380135052
 51
270.0
  0
LINE
  5
20D
330
1F
100
AcDbEntity
  8
0
  6
Continuous
 62
     7
370
    25
100
AcDbLine
 10
4587.1046191711
 20
7457.357479983
 30
0.0
 11
4579.0381931321
 21
7457.357479983
 31
0.0
  0
LINE
  5
20E
330
1F
100
AcDbEntity
  8
0
  6
Continuous
 62
     7
370
    25
100
AcDbLine
 10
4587.1046191711
 20
7457.357479983
 30
0.0
 11
4587.3983043397
 21
7457.070015678
 31
0.0
  0
LINE
  5
20F
330
1F
100
AcDbEntity
  8
0
  6
Continuous
 62
     7
370
    25
100
AcDbLine
 10
4568.2102879087
 20
7457.357479983
 30
0.0
 11
4568.5039730773
 21
7457.070015678
 31
0.0
  0
ARC
  5
210
330
1F
100
AcDbEntity
  8
0
  6
Continuous
 62
     7
370
    25
100
AcDbCircle
 10
4566.3908508483
 20
7450.8264403589
 30
0.0
 40
2.747783327386279
100
AcDbArc
 50
264.42586304
 51
320.2666813026
  0
LINE
  5
211
330
1F
100
AcDbEntity
  8
0
  6
Continuous
 62
     7
370
    25
100
AcDbLine
 10
4576.2767139476
 20
7457.357479983
 30
0.0
 11
4568.2102879087
 21
7457.357479983
 31
0.0
  0
LINE
  5
212
330
1F
100
AcDbEntity
  8
0
  6
Continuous
 62
     7
370
    25
100
AcDbLine
 10
4576.2767139476
 20
7457.357479983
 30
0.0
 11
4576.5703991162
 21
7457.070015678
 31
0.0
  0
ARC
  5
213
330
1F
100
AcDbEntity
  8
0
  6
Continuous
 62
     7
370
    25
100
AcDbCircle
 10
4574.4136333378
 20
7450.8953428502
 30
0.0
 40
2.826954843698937
100
AcDbArc
 50
271.9443857076
 51
320.4769801979
  0
ARC
  5
214
330
1F
100
AcDbEntity
  8
0
  6
Continuous
 62
     7
370
    25
100
AcDbCircle
 10
4577.1622414743
 20
7450.9062209702
 30
0.0
 40
2.842353572992237
100
AcDbArc
 50
274.6019149712
 51
319.7581212102
  0
LINE
  5
215
330
1F
100
AcDbEntity
  8
0
  6
Continuous
 62
     7
370
    25
100
AcDbLine
 10
4579.3318783008
 20
7457.070015678
 30
0.0
 11
4579.0381931321
 21
7457.357479983
 31
0.0
  0
LINE
  5
216
330
1F
100
AcDbEntity
  8
0
  6
Continuous
 62
     7
370
    25
100
AcDbLine
 10
4568.0918036437
 20
7457.070015678
 30
0.0
 11
4568.2102879087
 21
7457.357479983
 31
0.0
  0
LINE
  5
217
330
1F
100
AcDbEntity
  8
0
  6
Continuous
 62
     7
370
    25
100
AcDbLine
 10
4561.6344769356
 20
7427.570015678
 30
0.0
 11
4561.6344769356
 21
7423.8790524816
 31
0.0
  0
LINE
  5
218
330
1F
100
AcDbEntity
  8
0
  6
Continuous
 62
     7
370
    25
100
AcDbLine
 10
4560.9475273214
 20
7423.8790524816
 30
0.0
 11
4561.6344769356
 21
7423.8790524816
 31
0.0
  0
LINE
  5
219
330
1F
100
AcDbEntity
  8
0
  6
Continuous
 62
     7
370
    25
100
AcDbLine
 10
4560.9475273214
 20
7423.8790524816
 30
0.0
 11
4560.9475273214
 21
7427.570015678
 31
0.0
  0
LINE
  5
21A
330
1F
100
AcDbEntity
  8
0
  6
Continuous
 62
     7
370
    25
100
AcDbLine
 10
4580.5288081981
 20
7448.070015678
 30
0.0
 11
4580.5288081981
 21
7430.5887327243
 31
0.0
  0
LINE
  5
21B
330
1F
100
AcDbEntity
  8
0
  6
Continuous
 62
     7
370
    25
100
AcDbLine
 10
4580.5288081981
 20
7427.570015678
 30
0.0
 11
4580.5288081981
 21
7423.8790524816
 31
0.0
  0
LINE
  5
21C
330
1F
100
AcDbEntity
  8
0
  6
Continuous
 62
     7
370
    25
100
AcDbLine
 10
4561.6344769356
 20
7423.8790524816
 30
0.0
 11
4580.5288081981
 21
7423.8790524816
 31
0.0
  0
LWPOLYLINE
  5
21D
330
1F
100
AcDbEntity
  8
0
  6
Continuous
 62
     7
370
    25
100
AcDbPolyline
 90
        9
 70
   128
 43
0.0
 10
4571.0816425668
 20
7443.857479983
 10
4571.6430530916
 20
7443.9798386923
 10
4572.1495088426
 20
7444.3349374971
 10
4572.5514344023
 20
7444.8880168523
 10
4572.8094864965
 20
7445.5849374971
 10
4572.8984051882
 20
7446.357479983
 10
4572.8094864965
 20
7447.1300224689
 10
4572.5514344023
 20
7447.8269431137
 10
4572.4052079886
 20
7448.070015678
  0
LWPOLYLINE
  5
21E
330
1F
100
AcDbEntity
  8
0
  6
Continuous
 62
     7
370
    25
100
AcDbPolyline
 90
        9
 70
   128
 43
0.0
 10
4569.7580771451
 20
7448.070015678
 10
4569.6118507314
 20
7447.8269431137
 10
4569.3537986372
 20
7447.1300224689
 10
4569.2648799454
 20
7446.357479983
 10
4569.3537986372
 20
7445.5849374971
 10
4569.6118507314
 20
7444.8880168523
 10
4570.0137762911
 20
7444.3349374971
 10
4570.5202320421
 20
7443.9798386923
 10
4571.0816425668
 20
7443.857479983
  0
LINE
  5
21F
330
1F
100
AcDbEntity
  8
0
  6
Continuous
 62
     7
370
    25
100
AcDbLine
 10
4579.0381931321
 20
7457.357479983
 30
0.0
 11
4578.9197088672
 21
7457.070015678
 31
0.0
  0
ARC
  5
220
330
1F
100
AcDbEntity
  8
0
  6
Continuous
 62
     7
370
    25
100
AcDbCircle
 10
4569.4765830373
 20
7446.3982346154
 30
0.0
 40
2.796419181484098
100
AcDbArc
 50
296.8170363547
 51
36.7145837641
  0
LINE
  5
221
330
1F
100
AcDbEntity
  8
0
  6
Continuous
 62
     7
370
    25
100
AcDbLine
 10
4778.9126449074
 20
7457.357479983
 30
0.0
 11
4770.8462188684
 21
7457.357479983
 31
0.0
  0
LINE
  5
222
330
1F
100
AcDbEntity
  8
0
  6
Continuous
 62
     7
370
    25
100
AcDbLine
 10
4778.9126449074
 20
7457.357479983
 30
0.0
 11
4778.6189597388
 21
7457.070015678
 31
0.0
  0
ARC
  5
223
330
1F
100
AcDbEntity
  8
0
  6
Continuous
 62
     7
370
    25
100
AcDbCircle
 10
4780.7320819678
 20
7450.8264403589
 30
0.0
 40
2.747783327388141
100
AcDbArc
 50
219.7333186974
 51
275.57413696
  0
LINE
  5
224
330
1F
100
AcDbEntity
  8
0
  6
Continuous
 62
     7
370
    25
100
AcDbLine
 10
4760.018313645
 20
7457.357479983
 30
0.0
 11
4759.7246284763
 21
7457.070015678
 31
0.0
  0
ARC
  5
225
330
1F
100
AcDbEntity
  8
0
  6
Continuous
 62
     7
370
    25
100
AcDbCircle
 10
4761.8711316471
 20
7450.8700852772
 30
0.0
 40
2.801379378831563
100
AcDbArc
 50
219.9833856828
 51
268.2478644126
  0
LINE
  5
226
330
1F
100
AcDbEntity
  8
0
  6
Continuous
 62
     7
370
    25
100
AcDbLine
 10
4768.0847396839
 20
7457.357479983
 30
0.0
 11
4760.018313645
 21
7457.357479983
 31
0.0
  0
LINE
  5
227
330
1F
100
AcDbEntity
  8
0
  6
Continuous
 62
     7
370
    25
100
AcDbLine
 10
4768.0847396839
 20
7457.357479983
 30
0.0
 11
4767.7910545153
 21
7457.070015678
 31
0.0
  0
ARC
  5
228
330
1F
100
AcDbEntity
  8
0
  6
Continuous
 62
     7
370
    25
100
AcDbCircle
 10
4769.9606913418
 20
7450.9062209702
 30
0.0
 40
2.842353572993626
100
AcDbArc
 50
220.2418787898
 51
265.3980850288
  0
LINE
  5
229
330
1F
100
AcDbEntity
  8
0
  6
Continuous
 62
     7
370
    25
100
AcDbLine
 10
4770.5525336998
 20
7457.070015678
 30
0.0
 11
4770.8462188684
 21
7457.357479983
 31
0.0
  0
LINE
  5
22A
330
1F
100
AcDbEntity
  8
0
  6
Continuous
 62
     7
370
    25
100
AcDbLine
 10
4785.4884558805
 20
7449.070015678
 30
0.0
 11
4785.4884558805
 21
7433.3801520358
 31
0.0
  0
LINE
  5
22B
330
1F
100
AcDbEntity
  8
0
  6
Continuous
 62
     7
370
    25
100
AcDbLine
 10
4785.4884558805
 20
7427.570015678
 30
0.0
 11
4785.4884558805
 21
7423.8790524816
 31
0.0
  0
LINE
  5
22C
330
1F
100
AcDbEntity
  8
0
  6
Continuous
 62
     7
370
    25
100
AcDbLine
 10
4779.0311291724
 20
7457.070015678
 30
0.0
 11
4778.9126449074
 21
7457.357479983
 31
0.0
  0
LINE
  5
22D
330
1F
100
AcDbEntity
  8
0
  6
Continuous
 62
     7
370
    25
100
AcDbLine
 10
4786.1754054946
 20
7423.8790524816
 30
0.0
 11
4786.1754054946
 21
7427.570015678
 31
0.0
  0
LINE
  5
22E
330
1F
100
AcDbEntity
  8
0
  6
Continuous
 62
     7
370
    25
100
AcDbLine
 10
4786.1754054946
 20
7423.8790524816
 30
0.0
 11
4785.4884558805
 21
7423.8790524816
 31
0.0
  0
LINE
  5
22F
330
1F
100
AcDbEntity
  8
0
  6
Continuous
 62
     7
370
    25
100
AcDbLine
 10
4766.594124618
 20
7423.8790524816
 30
0.0
 11
4785.4884558805
 21
7423.8790524816
 31
0.0
  0
LINE
  5
230
330
1F
100
AcDbEntity
  8
0
  6
Continuous
 62
     7
370
    25
100
AcDbLine
 10
4766.594124618
 20
7448.070015678
 30
0.0
 11
4766.594124618
 21
7430.5887327243
 31
0.0
  0
LINE
  5
231
330
1F
100
AcDbEntity
  8
0
  6
Continuous
 62
     7
370
    25
100
AcDbLine
 10
4766.594124618
 20
7427.570015678
 30
0.0
 11
4766.594124618
 21
7423.8790524816
 31
0.0
  0
LWPOLYLINE
  5
232
330
1F
100
AcDbEntity
  8
0
  6
Continuous
 62
     7
370
    25
100
AcDbPolyline
 90
        9
 70
   128
 43
0.0
 10
4776.0412902492
 20
7443.857479983
 10
4776.602700774
 20
7443.9798386923
 10
4777.109156525
 20
7444.3349374971
 10
4777.5110820847
 20
7444.8880168523
 10
4777.7691341789
 20
7445.5849374971
 10
4777.8580528706
 20
7446.357479983
 10
4777.7691341789
 20
7447.1300224689
 10
4777.5110820847
 20
7447.8269431137
 10
4777.364855671
 20
7448.070015678
  0
LWPOLYLINE
  5
233
330
1F
100
AcDbEntity
  8
0
  6
Continuous
 62
     7
370
    25
100
AcDbPolyline
 90
        9
 70
   128
 43
0.0
 10
4774.7177248275
 20
7448.070015678
 10
4774.5714984138
 20
7447.8269431137
 10
4774.3134463196
 20
7447.1300224689
 10
4774.2245276278
 20
7446.357479983
 10
4774.3134463196
 20
7445.5849374971
 10
4774.5714984138
 20
7444.8880168523
 10
4774.9734239735
 20
7444.3349374971
 10
4775.4798797245
 20
7443.9798386923
 10
4776.0412902492
 20
7443.857479983
  0
LINE
  5
234
330
1F
100
AcDbEntity
  8
0
  6
Continuous
 62
     7
370
    25
100
AcDbLine
 10
4768.2032239489
 20
7457.070015678
 30
0.0
 11
4768.0847396839
 21
7457.357479983
 31
0.0
  0
ARC
  5
235
330
1F
100
AcDbEntity
  8
0
  6
Continuous
 62
     7
370
    25
100
AcDbCircle
 10
4777.9224856035
 20
7446.4176189339
 30
0.0
 40
3.011608880104335
100
AcDbArc
 50
146.7237891452
 51
181.1442180094
  0
ARC
  5
236
330
1F
100
AcDbEntity
  8
0
  6
Continuous
 62
     7
370
    25
100
AcDbCircle
 10
4777.2981846135
 20
7446.120288781
 30
0.0
 40
2.398464455312962
100
AcDbArc
 50
174.324575372
 51
247.6145769827
  0
LINE
  5
237
330
1F
100
AcDbEntity
  8
0
  6
Continuous
 62
     7
370
    25
100
AcDbLine
 10
4700.0482562352
 20
7457.357479983
 30
0.0
 11
4691.9818301962
 21
7457.357479983
 31
0.0
  0
LINE
  5
238
330
1F
100
AcDbEntity
  8
0
  6
Continuous
 62
     7
370
    25
100
AcDbLine
 10
4700.0482562352
 20
7457.357479983
 30
0.0
 11
4699.7545710666
 21
7457.070015678
 31
0.0
  0
ARC
  5
239
330
1F
100
AcDbEntity
  8
0
  6
Continuous
 62
     7
370
    25
100
AcDbCircle
 10
4701.8676932956
 20
7450.8264403589
 30
0.0
 40
2.747783327391284
100
AcDbArc
 50
219.7333186974
 51
275.57413696
  0
LINE
  5
23A
330
1F
100
AcDbEntity
  8
0
  6
Continuous
 62
     7
370
    25
100
AcDbLine
 10
4681.1539249728
 20
7457.357479983
 30
0.0
 11
4680.8602398041
 21
7457.070015678
 31
0.0
  0
ARC
  5
23B
330
1F
100
AcDbEntity
  8
0
  6
Continuous
 62
     7
370
    25
100
AcDbCircle
 10
4683.0067429749
 20
7450.8700852772
 30
0.0
 40
2.801379378828596
100
AcDbArc
 50
219.9833856828
 51
268.2478644126
  0
LINE
  5
23C
330
1F
100
AcDbEntity
  8
0
  6
Continuous
 62
     7
370
    25
100
AcDbLine
 10
4689.2203510117
 20
7457.357479983
 30
0.0
 11
4681.1539249728
 21
7457.357479983
 31
0.0
  0
LINE
  5
23D
330
1F
100
AcDbEntity
  8
0
  6
Continuous
 62
     7
370
    25
100
AcDbLine
 10
4689.2203510117
 20
7457.357479983
 30
0.0
 11
4688.9266658431
 21
7457.070015678
 31
0.0
  0
ARC
  5
23E
330
1F
100
AcDbEntity
  8
0
  6
Continuous
 62
     7
370
    25
100
AcDbCircle
 10
4691.0963026696
 20
7450.9062209703
 30
0.0
 40
2.84235357300356
100
AcDbArc
 50
220.2418787899
 51
265.3980850287
  0
ARC
  5
23F
330
1F
100
AcDbEntity
  8
0
  6
Continuous
 62
     7
370
    25
100
AcDbCircle
 10
4693.8470219421
 20
7450.9041947857
 30
0.0
 40
2.835873889578888
100
AcDbArc
 50
218.8533125623
 51
268.0190536833
  0
LINE
  5
240
330
1F
100
AcDbEntity
  8
0
  6
Continuous
 62
     7
370
    25
100
AcDbLine
 10
4691.6881450276
 20
7457.070015678
 30
0.0
 11
4691.9818301962
 21
7457.357479983
 31
0.0
  0
LINE
  5
241
330
1F
100
AcDbEntity
  8
0
  6
Continuous
 62
     7
370
    25
100
AcDbLine
 10
4706.6240672083
 20
7449.070015678
 30
0.0
 11
4706.6240672083
 21
7434.070015678
 31
0.0
  0
LINE
  5
242
330
1F
100
AcDbEntity
  8
0
  6
Continuous
 62
     7
370
    25
100
AcDbLine
 10
4706.6240672083
 20
7431.070015678
 30
0.0
 11
4706.6240672083
 21
7430.570015678
 31
0.0
  0
LINE
  5
243
330
1F
100
AcDbEntity
  8
0
  6
Continuous
 62
     7
370
    25
100
AcDbLine
 10
4706.6240672083
 20
7427.570015678
 30
0.0
 11
4706.6240672083
 21
7423.8790524816
 31
0.0
  0
LINE
  5
244
330
1F
100
AcDbEntity
  8
0
  6
Continuous
 62
     7
370
    25
100
AcDbLine
 10
4700.1667405002
 20
7457.070015678
 30
0.0
 11
4700.0482562352
 21
7457.357479983
 31
0.0
  0
LINE
  5
245
330
1F
100
AcDbEntity
  8
0
  6
Continuous
 62
     7
370
    25
100
AcDbLine
 10
4707.3110168224
 20
7423.8790524816
 30
0.0
 11
4707.3110168224
 21
7427.570015678
 31
0.0
  0
LINE
  5
246
330
1F
100
AcDbEntity
  8
0
  6
Continuous
 62
     7
370
    25
100
AcDbLine
 10
4707.3110168224
 20
7430.570015678
 30
0.0
 11
4707.3110168224
 21
7431.070015678
 31
0.0
  0
LINE
  5
247
330
1F
100
AcDbEntity
  8
0
  6
Continuous
 62
     7
370
    25
100
AcDbLine
 10
4707.3110168224
 20
7434.070015678
 30
0.0
 11
4707.3110168224
 21
7449.070015678
 31
0.0
  0
LINE
  5
248
330
1F
100
AcDbEntity
  8
0
  6
Continuous
 62
     7
370
    25
100
AcDbLine
 10
4707.3110168224
 20
7423.8790524816
 30
0.0
 11
4706.6240672083
 21
7423.8790524816
 31
0.0
  0
LINE
  5
249
330
1F
100
AcDbEntity
  8
0
  6
Continuous
 62
     7
370
    25
100
AcDbLine
 10
4687.7297359458
 20
7423.8790524816
 30
0.0
 11
4706.6240672083
 21
7423.8790524816
 31
0.0
  0
LINE
  5
24A
330
1F
100
AcDbEntity
  8
0
  6
Continuous
 62
     7
370
    25
100
AcDbLine
 10
4687.7297359458
 20
7448.070015678
 30
0.0
 11
4687.7297359458
 21
7434.070015678
 31
0.0
  0
LINE
  5
24B
330
1F
100
AcDbEntity
  8
0
  6
Continuous
 62
     7
370
    25
100
AcDbLine
 10
4687.7297359458
 20
7431.070015678
 30
0.0
 11
4687.7297359458
 21
7430.5887327243
 31
0.0
  0
LINE
  5
24C
330
1F
100
AcDbEntity
  8
0
  6
Continuous
 62
     7
370
    25
100
AcDbLine
 10
4687.7297359458
 20
7427.570015678
 30
0.0
 11
4687.7297359458
 21
7423.8790524816
 31
0.0
  0
LWPOLYLINE
  5
24D
330
1F
100
AcDbEntity
  8
0
  6
Continuous
 62
     7
370
    25
100
AcDbPolyline
 90
        9
 70
   128
 43
0.0
 10
4697.176901577
 20
7443.857479983
 10
4697.7383121018
 20
7443.9798386923
 10
4698.2447678528
 20
7444.3349374971
 10
4698.6466934125
 20
7444.8880168523
 10
4698.9047455067
 20
7445.5849374971
 10
4698.9936641984
 20
7446.357479983
 10
4698.9047455067
 20
7447.1300224689
 10
4698.6466934125
 20
7447.8269431137
 10
4698.5004669988
 20
7448.070015678
  0
LWPOLYLINE
  5
24E
330
1F
100
AcDbEntity
  8
0
  6
Continuous
 62
     7
370
    25
100
AcDbPolyline
 90
        9
 70
   128
 43
0.0
 10
4695.8533361553
 20
7448.070015678
 10
4695.7071097416
 20
7447.8269431137
 10
4695.4490576474
 20
7447.1300224689
 10
4695.3601389556
 20
7446.357479983
 10
4695.4490576474
 20
7445.5849374971
 10
4695.7071097416
 20
7444.8880168523
 10
4696.1090353013
 20
7444.3349374971
 10
4696.6154910523
 20
7443.9798386923
 10
4697.176901577
 20
7443.857479983
  0
LINE
  5
24F
330
1F
100
AcDbEntity
  8
0
  6
Continuous
 62
     7
370
    25
100
AcDbLine
 10
4689.3388352767
 20
7457.070015678
 30
0.0
 11
4689.2203510117
 21
7457.357479983
 31
0.0
  0
ARC
  5
250
330
1F
100
AcDbEntity
  8
0
  6
Continuous
 62
     7
370
    25
100
AcDbCircle
 10
4699.0580969314
 20
7446.4176189339
 30
0.0
 40
3.011608880136199
100
AcDbArc
 50
146.7237891454
 51
181.1442180093
  0
ARC
  5
251
330
1F
100
AcDbEntity
  8
0
  6
Continuous
 62
     7
370
    25
100
AcDbCircle
 10
4698.4337959413
 20
7446.120288781
 30
0.0
 40
2.398464455314682
100
AcDbArc
 50
174.324575372
 51
247.6145769827
  0
ARC
  5
252
330
1F
100
AcDbEntity
  8
0
  6
Continuous
 62
     7
370
    25
100
AcDbCircle
 10
4675.8474837437
 20
7445.2003865573
 30
0.0
 40
4.151065769290608
100
AcDbArc
 50
69.1664205327
 51
111.1297138046
  0
LWPOLYLINE
  5
253
330
1F
100
AcDbEntity
  8
0
  6
Continuous
 62
     7
370
    25
100
AcDbPolyline
 90
       11
 70
   128
 43
0.0
 10
4725.0254915399
 20
7449.0789511343
 10
4725.0612275722
 20
7449.0705198855
 10
4725.2987500787
 20
7449.1050361012
 10
4725.6511507283
 20
7449.1815970413
 10
4726.1080696298
 20
7449.2764778989
 10
4726.6234743004
 20
7449.3477489772
 10
4727.1015031692
 20
7449.3580331675
 10
4727.4880903025
 20
7449.3106419712
 10
4727.7787105086
 20
7449.2258178962
 10
4727.9427340077
 20
7449.1329911739
 10
4727.9400500426
 20
7449.1063481297
  0
LWPOLYLINE
  5
254
330
1F
100
AcDbEntity
  8
0
  6
Continuous
 62
     7
370
    25
100
AcDbPolyline
 90
       10
 70
   128
 43
0.0
 10
4750.9240203369
 20
7449.0733915976
 10
4751.1478173153
 20
7449.0844641957
 10
4751.4964871762
 20
7449.1456334403
 10
4751.940607931
 20
7449.2367885153
 10
4752.4508661204
 20
7449.3239594369
 10
4752.9430779548
 20
7449.3617662733
 10
4753.3384652926
 20
7449.33623747
 10
4753.6257138349
 20
7449.2644115033
 10
4753.7906947544
 20
7449.1701017619
 10
4753.7917208339
 20
7449.1306749638
  0
LWPOLYLINE
  5
255
330
1F
100
AcDbEntity
  8
0
  6
Continuous
 62
     7
370
    25
100
AcDbPolyline
 90
       10
 70
   128
 43
0.0
 10
4770.2674991908
 20
7449.077897808
 10
4770.3741177555
 20
7449.0737171173
 10
4770.7203541283
 20
7449.1192133248
 10
4771.1539235277
 20
7449.2024828753
 10
4771.6548809601
 20
7449.2963275926
 10
4772.1556655709
 20
7449.3558883667
 10
4772.5648482155
 20
7449.3517209991
 10
4772.8552301734
 20
7449.2940736058
 10
4773.0233298351
 20
7449.2042250707
 10
4773.0305860123
 20
7449.1534459987
  0
LWPOLYLINE
  5
256
330
1F
100
AcDbEntity
  8
0
  6
Continuous
 62
     7
370
    25
100
AcDbPolyline
 90
       10
 70
   128
 43
0.0
 10
4540.2848756353
 20
7449.1516220232
 10
4540.3196411866
 20
7449.2208281962
 10
4540.5284635289
 20
7449.3118815524
 10
4540.884018467
 20
7449.3601204976
 10
4541.3130693816
 20
7449.3441882428
 10
4541.7729832532
 20
7449.2785949094
 10
4542.2535461622
 20
7449.1857611266
 10
4542.7049873528
 20
7449.1025886251
 10
4543.042691358
 20
7449.0700310891
 10
4543.0906451846
 20
7449.0769057439
  0
LWPOLYLINE
  5
257
330
1F
100
AcDbEntity
  8
0
  6
Continuous
 62
     7
370
    25
100
AcDbPolyline
 90
       10
 70
   128
 43
0.0
 10
4559.5217087033
 20
7449.1277269532
 10
4559.5584907045
 20
7449.1922155755
 10
4559.7638806369
 20
7449.2868545701
 10
4560.1209668466
 20
7449.3523528798
 10
4560.5601151369
 20
7449.3551447563
 10
4561.0210537365
 20
7449.3023605063
 10
4561.4922444099
 20
7449.2147652997
 10
4561.9389487248
 20
7449.1237796736
 10
4562.2814543435
 20
7449.0732530569
 10
4562.3630933218
 20
7449.0775701766
  0
ARC
  5
258
330
1F
100
AcDbEntity
  8
0
  6
Continuous
 62
     7
370
    25
100
AcDbCircle
 10
4586.7879601722
 20
7444.2554516451
 30
0.0
 40
5.049488774293882
100
AcDbArc
 50
72.636872487
 51
106.2952561421
  0
ARC
  5
259
330
1F
100
AcDbEntity
  8
0
  6
Continuous
 62
     7
370
    25
100
AcDbCircle
 10
4637.4788230953
 20
7444.7954314338
 30
0.0
 40
4.532232283887961
100
AcDbArc
 50
70.9298790393
 51
109.3009073026
  0
LWPOLYLINE
  5
25A
330
1F
100
AcDbEntity
  8
0
  6
Continuous
 62
     7
370
    25
100
AcDbPolyline
 90
       10
 70
   128
 43
0.0
 10
4785.8284789942
 20
7449.0724148538
 10
4785.8380483912
 20
7449.0706691299
 10
4786.1764690243
 20
7449.0903525464
 10
4786.5959392638
 20
7449.1561634589
 10
4787.0804199437
 20
7449.2477573925
 10
4787.5850733467
 20
7449.3300242679
 10
4788.0225496759
 20
7449.3619161525
 10
4788.334137157
 20
7449.3339068941
 10
4788.5150920405
 20
7449.2619334232
 10
4788.5405078334
 20
7449.195238995
  0
LWPOLYLINE
  5
25B
330
1F
100
AcDbEntity
  8
0
  6
Continuous
 62
     7
370
    25
100
AcDbPolyline
 90
        8
 70
   128
 43
0.0
 10
4793.896906135
 20
7449.0717635253
 10
4793.921081312
 20
7449.0700159381
 10
4794.3865722941
 20
7449.0976597492
 10
4794.8559847795
 20
7449.1688260392
 10
4795.3059001711
 20
7449.2617217338
 10
4795.6780180988
 20
7449.3387055943
 10
4795.9039360088
 20
7449.3612613607
 10
4795.9656248487
 20
7449.3276760632
  0
LWPOLYLINE
  5
25C
330
1F
100
AcDbEntity
  8
0
  6
Continuous
 62
     7
370
    25
100
AcDbPolyline
 90
        9
 70
   128
 43
0.0
 10
4524.7811450111
 20
7449.195049569
 10
4524.8160512429
 20
7449.2672622932
 10
4525.0308640183
 20
7449.3418414293
 10
4525.3796684339
 20
7449.3606182449
 10
4525.8000045618
 20
7449.321847592
 10
4526.267851644
 20
7449.2432036317
 10
4526.7612372051
 20
7449.1501485535
 10
4527.2117015902
 20
7449.0832294477
 10
4527.4890870702
 20
7449.0751136967
  0
ARC
  5
25D
330
1F
100
AcDbEntity
  8
0
  6
Continuous
 62
     7
370
    25
100
AcDbCircle
 10
4519.8406877276
 20
7460.987019378
 30
0.0
 40
11.92150832815203
100
AcDbArc
 50
258.0183871597
 51
268.0189114282
  0
LWPOLYLINE
  5
25E
330
1F
100
AcDbEntity
  8
0
  6
Continuous
 62
     8
370
    25
100
AcDbPolyline
 90
       14
 70
   128
 43
0.0
 10
4785.7797115578
 20
7449.070015678
 10
4786.2243936728
 20
7449.1408666751
 10
4786.7901454759
 20
7449.4507074682
 10
4787.2924079998
 20
7449.9879627069
 10
4787.699622243
 20
7450.7188746688
 10
4787.9862014369
 20
7451.5975174673
 10
4788.1341387568
 20
7452.5686827438
 10
4788.1341387568
 20
7453.5713486123
 10
4787.9862014369
 20
7454.5425138888
 10
4787.699622243
 20
7455.4211566872
 10
4787.2924079998
 20
7456.1520686491
 10
4786.7901454759
 20
7456.6893238879
 10
4786.2243936728
 20
7456.9991646809
 10
4785.7797115578
 20
7457.070015678
  0
LWPOLYLINE
  5
25F
330
1F
100
AcDbEntity
  8
0
  6
Continuous
 62
     8
370
    25
100
AcDbPolyline
 90
       14
 70
   128
 43
0.0
 10
4527.5441975416
 20
7449.070015678
 10
4527.0995154266
 20
7449.1408666751
 10
4526.5337636235
 20
7449.4507074682
 10
4526.0315010996
 20
7449.9879627069
 10
4525.6242868564
 20
7450.7188746688
 10
4525.3377076625
 20
7451.5975174673
 10
4525.1897703426
 20
7452.5686827438
 10
4525.1897703426
 20
7453.5713486123
 10
4525.3377076625
 20
7454.5425138888
 10
4525.6242868564
 20
7455.4211566872
 10
4526.0315010996
 20
7456.1520686491
 10
4526.5337636235
 20
7456.6893238879
 10
4527.0995154266
 20
7456.9991646809
 10
4527.5441975416
 20
7457.070015678
  0
LINE
  5
260
330
1F
100
AcDbEntity
  8
0
  6
Continuous
 62
     8
370
    25
100
AcDbLine
 10
4675.8447308498
 20
7441.070015678
 30
0.0
 11
4677.3447308498
 21
7441.070015678
 31
0.0
  0
LINE
  5
261
330
1F
100
AcDbEntity
  8
0
  6
Continuous
 62
     8
370
    25
100
AcDbLine
 10
4674.3447308498
 20
7441.070015678
 30
0.0
 11
4675.8447308498
 21
7441.070015678
 31
0.0
  0
LINE
  5
262
330
1F
100
AcDbEntity
  8
0
  6
Continuous
 62
     8
370
    25
100
AcDbLine
 10
4670.8447308498
 20
7436.070015678
 30
0.0
 11
4670.8447308498
 21
7434.570015678
 31
0.0
  0
LINE
  5
263
330
1F
100
AcDbEntity
  8
0
  6
Continuous
 62
     8
370
    25
100
AcDbLine
 10
4670.8447308498
 20
7437.570015678
 30
0.0
 11
4670.8447308498
 21
7436.070015678
 31
0.0
  0
LINE
  5
264
330
1F
100
AcDbEntity
  8
0
  6
Continuous
 62
     8
370
    25
100
AcDbLine
 10
4642.4791782496
 20
7436.070015678
 30
0.0
 11
4642.4791782496
 21
7434.570015678
 31
0.0
  0
LINE
  5
265
330
1F
100
AcDbEntity
  8
0
  6
Continuous
 62
     8
370
    25
100
AcDbLine
 10
4642.4791782496
 20
7437.570015678
 30
0.0
 11
4642.4791782496
 21
7436.070015678
 31
0.0
  0
LINE
  5
266
330
1F
100
AcDbEntity
  8
0
  6
Continuous
 62
     8
370
    25
100
AcDbLine
 10
4637.4791782496
 20
7441.070015678
 30
0.0
 11
4635.9791782496
 21
7441.070015678
 31
0.0
  0
LINE
  5
267
330
1F
100
AcDbEntity
  8
0
  6
Continuous
 62
     8
370
    25
100
AcDbLine
 10
4638.9791782496
 20
7441.070015678
 30
0.0
 11
4637.4791782496
 21
7441.070015678
 31
0.0
  0
LINE
  5
268
330
1F
100
AcDbEntity
  8
0
  6
Continuous
 62
     8
370
    25
100
AcDbLine
 10
4726.4621961311
 20
7437.570015678
 30
0.0
 11
4727.9621961311
 21
7437.570015678
 31
0.0
  0
LINE
  5
269
330
1F
100
AcDbEntity
  8
0
  6
Continuous
 62
     8
370
    25
100
AcDbLine
 10
4724.9621961311
 20
7437.570015678
 30
0.0
 11
4726.4621961311
 21
7437.570015678
 31
0.0
  0
LINE
  5
26A
330
1F
100
AcDbEntity
  8
0
  6
Continuous
 62
     8
370
    25
100
AcDbLine
 10
4721.4621961311
 20
7432.570015678
 30
0.0
 11
4721.4621961311
 21
7431.070015678
 31
0.0
  0
LINE
  5
26B
330
1F
100
AcDbEntity
  8
0
  6
Continuous
 62
     8
370
    25
100
AcDbLine
 10
4721.4621961311
 20
7434.070015678
 30
0.0
 11
4721.4621961311
 21
7432.570015678
 31
0.0
  0
LINE
  5
26C
330
1F
100
AcDbEntity
  8
0
  6
Continuous
 62
     8
370
    25
100
AcDbLine
 10
4591.8617129683
 20
7432.570015678
 30
0.0
 11
4591.8617129683
 21
7431.070015678
 31
0.0
  0
LINE
  5
26D
330
1F
100
AcDbEntity
  8
0
  6
Continuous
 62
     8
370
    25
100
AcDbLine
 10
4591.8617129683
 20
7434.070015678
 30
0.0
 11
4591.8617129683
 21
7432.570015678
 31
0.0
  0
LINE
  5
26E
330
1F
100
AcDbEntity
  8
0
  6
Continuous
 62
     8
370
    25
100
AcDbLine
 10
4586.8617129683
 20
7437.570015678
 30
0.0
 11
4585.3617129683
 21
7437.570015678
 31
0.0
  0
LINE
  5
26F
330
1F
100
AcDbEntity
  8
0
  6
Continuous
 62
     8
370
    25
100
AcDbLine
 10
4588.3617129683
 20
7437.570015678
 30
0.0
 11
4586.8617129683
 21
7437.570015678
 31
0.0
  0
LINE
  5
270
330
1F
100
AcDbEntity
  8
0
  6
Continuous
 62
     8
370
    25
100
AcDbLine
 10
4752.3140509358
 20
7434.070015678
 30
0.0
 11
4753.8140509358
 21
7434.070015678
 31
0.0
  0
LINE
  5
271
330
1F
100
AcDbEntity
  8
0
  6
Continuous
 62
     8
370
    25
100
AcDbLine
 10
4750.8140509358
 20
7434.070015678
 30
0.0
 11
4752.3140509358
 21
7434.070015678
 31
0.0
  0
LINE
  5
272
330
1F
100
AcDbEntity
  8
0
  6
Continuous
 62
     8
370
    25
100
AcDbLine
 10
4747.3140509358
 20
7429.070015678
 30
0.0
 11
4747.3140509358
 21
7427.570015678
 31
0.0
  0
LINE
  5
273
330
1F
100
AcDbEntity
  8
0
  6
Continuous
 62
     8
370
    25
100
AcDbLine
 10
4747.3140509358
 20
7430.570015678
 30
0.0
 11
4747.3140509358
 21
7429.070015678
 31
0.0
  0
LINE
  5
274
330
1F
100
AcDbEntity
  8
0
  6
Continuous
 62
     8
370
    25
100
AcDbLine
 10
4566.0098581636
 20
7429.070015678
 30
0.0
 11
4566.0098581636
 21
7427.570015678
 31
0.0
  0
LINE
  5
275
330
1F
100
AcDbEntity
  8
0
  6
Continuous
 62
     8
370
    25
100
AcDbLine
 10
4566.0098581636
 20
7430.570015678
 30
0.0
 11
4566.0098581636
 21
7429.070015678
 31
0.0
  0
LINE
  5
276
330
1F
100
AcDbEntity
  8
0
  6
Continuous
 62
     8
370
    25
100
AcDbLine
 10
4561.0098581636
 20
7434.070015678
 30
0.0
 11
4559.5098581636
 21
7434.070015678
 31
0.0
  0
LINE
  5
277
330
1F
100
AcDbEntity
  8
0
  6
Continuous
 62
     8
370
    25
100
AcDbLine
 10
4562.5098581636
 20
7434.070015678
 30
0.0
 11
4561.0098581636
 21
7434.070015678
 31
0.0
  0
LINE
  5
278
330
1F
100
AcDbEntity
  8
0
  6
Continuous
 62
     8
370
    25
100
AcDbLine
 10
4771.5520253186
 20
7434.070015678
 30
0.0
 11
4773.0520253186
 21
7434.070015678
 31
0.0
  0
LINE
  5
279
330
1F
100
AcDbEntity
  8
0
  6
Continuous
 62
     8
370
    25
100
AcDbLine
 10
4770.0520253186
 20
7434.070015678
 30
0.0
 11
4771.5520253186
 21
7434.070015678
 31
0.0
  0
LINE
  5
27A
330
1F
100
AcDbEntity
  8
0
  6
Continuous
 62
     8
370
    25
100
AcDbLine
 10
4766.5520253186
 20
7429.070015678
 30
0.0
 11
4766.5520253186
 21
7427.570015678
 31
0.0
  0
LINE
  5
27B
330
1F
100
AcDbEntity
  8
0
  6
Continuous
 62
     8
370
    25
100
AcDbLine
 10
4766.5520253186
 20
7430.570015678
 30
0.0
 11
4766.5520253186
 21
7429.070015678
 31
0.0
  0
LINE
  5
27C
330
1F
100
AcDbEntity
  8
0
  6
Continuous
 62
     8
370
    25
100
AcDbLine
 10
4546.7718837808
 20
7429.070015678
 30
0.0
 11
4546.7718837808
 21
7427.570015678
 31
0.0
  0
LINE
  5
27D
330
1F
100
AcDbEntity
  8
0
  6
Continuous
 62
     8
370
    25
100
AcDbLine
 10
4546.7718837808
 20
7430.570015678
 30
0.0
 11
4546.7718837808
 21
7429.070015678
 31
0.0
  0
LINE
  5
27E
330
1F
100
AcDbEntity
  8
0
  6
Continuous
 62
     8
370
    25
100
AcDbLine
 10
4541.7718837808
 20
7434.070015678
 30
0.0
 11
4540.2718837808
 21
7434.070015678
 31
0.0
  0
LINE
  5
27F
330
1F
100
AcDbEntity
  8
0
  6
Continuous
 62
     8
370
    25
100
AcDbLine
 10
4543.2718837808
 20
7434.070015678
 30
0.0
 11
4541.7718837808
 21
7434.070015678
 31
0.0
  0
LINE
  5
280
330
1F
100
AcDbEntity
  8
0
  6
Continuous
 62
     8
370
    25
100
AcDbLine
 10
4787.0571167606
 20
7434.070015678
 30
0.0
 11
4788.5571167606
 21
7434.070015678
 31
0.0
  0
LINE
  5
281
330
1F
100
AcDbEntity
  8
0
  6
Continuous
 62
     8
370
    25
100
AcDbLine
 10
4785.5571167606
 20
7434.070015678
 30
0.0
 11
4787.0571167606
 21
7434.070015678
 31
0.0
  0
LINE
  5
282
330
1F
100
AcDbEntity
  8
0
  6
Continuous
 62
     8
370
    25
100
AcDbLine
 10
4782.0571167606
 20
7429.070015678
 30
0.0
 11
4782.0571167606
 21
7427.570015678
 31
0.0
  0
LINE
  5
283
330
1F
100
AcDbEntity
  8
0
  6
Continuous
 62
     8
370
    25
100
AcDbLine
 10
4782.0571167606
 20
7430.570015678
 30
0.0
 11
4782.0571167606
 21
7429.070015678
 31
0.0
  0
LINE
  5
284
330
1F
100
AcDbEntity
  8
0
  6
Continuous
 62
     8
370
    25
100
AcDbLine
 10
4531.2667923388
 20
7429.070015678
 30
0.0
 11
4531.2667923388
 21
7427.570015678
 31
0.0
  0
LINE
  5
285
330
1F
100
AcDbEntity
  8
0
  6
Continuous
 62
     8
370
    25
100
AcDbLine
 10
4531.2667923388
 20
7430.570015678
 30
0.0
 11
4531.2667923388
 21
7429.070015678
 31
0.0
  0
LINE
  5
286
330
1F
100
AcDbEntity
  8
0
  6
Continuous
 62
     8
370
    25
100
AcDbLine
 10
4526.2667923388
 20
7434.070015678
 30
0.0
 11
4524.7667923388
 21
7434.070015678
 31
0.0
  0
LINE
  5
287
330
1F
100
AcDbEntity
  8
0
  6
Continuous
 62
     8
370
    25
100
AcDbLine
 10
4527.7667923388
 20
7434.070015678
 30
0.0
 11
4526.2667923388
 21
7434.070015678
 31
0.0
  0
LINE
  5
288
330
1F
100
AcDbEntity
  8
0
  6
Continuous
 62
     8
370
    25
100
AcDbLine
 10
4794.4699067224
 20
7434.070015678
 30
0.0
 11
4795.9699067224
 21
7434.070015678
 31
0.0
  0
LINE
  5
289
330
1F
100
AcDbEntity
  8
0
  6
Continuous
 62
     8
370
    25
100
AcDbLine
 10
4792.9699067224
 20
7434.070015678
 30
0.0
 11
4794.4699067224
 21
7434.070015678
 31
0.0
  0
LINE
  5
28A
330
1F
100
AcDbEntity
  8
0
  6
Continuous
 62
     8
370
    25
100
AcDbLine
 10
4789.4699067224
 20
7429.070015678
 30
0.0
 11
4789.4699067224
 21
7427.570015678
 31
0.0
  0
LINE
  5
28B
330
1F
100
AcDbEntity
  8
0
  6
Continuous
 62
     8
370
    25
100
AcDbLine
 10
4789.4699067224
 20
7430.570015678
 30
0.0
 11
4789.4699067224
 21
7429.070015678
 31
0.0
  0
LINE
  5
28C
330
1F
100
AcDbEntity
  8
0
  6
Continuous
 62
     8
370
    25
100
AcDbLine
 10
4523.854002377
 20
7429.070015678
 30
0.0
 11
4523.854002377
 21
7427.570015678
 31
0.0
  0
LINE
  5
28D
330
1F
100
AcDbEntity
  8
0
  6
Continuous
 62
     8
370
    25
100
AcDbLine
 10
4523.854002377
 20
7430.570015678
 30
0.0
 11
4523.854002377
 21
7429.070015678
 31
0.0
  0
LINE
  5
28E
330
1F
100
AcDbEntity
  8
0
  6
Continuous
 62
     8
370
    25
100
AcDbLine
 10
4518.854002377
 20
7434.070015678
 30
0.0
 11
4517.354002377
 21
7434.070015678
 31
0.0
  0
LINE
  5
28F
330
1F
100
AcDbEntity
  8
0
  6
Continuous
 62
     8
370
    25
100
AcDbLine
 10
4520.354002377
 20
7434.070015678
 30
0.0
 11
4518.854002377
 21
7434.070015678
 31
0.0
  0
LINE
  5
290
330
1F
100
AcDbEntity
  8
0
  6
Continuous
 62
     8
370
    25
100
AcDbLine
 10
4795.9699067224
 20
7434.070015678
 30
0.0
 11
4797.3521471314
 21
7434.070015678
 31
0.0
  0
LINE
  5
291
330
1F
100
AcDbEntity
  8
0
  6
Continuous
 62
     8
370
    25
100
AcDbLine
 10
4790.8521471314
 20
7427.7186842072
 30
0.0
 11
4790.8521471314
 21
7427.570015678
 31
0.0
  0
LINE
  5
292
330
1F
100
AcDbEntity
  8
0
  6
Continuous
 62
     8
370
    25
100
AcDbLine
 10
4522.471761968
 20
7427.7186842072
 30
0.0
 11
4522.471761968
 21
7427.570015678
 31
0.0
  0
LINE
  5
293
330
1F
100
AcDbEntity
  8
0
  6
Continuous
 62
     8
370
    25
100
AcDbLine
 10
4517.354002377
 20
7434.070015678
 30
0.0
 11
4515.971761968
 21
7434.070015678
 31
0.0
  0
LINE
  5
294
330
1F
100
AcDbEntity
  8
0
  6
Continuous
 62
     8
370
    25
100
AcDbLine
 10
4792.4028827782
 20
7434.070015678
 30
0.0
 11
4792.9699067224
 21
7434.070015678
 31
0.0
  0
LINE
  5
295
330
1F
100
AcDbEntity
  8
0
  6
Continuous
 62
     8
370
    25
100
AcDbLine
 10
4790.9028827782
 20
7434.070015678
 30
0.0
 11
4792.4028827782
 21
7434.070015678
 31
0.0
  0
LINE
  5
296
330
1F
100
AcDbEntity
  8
0
  6
Continuous
 62
     8
370
    25
100
AcDbLine
 10
4520.9210263212
 20
7434.070015678
 30
0.0
 11
4520.354002377
 21
7434.070015678
 31
0.0
  0
LINE
  5
297
330
1F
100
AcDbEntity
  8
0
  6
Continuous
 62
     8
370
    25
100
AcDbLine
 10
4522.4210263212
 20
7434.070015678
 30
0.0
 11
4520.9210263212
 21
7434.070015678
 31
0.0
  0
LINE
  5
298
330
1F
100
AcDbEntity
  8
0
  6
Continuous
 62
     8
370
    25
100
AcDbLine
 10
4782.4989841889
 20
7434.070015678
 30
0.0
 11
4783.9989841889
 21
7434.070015678
 31
0.0
  0
LINE
  5
299
330
1F
100
AcDbEntity
  8
0
  6
Continuous
 62
     8
370
    25
100
AcDbLine
 10
4780.9989841889
 20
7434.070015678
 30
0.0
 11
4782.4989841889
 21
7434.070015678
 31
0.0
  0
LINE
  5
29A
330
1F
100
AcDbEntity
  8
0
  6
Continuous
 62
     8
370
    25
100
AcDbLine
 10
4530.8249249105
 20
7434.070015678
 30
0.0
 11
4529.3249249105
 21
7434.070015678
 31
0.0
  0
LINE
  5
29B
330
1F
100
AcDbEntity
  8
0
  6
Continuous
 62
     8
370
    25
100
AcDbLine
 10
4532.3249249105
 20
7434.070015678
 30
0.0
 11
4530.8249249105
 21
7434.070015678
 31
0.0
  0
LINE
  5
29C
330
1F
100
AcDbEntity
  8
0
  6
Continuous
 62
     8
370
    25
100
AcDbLine
 10
4769.7326429501
 20
7434.070015678
 30
0.0
 11
4770.0520253186
 21
7434.070015678
 31
0.0
  0
LINE
  5
29D
330
1F
100
AcDbEntity
  8
0
  6
Continuous
 62
     8
370
    25
100
AcDbLine
 10
4543.5912661493
 20
7434.070015678
 30
0.0
 11
4543.2718837808
 21
7434.070015678
 31
0.0
  0
LINE
  5
29E
330
1F
100
AcDbEntity
  8
0
  6
Continuous
 62
     8
370
    25
100
AcDbLine
 10
4759.9663017112
 20
7434.070015678
 30
0.0
 11
4761.4663017112
 21
7434.070015678
 31
0.0
  0
LINE
  5
29F
330
1F
100
AcDbEntity
  8
0
  6
Continuous
 62
     8
370
    25
100
AcDbLine
 10
4758.4663017112
 20
7434.070015678
 30
0.0
 11
4759.9663017112
 21
7434.070015678
 31
0.0
  0
LINE
  5
2A0
330
1F
100
AcDbEntity
  8
0
  6
Continuous
 62
     8
370
    25
100
AcDbLine
 10
4553.3576073882
 20
7434.070015678
 30
0.0
 11
4551.8576073882
 21
7434.070015678
 31
0.0
  0
LINE
  5
2A1
330
1F
100
AcDbEntity
  8
0
  6
Continuous
 62
     8
370
    25
100
AcDbLine
 10
4554.8576073882
 20
7434.070015678
 30
0.0
 11
4553.3576073882
 21
7434.070015678
 31
0.0
  0
LINE
  5
2A2
330
1F
100
AcDbEntity
  8
0
  6
Continuous
 62
     8
370
    25
100
AcDbLine
 10
4748.6999604723
 20
7434.070015678
 30
0.0
 11
4750.1999604723
 21
7434.070015678
 31
0.0
  0
LINE
  5
2A3
330
1F
100
AcDbEntity
  8
0
  6
Continuous
 62
     8
370
    25
100
AcDbLine
 10
4747.1999604723
 20
7434.070015678
 30
0.0
 11
4748.6999604723
 21
7434.070015678
 31
0.0
  0
LINE
  5
2A4
330
1F
100
AcDbEntity
  8
0
  6
Continuous
 62
     8
370
    25
100
AcDbLine
 10
4564.6239486271
 20
7434.070015678
 30
0.0
 11
4563.1239486271
 21
7434.070015678
 31
0.0
  0
LINE
  5
2A5
330
1F
100
AcDbEntity
  8
0
  6
Continuous
 62
     8
370
    25
100
AcDbLine
 10
4566.1239486271
 20
7434.070015678
 30
0.0
 11
4564.6239486271
 21
7434.070015678
 31
0.0
  0
LINE
  5
2A6
330
1F
100
AcDbEntity
  8
0
  6
Continuous
 62
     8
370
    25
100
AcDbLine
 10
4737.4336192334
 20
7434.070015678
 30
0.0
 11
4738.9336192334
 21
7434.070015678
 31
0.0
  0
LINE
  5
2A7
330
1F
100
AcDbEntity
  8
0
  6
Continuous
 62
     8
370
    25
100
AcDbLine
 10
4735.9336192334
 20
7434.070015678
 30
0.0
 11
4737.4336192334
 21
7434.070015678
 31
0.0
  0
LINE
  5
2A8
330
1F
100
AcDbEntity
  8
0
  6
Continuous
 62
     8
370
    25
100
AcDbLine
 10
4575.890289866
 20
7434.070015678
 30
0.0
 11
4574.390289866
 21
7434.070015678
 31
0.0
  0
LINE
  5
2A9
330
1F
100
AcDbEntity
  8
0
  6
Continuous
 62
     8
370
    25
100
AcDbLine
 10
4577.390289866
 20
7434.070015678
 30
0.0
 11
4575.890289866
 21
7434.070015678
 31
0.0
  0
LINE
  5
2AA
330
1F
100
AcDbEntity
  8
0
  6
Continuous
 62
     8
370
    25
100
AcDbLine
 10
4726.9394217061
 20
7434.070015678
 30
0.0
 11
4727.6672779945
 21
7434.070015678
 31
0.0
  0
LINE
  5
2AB
330
1F
100
AcDbEntity
  8
0
  6
Continuous
 62
     8
370
    25
100
AcDbLine
 10
4586.3844873933
 20
7434.070015678
 30
0.0
 11
4585.6566311049
 21
7434.070015678
 31
0.0
  0
LINE
  5
2AC
330
1F
100
AcDbEntity
  8
0
  6
Continuous
 62
     8
370
    25
100
AcDbLine
 10
4669.8355718001
 20
7440.570015678
 30
0.0
 11
4671.3355718001
 21
7440.570015678
 31
0.0
  0
LINE
  5
2AD
330
1F
100
AcDbEntity
  8
0
  6
Continuous
 62
     8
370
    25
100
AcDbLine
 10
4668.3355718001
 20
7440.570015678
 30
0.0
 11
4669.8355718001
 21
7440.570015678
 31
0.0
  0
LINE
  5
2AE
330
1F
100
AcDbEntity
  8
0
  6
Continuous
 62
     8
370
    25
100
AcDbLine
 10
4664.8355718001
 20
7434.570015678
 30
0.0
 11
4664.8355718001
 21
7434.070015678
 31
0.0
  0
LINE
  5
2AF
330
1F
100
AcDbEntity
  8
0
  6
Continuous
 62
     8
370
    25
100
AcDbLine
 10
4648.4883372993
 20
7434.570015678
 30
0.0
 11
4648.4883372993
 21
7434.070015678
 31
0.0
  0
LINE
  5
2B0
330
1F
100
AcDbEntity
  8
0
  6
Continuous
 62
     8
370
    25
100
AcDbLine
 10
4643.4883372993
 20
7440.570015678
 30
0.0
 11
4641.9883372993
 21
7440.570015678
 31
0.0
  0
LINE
  5
2B1
330
1F
100
AcDbEntity
  8
0
  6
Continuous
 62
     8
370
    25
100
AcDbLine
 10
4644.9883372993
 20
7440.570015678
 30
0.0
 11
4643.4883372993
 21
7440.570015678
 31
0.0
  0
LINE
  5
2B2
330
1F
100
AcDbEntity
  8
0
  6
Continuous
 62
     7
370
    25
100
AcDbLine
 10
4580.7057775291
 20
7249.1848031083
 30
0.0
 11
4588.7722035681
 21
7256.8099438255
 31
0.0
  0
LINE
  5
2B3
330
1F
100
AcDbEntity
  8
0
  6
Continuous
 62
     7
370
    25
100
AcDbLine
 10
4569.8778723056
 20
7238.9492538572
 30
0.0
 11
4577.9442983446
 21
7246.5743945744
 31
0.0
  0
LINE
  5
2B4
330
1F
100
AcDbEntity
  8
0
  6
Continuous
 62
     7
370
    25
100
AcDbLine
 10
4769.1786344715
 20
7214.6243945744
 30
0.0
 11
4777.2450605105
 21
7206.9992538572
 31
0.0
  0
LINE
  5
2B5
330
1F
100
AcDbEntity
  8
0
  6
Continuous
 62
     7
370
    25
100
AcDbLine
 10
4758.350729248
 20
7224.8599438255
 30
0.0
 11
4766.417155287
 21
7217.2348031083
 31
0.0
  0
LINE
  5
2B6
330
1F
100
AcDbEntity
  8
0
  6
Continuous
 62
     7
370
    25
100
AcDbLine
 10
4690.3142457993
 20
7289.1743945744
 30
0.0
 11
4698.3806718383
 21
7281.5492538572
 31
0.0
  0
LINE
  5
2B7
330
1F
100
AcDbEntity
  8
0
  6
Continuous
 62
     7
370
    25
100
AcDbLine
 10
4679.4863405758
 20
7299.4099438255
 30
0.0
 11
4687.5527666148
 21
7291.7848031083
 31
0.0
  0
LINE
  5
2B8
330
1F
100
AcDbEntity
  8
0
  6
Continuous
 62
     7
370
    25
100
AcDbLine
 10
4790.8691246334
 20
7206.5051805143
 30
0.0
 11
4669.4097530064
 21
7321.3199442784
 31
0.0
  0
LINE
  5
2B9
330
1F
100
AcDbEntity
  8
0
  6
Continuous
 62
     7
370
    25
100
AcDbLine
 10
4663.914156093
 20
7315.5063038899
 30
0.0
 11
4680.17329019
 21
7300.1366488741
 31
0.0
  0
LINE
  5
2BA
330
1F
100
AcDbEntity
  8
0
  6
Continuous
 62
     7
370
    25
100
AcDbLine
 10
4688.2397162289
 20
7292.5115081568
 30
0.0
 11
4691.0011954135
 21
7289.901099623
 31
0.0
  0
LINE
  5
2BB
330
1F
100
AcDbEntity
  8
0
  6
Continuous
 62
     7
370
    25
100
AcDbLine
 10
4699.0676214524
 20
7282.2759589057
 30
0.0
 11
4759.0376788622
 21
7225.5866488741
 31
0.0
  0
LINE
  5
2BC
330
1F
100
AcDbEntity
  8
0
  6
Continuous
 62
     7
370
    25
100
AcDbLine
 10
4767.1041049011
 20
7217.9615081568
 30
0.0
 11
4769.8655840856
 21
7215.351099623
 31
0.0
  0
LINE
  5
2BD
330
1F
100
AcDbEntity
  8
0
  6
Continuous
 62
     7
370
    25
100
AcDbLine
 10
4777.9320101246
 20
7207.7259589057
 30
0.0
 11
4785.3735277201
 21
7200.6915401259
 31
0.0
  0
LINE
  5
2BE
330
1F
100
AcDbEntity
  8
0
  6
Continuous
 62
     7
370
    25
100
AcDbLine
 10
4643.914156093
 20
7321.3199442784
 30
0.0
 11
4522.454784466
 21
7206.5051805143
 31
0.0
  0
LINE
  5
2BF
330
1F
100
AcDbEntity
  8
0
  6
Continuous
 62
     7
370
    25
100
AcDbLine
 10
4527.9503813793
 20
7200.6915401259
 30
0.0
 11
4569.1909226914
 21
7239.6759589057
 31
0.0
  0
LINE
  5
2C0
330
1F
100
AcDbEntity
  8
0
  6
Continuous
 62
     7
370
    25
100
AcDbLine
 10
4577.2573487304
 20
7247.301099623
 30
0.0
 11
4580.0188279149
 21
7249.9115081568
 31
0.0
  0
LINE
  5
2C1
330
1F
100
AcDbEntity
  8
0
  6
Continuous
 62
     7
370
    25
100
AcDbLine
 10
4588.0852539539
 20
7257.5366488741
 30
0.0
 11
4649.4097530064
 21
7315.5063038899
 31
0.0
  0
ARC
  5
2C2
330
1F
100
AcDbEntity
  8
0
  6
Continuous
 62
     7
370
    25
100
AcDbCircle
 10
4770.9475858226
 20
7185.4307341062
 30
0.0
 40
20.99999999999963
100
AcDbArc
 50
306.3904720571
 51
46.6108731929
  0
ARC
  5
2C3
330
1F
100
AcDbEntity
  8
0
  6
Continuous
 62
     7
370
    25
100
AcDbCircle
 10
4770.9475858226
 20
7185.4307341062
 30
0.0
 40
28.99999999999999
100
AcDbArc
 50
306.3904720571
 51
46.6108731929
  0
ARC
  5
2C4
330
1F
100
AcDbEntity
  8
0
  6
Continuous
 62
     7
370
    25
100
AcDbCircle
 10
4542.3763232768
 20
7185.4307341062
 30
0.0
 40
20.99999999999963
100
AcDbArc
 50
133.3891268071
 51
233.6095279429
  0
ARC
  5
2C5
330
1F
100
AcDbEntity
  8
0
  6
Continuous
 62
     7
370
    25
100
AcDbCircle
 10
4542.3763232768
 20
7185.4307341062
 30
0.0
 40
28.99999999999999
100
AcDbArc
 50
133.3891268071
 51
233.6095279429
  0
ARC
  5
2C6
330
1F
100
AcDbEntity
  8
0
  6
Continuous
 62
     7
370
    25
100
AcDbCircle
 10
4656.6619545497
 20
7340.4979747055
 30
0.0
 40
213.631914859754
100
AcDbArc
 50
270.0
 51
306.3904720571
  0
ARC
  5
2C7
330
1F
100
AcDbEntity
  8
0
  6
Continuous
 62
     7
370
    25
100
AcDbCircle
 10
4656.6619545497
 20
7340.4979747055
 30
0.0
 40
213.631914859754
100
AcDbArc
 50
233.6095279429
 51
270.0
  0
ARC
  5
2C8
330
1F
100
AcDbEntity
  8
0
  6
Continuous
 62
     7
370
    25
100
AcDbCircle
 10
4656.6619545497
 20
7340.4979747055
 30
0.0
 40
221.6319148597529
100
AcDbArc
 50
233.6095279429
 51
306.3904720571
  0
LINE
  5
2C9
330
1F
100
AcDbEntity
  8
0
  6
Continuous
 62
     7
370
    25
100
AcDbLine
 10
4665.2440141855
 20
7316.9131240841
 30
0.0
 11
4664.8355718001
 21
7316.9131240841
 31
0.0
  0
LINE
  5
2CA
330
1F
100
AcDbEntity
  8
0
  6
Continuous
 62
     7
370
    25
100
AcDbLine
 10
4664.8355718001
 20
7313.9131240841
 30
0.0
 11
4665.5995370646
 21
7313.9131240841
 31
0.0
  0
LINE
  5
2CB
330
1F
100
AcDbEntity
  8
0
  6
Continuous
 62
     7
370
    25
100
AcDbLine
 10
4648.4883372993
 20
7316.9131240841
 30
0.0
 11
4648.0798949139
 21
7316.9131240841
 31
0.0
  0
LINE
  5
2CC
330
1F
100
AcDbEntity
  8
0
  6
Continuous
 62
     7
370
    25
100
AcDbLine
 10
4647.7243720348
 20
7313.9131240841
 30
0.0
 11
4648.4883372993
 21
7313.9131240841
 31
0.0
  0
LINE
  5
2CD
330
1F
100
AcDbEntity
  8
0
  6
Continuous
 62
     7
370
    25
100
AcDbLine
 10
4664.8355718001
 20
7316.9131240841
 30
0.0
 11
4648.4883372993
 21
7316.9131240841
 31
0.0
  0
LINE
  5
2CE
330
1F
100
AcDbEntity
  8
0
  6
Continuous
 62
     7
370
    25
100
AcDbLine
 10
4648.4883372993
 20
7313.9131240841
 30
0.0
 11
4664.8355718001
 21
7313.9131240841
 31
0.0
  0
LINE
  5
2CF
330
1F
100
AcDbEntity
  8
0
  6
Continuous
 62
     7
370
    25
100
AcDbLine
 10
4676.101913039
 20
7303.2631240841
 30
0.0
 11
4676.8658783034
 21
7303.2631240841
 31
0.0
  0
LINE
  5
2D0
330
1F
100
AcDbEntity
  8
0
  6
Continuous
 62
     7
370
    25
100
AcDbLine
 10
4636.458030796
 20
7303.2631240841
 30
0.0
 11
4637.2219960604
 21
7303.2631240841
 31
0.0
  0
LINE
  5
2D1
330
1F
100
AcDbEntity
  8
0
  6
Continuous
 62
     7
370
    25
100
AcDbLine
 10
4698.7719007052
 20
7281.9631240841
 30
0.0
 11
4699.3985607812
 21
7281.9631240841
 31
0.0
  0
LINE
  5
2D2
330
1F
100
AcDbEntity
  8
0
  6
Continuous
 62
     7
370
    25
100
AcDbLine
 10
4709.9009367556
 20
7271.3131240841
 30
0.0
 11
4710.6649020201
 21
7271.3131240841
 31
0.0
  0
LINE
  5
2D3
330
1F
100
AcDbEntity
  8
0
  6
Continuous
 62
     7
370
    25
100
AcDbLine
 10
4625.1916895571
 20
7292.6131240841
 30
0.0
 11
4625.9556548215
 21
7292.6131240841
 31
0.0
  0
LINE
  5
2D4
330
1F
100
AcDbEntity
  8
0
  6
Continuous
 62
     7
370
    25
100
AcDbLine
 10
4721.1672779945
 20
7260.6631240841
 30
0.0
 11
4721.931243259
 21
7260.6631240841
 31
0.0
  0
LINE
  5
2D5
330
1F
100
AcDbEntity
  8
0
  6
Continuous
 62
     7
370
    25
100
AcDbLine
 10
4732.4336192334
 20
7250.0131240841
 30
0.0
 11
4733.1975844979
 21
7250.0131240841
 31
0.0
  0
LINE
  5
2D6
330
1F
100
AcDbEntity
  8
0
  6
Continuous
 62
     7
370
    25
100
AcDbLine
 10
4613.9253483182
 20
7281.9631240841
 30
0.0
 11
4614.6893135827
 21
7281.9631240841
 31
0.0
  0
LINE
  5
2D7
330
1F
100
AcDbEntity
  8
0
  6
Continuous
 62
     7
370
    25
100
AcDbLine
 10
4743.6999604723
 20
7239.3631240841
 30
0.0
 11
4744.4639257368
 21
7239.3631240841
 31
0.0
  0
LINE
  5
2D8
330
1F
100
AcDbEntity
  8
0
  6
Continuous
 62
     7
370
    25
100
AcDbLine
 10
4602.6590070793
 20
7271.3131240841
 30
0.0
 11
4603.4229723438
 21
7271.3131240841
 31
0.0
  0
LINE
  5
2D9
330
1F
100
AcDbEntity
  8
0
  6
Continuous
 62
     7
370
    25
100
AcDbLine
 10
4754.9663017112
 20
7228.7131240841
 30
0.0
 11
4755.7302669756
 21
7228.7131240841
 31
0.0
  0
LINE
  5
2DA
330
1F
100
AcDbEntity
  8
0
  6
Continuous
 62
     7
370
    25
100
AcDbLine
 10
4591.3926658404
 20
7260.6631240841
 30
0.0
 11
4592.1566311049
 21
7260.6631240841
 31
0.0
  0
LINE
  5
2DB
330
1F
100
AcDbEntity
  8
0
  6
Continuous
 62
     7
370
    25
100
AcDbLine
 10
4777.6362893773
 20
7207.4131240841
 30
0.0
 11
4778.2629494534
 21
7207.4131240841
 31
0.0
  0
LINE
  5
2DC
330
1F
100
AcDbEntity
  8
0
  6
Continuous
 62
     7
370
    25
100
AcDbLine
 10
4787.4028827782
 20
7196.7631240841
 30
0.0
 11
4788.6274313362
 21
7196.7631240841
 31
0.0
  0
LINE
  5
2DD
330
1F
100
AcDbEntity
  8
0
  6
Continuous
 62
     7
370
    25
100
AcDbLine
 10
4790.8521471314
 20
7186.1131240841
 30
0.0
 11
4791.9364958447
 21
7186.1131240841
 31
0.0
  0
LINE
  5
2DE
330
1F
100
AcDbEntity
  8
0
  6
Continuous
 62
     7
370
    25
100
AcDbLine
 10
4791.6222080452
 20
7189.1131240841
 30
0.0
 11
4790.8521471314
 21
7189.1131240841
 31
0.0
  0
LINE
  5
2DF
330
1F
100
AcDbEntity
  8
0
  6
Continuous
 62
     7
370
    25
100
AcDbLine
 10
4790.7579974937
 20
7178.4631240841
 30
0.0
 11
4789.4699067224
 21
7178.4631240841
 31
0.0
  0
LINE
  5
2E0
330
1F
100
AcDbEntity
  8
0
  6
Continuous
 62
     7
370
    25
100
AcDbLine
 10
4568.8599833626
 20
7239.3631240841
 30
0.0
 11
4569.4866434387
 21
7239.3631240841
 31
0.0
  0
LINE
  5
2E1
330
1F
100
AcDbEntity
  8
0
  6
Continuous
 62
     7
370
    25
100
AcDbLine
 10
4782.4337217016
 20
7167.8131240841
 30
0.0
 11
4782.0571167606
 21
7167.8131240841
 31
0.0
  0
LINE
  5
2E2
330
1F
100
AcDbEntity
  8
0
  6
Continuous
 62
     7
370
    25
100
AcDbLine
 10
4557.5936421238
 20
7228.7131240841
 30
0.0
 11
4558.3576073882
 21
7228.7131240841
 31
0.0
  0
LINE
  5
2E3
330
1F
100
AcDbEntity
  8
0
  6
Continuous
 62
     7
370
    25
100
AcDbLine
 10
4546.3273008849
 20
7218.0631240841
 30
0.0
 11
4547.0912661493
 21
7218.0631240841
 31
0.0
  0
LINE
  5
2E4
330
1F
100
AcDbEntity
  8
0
  6
Continuous
 62
     7
370
    25
100
AcDbLine
 10
4606.3990074209
 20
7132.8631240841
 30
0.0
 11
4706.9249016785
 21
7132.8631240841
 31
0.0
  0
LINE
  5
2E5
330
1F
100
AcDbEntity
  8
0
  6
Continuous
 62
     7
370
    25
100
AcDbLine
 10
4718.0066605788
 20
7135.8631240841
 30
0.0
 11
4595.3172485206
 21
7135.8631240841
 31
0.0
  0
LINE
  5
2E6
330
1F
100
AcDbEntity
  8
0
  6
Continuous
 62
     7
370
    25
100
AcDbLine
 10
4535.060959646
 20
7207.4131240841
 30
0.0
 11
4535.8249249105
 21
7207.4131240841
 31
0.0
  0
LINE
  5
2E7
330
1F
100
AcDbEntity
  8
0
  6
Continuous
 62
     7
370
    25
100
AcDbLine
 10
4524.6964777632
 20
7196.7631240841
 30
0.0
 11
4525.9210263212
 21
7196.7631240841
 31
0.0
  0
LINE
  5
2E8
330
1F
100
AcDbEntity
  8
0
  6
Continuous
 62
     7
370
    25
100
AcDbLine
 10
4521.3874132547
 20
7186.1131240841
 30
0.0
 11
4522.471761968
 21
7186.1131240841
 31
0.0
  0
LINE
  5
2E9
330
1F
100
AcDbEntity
  8
0
  6
Continuous
 62
     7
370
    25
100
AcDbLine
 10
4522.471761968
 20
7189.1131240841
 30
0.0
 11
4521.7017010542
 21
7189.1131240841
 31
0.0
  0
LINE
  5
2EA
330
1F
100
AcDbEntity
  8
0
  6
Continuous
 62
     7
370
    25
100
AcDbLine
 10
4523.854002377
 20
7178.4631240841
 30
0.0
 11
4522.5659116057
 21
7178.4631240841
 31
0.0
  0
LINE
  5
2EB
330
1F
100
AcDbEntity
  8
0
  6
Continuous
 62
     7
370
    25
100
AcDbLine
 10
4531.2667923388
 20
7167.8131240841
 30
0.0
 11
4530.8901873978
 21
7167.8131240841
 31
0.0
  0
LINE
  5
2EC
330
1F
100
AcDbEntity
  8
0
  6
Continuous
 62
     7
370
    25
100
AcDbLine
 10
4673.6922610531
 20
7306.2631240841
 30
0.0
 11
4639.6316480463
 21
7306.2631240841
 31
0.0
  0
LINE
  5
2ED
330
1F
100
AcDbEntity
  8
0
  6
Continuous
 62
     7
370
    25
100
AcDbLine
 10
4637.2219960604
 20
7303.2631240841
 30
0.0
 11
4676.101913039
 21
7303.2631240841
 31
0.0
  0
LINE
  5
2EE
330
1F
100
AcDbEntity
  8
0
  6
Continuous
 62
     7
370
    25
100
AcDbLine
 10
4625.9556548215
 20
7292.6131240841
 30
0.0
 11
4686.6765087022
 21
7292.6131240841
 31
0.0
  0
LINE
  5
2EF
330
1F
100
AcDbEntity
  8
0
  6
Continuous
 62
     7
370
    25
100
AcDbLine
 10
4683.5028914518
 20
7295.6131240841
 30
0.0
 11
4628.3653068075
 21
7295.6131240841
 31
0.0
  0
LINE
  5
2F0
330
1F
100
AcDbEntity
  8
0
  6
Continuous
 62
     7
370
    25
100
AcDbLine
 10
4614.6893135827
 20
7281.9631240841
 30
0.0
 11
4697.942849941
 21
7281.9631240841
 31
0.0
  0
LINE
  5
2F1
330
1F
100
AcDbEntity
  8
0
  6
Continuous
 62
     7
370
    25
100
AcDbLine
 10
4694.7692326906
 20
7284.9631240841
 30
0.0
 11
4617.0989655686
 21
7284.9631240841
 31
0.0
  0
LINE
  5
2F2
330
1F
100
AcDbEntity
  8
0
  6
Continuous
 62
     7
370
    25
100
AcDbLine
 10
4603.4229723438
 20
7271.3131240841
 30
0.0
 11
4709.9009367556
 21
7271.3131240841
 31
0.0
  0
LINE
  5
2F3
330
1F
100
AcDbEntity
  8
0
  6
Continuous
 62
     7
370
    25
100
AcDbLine
 10
4707.4912847697
 20
7274.3131240841
 30
0.0
 11
4605.8326243297
 21
7274.3131240841
 31
0.0
  0
LINE
  5
2F4
330
1F
100
AcDbEntity
  8
0
  6
Continuous
 62
     7
370
    25
100
AcDbLine
 10
4592.1566311049
 20
7260.6631240841
 30
0.0
 11
4721.1672779945
 21
7260.6631240841
 31
0.0
  0
LINE
  5
2F5
330
1F
100
AcDbEntity
  8
0
  6
Continuous
 62
     7
370
    25
100
AcDbLine
 10
4718.7576260086
 20
7263.6631240841
 30
0.0
 11
4594.5662830908
 21
7263.6631240841
 31
0.0
  0
LINE
  5
2F6
330
1F
100
AcDbEntity
  8
0
  6
Continuous
 62
     7
370
    25
100
AcDbLine
 10
4581.5820354417
 20
7250.0131240841
 30
0.0
 11
4732.4336192334
 21
7250.0131240841
 31
0.0
  0
LINE
  5
2F7
330
1F
100
AcDbEntity
  8
0
  6
Continuous
 62
     7
370
    25
100
AcDbLine
 10
4730.0239672475
 20
7253.0131240841
 30
0.0
 11
4584.7556526921
 21
7253.0131240841
 31
0.0
  0
LINE
  5
2F8
330
1F
100
AcDbEntity
  8
0
  6
Continuous
 62
     7
370
    25
100
AcDbLine
 10
4570.3156942028
 20
7239.3631240841
 30
0.0
 11
4743.6999604723
 21
7239.3631240841
 31
0.0
  0
LINE
  5
2F9
330
1F
100
AcDbEntity
  8
0
  6
Continuous
 62
     7
370
    25
100
AcDbLine
 10
4741.2903084864
 20
7242.3631240841
 30
0.0
 11
4573.4893114532
 21
7242.3631240841
 31
0.0
  0
LINE
  5
2FA
330
1F
100
AcDbEntity
  8
0
  6
Continuous
 62
     7
370
    25
100
AcDbLine
 10
4558.3576073882
 20
7228.7131240841
 30
0.0
 11
4754.9663017112
 21
7228.7131240841
 31
0.0
  0
LINE
  5
2FB
330
1F
100
AcDbEntity
  8
0
  6
Continuous
 62
     7
370
    25
100
AcDbLine
 10
4752.5566497253
 20
7231.7131240841
 30
0.0
 11
4560.7672593741
 21
7231.7131240841
 31
0.0
  0
LINE
  5
2FC
330
1F
100
AcDbEntity
  8
0
  6
Continuous
 62
     7
370
    25
100
AcDbLine
 10
4547.0912661493
 20
7218.0631240841
 30
0.0
 11
4765.5408973744
 21
7218.0631240841
 31
0.0
  0
LINE
  5
2FD
330
1F
100
AcDbEntity
  8
0
  6
Continuous
 62
     7
370
    25
100
AcDbLine
 10
4762.367280124
 20
7221.0631240841
 30
0.0
 11
4549.5009181353
 21
7221.0631240841
 31
0.0
  0
LINE
  5
2FE
330
1F
100
AcDbEntity
  8
0
  6
Continuous
 62
     7
370
    25
100
AcDbLine
 10
4535.8249249105
 20
7207.4131240841
 30
0.0
 11
4776.8072386132
 21
7207.4131240841
 31
0.0
  0
LINE
  5
2FF
330
1F
100
AcDbEntity
  8
0
  6
Continuous
 62
     7
370
    25
100
AcDbLine
 10
4773.6336213628
 20
7210.4131240841
 30
0.0
 11
4538.2345768964
 21
7210.4131240841
 31
0.0
  0
LINE
  5
300
330
1F
100
AcDbEntity
  8
0
  6
Continuous
 62
     7
370
    25
100
AcDbLine
 10
4525.9210263212
 20
7196.7631240841
 30
0.0
 11
4787.4028827782
 21
7196.7631240841
 31
0.0
  0
LINE
  5
301
330
1F
100
AcDbEntity
  8
0
  6
Continuous
 62
     7
370
    25
100
AcDbLine
 10
4786.2962860125
 20
7199.7631240841
 30
0.0
 11
4527.0276230869
 21
7199.7631240841
 31
0.0
  0
LINE
  5
302
330
1F
100
AcDbEntity
  8
0
  6
Continuous
 62
     7
370
    25
100
AcDbLine
 10
4522.471761968
 20
7186.1131240841
 30
0.0
 11
4790.8521471314
 21
7186.1131240841
 31
0.0
  0
LINE
  5
303
330
1F
100
AcDbEntity
  8
0
  6
Continuous
 62
     7
370
    25
100
AcDbLine
 10
4790.8521471314
 20
7189.1131240841
 30
0.0
 11
4522.471761968
 21
7189.1131240841
 31
0.0
  0
LINE
  5
304
330
1F
100
AcDbEntity
  8
0
  6
Continuous
 62
     7
370
    25
100
AcDbLine
 10
4523.8926345095
 20
7175.4631240841
 30
0.0
 11
4789.4312745899
 21
7175.4631240841
 31
0.0
  0
LINE
  5
305
330
1F
100
AcDbEntity
  8
0
  6
Continuous
 62
     7
370
    25
100
AcDbLine
 10
4789.4699067224
 20
7178.4631240841
 30
0.0
 11
4523.854002377
 21
7178.4631240841
 31
0.0
  0
LINE
  5
306
330
1F
100
AcDbEntity
  8
0
  6
Continuous
 62
     7
370
    25
100
AcDbLine
 10
4535.115961984
 20
7164.8131240841
 30
0.0
 11
4778.2079471154
 21
7164.8131240841
 31
0.0
  0
LINE
  5
307
330
1F
100
AcDbEntity
  8
0
  6
Continuous
 62
     7
370
    25
100
AcDbLine
 10
4782.0571167606
 20
7167.8131240841
 30
0.0
 11
4531.2667923388
 21
7167.8131240841
 31
0.0
  0
LINE
  5
308
330
1F
100
AcDbEntity
  8
0
  6
Continuous
 62
     7
370
    25
100
AcDbLine
 10
4552.1731106928
 20
7154.1631240841
 30
0.0
 11
4761.1507984066
 21
7154.1631240841
 31
0.0
  0
LINE
  5
309
330
1F
100
AcDbEntity
  8
0
  6
Continuous
 62
     7
370
    25
100
AcDbLine
 10
4766.3293042682
 20
7157.1631240841
 30
0.0
 11
4546.9946048312
 21
7157.1631240841
 31
0.0
  0
LINE
  5
30A
330
1F
100
AcDbEntity
  8
0
  6
Continuous
 62
     7
370
    25
100
AcDbLine
 10
4573.9844868072
 20
7143.5131240841
 30
0.0
 11
4739.3394222922
 21
7143.5131240841
 31
0.0
  0
LINE
  5
30B
330
1F
100
AcDbEntity
  8
0
  6
Continuous
 62
     7
370
    25
100
AcDbLine
 10
4746.1520253734
 20
7146.5131240841
 30
0.0
 11
4567.171883726
 21
7146.5131240841
 31
0.0
  0
LINE
  5
30C
330
1F
100
AcDbEntity
  8
0
  6
Continuous
 62
     7
370
    25
100
AcDbLine
 10
4587.1046191711
 20
7258.5740353617
 30
0.0
 11
4579.0381931321
 21
7250.9488946445
 31
0.0
  0
LINE
  5
30D
330
1F
100
AcDbEntity
  8
0
  6
Continuous
 62
     7
370
    25
100
AcDbLine
 10
4587.1046191711
 20
7258.5740353617
 30
0.0
 11
4588.7722035681
 21
7256.8099438255
 31
0.0
  0
LINE
  5
30E
330
1F
100
AcDbEntity
  8
0
  6
Continuous
 62
     7
370
    25
100
AcDbLine
 10
4568.2102879087
 20
7240.7133453934
 30
0.0
 11
4569.8778723056
 21
7238.9492538572
 31
0.0
  0
LINE
  5
30F
330
1F
100
AcDbEntity
  8
0
  6
Continuous
 62
     7
370
    25
100
AcDbLine
 10
4576.2767139476
 20
7248.3384861107
 30
0.0
 11
4568.2102879087
 21
7240.7133453934
 31
0.0
  0
LINE
  5
310
330
1F
100
AcDbEntity
  8
0
  6
Continuous
 62
     7
370
    25
100
AcDbLine
 10
4576.2767139476
 20
7248.3384861107
 30
0.0
 11
4577.9442983446
 21
7246.5743945744
 31
0.0
  0
LINE
  5
311
330
1F
100
AcDbEntity
  8
0
  6
Continuous
 62
     7
370
    25
100
AcDbLine
 10
4580.7057775291
 20
7249.1848031083
 30
0.0
 11
4579.0381931321
 21
7250.9488946445
 31
0.0
  0
LINE
  5
312
330
1F
100
AcDbEntity
  8
0
  6
Continuous
 62
     7
370
    25
100
AcDbLine
 10
4586.7511861399
 20
7258.9479224166
 30
0.0
 11
4578.684760101
 21
7251.3227816993
 31
0.0
  0
LINE
  5
313
330
1F
100
AcDbEntity
  8
0
  6
Continuous
 62
     7
370
    25
100
AcDbLine
 10
4586.7511861399
 20
7258.9479224166
 30
0.0
 11
4587.1046191711
 21
7258.5740353617
 31
0.0
  0
LINE
  5
314
330
1F
100
AcDbEntity
  8
0
  6
Continuous
 62
     7
370
    25
100
AcDbLine
 10
4579.0381931321
 20
7250.9488946445
 30
0.0
 11
4578.684760101
 21
7251.3227816993
 31
0.0
  0
LINE
  5
315
330
1F
100
AcDbEntity
  8
0
  6
Continuous
 62
     7
370
    25
100
AcDbLine
 10
4575.9232809165
 20
7248.7123731655
 30
0.0
 11
4567.8568548775
 21
7241.0872324483
 31
0.0
  0
LINE
  5
316
330
1F
100
AcDbEntity
  8
0
  6
Continuous
 62
     7
370
    25
100
AcDbLine
 10
4567.8568548775
 20
7241.0872324483
 30
0.0
 11
4568.2102879087
 21
7240.7133453934
 31
0.0
  0
LINE
  5
317
330
1F
100
AcDbEntity
  8
0
  6
Continuous
 62
     7
370
    25
100
AcDbLine
 10
4575.9232809165
 20
7248.7123731655
 30
0.0
 11
4576.2767139476
 21
7248.3384861107
 31
0.0
  0
LINE
  5
318
330
1F
100
AcDbEntity
  8
0
  6
Continuous
 62
     7
370
    25
100
AcDbLine
 10
4582.5896570406
 20
7263.3502892625
 30
0.0
 11
4563.6953257781
 21
7245.4895992942
 31
0.0
  0
LINE
  5
319
330
1F
100
AcDbEntity
  8
0
  6
Continuous
 62
     7
370
    25
100
AcDbLine
 10
4579.8418585839
 20
7266.2571094567
 30
0.0
 11
4560.9475273214
 21
7248.3964194884
 31
0.0
  0
LINE
  5
31A
330
1F
100
AcDbEntity
  8
0
  6
Continuous
 62
     7
370
    25
100
AcDbLine
 10
4560.9475273214
 20
7248.3964194884
 30
0.0
 11
4563.6953257781
 21
7245.4895992942
 31
0.0
  0
LINE
  5
31B
330
1F
100
AcDbEntity
  8
0
  6
Continuous
 62
     7
370
    25
100
AcDbLine
 10
4579.8418585839
 20
7266.2571094567
 30
0.0
 11
4582.5896570406
 21
7263.3502892625
 31
0.0
  0
LINE
  5
31C
330
1F
100
AcDbEntity
  8
0
  6
Continuous
 62
     7
370
    25
100
AcDbLine
 10
4778.9126449074
 20
7208.7633453934
 30
0.0
 11
4770.8462188684
 21
7216.3884861107
 31
0.0
  0
LINE
  5
31D
330
1F
100
AcDbEntity
  8
0
  6
Continuous
 62
     7
370
    25
100
AcDbLine
 10
4778.9126449074
 20
7208.7633453934
 30
0.0
 11
4777.2450605105
 21
7206.9992538572
 31
0.0
  0
LINE
  5
31E
330
1F
100
AcDbEntity
  8
0
  6
Continuous
 62
     7
370
    25
100
AcDbLine
 10
4760.018313645
 20
7226.6240353617
 30
0.0
 11
4758.350729248
 21
7224.8599438255
 31
0.0
  0
LINE
  5
31F
330
1F
100
AcDbEntity
  8
0
  6
Continuous
 62
     7
370
    25
100
AcDbLine
 10
4768.0847396839
 20
7218.9988946445
 30
0.0
 11
4760.018313645
 21
7226.6240353617
 31
0.0
  0
LINE
  5
320
330
1F
100
AcDbEntity
  8
0
  6
Continuous
 62
     7
370
    25
100
AcDbLine
 10
4768.0847396839
 20
7218.9988946445
 30
0.0
 11
4766.417155287
 21
7217.2348031083
 31
0.0
  0
LINE
  5
321
330
1F
100
AcDbEntity
  8
0
  6
Continuous
 62
     7
370
    25
100
AcDbLine
 10
4769.1786344715
 20
7214.6243945744
 30
0.0
 11
4770.8462188684
 21
7216.3884861107
 31
0.0
  0
LINE
  5
322
330
1F
100
AcDbEntity
  8
0
  6
Continuous
 62
     7
370
    25
100
AcDbLine
 10
4768.4381727151
 20
7219.3727816993
 30
0.0
 11
4760.3717466761
 21
7226.9979224166
 31
0.0
  0
LINE
  5
323
330
1F
100
AcDbEntity
  8
0
  6
Continuous
 62
     7
370
    25
100
AcDbLine
 10
4760.3717466761
 20
7226.9979224166
 30
0.0
 11
4760.018313645
 21
7226.6240353617
 31
0.0
  0
LINE
  5
324
330
1F
100
AcDbEntity
  8
0
  6
Continuous
 62
     7
370
    25
100
AcDbLine
 10
4768.4381727151
 20
7219.3727816993
 30
0.0
 11
4768.0847396839
 21
7218.9988946445
 31
0.0
  0
LINE
  5
325
330
1F
100
AcDbEntity
  8
0
  6
Continuous
 62
     7
370
    25
100
AcDbLine
 10
4779.2660779386
 20
7209.1372324483
 30
0.0
 11
4771.1996518996
 21
7216.7623731655
 31
0.0
  0
LINE
  5
326
330
1F
100
AcDbEntity
  8
0
  6
Continuous
 62
     7
370
    25
100
AcDbLine
 10
4779.2660779386
 20
7209.1372324483
 30
0.0
 11
4778.9126449074
 21
7208.7633453934
 31
0.0
  0
LINE
  5
327
330
1F
100
AcDbEntity
  8
0
  6
Continuous
 62
     7
370
    25
100
AcDbLine
 10
4770.8462188684
 20
7216.3884861107
 30
0.0
 11
4771.1996518996
 21
7216.7623731655
 31
0.0
  0
LINE
  5
328
330
1F
100
AcDbEntity
  8
0
  6
Continuous
 62
     7
370
    25
100
AcDbLine
 10
4783.427607038
 20
7213.5395992942
 30
0.0
 11
4764.5332757755
 21
7231.4002892625
 31
0.0
  0
LINE
  5
329
330
1F
100
AcDbEntity
  8
0
  6
Continuous
 62
     7
370
    25
100
AcDbLine
 10
4786.1754054946
 20
7216.4464194884
 30
0.0
 11
4767.2810742322
 21
7234.3071094567
 31
0.0
  0
LINE
  5
32A
330
1F
100
AcDbEntity
  8
0
  6
Continuous
 62
     7
370
    25
100
AcDbLine
 10
4786.1754054946
 20
7216.4464194884
 30
0.0
 11
4783.427607038
 21
7213.5395992942
 31
0.0
  0
LINE
  5
32B
330
1F
100
AcDbEntity
  8
0
  6
Continuous
 62
     7
370
    25
100
AcDbLine
 10
4767.2810742322
 20
7234.3071094567
 30
0.0
 11
4764.5332757755
 21
7231.4002892625
 31
0.0
  0
LINE
  5
32C
330
1F
100
AcDbEntity
  8
0
  6
Continuous
 62
     7
370
    25
100
AcDbLine
 10
4700.0482562352
 20
7283.3133453934
 30
0.0
 11
4691.9818301962
 21
7290.9384861107
 31
0.0
  0
LINE
  5
32D
330
1F
100
AcDbEntity
  8
0
  6
Continuous
 62
     7
370
    25
100
AcDbLine
 10
4700.0482562352
 20
7283.3133453934
 30
0.0
 11
4698.3806718383
 21
7281.5492538572
 31
0.0
  0
LINE
  5
32E
330
1F
100
AcDbEntity
  8
0
  6
Continuous
 62
     7
370
    25
100
AcDbLine
 10
4681.1539249728
 20
7301.1740353617
 30
0.0
 11
4679.4863405758
 21
7299.4099438255
 31
0.0
  0
LINE
  5
32F
330
1F
100
AcDbEntity
  8
0
  6
Continuous
 62
     7
370
    25
100
AcDbLine
 10
4689.2203510117
 20
7293.5488946445
 30
0.0
 11
4681.1539249728
 21
7301.1740353617
 31
0.0
  0
LINE
  5
330
330
1F
100
AcDbEntity
  8
0
  6
Continuous
 62
     7
370
    25
100
AcDbLine
 10
4689.2203510117
 20
7293.5488946445
 30
0.0
 11
4687.5527666148
 21
7291.7848031083
 31
0.0
  0
LINE
  5
331
330
1F
100
AcDbEntity
  8
0
  6
Continuous
 62
     7
370
    25
100
AcDbLine
 10
4690.3142457993
 20
7289.1743945744
 30
0.0
 11
4691.9818301962
 21
7290.9384861107
 31
0.0
  0
LINE
  5
332
330
1F
100
AcDbEntity
  8
0
  6
Continuous
 62
     7
370
    25
100
AcDbLine
 10
4689.5737840429
 20
7293.9227816993
 30
0.0
 11
4681.5073580039
 21
7301.5479224166
 31
0.0
  0
LINE
  5
333
330
1F
100
AcDbEntity
  8
0
  6
Continuous
 62
     7
370
    25
100
AcDbLine
 10
4681.5073580039
 20
7301.5479224166
 30
0.0
 11
4681.1539249728
 21
7301.1740353617
 31
0.0
  0
LINE
  5
334
330
1F
100
AcDbEntity
  8
0
  6
Continuous
 62
     7
370
    25
100
AcDbLine
 10
4689.5737840429
 20
7293.9227816993
 30
0.0
 11
4689.2203510117
 21
7293.5488946445
 31
0.0
  0
LINE
  5
335
330
1F
100
AcDbEntity
  8
0
  6
Continuous
 62
     7
370
    25
100
AcDbLine
 10
4700.4016892664
 20
7283.6872324483
 30
0.0
 11
4692.3352632274
 21
7291.3123731655
 31
0.0
  0
LINE
  5
336
330
1F
100
AcDbEntity
  8
0
  6
Continuous
 62
     7
370
    25
100
AcDbLine
 10
4700.4016892664
 20
7283.6872324483
 30
0.0
 11
4700.0482562352
 21
7283.3133453934
 31
0.0
  0
LINE
  5
337
330
1F
100
AcDbEntity
  8
0
  6
Continuous
 62
     7
370
    25
100
AcDbLine
 10
4691.9818301962
 20
7290.9384861107
 30
0.0
 11
4692.3352632274
 21
7291.3123731655
 31
0.0
  0
LINE
  5
338
330
1F
100
AcDbEntity
  8
0
  6
Continuous
 62
     7
370
    25
100
AcDbLine
 10
4704.5632183658
 20
7288.0895992942
 30
0.0
 11
4685.6688871033
 21
7305.9502892625
 31
0.0
  0
LINE
  5
339
330
1F
100
AcDbEntity
  8
0
  6
Continuous
 62
     7
370
    25
100
AcDbLine
 10
4707.3110168224
 20
7290.9964194884
 30
0.0
 11
4688.41668556
 21
7308.8571094567
 31
0.0
  0
LINE
  5
33A
330
1F
100
AcDbEntity
  8
0
  6
Continuous
 62
     7
370
    25
100
AcDbLine
 10
4707.3110168224
 20
7290.9964194884
 30
0.0
 11
4704.5632183658
 21
7288.0895992942
 31
0.0
  0
LINE
  5
33B
330
1F
100
AcDbEntity
  8
0
  6
Continuous
 62
     7
370
    25
100
AcDbLine
 10
4688.41668556
 20
7308.8571094567
 30
0.0
 11
4685.6688871033
 21
7305.9502892625
 31
0.0
  0
LINE
  5
33C
330
1F
100
AcDbEntity
  8
0
  6
Continuous
 62
     7
370
    25
100
AcDbLine
 10
4669.4097530064
 20
7321.3199442784
 30
0.0
 11
4663.914156093
 21
7315.5063038899
 31
0.0
  0
LINE
  5
33D
330
1F
100
AcDbEntity
  8
0
  6
Continuous
 62
     7
370
    25
100
AcDbLine
 10
4643.914156093
 20
7321.3199442784
 30
0.0
 11
4649.4097530064
 21
7315.5063038899
 31
0.0
  0
LINE
  5
33E
330
1F
100
AcDbEntity
  8
0
  6
Continuous
 62
     8
370
    25
100
AcDbLine
 10
4790.8691246334
 20
7206.5051805143
 30
0.0
 11
4785.3735277201
 21
7200.6915401259
 31
0.0
  0
LINE
  5
33F
330
1F
100
AcDbEntity
  8
0
  6
Continuous
 62
     8
370
    25
100
AcDbLine
 10
4522.454784466
 20
7206.5051805143
 30
0.0
 11
4527.9503813793
 21
7200.6915401259
 31
0.0
  0
LINE
  5
340
330
1F
100
AcDbEntity
  8
0
  6
Continuous
 62
     8
370
    25
100
AcDbLine
 10
4788.1528516755
 20
7162.085952528
 30
0.0
 11
4783.4065714402
 21
7168.5258922737
 31
0.0
  0
LINE
  5
341
330
1F
100
AcDbEntity
  8
0
  6
Continuous
 62
     8
370
    25
100
AcDbLine
 10
4525.1710574239
 20
7162.085952528
 30
0.0
 11
4529.9173376592
 21
7168.5258922737
 31
0.0
  0
LINE
  5
342
330
1F
100
AcDbEntity
  8
0
  6
Continuous
 62
     8
370
    25
100
AcDbLine
 10
4664.8355718001
 20
7316.9131240841
 30
0.0
 11
4664.8355718001
 21
7316.4810441508
 31
0.0
  0
LINE
  5
343
330
1F
100
AcDbEntity
  8
0
  6
Continuous
 62
     8
370
    25
100
AcDbLine
 10
4664.8355718001
 20
7314.6352955411
 30
0.0
 11
4664.8355718001
 21
7313.9131240841
 31
0.0
  0
LINE
  5
344
330
1F
100
AcDbEntity
  8
0
  6
Continuous
 62
     8
370
    25
100
AcDbLine
 10
4648.4883372993
 20
7316.9131240841
 30
0.0
 11
4648.4883372993
 21
7316.4810441508
 31
0.0
  0
LINE
  5
345
330
1F
100
AcDbEntity
  8
0
  6
Continuous
 62
     8
370
    25
100
AcDbLine
 10
4648.4883372993
 20
7314.6352955411
 30
0.0
 11
4648.4883372993
 21
7313.9131240841
 31
0.0
  0
LINE
  5
346
330
1F
100
AcDbEntity
  8
0
  6
Continuous
 62
     8
370
    25
100
AcDbLine
 10
4676.101913039
 20
7303.9852955411
 30
0.0
 11
4676.101913039
 21
7303.2631240841
 31
0.0
  0
LINE
  5
347
330
1F
100
AcDbEntity
  8
0
  6
Continuous
 62
     8
370
    25
100
AcDbLine
 10
4637.2219960604
 20
7303.9852955411
 30
0.0
 11
4637.2219960604
 21
7303.2631240841
 31
0.0
  0
LINE
  5
348
330
1F
100
AcDbEntity
  8
0
  6
Continuous
 62
     8
370
    25
100
AcDbLine
 10
4709.9009367556
 20
7272.0352955411
 30
0.0
 11
4709.9009367556
 21
7271.3131240841
 31
0.0
  0
LINE
  5
349
330
1F
100
AcDbEntity
  8
0
  6
Continuous
 62
     8
370
    25
100
AcDbLine
 10
4625.9556548215
 20
7293.3352955411
 30
0.0
 11
4625.9556548215
 21
7292.6131240841
 31
0.0
  0
LINE
  5
34A
330
1F
100
AcDbEntity
  8
0
  6
Continuous
 62
     8
370
    25
100
AcDbLine
 10
4721.1672779945
 20
7261.3852955411
 30
0.0
 11
4721.1672779945
 21
7260.6631240841
 31
0.0
  0
LINE
  5
34B
330
1F
100
AcDbEntity
  8
0
  6
Continuous
 62
     8
370
    25
100
AcDbLine
 10
4732.4336192334
 20
7250.7352955411
 30
0.0
 11
4732.4336192334
 21
7250.0131240841
 31
0.0
  0
LINE
  5
34C
330
1F
100
AcDbEntity
  8
0
  6
Continuous
 62
     8
370
    25
100
AcDbLine
 10
4614.6893135827
 20
7282.6852955411
 30
0.0
 11
4614.6893135827
 21
7281.9631240841
 31
0.0
  0
LINE
  5
34D
330
1F
100
AcDbEntity
  8
0
  6
Continuous
 62
     8
370
    25
100
AcDbLine
 10
4743.6999604723
 20
7240.0852955411
 30
0.0
 11
4743.6999604723
 21
7239.3631240841
 31
0.0
  0
LINE
  5
34E
330
1F
100
AcDbEntity
  8
0
  6
Continuous
 62
     8
370
    25
100
AcDbLine
 10
4603.4229723438
 20
7272.0352955411
 30
0.0
 11
4603.4229723438
 21
7271.3131240841
 31
0.0
  0
LINE
  5
34F
330
1F
100
AcDbEntity
  8
0
  6
Continuous
 62
     8
370
    25
100
AcDbLine
 10
4754.9663017112
 20
7229.4352955411
 30
0.0
 11
4754.9663017112
 21
7228.7131240841
 31
0.0
  0
LINE
  5
350
330
1F
100
AcDbEntity
  8
0
  6
Continuous
 62
     8
370
    25
100
AcDbLine
 10
4592.1566311049
 20
7261.3852955411
 30
0.0
 11
4592.1566311049
 21
7260.6631240841
 31
0.0
  0
LINE
  5
351
330
1F
100
AcDbEntity
  8
0
  6
Continuous
 62
     8
370
    25
100
AcDbLine
 10
4787.4028827782
 20
7198.4776955188
 30
0.0
 11
4787.4028827782
 21
7196.7631240841
 31
0.0
  0
LINE
  5
352
330
1F
100
AcDbEntity
  8
0
  6
Continuous
 62
     8
370
    25
100
AcDbLine
 10
4790.8521471314
 20
7189.1131240841
 30
0.0
 11
4790.8521471314
 21
7186.1131240841
 31
0.0
  0
LINE
  5
353
330
1F
100
AcDbEntity
  8
0
  6
Continuous
 62
     8
370
    25
100
AcDbLine
 10
4789.4699067224
 20
7178.4631240841
 30
0.0
 11
4789.4699067224
 21
7175.5350972654
 31
0.0
  0
LINE
  5
354
330
1F
100
AcDbEntity
  8
0
  6
Continuous
 62
     8
370
    25
100
AcDbLine
 10
4782.0571167606
 20
7167.8131240841
 30
0.0
 11
4782.0571167606
 21
7167.5394584632
 31
0.0
  0
LINE
  5
355
330
1F
100
AcDbEntity
  8
0
  6
Continuous
 62
     8
370
    25
100
AcDbLine
 10
4558.3576073882
 20
7229.4352955411
 30
0.0
 11
4558.3576073882
 21
7228.7131240841
 31
0.0
  0
LINE
  5
356
330
1F
100
AcDbEntity
  8
0
  6
Continuous
 62
     8
370
    25
100
AcDbLine
 10
4547.0912661493
 20
7218.7852955411
 30
0.0
 11
4547.0912661493
 21
7218.0631240841
 31
0.0
  0
LINE
  5
357
330
1F
100
AcDbEntity
  8
0
  6
Continuous
 62
     8
370
    25
100
AcDbLine
 10
4535.8249249105
 20
7208.1352955411
 30
0.0
 11
4535.8249249105
 21
7207.4131240841
 31
0.0
  0
LINE
  5
358
330
1F
100
AcDbEntity
  8
0
  6
Continuous
 62
     8
370
    25
100
AcDbLine
 10
4525.9210263212
 20
7198.4776955188
 30
0.0
 11
4525.9210263212
 21
7196.7631240841
 31
0.0
  0
LINE
  5
359
330
1F
100
AcDbEntity
  8
0
  6
Continuous
 62
     8
370
    25
100
AcDbLine
 10
4522.471761968
 20
7189.1131240841
 30
0.0
 11
4522.471761968
 21
7186.1131240841
 31
0.0
  0
LINE
  5
35A
330
1F
100
AcDbEntity
  8
0
  6
Continuous
 62
     8
370
    25
100
AcDbLine
 10
4523.854002377
 20
7178.4631240841
 30
0.0
 11
4523.854002377
 21
7175.5350972654
 31
0.0
  0
LINE
  5
35B
330
1F
100
AcDbEntity
  8
0
  6
Continuous
 62
     8
370
    25
100
AcDbLine
 10
4531.2667923388
 20
7167.8131240841
 30
0.0
 11
4531.2667923388
 21
7167.5394584632
 31
0.0
  0
ENDSEC
  0
SECTION
  2
OBJECTS
  0
DICTIONARY
  5
C
330
0
100
AcDbDictionary
281
     1
  3
ACAD_GROUP
350
D
  3
ACAD_LAYOUT
350
1A
  3
ACAD_MLINESTYLE
350
17
  3
ACAD_PLOTSETTINGS
350
19
  3
ACAD_PLOTSTYLENAME
350
E
  3
ACAD_SCALELIST
350
47
  3
DWGPROPS
350
35C
  0
DICTIONARY
  5
D
102
{ACAD_REACTORS
330
C
102
}
330
C
100
AcDbDictionary
281
     1
  0
DICTIONARY
  5
1A
102
{ACAD_REACTORS
330
C
102
}
330
C
100
AcDbDictionary
281
     1
  3
Layout1
350
1E
  3
Layout2
350
26
  3
Model
350
22
  0
DICTIONARY
  5
17
102
{ACAD_REACTORS
330
C
102
}
330
C
100
AcDbDictionary
281
     1
  3
Standard
350
18
  0
DICTIONARY
  5
19
102
{ACAD_REACTORS
330
C
102
}
330
C
100
AcDbDictionary
281
     1
  0
ACDBDICTIONARYWDFLT
  5
E
102
{ACAD_REACTORS
330
C
102
}
330
C
100
AcDbDictionary
281
     1
  3
Normal
350
F
100
AcDbDictionaryWithDefault
340
F
  0
DICTIONARY
  5
47
102
{ACAD_REACTORS
330
C
102
}
330
C
100
AcDbDictionary
281
     1
  3
A0
350
48
  3
A1
350
49
  3
A2
350
4A
  3
A3
350
4B
  3
A4
350
4C
  3
A5
350
4D
  3
A6
350
4E
  3
A7
350
4F
  3
A8
350
50
  3
A9
350
51
  3
B0
350
52
  3
B1
350
53
  3
B2
350
54
  3
B3
350
55
  3
B4
350
56
  3
B5
350
57
  3
B6
350
58
  3
B7
350
59
  3
B8
350
5A
  3
B9
350
5B
  3
C0
350
5C
  3
C1
350
5D
  3
C2
350
5E
  3
C3
350
5F
  3
C4
350
60
  3
C5
350
61
  3
C6
350
62
  3
C7
350
63
  3
C8
350
64
  3
C9
350
65
  3
D0
350
66
  3
D1
350
67
  3
D2
350
68
  0
XRECORD
  5
35C
102
{ACAD_REACTORS
330
C
102
}
330
C
100
AcDbXrecord
280
     1
  1
DWGPROPS COOKIE
  2

  3

  4

  6

  7

  8
radek.stransky
  9

300
=
301
=
302
=
303
=
304
=
305
=
306
=
307
=
308
=
309
=
 40
0.0
 41
2459179.214446319
 42
2459179.214446759
  1

 90
        0
  0
LAYOUT
  5
1E
102
{ACAD_REACTORS
330
1A
102
}
330
1A
100
AcDbPlotSettings
  1

  2
none_device
  4

  6

 40
0.0
 41
0.0
 42
0.0
 43
0.0
 44
0.0
 45
0.0
 46
0.0
 47
0.0
 48
0.0
 49
0.0
140
0.0
141
0.0
142
1.0
143
1.0
 70
   688
 72
     1
 73
     0
 74
     5
  7

 75
    16
147
1.0
148
0.0
149
0.0
100
AcDbLayout
  1
Layout1
 70
     1
 71
     1
 10
0.0
 20
0.0
 11
420.0
 21
297.0
 12
0.0
 22
0.0
 32
0.0
 14
1.0000000000E+20
 24
1.0000000000E+20
 34
1.0000000000E+20
 15
-1.0000000000E+20
 25
-1.0000000000E+20
 35
-1.0000000000E+20
146
0.0
 13
0.0
 23
0.0
 33
0.0
 16
1.0
 26
0.0
 36
0.0
 17
0.0
 27
1.0
 37
0.0
 76
     0
330
1B
  0
LAYOUT
  5
26
102
{ACAD_REACTORS
330
1A
102
}
330
1A
100
AcDbPlotSettings
  1

  2
none_device
  4

  6

 40
0.0
 41
0.0
 42
0.0
 43
0.0
 44
0.0
 45
0.0
 46
0.0
 47
0.0
 48
0.0
 49
0.0
140
0.0
141
0.0
142
1.0
143
1.0
 70
   688
 72
     1
 73
     0
 74
     5
  7

 75
    16
147
1.0
148
0.0
149
0.0
100
AcDbLayout
  1
Layout2
 70
     1
 71
     2
 10
0.0
 20
0.0
 11
0.0
 21
0.0
 12
0.0
 22
0.0
 32
0.0
 14
0.0
 24
0.0
 34
0.0
 15
0.0
 25
0.0
 35
0.0
146
0.0
 13
0.0
 23
0.0
 33
0.0
 16
1.0
 26
0.0
 36
0.0
 17
0.0
 27
1.0
 37
0.0
 76
     0
330
23
  0
LAYOUT
  5
22
102
{ACAD_REACTORS
330
1A
102
}
330
1A
100
AcDbPlotSettings
  1

  2
none_device
  4
Letter_(8.50_x_11.00_Inches)
  6

 40
6.35
 41
6.35
 42
6.35000508
 43
6.35000508
 44
215.9
 45
279.4
 46
0.0
 47
0.0
 48
0.0
 49
0.0
140
0.0
141
0.0
142
1.0
143
1.0
 70
  1712
 72
     1
 73
     0
 74
     0
  7

 75
     0
147
1.0
148
0.0
149
0.0
100
AcDbLayout
  1
Model
 70
     1
 71
     0
 10
0.0
 20
0.0
 11
20000.0
 21
10000.0
 12
0.0
 22
0.0
 32
0.0
 14
0.0
 24
0.0
 34
0.0
 15
20000.0
 25
10000.0
 35
0.0
146
0.0
 13
0.0
 23
0.0
 33
0.0
 16
1.0
 26
0.0
 36
0.0
 17
0.0
 27
1.0
 37
0.0
 76
     0
330
1F
331
29
  0
MLINESTYLE
  5
18
102
{ACAD_REACTORS
330
17
102
}
330
17
100
AcDbMlineStyle
  2
Standard
 70
     0
  3

 62
   256
 51
90.0
 52
90.0
 71
     2
 49
0.5
 62
   256
  6
BYLAYER
 49
-0.5
 62
   256
  6
BYLAYER
  0
ACDBPLACEHOLDER
  5
F
102
{ACAD_REACTORS
330
E
102
}
330
E
  0
SCALE
  5
48
102
{ACAD_REACTORS
330
47
102
}
330
47
100
AcDbScale
 70
     0
300
1:1
140
1.0
141
1.0
290
     1
  0
SCALE
  5
49
102
{ACAD_REACTORS
330
47
102
}
330
47
100
AcDbScale
 70
     0
300
1:2
140
1.0
141
2.0
290
     0
  0
SCALE
  5
4A
102
{ACAD_REACTORS
330
47
102
}
330
47
100
AcDbScale
 70
     0
300
1:4
140
1.0
141
4.0
290
     0
  0
SCALE
  5
4B
102
{ACAD_REACTORS
330
47
102
}
330
47
100
AcDbScale
 70
     0
300
1:5
140
1.0
141
5.0
290
     0
  0
SCALE
  5
4C
102
{ACAD_REACTORS
330
47
102
}
330
47
100
AcDbScale
 70
     0
300
1:8
140
1.0
141
8.0
290
     0
  0
SCALE
  5
4D
102
{ACAD_REACTORS
330
47
102
}
330
47
100
AcDbScale
 70
     0
300
1:10
140
1.0
141
10.0
290
     0
  0
SCALE
  5
4E
102
{ACAD_REACTORS
330
47
102
}
330
47
100
AcDbScale
 70
     0
300
1:16
140
1.0
141
16.0
290
     0
  0
SCALE
  5
4F
102
{ACAD_REACTORS
330
47
102
}
330
47
100
AcDbScale
 70
     0
300
1:20
140
1.0
141
20.0
290
     0
  0
SCALE
  5
50
102
{ACAD_REACTORS
330
47
102
}
330
47
100
AcDbScale
 70
     0
300
1:30
140
1.0
141
30.0
290
     0
  0
SCALE
  5
51
102
{ACAD_REACTORS
330
47
102
}
330
47
100
AcDbScale
 70
     0
300
1:40
140
1.0
141
40.0
290
     0
  0
SCALE
  5
52
102
{ACAD_REACTORS
330
47
102
}
330
47
100
AcDbScale
 70
     0
300
1:50
140
1.0
141
50.0
290
     0
  0
SCALE
  5
53
102
{ACAD_REACTORS
330
47
102
}
330
47
100
AcDbScale
 70
     0
300
1:100
140
1.0
141
100.0
290
     0
  0
SCALE
  5
54
102
{ACAD_REACTORS
330
47
102
}
330
47
100
AcDbScale
 70
     0
300
2:1
140
2.0
141
1.0
290
     0
  0
SCALE
  5
55
102
{ACAD_REACTORS
330
47
102
}
330
47
100
AcDbScale
 70
     0
300
4:1
140
4.0
141
1.0
290
     0
  0
SCALE
  5
56
102
{ACAD_REACTORS
330
47
102
}
330
47
100
AcDbScale
 70
     0
300
8:1
140
8.0
141
1.0
290
     0
  0
SCALE
  5
57
102
{ACAD_REACTORS
330
47
102
}
330
47
100
AcDbScale
 70
     0
300
10:1
140
10.0
141
1.0
290
     0
  0
SCALE
  5
58
102
{ACAD_REACTORS
330
47
102
}
330
47
100
AcDbScale
 70
     0
300
100:1
140
100.0
141
1.0
290
     0
  0
SCALE
  5
59
102
{ACAD_REACTORS
330
47
102
}
330
47
100
AcDbScale
 70
     0
300
1/128" = 1'-0"
140
0.0078125
141
12.0
290
     0
  0
SCALE
  5
5A
102
{ACAD_REACTORS
330
47
102
}
330
47
100
AcDbScale
 70
     0
300
1/64" = 1'-0"
140
0.015625
141
12.0
290
     0
  0
SCALE
  5
5B
102
{ACAD_REACTORS
330
47
102
}
330
47
100
AcDbScale
 70
     0
300
1/32" = 1'-0"
140
0.03125
141
12.0
290
     0
  0
SCALE
  5
5C
102
{ACAD_REACTORS
330
47
102
}
330
47
100
AcDbScale
 70
     0
300
1/16" = 1'-0"
140
0.0625
141
12.0
290
     0
  0
SCALE
  5
5D
102
{ACAD_REACTORS
330
47
102
}
330
47
100
AcDbScale
 70
     0
300
3/32" = 1'-0"
140
0.09375
141
12.0
290
     0
  0
SCALE
  5
5E
102
{ACAD_REACTORS
330
47
102
}
330
47
100
AcDbScale
 70
     0
300
1/8" = 1'-0"
140
0.125
141
12.0
290
     0
  0
SCALE
  5
5F
102
{ACAD_REACTORS
330
47
102
}
330
47
100
AcDbScale
 70
     0
300
3/16" = 1'-0"
140
0.1875
141
12.0
290
     0
  0
SCALE
  5
60
102
{ACAD_REACTORS
330
47
102
}
330
47
100
AcDbScale
 70
     0
300
1/4" = 1'-0"
140
0.25
141
12.0
290
     0
  0
SCALE
  5
61
102
{ACAD_REACTORS
330
47
102
}
330
47
100
AcDbScale
 70
     0
300
3/8" = 1'-0"
140
0.375
141
12.0
290
     0
  0
SCALE
  5
62
102
{ACAD_REACTORS
330
47
102
}
330
47
100
AcDbScale
 70
     0
300
1/2" = 1'-0"
140
0.5
141
12.0
290
     0
  0
SCALE
  5
63
102
{ACAD_REACTORS
330
47
102
}
330
47
100
AcDbScale
 70
     0
300
3/4" = 1'-0"
140
0.75
141
12.0
290
     0
  0
SCALE
  5
64
102
{ACAD_REACTORS
330
47
102
}
330
47
100
AcDbScale
 70
     0
300
1" = 1'-0"
140
1.0
141
12.0
290
     0
  0
SCALE
  5
65
102
{ACAD_REACTORS
330
47
102
}
330
47
100
AcDbScale
 70
     0
300
1-1/2" = 1'-0"
140
1.5
141
12.0
290
     0
  0
SCALE
  5
66
102
{ACAD_REACTORS
330
47
102
}
330
47
100
AcDbScale
 70
     0
300
3" = 1'-0"
140
3.0
141
12.0
290
     0
  0
SCALE
  5
67
102
{ACAD_REACTORS
330
47
102
}
330
47
100
AcDbScale
 70
     0
300
6" = 1'-0"
140
6.0
141
12.0
290
     0
  0
SCALE
  5
68
102
{ACAD_REACTORS
330
47
102
}
330
47
100
AcDbScale
 70
     0
300
1'-0" = 1'-0"
140
12.0
141
12.0
290
     0
  0
ENDSEC
  0
EOF
