  0
SECTION
  2
HEADER
  9
$ACADVER
  1
AC1015
  9
$ACADMAINTVER
 70
     6
  9
$DWGCODEPAGE
  3
ANSI_1250
  9
$INSBASE
 10
0.0
 20
0.0
 30
0.0
  9
$EXTMIN
 10
0.0
 20
0.0
 30
0.0
  9
$EXTMAX
 10
20000.0
 20
10000.0
 30
0.0
  9
$LIMMIN
 10
0.0
 20
0.0
  9
$LIMMAX
 10
20000.0
 20
10000.0
  9
$ORTHOMODE
 70
     0
  9
$REGENMODE
 70
     1
  9
$FILLMODE
 70
     1
  9
$QTEXTMODE
 70
     0
  9
$MIRRTEXT
 70
     1
  9
$LTSCALE
 40
1.0
  9
$ATTMODE
 70
     1
  9
$TEXTSIZE
 40
2.0
  9
$TRACEWID
 40
1.0
  9
$TEXTSTYLE
  7
Standard
  9
$CLAYER
  8
0
  9
$CELTYPE
  6
ByLayer
  9
$CECOLOR
 62
   256
  9
$CELTSCALE
 40
1.0
  9
$DISPSILH
 70
     0
  9
$DIMSCALE
 40
1.0
  9
$DIMASZ
 40
2.0
  9
$DIMEXO
 40
1.0
  9
$DIMDLI
 40
3.75
  9
$DIMRND
 40
0.0
  9
$DIMDLE
 40
0.0
  9
$DIMEXE
 40
1.0
  9
$DIMTP
 40
0.0
  9
$DIMTM
 40
0.0
  9
$DIMTXT
 40
2.0
  9
$DIMCEN
 40
2.5
  9
$DIMTSZ
 40
0.0
  9
$DIMTOL
 70
     0
  9
$DIMLIM
 70
     0
  9
$DIMTIH
 70
     1
  9
$DIMTOH
 70
     1
  9
$DIMSE1
 70
     0
  9
$DIMSE2
 70
     0
  9
$DIMTAD
 70
     1
  9
$DIMZIN
 70
     0
  9
$DIMBLK
  1

  9
$DIMASO
 70
     1
  9
$DIMSHO
 70
     1
  9
$DIMPOST
  1

  9
$DIMAPOST
  1

  9
$DIMALT
 70
     0
  9
$DIMALTD
 70
     3
  9
$DIMALTF
 40
0.0393700787
  9
$DIMLFAC
 40
1.0
  9
$DIMTOFL
 70
     1
  9
$DIMTVP
 40
0.0
  9
$DIMTIX
 70
     0
  9
$DIMSOXD
 70
     0
  9
$DIMSAH
 70
     0
  9
$DIMBLK1
  1

  9
$DIMBLK2
  1

  9
$DIMSTYLE
  2
ISO-25
  9
$DIMCLRD
 70
     0
  9
$DIMCLRE
 70
     0
  9
$DIMCLRT
 70
     0
  9
$DIMTFAC
 40
1.0
  9
$DIMGAP
 40
1.524
  9
$DIMJUST
 70
     0
  9
$DIMSD1
 70
     0
  9
$DIMSD2
 70
     0
  9
$DIMTOLJ
 70
     0
  9
$DIMTZIN
 70
     0
  9
$DIMALTZ
 70
     0
  9
$DIMALTTZ
 70
     0
  9
$DIMUPT
 70
     0
  9
$DIMDEC
 70
     2
  9
$DIMTDEC
 70
     0
  9
$DIMALTU
 70
     2
  9
$DIMALTTD
 70
     3
  9
$DIMTXSTY
  7
Standard
  9
$DIMAUNIT
 70
     0
  9
$DIMADEC
 70
     2
  9
$DIMALTRND
 40
0.0
  9
$DIMAZIN
 70
     0
  9
$DIMDSEP
 70
    44
  9
$DIMATFIT
 70
     3
  9
$DIMFRAC
 70
     0
  9
$DIMLDRBLK
  1

  9
$DIMLUNIT
 70
     2
  9
$DIMLWD
 70
    -2
  9
$DIMLWE
 70
    -2
  9
$DIMTMOVE
 70
     0
  9
$LUNITS
 70
     2
  9
$LUPREC
 70
     3
  9
$SKETCHINC
 40
1.0
  9
$FILLETRAD
 40
10.0
  9
$AUNITS
 70
     0
  9
$AUPREC
 70
     2
  9
$MENU
  1
.
  9
$ELEVATION
 40
0.0
  9
$PELEVATION
 40
0.0
  9
$THICKNESS
 40
0.0
  9
$LIMCHECK
 70
     0
  9
$CHAMFERA
 40
0.0
  9
$CHAMFERB
 40
0.0
  9
$CHAMFERC
 40
0.0
  9
$CHAMFERD
 40
0.0
  9
$SKPOLY
 70
     0
  9
$TDCREATE
 40
2459136.417318426
  9
$TDUCREATE
 40
2459136.333985093
  9
$TDUPDATE
 40
2459136.417318658
  9
$TDUUPDATE
 40
2459136.333985324
  9
$TDINDWG
 40
0.0000000116
  9
$TDUSRTIMER
 40
0.0000000116
  9
$USRTIMER
 70
     1
  9
$ANGBASE
 50
0.0
  9
$ANGDIR
 70
     0
  9
$PDMODE
 70
     0
  9
$PDSIZE
 40
-1.0
  9
$PLINEWID
 40
0.0
  9
$SPLFRAME
 70
     0
  9
$SPLINETYPE
 70
     6
  9
$SPLINESEGS
 70
     8
  9
$HANDSEED
  5
12D
  9
$SURFTAB1
 70
     6
  9
$SURFTAB2
 70
     6
  9
$SURFTYPE
 70
     6
  9
$SURFU
 70
     6
  9
$SURFV
 70
     6
  9
$UCSBASE
  2

  9
$UCSNAME
  2

  9
$UCSORG
 10
0.0
 20
0.0
 30
0.0
  9
$UCSXDIR
 10
1.0
 20
0.0
 30
0.0
  9
$UCSYDIR
 10
0.0
 20
1.0
 30
0.0
  9
$UCSORTHOREF
  2

  9
$UCSORTHOVIEW
 70
     0
  9
$UCSORGTOP
 10
0.0
 20
0.0
 30
0.0
  9
$UCSORGBOTTOM
 10
0.0
 20
0.0
 30
0.0
  9
$UCSORGLEFT
 10
0.0
 20
0.0
 30
0.0
  9
$UCSORGRIGHT
 10
0.0
 20
0.0
 30
0.0
  9
$UCSORGFRONT
 10
0.0
 20
0.0
 30
0.0
  9
$UCSORGBACK
 10
0.0
 20
0.0
 30
0.0
  9
$PUCSBASE
  2

  9
$PUCSNAME
  2

  9
$PUCSORG
 10
0.0
 20
0.0
 30
0.0
  9
$PUCSXDIR
 10
1.0
 20
0.0
 30
0.0
  9
$PUCSYDIR
 10
0.0
 20
1.0
 30
0.0
  9
$PUCSORTHOREF
  2

  9
$PUCSORTHOVIEW
 70
     0
  9
$PUCSORGTOP
 10
0.0
 20
0.0
 30
0.0
  9
$PUCSORGBOTTOM
 10
0.0
 20
0.0
 30
0.0
  9
$PUCSORGLEFT
 10
0.0
 20
0.0
 30
0.0
  9
$PUCSORGRIGHT
 10
0.0
 20
0.0
 30
0.0
  9
$PUCSORGFRONT
 10
0.0
 20
0.0
 30
0.0
  9
$PUCSORGBACK
 10
0.0
 20
0.0
 30
0.0
  9
$USERI1
 70
     0
  9
$USERI2
 70
     0
  9
$USERI3
 70
     0
  9
$USERI4
 70
     0
  9
$USERI5
 70
     0
  9
$USERR1
 40
0.0
  9
$USERR2
 40
0.0
  9
$USERR3
 40
0.0
  9
$USERR4
 40
0.0
  9
$USERR5
 40
0.0
  9
$WORLDVIEW
 70
     1
  9
$SHADEDGE
 70
     3
  9
$SHADEDIF
 70
    70
  9
$TILEMODE
 70
     1
  9
$MAXACTVP
 70
    64
  9
$PINSBASE
 10
0.0
 20
0.0
 30
0.0
  9
$PLIMCHECK
 70
     0
  9
$PEXTMIN
 10
1.0000000000E+20
 20
1.0000000000E+20
 30
1.0000000000E+20
  9
$PEXTMAX
 10
-1.0000000000E+20
 20
-1.0000000000E+20
 30
-1.0000000000E+20
  9
$PLIMMIN
 10
0.0
 20
0.0
  9
$PLIMMAX
 10
420.0
 20
297.0
  9
$UNITMODE
 70
     0
  9
$VISRETAIN
 70
     1
  9
$PLINEGEN
 70
     0
  9
$PSLTSCALE
 70
     1
  9
$TREEDEPTH
 70
  3020
  9
$CMLSTYLE
  2
Standard
  9
$CMLJUST
 70
     0
  9
$CMLSCALE
 40
20.0
  9
$PROXYGRAPHICS
 70
     1
  9
$MEASUREMENT
 70
     1
  9
$CELWEIGHT
370
    -1
  9
$ENDCAPS
280
     0
  9
$JOINSTYLE
280
     0
  9
$LWDISPLAY
290
     1
  9
$INSUNITS
 70
     4
  9
$HYPERLINKBASE
  1

  9
$STYLESHEET
  1

  9
$XEDIT
290
     1
  9
$CEPSNTYPE
380
     0
  9
$PSTYLEMODE
290
     1
  9
$FINGERPRINTGUID
  2
{ce1eca3f-bd72-467c-96b0-52f2c783fb1a}
  9
$VERSIONGUID
  2
{FAEB1C32-E019-11D5-929B-00C0DF256EC4}
  9
$EXTNAMES
290
     1
  9
$PSVPSCALE
 40
0.0
  9
$OLESTARTUP
290
     0
  0
ENDSEC
  0
SECTION
  2
CLASSES
  0
CLASS
  1
ACDBDICTIONARYWDFLT
  2
AcDbDictionaryWithDefault
  3
ObjectDBX Classes
 90
        0
280
     0
281
     0
  0
CLASS
  1
VISUALSTYLE
  2
AcDbVisualStyle
  3
ObjectDBX Classes
 90
     4095
280
     0
281
     0
  0
CLASS
  1
MATERIAL
  2
AcDbMaterial
  3
ObjectDBX Classes
 90
     1153
280
     0
281
     0
  0
CLASS
  1
SCALE
  2
AcDbScale
  3
ObjectDBX Classes
 90
     1153
280
     0
281
     0
  0
CLASS
  1
TABLESTYLE
  2
AcDbTableStyle
  3
ObjectDBX Classes
 90
     4095
280
     0
281
     0
  0
CLASS
  1
MLEADERSTYLE
  2
AcDbMLeaderStyle
  3
ACDB_MLEADERSTYLE_CLASS
 90
     4095
280
     0
281
     0
  0
CLASS
  1
SUN
  2
AcDbSun
  3
SCENEOE
 90
     1153
280
     0
281
     0
  0
CLASS
  1
ACDBPLACEHOLDER
  2
AcDbPlaceHolder
  3
ObjectDBX Classes
 90
        0
280
     0
281
     0
  0
CLASS
  1
LAYOUT
  2
AcDbLayout
  3
ObjectDBX Classes
 90
        0
280
     0
281
     0
  0
ENDSEC
  0
SECTION
  2
TABLES
  0
TABLE
  2
VPORT
  5
8
330
0
100
AcDbSymbolTable
 70
     1
  0
VPORT
  5
29
330
8
100
AcDbSymbolTableRecord
100
AcDbViewportTableRecord
  2
*Active
 70
     0
 10
0.0
 20
0.0
 11
1.0
 21
1.0
 12
10000.0
 22
5000.0
 13
0.0
 23
0.0
 14
10.0
 24
10.0
 15
10.0
 25
10.0
 16
0.0
 26
0.0
 36
1.0
 17
0.0
 27
0.0
 37
0.0
 40
10000.0
 41
2.0
 42
50.0
 43
0.0
 44
0.0
 50
0.0
 51
0.0
 71
     0
 72
  2000
 73
     1
 74
     3
 75
     0
 76
     0
 77
     0
 78
     0
281
     0
 65
     1
110
0.0
120
0.0
130
0.0
111
1.0
121
0.0
131
0.0
112
0.0
122
1.0
132
0.0
 79
     0
146
0.0
  0
ENDTAB
  0
TABLE
  2
LTYPE
  5
5
330
0
100
AcDbSymbolTable
 70
     6
  0
LTYPE
  5
14
330
5
100
AcDbSymbolTableRecord
100
AcDbLinetypeTableRecord
  2
ByBlock
 70
     0
  3

 72
    65
 73
     0
 40
0.0
  0
LTYPE
  5
15
330
5
100
AcDbSymbolTableRecord
100
AcDbLinetypeTableRecord
  2
ByLayer
 70
     0
  3

 72
    65
 73
     0
 40
0.0
  0
LTYPE
  5
16
330
5
100
AcDbSymbolTableRecord
100
AcDbLinetypeTableRecord
  2
Continuous
 70
     0
  3
Solid line
 72
    65
 73
     0
 40
0.0
  0
LTYPE
  5
6E
330
5
100
AcDbSymbolTableRecord
100
AcDbLinetypeTableRecord
  2
HIDDEN
 70
     0
  3
Hidden __ __ __ __ __ __ __ __ __ __ __ __ __ __
 72
    65
 73
     2
 40
1.905
 49
1.27
 74
     0
 49
-0.635
 74
     0
  0
LTYPE
  5
6F
330
5
100
AcDbSymbolTableRecord
100
AcDbLinetypeTableRecord
  2
PHANTOM
 70
     0
  3
Phantom ______  __  __  ______  __  __  ______
 72
    65
 73
     6
 40
12.7
 49
6.35
 74
     0
 49
-1.27
 74
     0
 49
1.27
 74
     0
 49
-1.27
 74
     0
 49
1.27
 74
     0
 49
-1.27
 74
     0
  0
LTYPE
  5
70
330
5
100
AcDbSymbolTableRecord
100
AcDbLinetypeTableRecord
  2
CENTER
 70
     0
  3
Center ____ _ ____ _ ____ _ ____ _ ____ _ ____
 72
    65
 73
     4
 40
10.16
 49
6.35
 74
     0
 49
-1.27
 74
     0
 49
1.27
 74
     0
 49
-1.27
 74
     0
  0
LTYPE
  5
71
330
5
100
AcDbSymbolTableRecord
100
AcDbLinetypeTableRecord
  2
CENTERX2
 70
     0
  3
Center (2x) ________  __  ________  __  _____
 72
    65
 73
     4
 40
20.32
 49
12.7
 74
     0
 49
-2.54
 74
     0
 49
2.54
 74
     0
 49
-2.54
 74
     0
  0
LTYPE
  5
72
330
5
100
AcDbSymbolTableRecord
100
AcDbLinetypeTableRecord
  2
DOT2
 70
     0
  3
Dot (.5x) ........................................
 72
    65
 73
     2
 40
0.635
 49
0.0
 74
     0
 49
-0.635
 74
     0
  0
ENDTAB
  0
TABLE
  2
LAYER
  5
2
330
0
100
AcDbSymbolTable
 70
    13
  0
LAYER
  5
10
330
2
100
AcDbSymbolTableRecord
100
AcDbLayerTableRecord
  2
0
 70
     0
 62
     7
  6
Continuous
370
    -3
390
F
  0
LAYER
  5
73
330
2
100
AcDbSymbolTableRecord
100
AcDbLayerTableRecord
  2
FORMAT
 70
     0
 62
     7
  6
Continuous
370
    -3
390
F
  0
LAYER
  5
74
330
2
100
AcDbSymbolTableRecord
100
AcDbLayerTableRecord
  2
OSA
 70
     0
 62
     7
  6
CENTER
370
    -3
390
F
  0
LAYER
  5
75
330
2
100
AcDbSymbolTableRecord
100
AcDbLayerTableRecord
  2
0_35
 70
     0
 62
     7
  6
Continuous
370
    35
390
F
  0
LAYER
  5
76
330
2
100
AcDbSymbolTableRecord
100
AcDbLayerTableRecord
  2
0_5
 70
     0
 62
     7
  6
Continuous
370
    50
390
F
  0
LAYER
  5
77
330
2
100
AcDbSymbolTableRecord
100
AcDbLayerTableRecord
  2
0_25
 70
     0
 62
     7
  6
Continuous
370
    25
390
F
  0
LAYER
  5
78
330
2
100
AcDbSymbolTableRecord
100
AcDbLayerTableRecord
  2
0_18
 70
     0
 62
     7
  6
Continuous
370
    -3
390
F
  0
LAYER
  5
79
330
2
100
AcDbSymbolTableRecord
100
AcDbLayerTableRecord
  2
SLD-0
 70
     0
 62
   179
  6
Continuous
370
    -3
390
F
  0
LAYER
  5
7A
330
2
100
AcDbSymbolTableRecord
100
AcDbLayerTableRecord
  2
KOTY
 70
     0
 62
     7
  6
Continuous
370
    -3
390
F
  0
LAYER
  5
7B
330
2
100
AcDbSymbolTableRecord
100
AcDbLayerTableRecord
  2
SILNA
 70
     0
 62
   179
  6
Continuous
370
    -3
390
F
  0
LAYER
  5
7C
330
2
100
AcDbSymbolTableRecord
100
AcDbLayerTableRecord
  2
0_18_1
 70
     0
 62
   179
  6
Continuous
370
    -3
390
F
  0
LAYER
  5
7D
330
2
100
AcDbSymbolTableRecord
100
AcDbLayerTableRecord
  2
0_35_1
 70
     0
 62
   179
  6
Continuous
370
    35
390
F
  0
LAYER
  5
7E
330
2
100
AcDbSymbolTableRecord
100
AcDbLayerTableRecord
  2
0_5_1
 70
     0
 62
   179
  6
Continuous
370
    50
390
F
  0
ENDTAB
  0
TABLE
  2
STYLE
  5
3
330
0
100
AcDbSymbolTable
 70
     1
  0
STYLE
  5
11
330
3
100
AcDbSymbolTableRecord
100
AcDbTextStyleTableRecord
  2
Standard
 70
     0
 40
0.0
 41
1.0
 50
0.0
 71
     0
 42
2.0
  3
txt
  4

  0
ENDTAB
  0
TABLE
  2
VIEW
  5
6
330
0
100
AcDbSymbolTable
 70
     0
  0
ENDTAB
  0
TABLE
  2
UCS
  5
7
330
0
100
AcDbSymbolTable
 70
     0
  0
ENDTAB
  0
TABLE
  2
APPID
  5
9
330
0
100
AcDbSymbolTable
 70
     1
  0
APPID
  5
12
330
9
100
AcDbSymbolTableRecord
100
AcDbRegAppTableRecord
  2
ACAD
 70
     0
  0
ENDTAB
  0
TABLE
  2
DIMSTYLE
  5
A
330
0
100
AcDbSymbolTable
 70
     1
100
AcDbDimStyleTable
  0
DIMSTYLE
105
27
330
A
100
AcDbSymbolTableRecord
100
AcDbDimStyleTableRecord
  2
ISO-25
 70
     0
 41
2.5
 42
0.625
 43
3.75
 44
1.25
 73
     0
 74
     0
 77
     1
 78
     8
140
2.5
141
2.5
143
0.0393700787
147
0.625
171
     3
172
     1
178
     0
271
     2
272
     2
274
     3
278
    44
283
     0
284
     8
340
11
  0
ENDTAB
  0
TABLE
  2
BLOCK_RECORD
  5
1
330
0
100
AcDbSymbolTable
 70
     2
  0
BLOCK_RECORD
  5
1F
330
1
100
AcDbSymbolTableRecord
100
AcDbBlockTableRecord
  2
*Model_Space
340
22
  0
BLOCK_RECORD
  5
1B
330
1
100
AcDbSymbolTableRecord
100
AcDbBlockTableRecord
  2
*Paper_Space
340
1E
  0
BLOCK_RECORD
  5
23
330
1
100
AcDbSymbolTableRecord
100
AcDbBlockTableRecord
  2
*Paper_Space0
340
26
  0
BLOCK_RECORD
  5
E2
330
1
100
AcDbSymbolTableRecord
100
AcDbBlockTableRecord
  2
SW_CENTERMARKSYMBOL_0
340
0
102
{BLKREFS
331
ED
102
}
  0
ENDTAB
  0
ENDSEC
  0
SECTION
  2
BLOCKS
  0
BLOCK
  5
20
330
1F
100
AcDbEntity
  8
0
100
AcDbBlockBegin
  2
*Model_Space
 70
     0
 10
0.0
 20
0.0
 30
0.0
  3
*Model_Space
  1

  0
ENDBLK
  5
21
330
1F
100
AcDbEntity
  8
0
100
AcDbBlockEnd
  0
BLOCK
  5
1C
330
1B
100
AcDbEntity
 67
     1
  8
0
100
AcDbBlockBegin
  2
*Paper_Space
 70
     0
 10
0.0
 20
0.0
 30
0.0
  3
*Paper_Space
  1

  0
ENDBLK
  5
1D
330
1B
100
AcDbEntity
 67
     1
  8
0
100
AcDbBlockEnd
  0
BLOCK
  5
24
330
23
100
AcDbEntity
  8
0
100
AcDbBlockBegin
  2
*Paper_Space0
 70
     0
 10
0.0
 20
0.0
 30
0.0
  3
*Paper_Space0
  1

  0
ENDBLK
  5
25
330
23
100
AcDbEntity
  8
0
100
AcDbBlockEnd
  0
BLOCK
  5
E3
330
E2
100
AcDbEntity
  8
0
100
AcDbBlockBegin
  2
SW_CENTERMARKSYMBOL_0
 70
     0
 10
0.0
 20
0.0
 30
0.0
  3
SW_CENTERMARKSYMBOL_0
  1

  0
LINE
  5
E5
330
E2
100
AcDbEntity
  8
SLD-0
 62
     0
100
AcDbLine
 10
0.0
 20
0.0
 30
0.0
 11
0.0
 21
2.5
 31
0.0
  0
LINE
  5
E6
330
E2
100
AcDbEntity
  8
SLD-0
 62
     0
100
AcDbLine
 10
0.0
 20
0.0
 30
0.0
 11
-2.5
 21
0.0
 31
0.0
  0
LINE
  5
E7
330
E2
100
AcDbEntity
  8
SLD-0
 62
     0
100
AcDbLine
 10
0.0
 20
0.0
 30
0.0
 11
0.0
 21
-2.5
 31
0.0
  0
LINE
  5
E8
330
E2
100
AcDbEntity
  8
SLD-0
 62
     0
100
AcDbLine
 10
0.0
 20
0.0
 30
0.0
 11
2.5
 21
0.0
 31
0.0
  0
LINE
  5
E9
330
E2
100
AcDbEntity
  8
SLD-0
 62
     0
100
AcDbLine
 10
0.0
 20
5.0
 30
0.0
 11
0.0
 21
7.5
 31
0.0
  0
LINE
  5
EA
330
E2
100
AcDbEntity
  8
SLD-0
 62
     0
100
AcDbLine
 10
-5.0
 20
0.0
 30
0.0
 11
-7.5
 21
0.0
 31
0.0
  0
LINE
  5
EB
330
E2
100
AcDbEntity
  8
SLD-0
 62
     0
100
AcDbLine
 10
0.0
 20
-5.0
 30
0.0
 11
0.0
 21
-7.5
 31
0.0
  0
LINE
  5
EC
330
E2
100
AcDbEntity
  8
SLD-0
 62
     0
100
AcDbLine
 10
5.0
 20
0.0
 30
0.0
 11
7.5
 21
0.0
 31
0.0
  0
ENDBLK
  5
E4
330
E2
100
AcDbEntity
  8
0
100
AcDbBlockEnd
  0
ENDSEC
  0
SECTION
  2
ENTITIES
  0
ARC
  5
7F
330
1F
100
AcDbEntity
  8
0
  6
Continuous
 62
     7
370
    25
100
AcDbCircle
 10
6483.1266603052
 20
5206.6893145931
 30
0.0
 40
109.4179652167558
100
AcDbArc
 50
348.3785837753
 51
0.3479683308
  0
ARC
  5
80
330
1F
100
AcDbEntity
  8
0
  6
Continuous
 62
     7
370
    25
100
AcDbCircle
 10
6422.4187851913
 20
5206.2954055463
 30
0.0
 40
104.7538626934573
100
AcDbArc
 50
179.4209291282
 51
191.7763024572
  0
LWPOLYLINE
  5
81
330
1F
100
AcDbEntity
  8
0
  6
Continuous
 62
     7
370
    25
100
AcDbPolyline
 90
       72
 70
   128
 43
0.0
 10
6527.6008120807
 20
4843.725503992
 10
6528.8843384641
 20
4847.0414029555
 10
6531.0120405118
 20
4852.6493545686
 10
6532.7078607203
 20
4857.1962030215
 10
6533.9955146385
 20
4860.6971899543
 10
6535.1232958601
 20
4863.7997688897
 10
6536.2930734184
 20
4867.0555409994
 10
6537.5023593833
 20
4870.463525597
 10
6539.1970240197
 20
4875.3156609269
 10
6540.664577856
 20
4879.5936939679
 10
6541.853448562
 20
4883.1140956168
 10
6542.9276992299
 20
4886.3391972718
 10
6544.8636268669
 20
4892.2625746859
 10
6546.9467155983
 20
4898.8067300022
 10
6549.2046542312
 20
4906.1162384796
 10
6551.6149123265
 20
4914.1894246882
 10
6555.9921367242
 20
4929.6589653379
 10
6560.229675574
 20
4945.7991679636
 10
6564.3084839281
 20
4962.653681877
 10
6568.203974271
 20
4980.2446231387
 10
6570.2986876496
 20
4990.4357247583
 10
6572.2827259663
 20
5000.6473126027
 10
6574.1592896633
 20
5010.8813365212
 10
6575.9315363562
 20
5021.1397413857
 10
6577.6025829009
 20
5031.4244674031
 10
6579.1755076393
 20
5041.7374504595
 10
6580.628459785
 20
5051.9005643844
 10
6581.3537560044
 20
5057.2356232417
 10
6581.9335417371
 20
5061.6397454273
 10
6582.3785460826
 20
5065.1102908333
 10
6582.697040974
 20
5067.64513641
 10
6582.9009736462
 20
5069.2914747696
 10
6583.1272638241
 20
5071.1402896868
 10
6583.483877921
 20
5074.1025311706
 10
6583.9630450847
 20
5078.1813372658
 10
6584.5491018944
 20
5083.3347061671
 10
6585.1358167588
 20
5088.6913212712
 10
6586.2347988533
 20
5099.3268584965
 10
6587.1985477732
 20
5109.4097207183
 10
6588.0403857607
 20
5118.9150009887
 10
6588.7541015937
 20
5127.5852131595
 10
6589.3502579705
 20
5135.3385808217
 10
6589.7730543742
 20
5141.1659289143
 10
6590.2238990715
 20
5147.7262184709
 10
6590.696304862
 20
5155.0426544231
 10
6591.1360228581
 20
5162.329215992
 10
6591.52320868
 20
5169.1937930936
 10
6592.024590129
 20
5178.8370919317
 10
6592.5111109803
 20
5189.2106333018
 10
6592.9770455184
 20
5200.3746355038
 10
6593.3585636732
 20
5210.715338386
 10
6593.6735043982
 20
5220.3523795716
 10
6593.9669053049
 20
5230.5532028262
 10
6594.1924106179
 20
5239.4931848999
 10
6594.3821029715
 20
5248.0371932451
 10
6594.5474014705
 20
5256.5386792851
 10
6594.706998088
 20
5266.0813846014
 10
6594.8489738018
 20
5276.2330525352
 10
6594.9511888184
 20
5285.0725299589
 10
6595.0245470896
 20
5292.6839968169
 10
6595.0673058573
 20
5297.8665742372
 10
6595.1087913735
 20
5303.6781927448
 10
6595.1469165817
 20
5310.0478513292
 10
6595.1748311072
 20
5315.7154040855
 10
6595.1932760497
 20
5320.2229887246
 10
6595.200557508
 20
5322.2534493672
 10
6595.2086343024
 20
5324.7373258138
 10
6595.2183641853
 20
5328.1753066243
 10
6595.2284830037
 20
5332.5720241234
 10
6595.2375376077
 20
5337.9333934054
 10
6595.2440034418
 20
5344.2666245494
 10
6595.2464280899
 20
5351.5802378095
  0
LWPOLYLINE
  5
82
330
1F
100
AcDbEntity
  8
0
  6
Continuous
 62
     7
370
    25
100
AcDbPolyline
 90
       27
 70
   128
 43
0.0
 10
6573.0644035179
 20
5106.1975764447
 10
6573.0699105207
 20
5106.2011409922
 10
6573.1092008482
 20
5106.3573827367
 10
6573.1789648843
 20
5106.6637693933
 10
6573.4135086528
 20
5107.728626532
 10
6573.998222359
 20
5110.4021292114
 10
6574.5214523573
 20
5112.793469486
 10
6574.9374489495
 20
5114.6937411666
 10
6575.4653146752
 20
5117.1038803741
 10
6576.2003535192
 20
5120.4579548685
 10
6577.0298358781
 20
5124.2404869378
 10
6577.7610173931
 20
5127.5727885822
 10
6578.8862611282
 20
5132.6977209586
 10
6579.8733991775
 20
5137.1905975833
 10
6580.7878305328
 20
5141.3501438426
 10
6581.6780419014
 20
5145.3973384774
 10
6582.5288324842
 20
5149.2633001582
 10
6583.4453617667
 20
5153.4257323689
 10
6584.6138184467
 20
5158.7287744534
 10
6585.6299975221
 20
5163.3373179639
 10
6586.4012619876
 20
5166.8329098064
 10
6587.0205716436
 20
5169.6383311915
 10
6587.7612326683
 20
5172.9916646173
 10
6588.5177886267
 20
5176.414832782
 10
6589.2379124418
 20
5179.6710489073
 10
6589.7843288538
 20
5182.1403666482
 10
6590.358687772
 20
5184.7344438393
  0
LWPOLYLINE
  5
83
330
1F
100
AcDbEntity
  8
0
  6
Continuous
 62
     7
370
    25
100
AcDbPolyline
 90
       32
 70
   128
 43
0.0
 10
6319.7975712702
 20
5185.1040755218
 10
6320.8157452752
 20
5180.4749802252
 10
6321.954812139
 20
5175.2899622887
 10
6322.876523603
 20
5171.0905334512
 10
6323.5813065485
 20
5167.8773579277
 10
6324.0881434501
 20
5165.5655935441
 10
6324.4129654336
 20
5164.0835898252
 10
6324.7658291121
 20
5162.4732672351
 10
6325.1664354266
 20
5160.6446043208
 10
6325.6148108145
 20
5158.5973247932
 10
6326.1197141272
 20
5156.2912556836
 10
6326.696879798
 20
5153.6542932284
 10
6327.3467240719
 20
5150.6842453699
 10
6328.4717326859
 20
5145.5400842918
 10
6329.4831991017
 20
5140.9126693774
 10
6330.361589012
 20
5136.8923157339
 10
6331.1562596112
 20
5133.2537711331
 10
6331.8611519289
 20
5130.0252065721
 10
6332.633056273
 20
5126.4885237635
 10
6333.4995109276
 20
5122.5171062753
 10
6334.4120944786
 20
5118.3323602254
 10
6334.8215100047
 20
5116.4542504844
 10
6335.1741220606
 20
5114.8363458874
 10
6335.4918946951
 20
5113.377989336
 10
6335.9225812334
 20
5111.4009459707
 10
6336.4940263476
 20
5108.7768058954
 10
6337.1415526605
 20
5105.8020839318
 10
6337.5436196873
 20
5103.9592231076
 10
6337.7894389318
 20
5102.8554918091
 10
6337.8558620263
 20
5102.5799823793
 10
6337.8835431378
 20
5102.4889357564
 10
6337.8835197223
 20
5102.4890818046
  0
LWPOLYLINE
  5
84
330
1F
100
AcDbEntity
  8
0
  6
Continuous
 62
     7
370
    25
100
AcDbPolyline
 90
       92
 70
   128
 43
0.0
 10
6315.0109737469
 20
5351.5802378111
 10
6315.0141697601
 20
5343.2550456584
 10
6315.0234160256
 20
5335.6220669799
 10
6315.0378827319
 20
5328.6703079448
 10
6315.0561261941
 20
5322.5092494124
 10
6315.0756650145
 20
5317.3639822341
 10
6315.0905466209
 20
5314.0341659018
 10
6315.1046697584
 20
5311.2000570853
 10
6315.1229445578
 20
5307.8877374162
 10
6315.1475907052
 20
5303.8991307578
 10
6315.180231319
 20
5299.23782984
 10
6315.2436820236
 20
5291.5512957334
 10
6315.3116588625
 20
5284.645357045
 10
6315.3794289347
 20
5278.6736720301
 10
6315.4436178118
 20
5273.6253747463
 10
6315.5073298492
 20
5269.0636302734
 10
6315.5738318158
 20
5264.6832781365
 10
6315.6426858077
 20
5260.48331562
 10
6315.7230771605
 20
5255.9354955749
 10
6315.829159966
 20
5250.4141535091
 10
6315.9662492611
 20
5243.9259112954
 10
6316.1260905198
 20
5237.0838427292
 10
6316.2980077151
 20
5230.4053286047
 10
6316.5156337206
 20
5222.741975129
 10
6316.7475739808
 20
5215.3394073938
 10
6316.9724041523
 20
5208.7633008982
 10
6317.1771637047
 20
5203.1956938816
 10
6317.3457954794
 20
5198.8673285609
 10
6317.5651672107
 20
5193.5372336868
 10
6317.847850383
 20
5187.1011205923
 10
6318.1817378896
 20
5180.0291811801
 10
6318.5245122715
 20
5173.2703011218
 10
6318.8723632838
 20
5166.8497524896
 10
6319.2026892495
 20
5161.1034364822
 10
6319.527891671
 20
5155.7369940609
 10
6319.8338683353
 20
5150.9208724917
 10
6320.1161640561
 20
5146.65728066
 10
6320.3939266248
 20
5142.6150445956
 10
6320.6920384609
 20
5138.4308054828
 10
6321.0645076102
 20
5133.4069763781
 10
6321.518283968
 20
5127.5622346541
 10
6322.0143403878
 20
5121.4814868555
 10
6322.5297225885
 20
5115.4665842977
 10
6323.0643343973
 20
5109.5169315028
 10
6324.3998667273
 20
5095.747561518
 10
6325.8396024886
 20
5082.3299745072
 10
6326.735428584
 20
5074.588293442
 10
6327.6614262498
 20
5067.0008610517
 10
6328.5322609109
 20
5060.205540703
 10
6329.3037454374
 20
5054.4321210326
 10
6329.9616586798
 20
5049.6754236149
 10
6330.4939448493
 20
5045.9312104439
 10
6330.8908969911
 20
5043.1961758203
 10
6331.0648216136
 20
5042.0126196363
 10
6331.2141224107
 20
5041.0036405644
 10
6331.4726437623
 20
5039.2715594893
 10
6331.859636714
 20
5036.7133473051
 10
6332.3763274369
 20
5033.360017583
 10
6333.1772859217
 20
5028.2949760306
 10
6334.1069394381
 20
5022.6055520224
 10
6335.1767091024
 20
5016.2904757118
 10
6336.5792270727
 20
5008.3526062029
 10
6338.2020316245
 20
4999.6013388484
 10
6340.0431775616
 20
4990.1704427398
 10
6341.9207613604
 20
4981.0322458508
 10
6343.7860046832
 20
4972.3774212743
 10
6345.6262792822
 20
4964.2069079221
 10
6348.4378401168
 20
4952.3481413826
 10
6351.1102677715
 20
4941.6906132898
 10
6353.5992443375
 20
4932.2370330745
 10
6355.7661833725
 20
4924.3383434221
 10
6357.7146592214
 20
4917.4761691261
 10
6359.4839942423
 20
4911.4272881785
 10
6361.0615852065
 20
4906.1701337371
 10
6361.7032117188
 20
4904.0667720427
 10
6362.3016356776
 20
4902.1224846131
 10
6362.8556363948
 20
4900.3371773537
 10
6363.3640826792
 20
4898.7107868088
 10
6363.8259348031
 20
4897.2432800732
 10
6364.3704950983
 20
4895.5247657707
 10
6365.1415900323
 20
4893.1126933358
 10
6366.5976601848
 20
4888.6238130689
 10
6368.2856067738
 20
4883.5228612088
 10
6370.1525937927
 20
4878.0017628236
 10
6372.1690781171
 20
4872.1715827666
 10
6374.0822200557
 20
4866.758368866
 10
6375.2492370649
 20
4863.5092105126
 10
6376.3436931264
 20
4860.4966659969
 10
6377.5658587665
 20
4857.1705547648
 10
6379.2243794546
 20
4852.7181524897
 10
6381.3463731662
 20
4847.1188553973
 10
6382.6615463984
 20
4843.7190926481
  0
LWPOLYLINE
  5
85
330
1F
100
AcDbEntity
  8
0
  6
Continuous
 62
     7
370
    25
100
AcDbPolyline
 90
       54
 70
   128
 43
0.0
 10
6555.2844980143
 20
5197.4505592291
 10
6554.9397501828
 20
5195.6659820063
 10
6553.8954598772
 20
5191.859037739
 10
6552.5390719329
 20
5188.0625111073
 10
6550.87482505
 20
5184.2939680451
 10
6548.9086563117
 20
5180.5711546711
 10
6546.6489891933
 20
5176.9131886881
 10
6544.1059901051
 20
5173.3386931214
 10
6541.2914909666
 20
5169.8657653926
 10
6538.2191204018
 20
5166.5120679168
 10
6534.9040910266
 20
5163.2944280808
 10
6531.3628718813
 20
5160.228454697
 10
6527.6127742938
 20
5157.3282164035
 10
6523.6713355758
 20
5154.6059380937
 10
6519.5549755756
 20
5152.0683275344
 10
6515.2518533033
 20
5149.6986604559
 10
6510.7139148891
 20
5147.4700113592
 10
6505.9585815092
 20
5145.3962448785
 10
6501.0060176705
 20
5143.4908725073
 10
6495.8793133514
 20
5141.7668527698
 10
6490.6041380061
 20
5140.2361859636
 10
6485.2082602622
 20
5138.9095451968
 10
6479.7243000782
 20
5137.7965717427
 10
6474.1836247929
 20
5136.9041791037
 10
6468.6161614354
 20
5136.2368994232
 10
6463.0509147871
 20
5135.7972120383
 10
6457.5153394198
 20
5135.5856428309
 10
6452.029019521
 20
5135.6004483314
 10
6446.564447925
 20
5135.8359832759
 10
6441.073127566
 20
5136.2925586329
 10
6435.573654933
 20
5136.9711763084
 10
6430.0917479675
 20
5137.8711821433
 10
6424.6546091514
 20
5138.9901955368
 10
6419.2904502095
 20
5140.3239721415
 10
6414.0279006929
 20
5141.8663444494
 10
6408.8970169618
 20
5143.6086456218
 10
6403.927083979
 20
5145.540041402
 10
6399.1433863082
 20
5147.6488516025
 10
6394.5688638892
 20
5149.9222798247
 10
6390.2236786524
 20
5152.3467987791
 10
6386.1249129375
 20
5154.9085806473
 10
6382.2719985622
 20
5157.600093155
 10
6378.5691397787
 20
5160.4859450941
 10
6375.0903050067
 20
5163.51391877
 10
6371.8370890513
 20
5166.6821637896
 10
6368.8229591665
 20
5169.9786701628
 10
6366.0605724316
 20
5173.3906319947
 10
6363.5615728233
 20
5176.9046791207
 10
6361.3364047818
 20
5180.507208683
 10
6359.3942264903
 20
5184.1847365685
 10
6357.7429382933
 20
5187.9242201609
 10
6356.3893222745
 20
5191.7132881846
 10
6355.3392580126
 20
5195.5403045943
 10
6354.9993938368
 20
5197.3071575735
  0
LWPOLYLINE
  5
86
330
1F
100
AcDbEntity
  8
0
  6
Continuous
 62
     7
370
    25
100
AcDbPolyline
 90
        5
 70
   128
 43
0.0
 10
6592.3883438062
 20
5207.349099958
 10
6592.3955145247
 20
5207.6360398406
 10
6593.5301290311
 20
5257.5248630848
 10
6594.3257797254
 20
5303.687672352
 10
6594.6344096409
 20
5331.8232644143
  0
LWPOLYLINE
  5
87
330
1F
100
AcDbEntity
  8
0
  6
Continuous
 62
     7
370
    25
100
AcDbPolyline
 90
        5
 70
   128
 43
0.0
 10
6315.613902053
 20
5332.1146892281
 10
6316.1108647654
 20
5291.5203296911
 10
6317.029307174
 20
5241.7754534814
 10
6317.6100648599
 20
5215.8496425042
 10
6317.8126742247
 20
5207.3579189394
  0
ARC
  5
88
330
1F
100
AcDbEntity
  8
0
  6
Continuous
 62
     7
370
    25
100
AcDbCircle
 10
6391.9659508424
 20
4847.3551849914
 30
0.0
 40
9.99999960358987
100
AcDbArc
 50
201.1989767968
 51
269.9981547584
  0
LWPOLYLINE
  5
89
330
1F
100
AcDbEntity
  8
0
  6
Continuous
 62
     7
370
    25
100
AcDbPolyline
 90
       40
 70
   128
 43
0.0
 10
6327.8089953139
 20
5214.4414027324
 10
6327.9646396232
 20
5208.398678896
 10
6328.3121705991
 20
5202.3608442777
 10
6329.1080371298
 20
5196.3535408826
 10
6331.4418136132
 20
5187.2301458932
 10
6335.023737181
 20
5178.324716883
 10
6338.8577355846
 20
5171.2820594449
 10
6343.479582139
 20
5164.4955265357
 10
6349.0295698667
 20
5157.829923379
 10
6355.3392650163
 20
5151.5337329504
 10
6362.1540216338
 20
5145.8138228621
 10
6369.5930474558
 20
5140.5235174429
 10
6377.841002436
 20
5135.5672130505
 10
6386.6313240479
 20
5131.1341590556
 10
6395.7210477571
 20
5127.3240356017
 10
6405.2080075465
 20
5124.0692068989
 10
6415.3092908308
 20
5121.3248733794
 10
6425.6899729416
 20
5119.206094233
 10
6436.1504475771
 20
5117.7425747933
 10
6446.74076505
 20
5116.9126494585
 10
6457.694658836
 20
5116.7277926339
 10
6468.6305836427
 20
5117.2206465331
 10
6479.2306733717
 20
5118.3572625202
 10
6489.6648708116
 20
5120.1312537731
 10
6500.1534419512
 20
5122.6130524422
 10
6510.3114003214
 20
5125.7416151732
 10
6519.7622921054
 20
5129.3707469404
 10
6528.7637438397
 20
5133.5634746926
 10
6537.4928752918
 20
5138.4440273398
 10
6545.6071208924
 20
5143.8593136445
 10
6552.7415952926
 20
5149.5149156715
 10
6559.1990350337
 20
5155.5876507696
 10
6565.0888174284
 20
5162.2366694592
 10
6570.1623959707
 20
5169.2343494703
 10
6574.2067697731
 20
5176.1925438509
 10
6577.4449487834
 20
5183.3715641057
 10
6579.911986613
 20
5190.9363285409
 10
6581.4946146826
 20
5198.6260647371
 10
6582.1911867047
 20
5206.5143435606
 10
6582.3914780832
 20
5214.4414027323
  0
LINE
  5
8A
330
1F
100
AcDbEntity
  8
0
  6
Continuous
 62
     7
370
    25
100
AcDbLine
 10
6319.9186133695
 20
5184.9373466739
 30
0.0
 11
6319.884089184
 21
5185.1225026584
 31
0.0
  0
LWPOLYLINE
  5
8B
330
1F
100
AcDbEntity
  8
0
  6
Continuous
 62
     7
370
    25
100
AcDbPolyline
 90
        3
 70
   128
 43
0.0
 10
6325.3918984707
 20
5359.7277535546
 10
6326.2910047111
 20
5287.3235771603
 10
6327.8089953139
 20
5214.4414027324
  0
LINE
  5
8C
330
1F
100
AcDbEntity
  8
0
  6
Continuous
 62
     7
370
    25
100
AcDbLine
 10
6584.868828326
 20
5359.7277535546
 30
0.0
 11
6325.3918984707
 21
5359.7277535546
 31
0.0
  0
LWPOLYLINE
  5
8D
330
1F
100
AcDbEntity
  8
0
  6
Continuous
 62
     7
370
    25
100
AcDbPolyline
 90
        3
 70
   128
 43
0.0
 10
6582.3914780832
 20
5214.4414027323
 10
6583.9506000206
 20
5286.8394600428
 10
6584.868828326
 20
5359.7277535546
  0
LINE
  5
8E
330
1F
100
AcDbEntity
  8
0
  6
Continuous
 62
     7
370
    25
100
AcDbLine
 10
6344.0366635531
 20
5214.4154620163
 30
0.0
 11
6343.7939550597
 21
5275.2594348747
 31
0.0
  0
LWPOLYLINE
  5
8F
330
1F
100
AcDbEntity
  8
0
  6
Continuous
 62
     7
370
    25
100
AcDbPolyline
 90
       38
 70
   128
 43
0.0
 10
6566.2207382836
 20
5214.4154620167
 10
6565.7975493162
 20
5207.231169489
 10
6564.5803959753
 20
5200.0696549795
 10
6562.5417840353
 20
5193.0135018879
 10
6559.6542192705
 20
5186.1452936141
 10
6555.9444960845
 20
5179.5501421801
 10
6551.4394388655
 20
5173.1926899618
 10
6546.1949864321
 20
5167.1442106716
 10
6540.2670776033
 20
5161.4759780219
 10
6533.946080559
 20
5156.4171980417
 10
6527.0386119
 20
5151.7478383256
 10
6519.6203647357
 20
5147.5157035958
 10
6511.7670321754
 20
5143.7685985748
 10
6503.5214155323
 20
5140.53337257
 10
6494.9003737772
 20
5137.8065693858
 10
6485.996978565
 20
5135.6149441738
 10
6476.9043015503
 20
5133.9852520856
 10
6467.6814949696
 20
5132.9332685449
 10
6458.336491549
 20
5132.4501276219
 10
6448.9687727304
 20
5132.5378025055
 10
6439.6778199556
 20
5133.1982663847
 10
6430.5173803587
 20
5134.4331020392
 10
6421.499694618
 20
5136.2315659995
 10
6412.718587352
 20
5138.5713247742
 10
6404.2678831794
 20
5141.4300448721
 10
6396.1742837541
 20
5144.8065527534
 10
6388.4701408678
 20
5148.6796600898
 10
6381.2337795036
 20
5153.006046563
 10
6374.5435246446
 20
5157.7423918549
 10
6368.4095767203
 20
5162.8944447523
 10
6362.87019699
 20
5168.4230397676
 10
6357.9800081428
 20
5174.2682053148
 10
6353.793632868
 20
5180.3699698079
 10
6350.3253942694
 20
5186.7293420728
 10
6347.5930900023
 20
5193.3022505966
 10
6345.6213797228
 20
5200.0183421555
 10
6344.434923087
 20
5206.807263526
 10
6344.0366635531
 20
5214.4154620163
  0
LINE
  5
90
330
1F
100
AcDbEntity
  8
0
  6
Continuous
 62
     7
370
    25
100
AcDbLine
 10
6566.463446777
 20
5275.2594348747
 30
0.0
 11
6566.2207382836
 21
5214.4154620167
 31
0.0
  0
LWPOLYLINE
  5
91
330
1F
100
AcDbEntity
  8
0
  6
Continuous
 62
     7
370
    25
100
AcDbPolyline
 90
       15
 70
   128
 43
0.0
 10
6518.2029182697
 20
5312.5186034495
 10
6522.3808221689
 20
5312.3839715681
 10
6526.5259992348
 20
5311.9807682891
 10
6531.7710724232
 20
5311.0618617289
 10
6536.8541674852
 20
5309.7059240088
 10
6541.6746044412
 20
5307.9402789402
 10
6546.4619554408
 20
5305.6242127444
 10
6550.8506300511
 20
5302.8962529383
 10
6554.7537570614
 20
5299.8206529993
 10
6558.2991026242
 20
5296.2384875509
 10
6561.244178977
 20
5292.3589543769
 10
6563.5418179493
 20
5288.269512732
 10
6565.1710431177
 20
5284.0255286398
 10
6566.1466465123
 20
5279.6617303923
 10
6566.463446777
 20
5275.2594348747
  0
LINE
  5
92
330
1F
100
AcDbEntity
  8
0
  6
Continuous
 62
     7
370
    25
100
AcDbLine
 10
6392.0544835671
 20
5312.5186034495
 30
0.0
 11
6518.2029182697
 21
5312.5186034495
 31
0.0
  0
LWPOLYLINE
  5
93
330
1F
100
AcDbEntity
  8
0
  6
Continuous
 62
     7
370
    25
100
AcDbPolyline
 90
       11
 70
   128
 43
0.0
 10
6343.7939550597
 20
5275.2594348747
 10
6344.2330979013
 20
5280.4396594322
 10
6345.5825252281
 20
5285.5349986253
 10
6348.2853604222
 20
5291.2016339987
 10
6352.1713867113
 20
5296.4880577445
 10
6356.9827362299
 20
5301.0704144496
 10
6362.7371207011
 20
5305.0307719957
 10
6369.3096805251
 20
5308.2358823452
 10
6376.5211105381
 20
5310.5988019388
 10
6384.1770611307
 20
5312.0334569571
 10
6392.0544835671
 20
5312.5186034495
  0
LWPOLYLINE
  5
94
330
1F
100
AcDbEntity
  8
0
  6
Continuous
 62
     7
370
    25
100
AcDbPolyline
 90
        3
 70
   128
 43
0.0
 10
6315.3340577886
 20
5362.2879187825
 10
6315.1786794833
 20
5362.3487130173
 10
6315.0161721702
 20
5362.3643384839
  0
LWPOLYLINE
  5
95
330
1F
100
AcDbEntity
  8
0
  6
Continuous
 62
     7
370
    25
100
AcDbPolyline
 90
        6
 70
   128
 43
0.0
 10
6315.3939597682
 20
5352.7091525969
 10
6315.3723521642
 20
5356.0647398742
 10
6315.3617813866
 20
5358.8365659756
 10
6315.3556818728
 20
5360.7831199967
 10
6315.3468895158
 20
5361.9661184753
 10
6315.3397581657
 20
5362.1449619466
  0
LINE
  5
96
330
1F
100
AcDbEntity
  8
0
  6
Continuous
 62
     7
370
    25
100
AcDbLine
 10
6315.6638197029
 20
5331.8799655338
 30
0.0
 11
6315.3939597682
 21
5352.7091525969
 31
0.0
  0
LINE
  5
97
330
1F
100
AcDbEntity
  8
0
  6
Continuous
 62
     7
370
    25
100
AcDbLine
 10
6594.8668343419
 20
5352.7116377536
 30
0.0
 11
6594.5892371937
 21
5331.5880873636
 31
0.0
  0
ARC
  5
98
330
1F
100
AcDbEntity
  8
0
  6
Continuous
 62
     7
370
    25
100
AcDbCircle
 10
6391.6863752077
 20
5358.6224496852
 30
0.0
 40
203.2664179634353
100
AcDbArc
 50
358.3336533026
 51
0.9890203504
  0
LWPOLYLINE
  5
99
330
1F
100
AcDbEntity
  8
0
  6
Continuous
 62
     7
370
    25
100
AcDbPolyline
 90
        3
 70
   128
 43
0.0
 10
6595.2412296665
 20
5362.3643384839
 10
6595.1174139156
 20
5362.3558777191
 10
6594.9278769778
 20
5362.289688112
  0
LINE
  5
9A
330
1F
100
AcDbEntity
  8
0
  6
Continuous
 62
     7
370
    25
100
AcDbLine
 10
6595.244464151
 20
5351.5801244284
 30
0.0
 11
6595.2412171367
 21
5362.3643384723
 31
0.0
  0
LINE
  5
9B
330
1F
100
AcDbEntity
  8
0
  6
Continuous
 62
     7
370
    25
100
AcDbLine
 10
6315.0161845757
 20
5362.3643384724
 30
0.0
 11
6315.0110078804
 21
5351.8628232698
 31
0.0
  0
LWPOLYLINE
  5
9C
330
1F
100
AcDbEntity
  8
0
  6
Continuous
 62
     7
370
    25
100
AcDbPolyline
 90
       20
 70
   128
 43
0.0
 10
6319.390870222
 20
5162.3551853878
 10
6319.4967727892
 20
5160.6970823973
 10
6319.6121853006
 20
5159.2271798023
 10
6319.7258673192
 20
5158.110239884
 10
6319.8266973074
 20
5157.4740143396
 10
6319.904237036
 20
5157.3909106775
 10
6319.9495560434
 20
5157.8687086081
 10
6319.9564183319
 20
5158.8507604164
 10
6319.9225414641
 20
5160.2247035647
 10
6319.8504427588
 20
5161.8368918449
 10
6319.7475940026
 20
5163.5088538286
 10
6319.6258440804
 20
5165.0542459406
 10
6319.5000915373
 20
5166.2975368206
 10
6319.3862024162
 20
5167.095013954
 10
6319.2984501626
 20
5167.3546769715
 10
6319.2471579052
 20
5167.0488004061
 10
6319.2372937428
 20
5166.2153249164
 10
6319.2683257199
 20
5164.9499216405
 10
6319.3350667762
 20
5163.3936426106
 10
6319.390870222
 20
5162.3551853878
  0
LWPOLYLINE
  5
9D
330
1F
100
AcDbEntity
  8
0
  6
Continuous
 62
     7
370
    25
100
AcDbPolyline
 90
       20
 70
   128
 43
0.0
 10
6590.8982480821
 20
5162.3551853878
 10
6590.9834135656
 20
5164.0096892409
 10
6591.0387972723
 20
5165.4788613954
 10
6591.0566336578
 20
5166.5944488932
 10
6591.0334542212
 20
5167.2321242367
 10
6590.9708821296
 20
5167.3227409727
 10
6590.8756563622
 20
5166.8562507641
 10
6590.758981511
 20
5165.8824009866
 10
6590.6352180231
 20
5164.5079229613
 10
6590.5198955214
 20
5162.8877037518
 10
6590.427256111
 20
5161.2074487401
 10
6590.3679500164
 20
5159.6595739847
 10
6590.3476369471
 20
5158.4185031763
 10
6590.3668332963
 20
5157.6213377292
 10
6590.4217284141
 20
5157.3553749969
 10
6590.5053927211
 20
5157.6505520224
 10
6590.6088902733
 20
5158.4757259326
 10
6590.7220439333
 20
5159.7401459025
 10
6590.8338667659
 20
5161.3019092991
 10
6590.8982480821
 20
5162.3551853878
  0
LINE
  5
9E
330
1F
100
AcDbEntity
  8
0
  6
Continuous
 62
     7
370
    25
100
AcDbLine
 10
6353.9235000046
 20
5208.6245493621
 30
0.0
 11
6353.9279196805
 21
5207.5496894013
 31
0.0
  0
LINE
  5
9F
330
1F
100
AcDbEntity
  8
0
  6
Continuous
 62
     7
370
    25
100
AcDbLine
 10
6355.1176205428
 20
5197.3312205696
 30
0.0
 11
6355.1547641644
 21
5197.1402159028
 31
0.0
  0
LINE
  5
A0
330
1F
100
AcDbEntity
  8
0
  6
Continuous
 62
     7
370
    25
100
AcDbLine
 10
6555.1423840581
 20
5197.1392758635
 30
0.0
 11
6555.2237660561
 21
5197.4773765506
 31
0.0
  0
LINE
  5
A1
330
1F
100
AcDbEntity
  8
0
  6
Continuous
 62
     7
370
    25
100
AcDbLine
 10
6556.3294821562
 20
5207.5496894013
 30
0.0
 11
6556.3339018321
 21
5208.6245493625
 31
0.0
  0
LWPOLYLINE
  5
A2
330
1F
100
AcDbEntity
  8
0
  6
Continuous
 62
     7
370
    25
100
AcDbPolyline
 90
        9
 70
   128
 43
0.0
 10
6556.3339018321
 20
5208.6245493625
 10
6556.7541499049
 20
5209.8021522463
 10
6557.4719790087
 20
5210.9096606293
 10
6558.4648242749
 20
5211.9122601229
 10
6559.7014757356
 20
5212.7784341364
 10
6561.1430594057
 20
5213.4809545972
 10
6562.7442592812
 20
5213.9977378617
 10
6564.4547418429
 20
5214.3125389122
 10
6566.2207382836
 20
5214.4154620167
  0
LWPOLYLINE
  5
A3
330
1F
100
AcDbEntity
  8
0
  6
Continuous
 62
     7
370
    25
100
AcDbPolyline
 90
        9
 70
   128
 43
0.0
 10
6344.0366635531
 20
5214.4154620163
 10
6345.8026599938
 20
5214.3125389118
 10
6347.5131425555
 20
5213.9977378613
 10
6349.1143424311
 20
5213.4809545967
 10
6350.5559261011
 20
5212.778434136
 10
6351.7925775619
 20
5211.9122601224
 10
6352.785422828
 20
5210.9096606289
 10
6353.5032519319
 20
5209.8021522459
 10
6353.9235000046
 20
5208.6245493621
  0
LINE
  5
A4
330
1F
100
AcDbEntity
  8
0
  6
Continuous
 62
     7
370
    25
100
AcDbLine
 10
6360.1287009184
 20
5220.2365325696
 30
0.0
 11
6360.1287009184
 21
5182.7940042129
 31
0.0
  0
LINE
  5
A5
330
1F
100
AcDbEntity
  8
0
  6
Continuous
 62
     7
370
    25
100
AcDbLine
 10
6550.1287009184
 20
5182.8812302461
 30
0.0
 11
6550.1287009184
 21
5220.2365325696
 31
0.0
  0
LWPOLYLINE
  5
A6
330
1F
100
AcDbEntity
  8
0
  6
Continuous
 62
     7
370
    25
100
AcDbPolyline
 90
        4
 70
   128
 43
0.0
 10
6556.538837763
 20
5269.2720504476
 10
6555.1190435014
 20
5258.3472839744
 10
6552.2296868821
 20
5236.2235548603
 10
6550.1287009184
 20
5220.2365325696
  0
LWPOLYLINE
  5
A7
330
1F
100
AcDbEntity
  8
0
  6
Continuous
 62
     7
370
    25
100
AcDbPolyline
 90
        3
 70
   128
 43
0.0
 10
6556.3339018321
 20
5208.6245493625
 10
6556.3904347525
 20
5223.1551482844
 10
6556.538837763
 20
5269.2720504476
  0
LWPOLYLINE
  5
A8
330
1F
100
AcDbEntity
  8
0
  6
Continuous
 62
     7
370
    25
100
AcDbPolyline
 90
        3
 70
   128
 43
0.0
 10
6353.7185640737
 20
5269.2720504476
 10
6353.7611636029
 20
5254.7264331921
 10
6353.9235000046
 20
5208.6245493621
  0
LWPOLYLINE
  5
A9
330
1F
100
AcDbEntity
  8
0
  6
Continuous
 62
     7
370
    25
100
AcDbPolyline
 90
        4
 70
   128
 43
0.0
 10
6360.1287009184
 20
5220.2365325696
 10
6358.0277149547
 20
5236.2235548603
 10
6355.1383583353
 20
5258.3472839744
 10
6353.7185640737
 20
5269.2720504476
  0
LWPOLYLINE
  5
AA
330
1F
100
AcDbEntity
  8
0
  6
Continuous
 62
     7
370
    25
100
AcDbPolyline
 90
        9
 70
   128
 43
0.0
 10
6343.7939550597
 20
5275.2594348747
 10
6345.5940200807
 20
5275.150775155
 10
6347.3352781557
 20
5274.8221043055
 10
6348.9608435228
 20
5274.2841597879
 10
6350.4176100257
 20
5273.5545158974
 10
6351.6579860559
 20
5272.6570096223
 10
6352.6414493406
 20
5271.6209619053
 10
6353.3358707778
 20
5270.4802197472
 10
6353.7185640737
 20
5269.2720504476
  0
LWPOLYLINE
  5
AB
330
1F
100
AcDbEntity
  8
0
  6
Continuous
 62
     7
370
    25
100
AcDbPolyline
 90
        9
 70
   128
 43
0.0
 10
6556.538837763
 20
5269.2720504476
 10
6556.9215310589
 20
5270.4802197472
 10
6557.6159524961
 20
5271.6209619053
 10
6558.5994157808
 20
5272.6570096223
 10
6559.8397918111
 20
5273.5545158974
 10
6561.2965583139
 20
5274.2841597879
 10
6562.9221236811
 20
5274.8221043055
 10
6564.663381756
 20
5275.150775155
 10
6566.463446777
 20
5275.2594348747
  0
LWPOLYLINE
  5
AC
330
1F
100
AcDbEntity
  8
0
  6
Continuous
 62
     7
370
    25
100
AcDbPolyline
 90
        9
 70
   128
 43
0.0
 10
6584.868828326
 20
5359.7277535546
 10
6586.8431259971
 20
5359.5847256882
 10
6588.739700972
 20
5359.1779326629
 10
6590.4838902843
 20
5358.523388807
 10
6592.007029974
 20
5357.6468617206
 10
6593.2491582
 20
5356.5828578764
 10
6594.1613757733
 20
5355.373264194
 10
6594.7077711847
 20
5354.0656990661
 10
6594.8668343419
 20
5352.7116377536
  0
LWPOLYLINE
  5
AD
330
1F
100
AcDbEntity
  8
0
  6
Continuous
 62
     7
370
    25
100
AcDbPolyline
 90
        9
 70
   128
 43
0.0
 10
6325.3918984707
 20
5359.7277535546
 10
6323.4171801153
 20
5359.5846391634
 10
6321.5202345001
 20
5359.1776494162
 10
6319.7757713463
 20
5358.5228132864
 10
6318.2524949729
 20
5357.6459209835
 10
6317.01039843
 20
5356.5815082258
 10
6316.0984007198
 20
5355.3714960786
 10
6315.5524201599
 20
5354.0635399251
 10
6315.3939597682
 20
5352.7091525969
  0
LWPOLYLINE
  5
AE
330
1F
100
AcDbEntity
  8
0
  6
Continuous
 62
     7
370
    25
100
AcDbPolyline
 90
       11
 70
   128
 43
0.0
 10
6556.538837763
 20
5269.2720504476
 10
6556.0329278829
 20
5275.0632610086
 10
6554.3340753201
 20
5280.6932145952
 10
6552.5421272022
 20
5284.2412165814
 10
6550.2220509715
 20
5287.6054359556
 10
6547.4045972264
 20
5290.7068547313
 10
6542.6137073462
 20
5294.5353232726
 10
6536.9937567389
 20
5297.6045119542
 10
6531.1332760124
 20
5299.6567702429
 10
6524.8778712361
 20
5300.8598766206
 10
6518.2029182697
 20
5301.1638348925
  0
LINE
  5
AF
330
1F
100
AcDbEntity
  8
0
  6
Continuous
 62
     7
370
    25
100
AcDbLine
 10
6518.2029182697
 20
5301.1638348925
 30
0.0
 11
6518.2029182697
 21
5312.5186034495
 31
0.0
  0
ARC
  5
B0
330
1F
100
AcDbEntity
  8
0
  6
Continuous
 62
     7
370
    25
100
AcDbCircle
 10
6518.2819830468
 20
4847.3554723787
 30
0.0
 40
10.0002869910897
100
AcDbArc
 50
269.999618926
 51
339.0322493073
  0
LINE
  5
B1
330
1F
100
AcDbEntity
  8
0
  6
Continuous
 62
     7
370
    25
100
AcDbLine
 10
6518.2819165349
 20
4837.3551853878
 30
0.0
 11
6392.027142259
 21
4837.3551853878
 31
0.0
  0
LINE
  5
B2
330
1F
100
AcDbEntity
  8
0
  6
Continuous
 62
     7
370
    25
100
AcDbLine
 10
6392.0544835671
 20
5312.5186034495
 30
0.0
 11
6392.0544835671
 21
5301.1638348925
 31
0.0
  0
LWPOLYLINE
  5
B3
330
1F
100
AcDbEntity
  8
0
  6
Continuous
 62
     7
370
    25
100
AcDbPolyline
 90
       11
 70
   128
 43
0.0
 10
6392.0544835671
 20
5301.1638348925
 10
6385.7425175707
 20
5300.897474874
 10
6379.6068923533
 20
5299.7880490494
 10
6373.8385637257
 20
5297.8477913577
 10
6368.6028085785
 20
5295.1566007191
 10
6364.0167834096
 20
5291.7706948654
 10
6360.2139891399
 20
5287.8341381709
 10
6357.1447385519
 20
5283.2359197578
 10
6355.0433321843
 20
5278.3032948719
 10
6354.0138503018
 20
5273.8267153887
 10
6353.7185640737
 20
5269.2720504476
  0
LWPOLYLINE
  5
B4
330
1F
100
AcDbEntity
  8
0
  6
Continuous
 62
     7
370
    25
100
AcDbPolyline
 90
        5
 70
   128
 43
0.0
 10
6510.8024177498
 20
5244.9418573395
 10
6512.5225856768
 20
5257.9208002713
 10
6515.4173648126
 20
5279.8886909623
 10
6518.0054701964
 20
5299.6516877995
 10
6518.2029182697
 20
5301.1638348925
  0
LWPOLYLINE
  5
B5
330
1F
100
AcDbEntity
  8
0
  6
Continuous
 62
     7
370
    25
100
AcDbPolyline
 90
       11
 70
   128
 43
0.0
 10
6550.1287009184
 20
5220.2365325696
 10
6549.5589437738
 20
5224.4535573519
 10
6547.871346546
 20
5228.5533840713
 10
6545.0796559262
 20
5232.4194903835
 10
6541.2690322995
 20
5235.9345767736
 10
6536.6268316715
 20
5238.9303792387
 10
6531.2324297789
 20
5241.394172226
 10
6525.3440427156
 20
5243.2160229393
 10
6519.0477473531
 20
5244.4031596276
 10
6514.9479363728
 20
5244.80672372
 10
6510.8024177498
 20
5244.9418573395
  0
LWPOLYLINE
  5
B6
330
1F
100
AcDbEntity
  8
0
  6
Continuous
 62
     7
370
    25
100
AcDbPolyline
 90
        5
 70
   128
 43
0.0
 10
6392.0544835671
 20
5301.1638348925
 10
6392.2519316403
 20
5299.6516877995
 10
6394.8400370241
 20
5279.8886909623
 10
6397.7348161599
 20
5257.9208002713
 10
6399.4549840869
 20
5244.9418573395
  0
LWPOLYLINE
  5
B7
330
1F
100
AcDbEntity
  8
0
  6
Continuous
 62
     7
370
    25
100
AcDbPolyline
 90
       11
 70
   128
 43
0.0
 10
6399.4549840869
 20
5244.9418573395
 10
6392.8722743839
 20
5244.5976498138
 10
6386.4737748914
 20
5243.5802228728
 10
6380.4437466523
 20
5241.9030525844
 10
6374.953277023
 20
5239.6220903383
 10
6370.1997686544
 20
5236.8171355346
 10
6366.2603235831
 20
5233.5627255132
 10
6363.2325248559
 20
5229.9228679797
 10
6361.2031196092
 20
5226.0249401514
 10
6360.3982716333
 20
5223.1498968124
 10
6360.1287009184
 20
5220.2365325696
  0
LINE
  5
B8
330
1F
100
AcDbEntity
  8
0
  6
Continuous
 62
     7
370
    25
100
AcDbLine
 10
6518.2029182697
 20
5301.1638348925
 30
0.0
 11
6392.0544835671
 21
5301.1638348925
 31
0.0
  0
LINE
  5
B9
330
1F
100
AcDbEntity
  8
0
  6
Continuous
 62
     7
370
    25
100
AcDbLine
 10
6510.8024177498
 20
5244.9418573395
 30
0.0
 11
6399.4549840869
 21
5244.9418573395
 31
0.0
  0
LWPOLYLINE
  5
BA
330
1F
100
AcDbEntity
  8
0
  6
Continuous
 62
     7
370
    25
100
AcDbPolyline
 90
        6
 70
   128
 43
0.0
 10
6325.3337616501
 20
5372.3551853878
 10
6325.3465197154
 20
5371.9501782544
 10
6325.3548872654
 20
5370.4645409305
 10
6325.3607717936
 20
5367.8390659145
 10
6325.3703990106
 20
5364.2941499444
 10
6325.3918984707
 20
5359.7277535546
  0
ARC
  5
BB
330
1F
100
AcDbEntity
  8
0
  6
Continuous
 62
     7
370
    25
100
AcDbCircle
 10
6325.3337671725
 20
5362.3552927435
 30
0.0
 40
9.99989264427011
100
AcDbArc
 50
90.0000316415
 51
132.2236956361
  0
LWPOLYLINE
  5
BC
330
1F
100
AcDbEntity
  8
0
  6
Continuous
 62
     7
370
    25
100
AcDbPolyline
 90
        6
 70
   128
 43
0.0
 10
6584.868828326
 20
5359.7277535546
 10
6584.8877521881
 20
5363.5901884062
 10
6584.8989721388
 20
5367.2948996275
 10
6584.9053606446
 20
5370.1003848221
 10
6584.9132439433
 20
5371.7711132101
 10
6584.9281630779
 20
5372.3551853878
  0
ARC
  5
BD
330
1F
100
AcDbEntity
  8
0
  6
Continuous
 62
     7
370
    25
100
AcDbCircle
 10
6584.9281575619
 20
5362.3552960534
 30
0.0
 40
9.999889334397878
100
AcDbArc
 50
48.4809249131
 51
89.9999683957
  0
LINE
  5
BE
330
1F
100
AcDbEntity
  8
0
  6
Continuous
 62
     7
370
    25
100
AcDbLine
 10
6325.3337616501
 20
5372.3551853878
 30
0.0
 11
6584.9281630779
 21
5372.3551853878
 31
0.0
  0
LINE
  5
BF
330
1F
100
AcDbEntity
  8
0
  6
Continuous
 62
     7
370
    25
100
AcDbLine
 10
6584.9281630779
 20
5372.3551853878
 30
0.0
 11
6585.2412297621
 21
5372.3551853878
 31
0.0
  0
ARC
  5
C0
330
1F
100
AcDbEntity
  8
0
  6
Continuous
 62
     7
370
    25
100
AcDbCircle
 10
6585.241232129
 20
5362.3551836598
 30
0.0
 40
10.00000172802531
100
AcDbArc
 50
0.0524532769
 51
90.0000135615
  0
LINE
  5
C1
330
1F
100
AcDbEntity
  8
0
  6
Continuous
 62
     7
370
    25
100
AcDbLine
 10
6325.0161720755
 20
5372.3551853878
 30
0.0
 11
6325.3337616501
 21
5372.3551853878
 31
0.0
  0
ARC
  5
C2
330
1F
100
AcDbEntity
  8
0
  6
Continuous
 62
     7
370
    25
100
AcDbCircle
 10
6325.0161703391
 20
5362.3551830278
 30
0.0
 40
10.00000235999338
100
AcDbArc
 50
89.999990051
 51
179.9475431055
  0
LWPOLYLINE
  5
C3
330
1F
100
AcDbEntity
  8
0
  6
Continuous
 62
     8
370
    25
100
AcDbPolyline
 90
        9
 70
   128
 43
0.0
 10
6327.8089953139
 20
5214.4414027324
 10
6325.8315705031
 20
5214.2809487764
 10
6323.9322623994
 20
5213.8565001617
 10
6322.1861017671
 20
5213.1848244173
 10
6320.6620693929
 20
5212.2924555975
 10
6319.4203710505
 20
5211.2146460739
 10
6318.510059116
 20
5209.9939739158
 10
6317.9670947903
 20
5208.6786608755
 10
6317.8117548075
 20
5207.3634276128
  0
LWPOLYLINE
  5
C4
330
1F
100
AcDbEntity
  8
0
  6
Continuous
 62
     8
370
    25
100
AcDbPolyline
 90
        9
 70
   128
 43
0.0
 10
6582.3914780832
 20
5214.4414027323
 10
6584.372472359
 20
5214.2794855152
 10
6586.2749214706
 20
5213.8526619794
 10
6588.0233945196
 20
5213.1778554069
 10
6589.5485656607
 20
5212.2818214494
 10
6590.7899628273
 20
5211.2000872839
 10
6591.6983654106
 20
5209.9755429828
 10
6592.2377558254
 20
5208.6567409495
 10
6592.3887594842
 20
5207.3657786389
  0
LWPOLYLINE
  5
C5
330
1F
100
AcDbEntity
  8
0
  6
Continuous
 62
     8
370
    25
100
AcDbPolyline
 90
       36
 70
   128
 43
0.0
 10
6590.2255019888
 20
5184.6676931692
 10
6589.6718799561
 20
5181.9648194203
 10
6587.1076190031
 20
5174.2838949055
 10
6583.6041435502
 20
5166.805043722
 10
6579.1879934475
 20
5159.6070917729
 10
6573.764676191
 20
5152.6043011946
 10
6567.4395872439
 20
5145.9365048647
 10
6560.2963999723
 20
5139.6700225832
 10
6552.4187877425
 20
5133.8711741497
 10
6543.7622276079
 20
5128.5195826781
 10
6534.4377216352
 20
5123.6746157187
 10
6524.5543205761
 20
5119.3819590774
 10
6514.2210751825
 20
5115.6872985605
 10
6503.4909920546
 20
5112.6130364377
 10
6492.3920341623
 20
5110.1554754114
 10
6481.0400670875
 20
5108.3354103658
 10
6469.5509564123
 20
5107.1736361852
 10
6458.04590884
 20
5106.6820112382
 10
6446.4833786936
 20
5106.8441704165
 10
6434.9785573553
 20
5107.6560244273
 10
6423.6466362074
 20
5109.1134839776
 10
6412.6764087128
 20
5111.1869438565
 10
6401.9494228785
 20
5113.8787245809
 10
6391.5728039145
 20
5117.1607521716
 10
6381.653677031
 20
5121.0049526495
 10
6372.2696527119
 20
5125.3882452742
 10
6363.4139963592
 20
5130.3065336558
 10
6355.1827681777
 20
5135.7110011913
 10
6347.6720283718
 20
5141.5528312777
 10
6340.8994645854
 20
5147.8465170868
 10
6334.9173561821
 20
5154.5456439747
 10
6329.7914667747
 20
5161.5798155204
 10
6325.5875599759
 20
5168.8786353031
 10
6322.4614107316
 20
5176.0734161133
 10
6320.1925543262
 20
5183.4681792824
 10
6319.9186133695
 20
5184.9373466739
  0
LINE
  5
C6
330
1F
100
AcDbEntity
  8
0
  6
Continuous
 62
     8
370
    25
100
AcDbLine
 10
6315.3397581657
 20
5362.1449619466
 30
0.0
 11
6315.3340577886
 21
5362.2879187825
 31
0.0
  0
LINE
  5
C7
330
1F
100
AcDbEntity
  8
0
  6
Continuous
 62
     8
370
    25
100
AcDbLine
 10
6594.9278769778
 20
5362.289688112
 30
0.0
 11
6594.9225107883
 21
5362.1309915401
 31
0.0
  0
LWPOLYLINE
  5
C8
330
1F
100
AcDbEntity
  8
0
  6
Continuous
 62
     8
370
    25
100
AcDbPolyline
 90
       41
 70
   128
 43
0.0
 10
6382.6970931575
 20
4843.7578973603
 10
6383.0552404539
 20
4843.6437483431
 10
6384.5311012707
 20
4843.5616231541
 10
6385.7632936492
 20
4843.5294970461
 10
6387.3412931551
 20
4843.4984427983
 10
6389.3054229385
 20
4843.462703315
 10
6391.6789600973
 20
4843.4152435568
 10
6396.1103273205
 20
4843.3021451364
 10
6398.7698802566
 20
4843.215678149
 10
6401.7446382379
 20
4843.1012048899
 10
6407.7142747505
 20
4842.8143732687
 10
6411.1742076379
 20
4842.6139068741
 10
6414.9564956631
 20
4842.3699914916
 10
6420.9768115293
 20
4841.9510776879
 10
6427.8687707305
 20
4841.4781924464
 10
6431.7756126751
 20
4841.2341957835
 10
6435.8930640792
 20
4841.0069030817
 10
6440.356848827
 20
4840.8030946215
 10
6444.9993274422
 20
4840.6426486496
 10
6450.0849686376
 20
4840.5306287879
 10
6455.338555409
 20
4840.4853785159
 10
6462.5261050771
 20
4840.5466579943
 10
6469.7548302212
 20
4840.7592693513
 10
6476.2386096923
 20
4841.0718116593
 10
6482.4092686717
 20
4841.4552897254
 10
6486.7780156301
 20
4841.7587842745
 10
6490.8343612627
 20
4842.0493109588
 10
6494.6876707767
 20
4842.3189548701
 10
6498.2314836354
 20
4842.5523023056
 10
6503.4918043354
 20
4842.8584754384
 10
6508.0331229665
 20
4843.078990293
 10
6512.0385906326
 20
4843.2369216178
 10
6515.4521389962
 20
4843.3439862764
 10
6518.9443870311
 20
4843.4295818106
 10
6521.7366785573
 20
4843.4824991882
 10
6523.9076852394
 20
4843.5194906992
 10
6526.1981738978
 20
4843.5765276059
 10
6527.3774268708
 20
4843.6626427963
 10
6527.6200711526
 20
4843.776944908
 10
6527.6200709176
 20
4843.776945472
 10
6527.6200709176
 20
4843.776945472
  0
ARC
  5
C9
330
1F
100
AcDbEntity
  8
0
  6
Continuous
 62
     8
370
    25
100
AcDbCircle
 10
6397.5122813908
 20
5207.445574586
 30
0.0
 40
43.58448606546507
100
AcDbArc
 50
179.8631314553
 51
193.4185697045
  0
LWPOLYLINE
  5
CA
330
1F
100
AcDbEntity
  8
0
  6
Continuous
 62
     8
370
    25
100
AcDbPolyline
 90
        5
 70
   128
 43
0.0
 10
6555.3056729016
 20
5197.8176577117
 10
6555.6034563851
 20
5199.0547961805
 10
6556.3294818243
 20
5207.5496451413
 10
6556.3294821562
 20
5207.5496894013
 10
6556.3294821562
 20
5207.5496894013
  0
ARC
  5
CB
330
1F
100
AcDbEntity
  8
0
  6
Continuous
 62
     8
370
    25
100
AcDbCircle
 10
6325.3338603086
 20
5362.3551933801
 30
0.0
 40
10.00002881550855
100
AcDbArc
 50
132.2237082118
 51
180.385456848
  0
ARC
  5
CC
330
1F
100
AcDbEntity
  8
0
  6
Continuous
 62
     8
370
    25
100
AcDbCircle
 10
6584.9280627594
 20
5362.3551937563
 30
0.0
 40
10.00002876952989
100
AcDbArc
 50
359.6246787005
 51
48.4809067369
  0
LWPOLYLINE
  5
CD
330
1F
100
AcDbEntity
  8
0
  6
Continuous
 62
     7
370
    25
100
AcDbPolyline
 90
       35
 70
   128
 43
0.0
 10
6999.3346480974
 20
4840.4639637077
 10
7010.8026201893
 20
4852.8273227723
 10
7022.937934233
 20
4866.5913629844
 10
7034.0659424531
 20
4879.8451278106
 10
7044.2457929365
 20
4892.5522897199
 10
7053.5333434934
 20
4904.6784728838
 10
7061.9811502289
 20
4916.1912720033
 10
7069.6384581465
 20
4927.0602692925
 10
7076.5511935361
 20
4937.2570497651
 10
7083.5942377583
 20
4948.0536194645
 10
7089.7785773133
 20
4957.901620333
 10
7095.1567918181
 20
4966.7683750413
 10
7099.775769325
 20
4974.6247065507
 10
7103.6767031531
 20
4981.4449537813
 10
7106.8950899928
 20
4987.2069848039
 10
7109.4607289624
 20
4991.8922076795
 10
7111.189292607
 20
4995.0965451235
 10
7112.5844008666
 20
4997.7116053518
 10
7113.8686370965
 20
5000.1421783396
 10
7115.0469490411
 20
5002.392373705
 10
7115.9419596373
 20
5004.1146473276
 10
7116.9063029321
 20
5005.9832052823
 10
7117.9512254132
 20
5008.0232128602
 10
7119.309807298
 20
5010.699862483
 10
7121.1447059891
 20
5014.3596039173
 10
7123.4400434244
 20
5019.0123451865
 10
7126.1757117585
 20
5024.6706354304
 10
7129.3273742775
 20
5031.3496655647
 10
7132.8664665323
 20
5039.0672690695
 10
7136.7601977085
 20
5047.8439229032
 10
7140.9715522487
 20
5057.7027485366
 10
7145.4592917522
 20
5068.669513104
 10
7150.1779571728
 20
5080.772630667
 10
7155.0778713442
 20
5094.0431635854
 10
7159.4707340627
 20
5106.6885975777
  0
ARC
  5
CE
330
1F
100
AcDbEntity
  8
0
  6
Continuous
 62
     7
370
    25
100
AcDbCircle
 10
7150.0068731499
 20
5109.8665131285
 30
0.0
 40
9.999999776361902
100
AcDbArc
 50
341.4704336029
 51
43.1820522133
  0
ARC
  5
CF
330
1F
100
AcDbEntity
  8
0
  6
Continuous
 62
     7
370
    25
100
AcDbCircle
 10
6992.127253975
 20
4847.3550613647
 30
0.0
 40
9.999875976527596
100
AcDbArc
 50
269.997025357
 51
316.2480641533
  0
LWPOLYLINE
  5
D0
330
1F
100
AcDbEntity
  8
0
  6
Continuous
 62
     7
370
    25
100
AcDbPolyline
 90
        9
 70
   128
 43
0.0
 10
6900.1055046711
 20
5362.2879187825
 10
6895.1056021114
 20
5362.306988765
 10
6890.1057630702
 20
5362.323510454
 10
6885.1059791721
 20
5362.3374354289
 10
6880.1060298949
 20
5362.3487130173
 10
6874.1760063013
 20
5362.3585805183
 10
6868.245917407
 20
5362.3645479575
 10
6862.3157254656
 20
5362.366507107
 10
6856.3852479218
 20
5362.3643384839
  0
ARC
  5
D1
330
1F
100
AcDbEntity
  8
0
  6
Continuous
 62
     7
370
    25
100
AcDbCircle
 10
6899.9449638791
 20
5332.472559554
 30
0.0
 40
29.81579144124485
100
AcDbArc
 50
42.7437500357
 51
89.6914938753
  0
LWPOLYLINE
  5
D2
330
1F
100
AcDbEntity
  8
0
  6
Continuous
 62
     7
370
    25
100
AcDbPolyline
 90
        9
 70
   128
 43
0.0
 10
7056.8082398608
 20
5205.9736400888
 10
7039.9397997273
 20
5224.4252044954
 10
7023.0630794173
 20
5242.8702448618
 10
7006.172768688
 20
5261.3039247428
 10
6997.7208415398
 20
5270.5154843804
 10
6989.2639926938
 20
5279.7227890448
 10
6972.4454479642
 20
5298.0021611265
 10
6947.1730178206
 20
5325.3814427665
 10
6921.8415782585
 20
5352.7091525969
  0
LWPOLYLINE
  5
D3
330
1F
100
AcDbEntity
  8
0
  6
Continuous
 62
     7
370
    25
100
AcDbPolyline
 90
        4
 70
   128
 43
0.0
 10
7063.5728133374
 20
5198.5722965885
 10
7063.5727728683
 20
5198.5723408679
 10
7060.1905393908
 20
5202.2730026451
 10
7056.8082398608
 20
5205.9736400888
  0
LINE
  5
D4
330
1F
100
AcDbEntity
  8
0
  6
Continuous
 62
     7
370
    25
100
AcDbLine
 10
6856.3852479218
 20
5362.3643384724
 30
0.0
 11
6856.3852479218
 21
4843.7769507826
 31
0.0
  0
CIRCLE
  5
D5
330
1F
100
AcDbEntity
  8
0
  6
Continuous
 62
     7
370
    25
100
AcDbCircle
 10
6891.3852479218
 20
5162.3551853878
 30
0.0
 40
5.0
  0
ARC
  5
D6
330
1F
100
AcDbEntity
  8
0
  6
Continuous
 62
     7
370
    25
100
AcDbCircle
 10
6928.4669454195
 20
5347.7200687154
 30
0.0
 40
191.2159456929633
100
AcDbArc
 50
312.1585977324
 51
315.8127122945
  0
LINE
  5
D7
330
1F
100
AcDbEntity
  8
0
  6
Continuous
 62
     7
370
    25
100
AcDbLine
 10
7065.5812593369
 20
5214.4414027324
 30
0.0
 11
7157.2438639304
 21
5116.7681355426
 31
0.0
  0
ARC
  5
D8
330
1F
100
AcDbEntity
  8
0
  6
Continuous
 62
     7
370
    25
100
AcDbCircle
 10
6900.0681163573
 20
5332.3551853878
 30
0.0
 40
39.99999999999727
100
AcDbArc
 50
43.1816970355
 51
90.0
  0
ARC
  5
D9
330
1F
100
AcDbEntity
  8
0
  6
Continuous
 62
     7
370
    25
100
AcDbCircle
 10
6621.2612999499
 20
5676.7716615135
 30
0.0
 40
442.0011463711749
100
AcDbArc
 50
312.847090423
 51
314.1686428159
  0
LWPOLYLINE
  5
DA
330
1F
100
AcDbEntity
  8
0
  6
Continuous
 62
     7
370
    25
100
AcDbPolyline
 90
        9
 70
   128
 43
0.0
 10
6900.0681163573
 20
5372.3551853878
 10
6900.0754414522
 20
5372.1613943296
 10
6900.0824826394
 20
5371.5875321497
 10
6900.0889670152
 20
5370.6558407201
 10
6900.0946432568
 20
5369.4024307343
 10
6900.0992913633
 20
5367.8758821218
 10
6900.1027311822
 20
5366.1353611769
 10
6900.1048293925
 20
5364.2483273787
 10
6900.1055046711
 20
5362.2879187825
  0
LINE
  5
DB
330
1F
100
AcDbEntity
  8
0
  6
Continuous
 62
     7
370
    25
100
AcDbLine
 10
6856.3852479218
 20
5372.3551853878
 30
0.0
 11
6900.0681163573
 21
5372.3551853878
 31
0.0
  0
LINE
  5
DC
330
1F
100
AcDbEntity
  8
0
  6
Continuous
 62
     7
370
    25
100
AcDbLine
 10
6856.3852479218
 20
5362.3643384839
 30
0.0
 11
6856.3852479218
 21
5372.3551853878
 31
0.0
  0
LINE
  5
DD
330
1F
100
AcDbEntity
  8
0
  6
Continuous
 62
     7
370
    25
100
AcDbLine
 10
6929.2356070268
 20
5359.7277535546
 30
0.0
 11
7065.5812593369
 21
5214.4414027324
 31
0.0
  0
LINE
  5
DE
330
1F
100
AcDbEntity
  8
0
  6
Continuous
 62
     7
370
    25
100
AcDbLine
 10
6856.3852479218
 20
4837.3551853878
 30
0.0
 11
6992.1088295431
 21
4837.3551853878
 31
0.0
  0
LINE
  5
DF
330
1F
100
AcDbEntity
  8
0
  6
Continuous
 62
     7
370
    25
100
AcDbLine
 10
6856.3852479218
 20
4837.3551853878
 30
0.0
 11
6856.3852479218
 21
4843.7769454721
 31
0.0
  0
LWPOLYLINE
  5
E0
330
1F
100
AcDbEntity
  8
0
  6
Continuous
 62
     8
370
    25
100
AcDbPolyline
 90
       28
 70
   128
 43
0.0
 10
7159.4269782977
 20
5106.7037955491
 10
7159.438437523
 20
5106.688609662
 10
7159.0536862545
 20
5107.0506734697
 10
7158.2052168481
 20
5107.8605603519
 10
7156.8980053154
 20
5109.1134839776
 10
7155.2210937284
 20
5110.7232070857
 10
7153.1245606235
 20
5112.7360530608
 10
7150.3699499869
 20
5115.3790618749
 10
7147.1225632868
 20
5118.4913160436
 10
7144.4965375203
 20
5121.0049526495
 10
7140.8626704688
 20
5124.4773600446
 10
7137.7152261289
 20
5127.4810558611
 10
7134.3484639526
 20
5130.690847351
 10
7130.726686905
 20
5134.1385243933
 10
7126.896928597
 20
5137.7793552809
 10
7122.9265247191
 20
5141.5528312777
 10
7117.6532172933
 20
5146.5652302532
 10
7112.08889031
 20
5151.8514931529
 10
7105.7507396773
 20
5157.8801878413
 10
7099.1326693367
 20
5164.1916327381
 10
7094.2288105172
 20
5168.8786353031
 10
7088.2138480437
 20
5174.6477527272
 10
7082.299317829
 20
5180.3452493679
 10
7076.2944433067
 20
5186.1556244997
 10
7069.9534886055
 20
5192.3253029237
 10
7063.5728560768
 20
5198.5722546116
 10
7063.5728133374
 20
5198.5722965885
 10
7063.5728133374
 20
5198.5722965885
  0
LWPOLYLINE
  5
E1
330
1F
100
AcDbEntity
  8
0
  6
Continuous
 62
     8
370
    25
100
AcDbPolyline
 90
       25
 70
   128
 43
0.0
 10
6856.3852479218
 20
4843.7769454721
 10
6856.3853079187
 20
4843.7769449076
 10
6863.0953076006
 20
4843.7191965899
 10
6872.0423450322
 20
4843.6570282982
 10
6882.1194695763
 20
4843.6031844672
 10
6892.1810134753
 20
4843.5616231541
 10
6903.7636335423
 20
4843.5218210268
 10
6912.9886770717
 20
4843.4901828871
 10
6922.173273115
 20
4843.4522151424
 10
6929.0059075503
 20
4843.4152435568
 10
6937.4701748556
 20
4843.3523069367
 10
6944.1629112693
 20
4843.2827963428
 10
6955.6379188279
 20
4843.1012048899
 10
6964.7050302495
 20
4842.8717115822
 10
6970.8330235069
 20
4842.6509472702
 10
6976.6881715224
 20
4842.3699914916
 10
6981.1173542934
 20
4842.1025275572
 10
6985.2628554539
 20
4841.8062366529
 10
6989.2351795585
 20
4841.4781924464
 10
6992.5121854334
 20
4841.1759350335
 10
6995.7682902252
 20
4840.8512397202
 10
6997.7842503226
 20
4840.6426486496
 10
6998.8785307443
 20
4840.5306287879
 10
6999.3712766108
 20
4840.4853785159
 10
6999.2984449602
 20
4840.4975742572
  0
INSERT
  5
ED
330
1F
100
AcDbEntity
  8
SLD-0
100
AcDbBlockReference
  2
SW_CENTERMARKSYMBOL_0
 10
6891.3852479218
 20
5162.3551853878
 30
0.0
  0
LWPOLYLINE
  5
EE
330
1F
100
AcDbEntity
  8
0
  6
Continuous
 62
     7
370
    25
100
AcDbPolyline
 90
        4
 70
   128
 43
0.0
 10
6592.3874728587
 20
4421.2179074113
 10
6593.5205919299
 20
4467.8802869433
 10
6594.3192401763
 20
4511.2188673067
 10
6594.7455040252
 20
4547.500743218
  0
LWPOLYLINE
  5
EF
330
1F
100
AcDbEntity
  8
0
  6
Continuous
 62
     7
370
    25
100
AcDbPolyline
 90
        6
 70
   128
 43
0.0
 10
6315.4414738098
 20
4553.3774106551
 10
6315.4776897835
 20
4548.7717031652
 10
6316.1109428454
 20
4500.226326426
 10
6317.0294064477
 20
4453.5394036746
 10
6317.6101503132
 20
4429.2085580855
 10
6317.8130639748
 20
4421.2271946639
  0
LINE
  5
F0
330
1F
100
AcDbEntity
  8
0
  6
Continuous
 62
     7
370
    25
100
AcDbLine
 10
6315.4071341496
 20
4557.7445010373
 30
0.0
 11
6315.4414738098
 21
4553.3774106551
 31
0.0
  0
LWPOLYLINE
  5
F1
330
1F
100
AcDbEntity
  8
0
  6
Continuous
 62
     7
370
    25
100
AcDbPolyline
 90
       19
 70
   128
 43
0.0
 10
6518.2040141019
 20
4503.4915491939
 10
6519.5044815893
 20
4503.5016551097
 10
6522.9398228989
 20
4503.3300222499
 10
6526.291686961
 20
4502.9644225598
 10
6529.5242244509
 20
4502.4131974516
 10
6532.6381242251
 20
4501.6834632679
 10
6535.6540484693
 20
4500.7753165768
 10
6538.5426706534
 20
4499.698665003
 10
6541.2710197107
 20
4498.4681068003
 10
6543.8071036735
 20
4497.1024204063
 10
6546.1209772003
 20
4495.6248268652
 10
6548.1893532297
 20
4494.0605916769
 10
6550.0024979105
 20
4492.4329804333
 10
6551.6061708576
 20
4490.7124214877
 10
6552.9935795701
 20
4488.9059118677
 10
6554.1602467742
 20
4487.0150608894
 10
6555.0986692535
 20
4485.0395430431
 10
6555.7969937765
 20
4482.9774687061
 10
6555.8270298064
 20
4482.8308852003
  0
LWPOLYLINE
  5
F2
330
1F
100
AcDbEntity
  8
0
  6
Continuous
 62
     7
370
    25
100
AcDbPolyline
 90
       18
 70
   128
 43
0.0
 10
6354.3305902868
 20
4482.6889822512
 10
6354.7254141504
 20
4484.0803795974
 10
6355.624978616
 20
4486.200205241
 10
6356.7979863279
 20
4488.2470662407
 10
6358.2386970278
 20
4490.2247409937
 10
6359.9297904657
 20
4492.1098783566
 10
6361.850800043
 20
4493.8796303166
 10
6363.9810408752
 20
4495.5146626589
 10
6366.2765060758
 20
4496.9930664847
 10
6368.7792778097
 20
4498.3542696272
 10
6371.5129945465
 20
4499.6033530333
 10
6374.4400198859
 20
4500.7107950451
 10
6377.5120771315
 20
4501.6500466271
 10
6380.6773902243
 20
4502.4012375661
 10
6383.902223643
 20
4502.9559158227
 10
6387.1675577695
 20
4503.3198252064
 10
6390.5382913931
 20
4503.5001392388
 10
6392.0542904362
 20
4503.4946659252
  0
LINE
  5
F3
330
1F
100
AcDbEntity
  8
0
  6
Continuous
 62
     7
370
    25
100
AcDbLine
 10
6392.0544835671
 20
4503.5249644743
 30
0.0
 11
6518.2029182697
 21
4503.5249644743
 31
0.0
  0
LWPOLYLINE
  5
F4
330
1F
100
AcDbEntity
  8
0
  6
Continuous
 62
     7
370
    25
100
AcDbPolyline
 90
       70
 70
   128
 43
0.0
 10
6317.6658424575
 20
4421.2259843491
 10
6317.6818361099
 20
4420.2935774341
 10
6317.9518354
 20
4413.9279190546
 10
6318.1812094924
 20
4410.6854537409
 10
6318.5129364272
 20
4407.441577589
 10
6319.0062136881
 20
4404.1398774116
 10
6319.970659241
 20
4399.5040130678
 10
6321.245770125
 20
4394.9169488465
 10
6322.8294177232
 20
4390.3865093307
 10
6324.7196746279
 20
4385.9191911641
 10
6326.9151056891
 20
4381.5203810891
 10
6329.412795367
 20
4377.200953494
 10
6332.168422189
 20
4373.0308783848
 10
6335.2225682194
 20
4368.9410119282
 10
6338.5639743582
 20
4364.9510861476
 10
6342.1854096137
 20
4361.0723297575
 10
6346.0781874057
 20
4357.3160695772
 10
6350.2322838375
 20
4353.693454718
 10
6354.6364784691
 20
4350.2152561545
 10
6359.27853256
 20
4346.8917028989
 10
6364.1453875857
 20
4343.7323576981
 10
6369.2232227126
 20
4340.7461131667
 10
6374.4971230253
 20
4337.9413685939
 10
6379.9529179046
 20
4335.3251763339
 10
6385.5438102772
 20
4332.9174148977
 10
6391.3046864729
 20
4330.6987229302
 10
6397.2368399632
 20
4328.6683282177
 10
6403.3236199973
 20
4326.8327334136
 10
6409.5471817086
 20
4325.1980404874
 10
6415.8885239638
 20
4323.7698674039
 10
6422.3276551626
 20
4322.5532354555
 10
6428.8427467397
 20
4321.552610527
 10
6435.411252583
 20
4320.771546479
 10
6442.0117022453
 20
4320.2124909764
 10
6448.6228159276
 20
4319.8770141498
 10
6455.2244672923
 20
4319.7658440813
 10
6461.7911643287
 20
4319.8795691323
 10
6468.3104894403
 20
4320.2131061915
 10
6474.8510150523
 20
4320.7677999005
 10
6481.3892916845
 20
4321.5439917858
 10
6487.9011357491
 20
4322.5410260508
 10
6494.3615215557
 20
4323.7571571445
 10
6500.7449904384
 20
4325.1895168693
 10
6507.0242485993
 20
4326.8336110376
 10
6513.17274284
 20
4328.683696981
 10
6519.1667588363
 20
4330.7335175263
 10
6524.9839709944
 20
4332.9760863253
 10
6530.6037032553
 20
4335.4038574538
 10
6536.0099691183
 20
4338.0093207188
 10
6541.1983689128
 20
4340.7839189059
 10
6546.2210536564
 20
4343.7525809437
 10
6551.067885893
 20
4346.9126424357
 10
6555.718918506
 20
4350.2552137864
 10
6560.1543116963
 20
4353.7700599184
 10
6564.3544695661
 20
4357.4454523001
 10
6568.2984146483
 20
4361.2661258179
 10
6571.9690910062
 20
4365.2177215163
 10
6575.3510633591
 20
4369.2849659361
 10
6578.4308287758
 20
4373.4518883832
 10
6581.1970880414
 20
4377.7020965507
 10
6583.6352045156
 20
4382.0051042051
 10
6585.7522715924
 20
4386.3403983177
 10
6587.6060292996
 20
4390.8297048989
 10
6589.1493841822
 20
4395.3790515462
 10
6590.380925366
 20
4399.980345604
 10
6591.2996619231
 20
4404.6260325987
 10
6591.9045960371
 20
4409.3069172125
 10
6592.152405597
 20
4412.2953409339
 10
6592.3353094836
 20
4415.2698216411
 10
6592.548295796
 20
4421.226917856
  0
LWPOLYLINE
  5
F5
330
1F
100
AcDbEntity
  8
0
  6
Continuous
 62
     7
370
    25
100
AcDbPolyline
 90
        8
 70
   128
 43
0.0
 10
6433.1222627819
 20
4502.3542377789
 10
6433.0972025778
 20
4502.3331737024
 10
6433.3749473472
 20
4502.4770225089
 10
6433.7761415172
 20
4502.6523202776
 10
6434.5314665559
 20
4502.9161033605
 10
6435.6576861125
 20
4503.1902501102
 10
6437.1539901078
 20
4503.3769470078
 10
6437.5370256536
 20
4503.387422549
  0
LWPOLYLINE
  5
F6
330
1F
100
AcDbEntity
  8
0
  6
Continuous
 62
     7
370
    25
100
AcDbPolyline
 90
       13
 70
   128
 43
0.0
 10
6459.321670101
 20
4503.387422549
 10
6461.1749515706
 20
4503.3573596444
 10
6465.2240284892
 20
4503.2960801645
 10
6467.9596140551
 20
4503.2508625677
 10
6470.6359844696
 20
4503.20009055
 10
6472.8270727862
 20
4503.1557278985
 10
6474.0931968253
 20
4503.1170482626
 10
6475.0201390043
 20
4503.0113211276
 10
6475.6112680179
 20
4502.8963402407
 10
6476.0752772656
 20
4502.7744499924
 10
6476.8029388177
 20
4502.5110080301
 10
6477.157530257
 20
4502.3343726561
 10
6477.1326038663
 20
4502.3556421793
  0
LWPOLYLINE
  5
F7
330
1F
100
AcDbEntity
  8
0
  6
Continuous
 62
     7
370
    25
100
AcDbPolyline
 90
        9
 70
   128
 43
0.0
 10
6315.3340577886
 20
4579.6671657997
 10
6315.3083842335
 20
4584.6670683594
 10
6315.2714601766
 20
4589.6669074006
 10
6315.2269769226
 20
4594.6666912987
 10
6315.1786794833
 20
4599.666640576
 10
6315.1217007613
 20
4605.5966641695
 10
6315.0711873498
 20
4611.5267530639
 10
6315.0337528373
 20
4617.4569450053
 10
6315.0161721702
 20
4623.387422549
  0
LWPOLYLINE
  5
F8
330
1F
100
AcDbEntity
  8
0
  6
Continuous
 62
     7
370
    25
100
AcDbPolyline
 90
       12
 70
   128
 43
0.0
 10
6315.3939597682
 20
4557.9310922123
 10
6315.3813759102
 20
4559.6919640807
 10
6315.3705425916
 20
4562.1155460683
 10
6315.363754295
 20
4564.7762719842
 10
6315.3617813866
 20
4565.9108290555
 10
6315.3579483297
 20
4568.7110328177
 10
6315.3564659801
 20
4569.8764875924
 10
6315.3548482193
 20
4571.0765421763
 10
6315.3496702268
 20
4574.1589275799
 10
6315.3468895158
 20
4575.4354077726
 10
6315.3428043966
 20
4577.0112802572
 10
6315.3340577886
 20
4579.6671657997
  0
LINE
  5
F9
330
1F
100
AcDbEntity
  8
0
  6
Continuous
 62
     7
370
    25
100
AcDbLine
 10
6594.8668343419
 20
4557.928714787
 30
0.0
 11
6594.7656250301
 21
4547.7568274542
 31
0.0
  0
LWPOLYLINE
  5
FA
330
1F
100
AcDbEntity
  8
0
  6
Continuous
 62
     7
370
    25
100
AcDbPolyline
 90
       12
 70
   128
 43
0.0
 10
6594.9278769778
 20
4579.6667119868
 10
6594.9195488891
 20
4577.2009250379
 10
6594.911834244
 20
4574.1070136382
 10
6594.9064666769
 20
4571.0277907854
 10
6594.9047271924
 20
4569.8000777859
 10
6594.900834207
 20
4566.9454699257
 10
6594.8991062768
 20
4565.831260952
 10
6594.8970974763
 20
4564.7261568276
 10
6594.890137564
 20
4562.0719970519
 10
6594.8862009623
 20
4561.0469051129
 10
6594.8802179518
 20
4559.8334044503
 10
6594.8668343419
 20
4557.928714787
  0
LWPOLYLINE
  5
FB
330
1F
100
AcDbEntity
  8
0
  6
Continuous
 62
     7
370
    25
100
AcDbPolyline
 90
        9
 70
   128
 43
0.0
 10
6595.2412296665
 20
4623.387422549
 10
6595.2281362515
 20
4618.3874325713
 10
6595.2005306808
 20
4613.387504278
 10
6595.1623378528
 20
4608.3876490582
 10
6595.1174139156
 20
4603.3875148099
 10
6595.0606454305
 20
4597.4573938241
 10
6595.0060215067
 20
4591.5272605343
 10
6594.959725585
 20
4585.5970647751
 10
6594.9278769778
 20
4579.6667119868
  0
LINE
  5
FC
330
1F
100
AcDbEntity
  8
0
  6
Continuous
 62
     7
370
    25
100
AcDbLine
 10
6584.9281630779
 20
4579.7045541135
 30
0.0
 11
6585.2412297621
 21
4623.387422549
 31
0.0
  0
LINE
  5
FD
330
1F
100
AcDbEntity
  8
0
  6
Continuous
 62
     7
370
    25
100
AcDbLine
 10
6585.2412297621
 20
4623.387422549
 30
0.0
 11
6595.2412296665
 21
4623.387422549
 31
0.0
  0
LINE
  5
FE
330
1F
100
AcDbEntity
  8
0
  6
Continuous
 62
     7
370
    25
100
AcDbLine
 10
6584.9281630779
 20
4579.7045541135
 30
0.0
 11
6594.9278769778
 21
4579.6667119868
 31
0.0
  0
LWPOLYLINE
  5
FF
330
1F
100
AcDbEntity
  8
0
  6
Continuous
 62
     7
370
    25
100
AcDbPolyline
 90
        3
 70
   128
 43
0.0
 10
6325.0161720755
 20
4623.387422549
 10
6325.1607912045
 20
4601.5459754545
 10
6325.3337616501
 20
4579.7045541135
  0
LINE
  5
100
330
1F
100
AcDbEntity
  8
0
  6
Continuous
 62
     7
370
    25
100
AcDbLine
 10
6325.3337616501
 20
4579.7045541135
 30
0.0
 11
6315.3340577886
 21
4579.6671657997
 31
0.0
  0
LINE
  5
101
330
1F
100
AcDbEntity
  8
0
  6
Continuous
 62
     7
370
    25
100
AcDbLine
 10
6315.0161721702
 20
4623.387422549
 30
0.0
 11
6325.0161720755
 21
4623.387422549
 31
0.0
  0
LINE
  5
102
330
1F
100
AcDbEntity
  8
0
  6
Continuous
 62
     7
370
    25
100
AcDbLine
 10
6325.3337616501
 20
4579.7045541135
 30
0.0
 11
6584.9281630779
 21
4579.7045541135
 31
0.0
  0
LINE
  5
103
330
1F
100
AcDbEntity
  8
0
  6
Continuous
 62
     7
370
    25
100
AcDbLine
 10
6585.2412297621
 20
4623.387422549
 30
0.0
 11
6325.0161720755
 21
4623.387422549
 31
0.0
  0
LWPOLYLINE
  5
104
330
1F
100
AcDbEntity
  8
0
  6
Continuous
 62
     7
370
    25
100
AcDbPolyline
 90
        6
 70
   128
 43
0.0
 10
6325.3337616501
 20
4579.7045541135
 10
6325.3465197154
 20
4574.0268309873
 10
6325.3548872654
 20
4567.5523106943
 10
6325.3607717936
 20
4561.2412331022
 10
6325.3703990106
 20
4555.6233883806
 10
6325.3918984707
 20
4550.537063444
  0
LWPOLYLINE
  5
105
330
1F
100
AcDbEntity
  8
0
  6
Continuous
 62
     7
370
    25
100
AcDbPolyline
 90
        6
 70
   128
 43
0.0
 10
6584.868828326
 20
4550.537063444
 10
6584.8877521881
 20
4554.7170655154
 10
6584.8989721388
 20
4560.2310755118
 10
6584.9053606446
 20
4566.4644665132
 10
6584.9132439433
 20
4572.8939275703
 10
6584.9281630779
 20
4579.7045541135
  0
LINE
  5
106
330
1F
100
AcDbEntity
  8
0
  6
Continuous
 62
     7
370
    25
100
AcDbLine
 10
6584.868828326
 20
4550.537063444
 30
0.0
 11
6325.3918984707
 21
4550.537063444
 31
0.0
  0
LWPOLYLINE
  5
107
330
1F
100
AcDbEntity
  8
0
  6
Continuous
 62
     7
370
    25
100
AcDbPolyline
 90
        9
 70
   128
 43
0.0
 10
6325.3918984707
 20
4550.537063444
 10
6323.4171801153
 20
4550.6728116784
 10
6321.5202345001
 20
4551.0903982844
 10
6319.7757713463
 20
4551.7733769396
 10
6318.2524949729
 20
4552.694849063
 10
6317.01039843
 20
4553.8185231949
 10
6316.0984007198
 20
4555.1001443071
 10
6315.5524201599
 20
4556.4892367533
 10
6315.3939597682
 20
4557.9310922123
  0
LWPOLYLINE
  5
108
330
1F
100
AcDbEntity
  8
0
  6
Continuous
 62
     7
370
    25
100
AcDbPolyline
 90
        9
 70
   128
 43
0.0
 10
6584.868828326
 20
4550.537063444
 10
6586.8431259971
 20
4550.6727766146
 10
6588.739700972
 20
4551.0902082002
 10
6590.4838902843
 20
4551.7729250618
 10
6592.007029974
 20
4552.6940505049
 10
6593.2491582
 20
4553.8173223416
 10
6594.1613757733
 20
4555.0985204339
 10
6594.7077711847
 20
4556.4872075191
 10
6594.8668343419
 20
4557.928714787
  0
LWPOLYLINE
  5
109
330
1F
100
AcDbEntity
  8
0
  6
Continuous
 62
     7
370
    25
100
AcDbPolyline
 90
        3
 70
   128
 43
0.0
 10
6325.3918984707
 20
4550.537063444
 10
6326.2910047111
 20
4482.588528674
 10
6327.8089953139
 20
4414.1914111339
  0
LWPOLYLINE
  5
10A
330
1F
100
AcDbEntity
  8
0
  6
Continuous
 62
     7
370
    25
100
AcDbPolyline
 90
        3
 70
   128
 43
0.0
 10
6582.3914780832
 20
4414.1914111338
 10
6583.9506000206
 20
4482.1342033791
 10
6584.868828326
 20
4550.537063444
  0
LWPOLYLINE
  5
10B
330
1F
100
AcDbEntity
  8
0
  6
Continuous
 62
     7
370
    25
100
AcDbPolyline
 90
       39
 70
   128
 43
0.0
 10
6327.8089953139
 20
4414.1914111339
 10
6328.0511281634
 20
4405.6991407195
 10
6329.1080371298
 20
4397.2166484749
 10
6331.4252678312
 20
4388.6979078686
 10
6335.023737181
 20
4380.2972905676
 10
6338.8771267799
 20
4373.6582934076
 10
6343.5254509556
 20
4367.2620702224
 10
6349.0070608833
 20
4361.0857183198
 10
6355.3392650163
 20
4355.1549825693
 10
6362.1861001387
 20
4349.763842318
 10
6369.6625743722
 20
4344.779638451
 10
6377.8099816378
 20
4340.1861792399
 10
6386.6313240479
 20
4336.010767068
 10
6395.7622111528
 20
4332.4204391653
 10
6405.293567373
 20
4329.3559399294
 10
6415.2728642448
 20
4326.8125699372
 10
6425.6899729416
 20
4324.8167370038
 10
6436.1519402138
 20
4323.4427183799
 10
6446.8174616364
 20
4322.6609904275
 10
6457.6549964334
 20
4322.4898158463
 10
6468.6305836427
 20
4322.9534707007
 10
6479.1943137613
 20
4324.014819932
 10
6489.6648708116
 20
4325.6849636491
 10
6500.1153732095
 20
4328.0038429873
 10
6510.3114003214
 20
4330.9500720399
 10
6519.7301882556
 20
4334.3423845451
 10
6528.8612164096
 20
4338.3381970039
 10
6537.4612964462
 20
4342.8519426319
 10
6545.6071208924
 20
4347.9528352207
 10
6552.7672968215
 20
4353.2812311625
 10
6559.2451332517
 20
4359.0039022818
 10
6565.0691840759
 20
4365.1741928347
 10
6570.1623959707
 20
4371.7663303803
 10
6574.2232957541
 20
4378.3264959636
 10
6577.4705811852
 20
4385.0955663115
 10
6579.9056095391
 20
4392.1069505711
 10
6581.4946146826
 20
4399.3493247076
 10
6582.1911867047
 20
4406.7521709881
 10
6582.3914780832
 20
4414.1914111338
  0
LINE
  5
10C
330
1F
100
AcDbEntity
  8
0
  6
Continuous
 62
     7
370
    25
100
AcDbLine
 10
6344.0366635531
 20
4414.1670667696
 30
0.0
 11
6343.7939550597
 21
4471.2667951444
 31
0.0
  0
LWPOLYLINE
  5
10D
330
1F
100
AcDbEntity
  8
0
  6
Continuous
 62
     7
370
    25
100
AcDbPolyline
 90
       38
 70
   128
 43
0.0
 10
6566.2207382836
 20
4414.16706677
 10
6565.7975493162
 20
4407.4248845517
 10
6564.5803959753
 20
4400.7040786273
 10
6562.5417840353
 20
4394.0821503414
 10
6559.6542192705
 20
4387.6366010384
 10
6555.9444960845
 20
4381.4473050771
 10
6551.4394388655
 20
4375.4810806877
 10
6546.1949864321
 20
4369.8048155077
 10
6540.2670776033
 20
4364.4853971748
 10
6533.946080559
 20
4359.7379267319
 10
6527.0386119
 20
4355.3559122291
 10
6519.6203647357
 20
4351.3842165596
 10
6511.7670321754
 20
4347.8677026169
 10
6503.5214155323
 20
4344.8315674431
 10
6494.9003737772
 20
4342.2725675318
 10
6485.996978565
 20
4340.2158115636
 10
6476.9043015503
 20
4338.6864082193
 10
6467.6814949696
 20
4337.6991621272
 10
6458.336491549
 20
4337.2457529533
 10
6448.9687727304
 20
4337.3280324595
 10
6439.6778199556
 20
4337.9478524076
 10
6430.5173803587
 20
4339.1066981757
 10
6421.499694618
 20
4340.7944874308
 10
6412.718587352
 20
4342.9902610501
 10
6404.2678831794
 20
4345.6730599112
 10
6396.1742837541
 20
4348.8417826922
 10
6388.4701408678
 20
4352.4765449617
 10
6381.2337795036
 20
4356.5366922673
 10
6374.5435246446
 20
4360.9815701566
 10
6368.4095767203
 20
4365.816573645
 10
6362.87019699
 20
4371.0049474285
 10
6357.9800081428
 20
4376.4904104805
 10
6353.793632868
 20
4382.2166817741
 10
6350.3253942694
 20
4388.1847080534
 10
6347.5930900023
 20
4394.3531298988
 10
6345.6213797228
 20
4400.6559235156
 10
6344.434923087
 20
4407.0270651095
 10
6344.0366635531
 20
4414.1670667696
  0
LINE
  5
10E
330
1F
100
AcDbEntity
  8
0
  6
Continuous
 62
     7
370
    25
100
AcDbLine
 10
6566.463446777
 20
4471.2667951444
 30
0.0
 11
6566.2207382836
 21
4414.16706677
 31
0.0
  0
LWPOLYLINE
  5
10F
330
1F
100
AcDbEntity
  8
0
  6
Continuous
 62
     7
370
    25
100
AcDbPolyline
 90
       15
 70
   128
 43
0.0
 10
6518.2029182697
 20
4506.2330918069
 10
6522.3808221689
 20
4506.1067449644
 10
6526.5259992348
 20
4505.7283541948
 10
6531.7710724232
 20
4504.8659957307
 10
6536.8541674852
 20
4503.5935003318
 10
6541.6746044412
 20
4501.9365103444
 10
6546.4619554408
 20
4499.762971299
 10
6550.8506300511
 20
4497.2028859426
 10
6554.7537570614
 20
4494.3165536921
 10
6558.2991026242
 20
4490.9548291944
 10
6561.244178977
 20
4487.3140365234
 10
6563.5418179493
 20
4483.4762528259
 10
6565.1710431177
 20
4479.4934369855
 10
6566.1466465123
 20
4475.3981801686
 10
6566.463446777
 20
4471.2667951444
  0
LINE
  5
110
330
1F
100
AcDbEntity
  8
0
  6
Continuous
 62
     7
370
    25
100
AcDbLine
 10
6392.0544835671
 20
4506.2330918069
 30
0.0
 11
6518.2029182697
 21
4506.2330918069
 31
0.0
  0
LWPOLYLINE
  5
111
330
1F
100
AcDbEntity
  8
0
  6
Continuous
 62
     7
370
    25
100
AcDbPolyline
 90
       11
 70
   128
 43
0.0
 10
6343.7939550597
 20
4471.2667951444
 10
6344.2330979013
 20
4476.1282366522
 10
6345.5825252281
 20
4480.9100165104
 10
6348.2853604222
 20
4486.2279358608
 10
6352.1713867113
 20
4491.1890412223
 10
6356.9827362299
 20
4495.4894067455
 10
6362.7371207011
 20
4499.206049981
 10
6369.3096805251
 20
4502.2139227706
 10
6376.5211105381
 20
4504.4314319277
 10
6384.1770611307
 20
4505.7778004833
 10
6392.0544835671
 20
4506.2330918069
  0
LWPOLYLINE
  5
112
330
1F
100
AcDbEntity
  8
0
  6
Continuous
 62
     7
370
    25
100
AcDbPolyline
 90
        9
 70
   128
 43
0.0
 10
6556.538837763
 20
4477.6812768927
 10
6556.9215310589
 20
4476.3925537515
 10
6557.6159524961
 20
4475.1745961389
 10
6558.5994157808
 20
4474.067193933
 10
6559.8397918111
 20
4473.1065252391
 10
6561.2965583139
 20
4472.3239744745
 10
6562.9221236811
 20
4471.7451070607
 10
6564.663381756
 20
4471.3888342171
 10
6566.463446777
 20
4471.2667951444
  0
LWPOLYLINE
  5
113
330
1F
100
AcDbEntity
  8
0
  6
Continuous
 62
     7
370
    25
100
AcDbPolyline
 90
        9
 70
   128
 43
0.0
 10
6343.7939550597
 20
4471.2667951444
 10
6345.5940200807
 20
4471.3888342171
 10
6347.3352781557
 20
4471.7451070607
 10
6348.9608435228
 20
4472.3239744745
 10
6350.4176100257
 20
4473.1065252391
 10
6351.6579860559
 20
4474.067193933
 10
6352.6414493406
 20
4475.1745961389
 10
6353.3358707778
 20
4476.3925537515
 10
6353.7185640737
 20
4477.6812768927
  0
LWPOLYLINE
  5
114
330
1F
100
AcDbEntity
  8
0
  6
Continuous
 62
     7
370
    25
100
AcDbPolyline
 90
        3
 70
   128
 43
0.0
 10
6353.7185640737
 20
4477.6812768927
 10
6353.7611636029
 20
4463.9545433925
 10
6353.9235000046
 20
4420.3896975102
  0
LWPOLYLINE
  5
115
330
1F
100
AcDbEntity
  8
0
  6
Continuous
 62
     7
370
    25
100
AcDbPolyline
 90
        9
 70
   128
 43
0.0
 10
6344.0366635531
 20
4414.1670667696
 10
6345.8026599938
 20
4414.28602474
 10
6347.5131425555
 20
4414.6304623939
 10
6349.1143424311
 20
4415.1895523765
 10
6350.5559261011
 20
4415.9457197634
 10
6351.7925775619
 20
4416.8751945267
 10
6352.785422828
 20
4417.9487587426
 10
6353.5032519319
 20
4419.1326650531
 10
6353.9235000046
 20
4420.3896975102
  0
LWPOLYLINE
  5
116
330
1F
100
AcDbEntity
  8
0
  6
Continuous
 62
     7
370
    25
100
AcDbPolyline
 90
        3
 70
   128
 43
0.0
 10
6556.3339018321
 20
4420.3896975106
 10
6556.3904347525
 20
4434.1322784311
 10
6556.538837763
 20
4477.6812768927
  0
LWPOLYLINE
  5
117
330
1F
100
AcDbEntity
  8
0
  6
Continuous
 62
     7
370
    25
100
AcDbPolyline
 90
        9
 70
   128
 43
0.0
 10
6556.3339018321
 20
4420.3896975106
 10
6556.7541499049
 20
4419.1326650535
 10
6557.4719790087
 20
4417.948758743
 10
6558.4648242749
 20
4416.8751945271
 10
6559.7014757356
 20
4415.9457197638
 10
6561.1430594057
 20
4415.1895523769
 10
6562.7442592812
 20
4414.6304623943
 10
6564.4547418429
 20
4414.2860247404
 10
6566.2207382836
 20
4414.16706677
  0
LINE
  5
118
330
1F
100
AcDbEntity
  8
0
  6
Continuous
 62
     7
370
    25
100
AcDbLine
 10
6360.1287009184
 20
4492.2931268774
 30
0.0
 11
6360.1287009184
 21
4444.100898456
 31
0.0
  0
LWPOLYLINE
  5
119
330
1F
100
AcDbEntity
  8
0
  6
Continuous
 62
     7
370
    25
100
AcDbPolyline
 90
       52
 70
   128
 43
0.0
 10
6360.1287009184
 20
4444.100898456
 10
6360.3088846883
 20
4439.5127555701
 10
6360.8487524995
 20
4434.9420170818
 10
6361.7462564484
 20
4430.4060213676
 10
6362.997991995
 20
4425.9219750131
 10
6364.5992108778
 20
4421.506887542
 10
6366.543839125
 20
4417.1775068933
 10
6368.8245000955
 20
4412.9502558907
 10
6371.4325424612
 20
4408.8411699453
 10
6374.3580730241
 20
4404.8658362275
 10
6377.5899942445
 20
4401.0393345398
 10
6381.1160463384
 20
4397.3761801137
 10
6384.9228537824
 20
4393.8902685487
 10
6388.9959760519
 20
4390.5948231014
 10
6393.319962399
 20
4387.5023445251
 10
6397.8784104623
 20
4384.6245636504
 10
6402.6540284871
 20
4381.9723968858
 10
6407.6287009184
 20
4379.5559048082
 10
6412.7835571196
 20
4377.3842539999
 10
6418.0990429556
 20
4375.4656822762
 10
6423.5549949678
 20
4373.8074674367
 10
6429.1307168615
 20
4372.4158996585
 10
6434.8050580138
 20
4371.2962576347
 10
6440.5564937049
 20
4370.452788551
 10
6446.3632067694
 20
4369.8886919745
 10
6452.2031703555
 20
4369.6061077168
 10
6458.0542314812
 20
4369.6061077168
 10
6463.8941950674
 20
4369.8886919745
 10
6469.7009081318
 20
4370.452788551
 10
6475.452343823
 20
4371.2962576347
 10
6481.1266849752
 20
4372.4158996585
 10
6486.7024068689
 20
4373.8074674367
 10
6492.1583588812
 20
4375.4656822762
 10
6497.4738447171
 20
4377.3842539999
 10
6502.6287009184
 20
4379.5559048082
 10
6507.6033733496
 20
4381.9723968858
 10
6512.3789913744
 20
4384.6245636504
 10
6516.9374394378
 20
4387.5023445251
 10
6521.2614257848
 20
4390.5948231014
 10
6525.3345480543
 20
4393.8902685487
 10
6529.1413554983
 20
4397.3761801137
 10
6532.6674075922
 20
4401.0393345398
 10
6535.8993288127
 20
4404.8658362275
 10
6538.8248593755
 20
4408.8411699453
 10
6541.4329017412
 20
4412.9502558907
 10
6543.7135627118
 20
4417.1775068933
 10
6545.6581909589
 20
4421.506887542
 10
6547.2594098417
 20
4425.9219750131
 10
6548.5111453883
 20
4430.4060213676
 10
6549.4086493372
 20
4434.9420170818
 10
6549.9485171484
 20
4439.5127555702
 10
6550.1287009184
 20
4444.100898456
  0
LINE
  5
11A
330
1F
100
AcDbEntity
  8
0
  6
Continuous
 62
     7
370
    25
100
AcDbLine
 10
6550.1287009184
 20
4444.100898456
 30
0.0
 11
6550.1287009184
 21
4492.2975789386
 31
0.0
  0
LINE
  5
11B
330
1F
100
AcDbEntity
  8
0
  6
Continuous
 62
     7
370
    25
100
AcDbLine
 10
6556.3294821562
 20
4419.3726067681
 30
0.0
 11
6556.3339018321
 21
4420.3896975106
 31
0.0
  0
LWPOLYLINE
  5
11C
330
1F
100
AcDbEntity
  8
0
  6
Continuous
 62
     7
370
    25
100
AcDbPolyline
 90
       40
 70
   128
 43
0.0
 10
6353.9279196805
 20
4419.3726067681
 10
6353.9279200124
 20
4419.3725662653
 10
6354.3010755672
 20
4413.864458329
 10
6355.3866583662
 20
4408.1682792808
 10
6357.174599159
 20
4402.5452138669
 10
6359.6460299093
 20
4397.0538443263
 10
6362.8772145191
 20
4391.5944429944
 10
6366.6425148634
 20
4386.5227565217
 10
6371.0485645341
 20
4381.647340689
 10
6376.0987692953
 20
4376.9906204921
 10
6381.7979262275
 20
4372.5776749797
 10
6387.808920771
 20
4368.6476472395
 10
6394.3279856442
 20
4365.0425412025
 10
6401.3465187735
 20
4361.7837640745
 10
6408.8583308561
 20
4358.8968797661
 10
6416.4478307763
 20
4356.5255115045
 10
6424.3595752425
 20
4354.5735269371
 10
6432.574417486
 20
4353.0581525943
 10
6441.0734566552
 20
4352.0027700225
 10
6449.4191612175
 20
4351.4498464096
 10
6457.8634026288
 20
4351.3659221492
 10
6466.3792421123
 20
4351.7643791217
 10
6474.9368323593
 20
4352.6614948145
 10
6483.1094447577
 20
4354.0027676957
 10
6491.1425779244
 20
4355.8108736417
 10
6499.003975942
 20
4358.0925405471
 10
6506.6575570661
 20
4360.8569572415
 10
6513.7754114749
 20
4363.9810533391
 10
6520.4912570966
 20
4367.5019314079
 10
6526.735007735
 20
4371.3823177489
 10
6532.6080402675
 20
4375.7126587682
 10
6537.9296735575
 20
4380.3874715069
 10
6542.6670852473
 20
4385.3935196536
 10
6546.8316002563
 20
4390.7861914721
 10
6550.295304329
 20
4396.4540460545
 10
6552.8514276577
 20
4401.9471130213
 10
6554.7173128137
 20
4407.5671744161
 10
6555.8979808251
 20
4413.4232842853
 10
6556.3294818243
 20
4419.3725662596
 10
6556.3294821562
 20
4419.3726067681
  0
LINE
  5
11D
330
1F
100
AcDbEntity
  8
0
  6
Continuous
 62
     7
370
    25
100
AcDbLine
 10
6353.9235000046
 20
4420.3896975102
 30
0.0
 11
6353.9279196805
 21
4419.3726067681
 31
0.0
  0
ARC
  5
11E
330
1F
100
AcDbEntity
  8
0
  6
Continuous
 62
     7
370
    25
100
AcDbCircle
 10
6455.1287009184
 20
4463.387422549
 30
0.0
 40
35.0
100
AcDbArc
 50
180.0
 51
0.0
  0
LINE
  5
11F
330
1F
100
AcDbEntity
  8
0
  6
Continuous
 62
     7
370
    25
100
AcDbLine
 10
6490.1287009184
 20
4463.387422549
 30
0.0
 11
6490.1287009184
 21
4488.387422549
 31
0.0
  0
ARC
  5
120
330
1F
100
AcDbEntity
  8
0
  6
Continuous
 62
     7
370
    25
100
AcDbCircle
 10
6475.1287009184
 20
4488.387422549
 30
0.0
 40
15.0
100
AcDbArc
 50
0.0
 51
90.0
  0
LINE
  5
121
330
1F
100
AcDbEntity
  8
0
  6
Continuous
 62
     7
370
    25
100
AcDbLine
 10
6475.1287009184
 20
4503.387422549
 30
0.0
 11
6435.1287009184
 21
4503.387422549
 31
0.0
  0
ARC
  5
122
330
1F
100
AcDbEntity
  8
0
  6
Continuous
 62
     7
370
    25
100
AcDbCircle
 10
6435.1287009184
 20
4488.387422549
 30
0.0
 40
15.00000000000091
100
AcDbArc
 50
90.0
 51
180.0
  0
LINE
  5
123
330
1F
100
AcDbEntity
  8
0
  6
Continuous
 62
     7
370
    25
100
AcDbLine
 10
6420.1287009184
 20
4488.387422549
 30
0.0
 11
6420.1287009184
 21
4463.387422549
 31
0.0
  0
LWPOLYLINE
  5
124
330
1F
100
AcDbEntity
  8
0
  6
Continuous
 62
     8
370
    25
100
AcDbPolyline
 90
        9
 70
   128
 43
0.0
 10
6582.3914780832
 20
4414.1914111338
 10
6584.372472359
 20
4414.3113317293
 10
6586.2749214706
 20
4414.715615667
 10
6588.0233945196
 20
4415.3882333457
 10
6589.5485656607
 20
4416.3025159019
 10
6590.7899628273
 20
4417.4222126132
 10
6591.6983654106
 20
4418.7029282165
 10
6592.2377558254
 20
4420.093883152
 10
6592.3879153063
 20
4421.2163735303
  0
LWPOLYLINE
  5
125
330
1F
100
AcDbEntity
  8
0
  6
Continuous
 62
     8
370
    25
100
AcDbPolyline
 90
        9
 70
   128
 43
0.0
 10
6327.8089953139
 20
4414.1914111339
 10
6325.8315705031
 20
4414.3117099806
 10
6323.9322623994
 20
4414.7153165561
 10
6322.1861017671
 20
4415.3862866806
 10
6320.6620693929
 20
4416.2981141747
 10
6319.4203710505
 20
4417.4147779666
 10
6318.510059116
 20
4418.6921650777
 10
6317.9670947903
 20
4420.0798132731
 10
6317.8123114638
 20
4421.2257756034
  0
LWPOLYLINE
  5
126
330
1F
100
AcDbEntity
  8
0
  6
Continuous
 62
     8
370
    25
100
AcDbPolyline
 90
        3
 70
   128
 43
0.0
 10
6556.538837763
 20
4477.6812768927
 10
6556.0508727281
 20
4482.2919413952
 10
6555.8459791864
 20
4482.8462743563
  0
LINE
  5
127
330
1F
100
AcDbEntity
  8
0
  6
Continuous
 62
     8
370
    25
100
AcDbLine
 10
6518.2029182697
 20
4503.5250752018
 30
0.0
 11
6518.2029182697
 21
4506.2330918069
 31
0.0
  0
LINE
  5
128
330
1F
100
AcDbEntity
  8
0
  6
Continuous
 62
     8
370
    25
100
AcDbLine
 10
6392.0544835671
 20
4506.2330918069
 30
0.0
 11
6392.0544835671
 21
4503.5250098122
 31
0.0
  0
LWPOLYLINE
  5
129
330
1F
100
AcDbEntity
  8
0
  6
Continuous
 62
     8
370
    25
100
AcDbPolyline
 90
        3
 70
   128
 43
0.0
 10
6354.3852948539
 20
4482.6733066135
 10
6354.0179715371
 20
4481.3823550693
 10
6353.7185640737
 20
4477.6812768927
  0
LWPOLYLINE
  5
12A
330
1F
100
AcDbEntity
  8
0
  6
Continuous
 62
     8
370
    25
100
AcDbPolyline
 90
        3
 70
   128
 43
0.0
 10
6556.538837763
 20
4477.6812768927
 10
6555.1190435014
 20
4483.0586072396
 10
6553.9971600314
 20
4487.2793802479
  0
LWPOLYLINE
  5
12B
330
1F
100
AcDbEntity
  8
0
  6
Continuous
 62
     8
370
    25
100
AcDbPolyline
 90
        3
 70
   128
 43
0.0
 10
6356.2747858315
 20
4487.3340980819
 10
6355.1383583353
 20
4483.0586072396
 10
6353.7185640737
 20
4477.6812768927
  0
ENDSEC
  0
SECTION
  2
OBJECTS
  0
DICTIONARY
  5
C
330
0
100
AcDbDictionary
281
     1
  3
ACAD_GROUP
350
D
  3
ACAD_LAYOUT
350
1A
  3
ACAD_MLINESTYLE
350
17
  3
ACAD_PLOTSETTINGS
350
19
  3
ACAD_PLOTSTYLENAME
350
E
  3
ACAD_SCALELIST
350
47
  3
DWGPROPS
350
12C
  0
DICTIONARY
  5
D
102
{ACAD_REACTORS
330
C
102
}
330
C
100
AcDbDictionary
281
     1
  0
DICTIONARY
  5
1A
102
{ACAD_REACTORS
330
C
102
}
330
C
100
AcDbDictionary
281
     1
  3
Layout1
350
1E
  3
Layout2
350
26
  3
Model
350
22
  0
DICTIONARY
  5
17
102
{ACAD_REACTORS
330
C
102
}
330
C
100
AcDbDictionary
281
     1
  3
Standard
350
18
  0
DICTIONARY
  5
19
102
{ACAD_REACTORS
330
C
102
}
330
C
100
AcDbDictionary
281
     1
  0
ACDBDICTIONARYWDFLT
  5
E
102
{ACAD_REACTORS
330
C
102
}
330
C
100
AcDbDictionary
281
     1
  3
Normal
350
F
100
AcDbDictionaryWithDefault
340
F
  0
DICTIONARY
  5
47
102
{ACAD_REACTORS
330
C
102
}
330
C
100
AcDbDictionary
281
     1
  3
A0
350
48
  3
A1
350
49
  3
A2
350
4A
  3
A3
350
4B
  3
A4
350
4C
  3
A5
350
4D
  3
A6
350
4E
  3
A7
350
4F
  3
A8
350
50
  3
A9
350
51
  3
B0
350
52
  3
B1
350
53
  3
B2
350
54
  3
B3
350
55
  3
B4
350
56
  3
B5
350
57
  3
B6
350
58
  3
B7
350
59
  3
B8
350
5A
  3
B9
350
5B
  3
C0
350
5C
  3
C1
350
5D
  3
C2
350
5E
  3
C3
350
5F
  3
C4
350
60
  3
C5
350
61
  3
C6
350
62
  3
C7
350
63
  3
C8
350
64
  3
C9
350
65
  3
D0
350
66
  3
D1
350
67
  3
D2
350
68
  0
XRECORD
  5
12C
102
{ACAD_REACTORS
330
C
102
}
330
C
100
AcDbXrecord
280
     1
  1
DWGPROPS COOKIE
  2

  3

  4

  6

  7

  8
radek.stransky
  9

300
=
301
=
302
=
303
=
304
=
305
=
306
=
307
=
308
=
309
=
 40
0.0
 41
2459136.333985093
 42
2459136.333985324
  1

 90
        0
  0
LAYOUT
  5
1E
102
{ACAD_REACTORS
330
1A
102
}
330
1A
100
AcDbPlotSettings
  1

  2
none_device
  4

  6

 40
0.0
 41
0.0
 42
0.0
 43
0.0
 44
0.0
 45
0.0
 46
0.0
 47
0.0
 48
0.0
 49
0.0
140
0.0
141
0.0
142
1.0
143
1.0
 70
   688
 72
     1
 73
     0
 74
     5
  7

 75
    16
147
1.0
148
0.0
149
0.0
100
AcDbLayout
  1
Layout1
 70
     1
 71
     1
 10
0.0
 20
0.0
 11
420.0
 21
297.0
 12
0.0
 22
0.0
 32
0.0
 14
1.0000000000E+20
 24
1.0000000000E+20
 34
1.0000000000E+20
 15
-1.0000000000E+20
 25
-1.0000000000E+20
 35
-1.0000000000E+20
146
0.0
 13
0.0
 23
0.0
 33
0.0
 16
1.0
 26
0.0
 36
0.0
 17
0.0
 27
1.0
 37
0.0
 76
     0
330
1B
  0
LAYOUT
  5
26
102
{ACAD_REACTORS
330
1A
102
}
330
1A
100
AcDbPlotSettings
  1

  2
none_device
  4

  6

 40
0.0
 41
0.0
 42
0.0
 43
0.0
 44
0.0
 45
0.0
 46
0.0
 47
0.0
 48
0.0
 49
0.0
140
0.0
141
0.0
142
1.0
143
1.0
 70
   688
 72
     1
 73
     0
 74
     5
  7

 75
    16
147
1.0
148
0.0
149
0.0
100
AcDbLayout
  1
Layout2
 70
     1
 71
     2
 10
0.0
 20
0.0
 11
0.0
 21
0.0
 12
0.0
 22
0.0
 32
0.0
 14
0.0
 24
0.0
 34
0.0
 15
0.0
 25
0.0
 35
0.0
146
0.0
 13
0.0
 23
0.0
 33
0.0
 16
1.0
 26
0.0
 36
0.0
 17
0.0
 27
1.0
 37
0.0
 76
     0
330
23
  0
LAYOUT
  5
22
102
{ACAD_REACTORS
330
1A
102
}
330
1A
100
AcDbPlotSettings
  1

  2
none_device
  4
Letter_(8.50_x_11.00_Inches)
  6

 40
6.35
 41
6.35
 42
6.35000508
 43
6.35000508
 44
215.9
 45
279.4
 46
0.0
 47
0.0
 48
0.0
 49
0.0
140
0.0
141
0.0
142
1.0
143
1.0
 70
  1712
 72
     1
 73
     0
 74
     0
  7

 75
     0
147
1.0
148
0.0
149
0.0
100
AcDbLayout
  1
Model
 70
     1
 71
     0
 10
0.0
 20
0.0
 11
20000.0
 21
10000.0
 12
0.0
 22
0.0
 32
0.0
 14
0.0
 24
0.0
 34
0.0
 15
20000.0
 25
10000.0
 35
0.0
146
0.0
 13
0.0
 23
0.0
 33
0.0
 16
1.0
 26
0.0
 36
0.0
 17
0.0
 27
1.0
 37
0.0
 76
     0
330
1F
331
29
  0
MLINESTYLE
  5
18
102
{ACAD_REACTORS
330
17
102
}
330
17
100
AcDbMlineStyle
  2
Standard
 70
     0
  3

 62
   256
 51
90.0
 52
90.0
 71
     2
 49
0.5
 62
   256
  6
BYLAYER
 49
-0.5
 62
   256
  6
BYLAYER
  0
ACDBPLACEHOLDER
  5
F
102
{ACAD_REACTORS
330
E
102
}
330
E
  0
SCALE
  5
48
102
{ACAD_REACTORS
330
47
102
}
330
47
100
AcDbScale
 70
     0
300
1:1
140
1.0
141
1.0
290
     1
  0
SCALE
  5
49
102
{ACAD_REACTORS
330
47
102
}
330
47
100
AcDbScale
 70
     0
300
1:2
140
1.0
141
2.0
290
     0
  0
SCALE
  5
4A
102
{ACAD_REACTORS
330
47
102
}
330
47
100
AcDbScale
 70
     0
300
1:4
140
1.0
141
4.0
290
     0
  0
SCALE
  5
4B
102
{ACAD_REACTORS
330
47
102
}
330
47
100
AcDbScale
 70
     0
300
1:5
140
1.0
141
5.0
290
     0
  0
SCALE
  5
4C
102
{ACAD_REACTORS
330
47
102
}
330
47
100
AcDbScale
 70
     0
300
1:8
140
1.0
141
8.0
290
     0
  0
SCALE
  5
4D
102
{ACAD_REACTORS
330
47
102
}
330
47
100
AcDbScale
 70
     0
300
1:10
140
1.0
141
10.0
290
     0
  0
SCALE
  5
4E
102
{ACAD_REACTORS
330
47
102
}
330
47
100
AcDbScale
 70
     0
300
1:16
140
1.0
141
16.0
290
     0
  0
SCALE
  5
4F
102
{ACAD_REACTORS
330
47
102
}
330
47
100
AcDbScale
 70
     0
300
1:20
140
1.0
141
20.0
290
     0
  0
SCALE
  5
50
102
{ACAD_REACTORS
330
47
102
}
330
47
100
AcDbScale
 70
     0
300
1:30
140
1.0
141
30.0
290
     0
  0
SCALE
  5
51
102
{ACAD_REACTORS
330
47
102
}
330
47
100
AcDbScale
 70
     0
300
1:40
140
1.0
141
40.0
290
     0
  0
SCALE
  5
52
102
{ACAD_REACTORS
330
47
102
}
330
47
100
AcDbScale
 70
     0
300
1:50
140
1.0
141
50.0
290
     0
  0
SCALE
  5
53
102
{ACAD_REACTORS
330
47
102
}
330
47
100
AcDbScale
 70
     0
300
1:100
140
1.0
141
100.0
290
     0
  0
SCALE
  5
54
102
{ACAD_REACTORS
330
47
102
}
330
47
100
AcDbScale
 70
     0
300
2:1
140
2.0
141
1.0
290
     0
  0
SCALE
  5
55
102
{ACAD_REACTORS
330
47
102
}
330
47
100
AcDbScale
 70
     0
300
4:1
140
4.0
141
1.0
290
     0
  0
SCALE
  5
56
102
{ACAD_REACTORS
330
47
102
}
330
47
100
AcDbScale
 70
     0
300
8:1
140
8.0
141
1.0
290
     0
  0
SCALE
  5
57
102
{ACAD_REACTORS
330
47
102
}
330
47
100
AcDbScale
 70
     0
300
10:1
140
10.0
141
1.0
290
     0
  0
SCALE
  5
58
102
{ACAD_REACTORS
330
47
102
}
330
47
100
AcDbScale
 70
     0
300
100:1
140
100.0
141
1.0
290
     0
  0
SCALE
  5
59
102
{ACAD_REACTORS
330
47
102
}
330
47
100
AcDbScale
 70
     0
300
1/128" = 1'-0"
140
0.0078125
141
12.0
290
     0
  0
SCALE
  5
5A
102
{ACAD_REACTORS
330
47
102
}
330
47
100
AcDbScale
 70
     0
300
1/64" = 1'-0"
140
0.015625
141
12.0
290
     0
  0
SCALE
  5
5B
102
{ACAD_REACTORS
330
47
102
}
330
47
100
AcDbScale
 70
     0
300
1/32" = 1'-0"
140
0.03125
141
12.0
290
     0
  0
SCALE
  5
5C
102
{ACAD_REACTORS
330
47
102
}
330
47
100
AcDbScale
 70
     0
300
1/16" = 1'-0"
140
0.0625
141
12.0
290
     0
  0
SCALE
  5
5D
102
{ACAD_REACTORS
330
47
102
}
330
47
100
AcDbScale
 70
     0
300
3/32" = 1'-0"
140
0.09375
141
12.0
290
     0
  0
SCALE
  5
5E
102
{ACAD_REACTORS
330
47
102
}
330
47
100
AcDbScale
 70
     0
300
1/8" = 1'-0"
140
0.125
141
12.0
290
     0
  0
SCALE
  5
5F
102
{ACAD_REACTORS
330
47
102
}
330
47
100
AcDbScale
 70
     0
300
3/16" = 1'-0"
140
0.1875
141
12.0
290
     0
  0
SCALE
  5
60
102
{ACAD_REACTORS
330
47
102
}
330
47
100
AcDbScale
 70
     0
300
1/4" = 1'-0"
140
0.25
141
12.0
290
     0
  0
SCALE
  5
61
102
{ACAD_REACTORS
330
47
102
}
330
47
100
AcDbScale
 70
     0
300
3/8" = 1'-0"
140
0.375
141
12.0
290
     0
  0
SCALE
  5
62
102
{ACAD_REACTORS
330
47
102
}
330
47
100
AcDbScale
 70
     0
300
1/2" = 1'-0"
140
0.5
141
12.0
290
     0
  0
SCALE
  5
63
102
{ACAD_REACTORS
330
47
102
}
330
47
100
AcDbScale
 70
     0
300
3/4" = 1'-0"
140
0.75
141
12.0
290
     0
  0
SCALE
  5
64
102
{ACAD_REACTORS
330
47
102
}
330
47
100
AcDbScale
 70
     0
300
1" = 1'-0"
140
1.0
141
12.0
290
     0
  0
SCALE
  5
65
102
{ACAD_REACTORS
330
47
102
}
330
47
100
AcDbScale
 70
     0
300
1-1/2" = 1'-0"
140
1.5
141
12.0
290
     0
  0
SCALE
  5
66
102
{ACAD_REACTORS
330
47
102
}
330
47
100
AcDbScale
 70
     0
300
3" = 1'-0"
140
3.0
141
12.0
290
     0
  0
SCALE
  5
67
102
{ACAD_REACTORS
330
47
102
}
330
47
100
AcDbScale
 70
     0
300
6" = 1'-0"
140
6.0
141
12.0
290
     0
  0
SCALE
  5
68
102
{ACAD_REACTORS
330
47
102
}
330
47
100
AcDbScale
 70
     0
300
1'-0" = 1'-0"
140
12.0
141
12.0
290
     0
  0
ENDSEC
  0
EOF
