  0
SECTION
  2
HEADER
  9
$ACADVER
  1
AC1015
  9
$ACADMAINTVER
 70
     6
  9
$DWGCODEPAGE
  3
ANSI_1250
  9
$INSBASE
 10
0.0
 20
0.0
 30
0.0
  9
$EXTMIN
 10
0.0
 20
0.0
 30
0.0
  9
$EXTMAX
 10
20000.0
 20
10000.0
 30
0.0
  9
$LIMMIN
 10
0.0
 20
0.0
  9
$LIMMAX
 10
20000.0
 20
10000.0
  9
$ORTHOMODE
 70
     0
  9
$REGENMODE
 70
     1
  9
$FILLMODE
 70
     1
  9
$QTEXTMODE
 70
     0
  9
$MIRRTEXT
 70
     1
  9
$LTSCALE
 40
1.0
  9
$ATTMODE
 70
     1
  9
$TEXTSIZE
 40
2.0
  9
$TRACEWID
 40
1.0
  9
$TEXTSTYLE
  7
Standard
  9
$CLAYER
  8
0
  9
$CELTYPE
  6
ByLayer
  9
$CECOLOR
 62
   256
  9
$CELTSCALE
 40
1.0
  9
$DISPSILH
 70
     0
  9
$DIMSCALE
 40
1.0
  9
$DIMASZ
 40
2.0
  9
$DIMEXO
 40
1.0
  9
$DIMDLI
 40
3.75
  9
$DIMRND
 40
0.0
  9
$DIMDLE
 40
0.0
  9
$DIMEXE
 40
1.0
  9
$DIMTP
 40
0.0
  9
$DIMTM
 40
0.0
  9
$DIMTXT
 40
2.0
  9
$DIMCEN
 40
2.5
  9
$DIMTSZ
 40
0.0
  9
$DIMTOL
 70
     0
  9
$DIMLIM
 70
     0
  9
$DIMTIH
 70
     1
  9
$DIMTOH
 70
     1
  9
$DIMSE1
 70
     0
  9
$DIMSE2
 70
     0
  9
$DIMTAD
 70
     1
  9
$DIMZIN
 70
     0
  9
$DIMBLK
  1

  9
$DIMASO
 70
     1
  9
$DIMSHO
 70
     1
  9
$DIMPOST
  1

  9
$DIMAPOST
  1

  9
$DIMALT
 70
     0
  9
$DIMALTD
 70
     3
  9
$DIMALTF
 40
0.0393700787
  9
$DIMLFAC
 40
1.0
  9
$DIMTOFL
 70
     1
  9
$DIMTVP
 40
0.0
  9
$DIMTIX
 70
     0
  9
$DIMSOXD
 70
     0
  9
$DIMSAH
 70
     0
  9
$DIMBLK1
  1

  9
$DIMBLK2
  1

  9
$DIMSTYLE
  2
ISO-25
  9
$DIMCLRD
 70
     0
  9
$DIMCLRE
 70
     0
  9
$DIMCLRT
 70
     0
  9
$DIMTFAC
 40
1.0
  9
$DIMGAP
 40
1.524
  9
$DIMJUST
 70
     0
  9
$DIMSD1
 70
     0
  9
$DIMSD2
 70
     0
  9
$DIMTOLJ
 70
     0
  9
$DIMTZIN
 70
     0
  9
$DIMALTZ
 70
     0
  9
$DIMALTTZ
 70
     0
  9
$DIMUPT
 70
     0
  9
$DIMDEC
 70
     2
  9
$DIMTDEC
 70
     0
  9
$DIMALTU
 70
     2
  9
$DIMALTTD
 70
     3
  9
$DIMTXSTY
  7
Standard
  9
$DIMAUNIT
 70
     0
  9
$DIMADEC
 70
     2
  9
$DIMALTRND
 40
0.0
  9
$DIMAZIN
 70
     0
  9
$DIMDSEP
 70
    44
  9
$DIMATFIT
 70
     3
  9
$DIMFRAC
 70
     0
  9
$DIMLDRBLK
  1

  9
$DIMLUNIT
 70
     2
  9
$DIMLWD
 70
    -2
  9
$DIMLWE
 70
    -2
  9
$DIMTMOVE
 70
     0
  9
$LUNITS
 70
     2
  9
$LUPREC
 70
     3
  9
$SKETCHINC
 40
1.0
  9
$FILLETRAD
 40
10.0
  9
$AUNITS
 70
     0
  9
$AUPREC
 70
     2
  9
$MENU
  1
.
  9
$ELEVATION
 40
0.0
  9
$PELEVATION
 40
0.0
  9
$THICKNESS
 40
0.0
  9
$LIMCHECK
 70
     0
  9
$CHAMFERA
 40
0.0
  9
$CHAMFERB
 40
0.0
  9
$CHAMFERC
 40
0.0
  9
$CHAMFERD
 40
0.0
  9
$SKPOLY
 70
     0
  9
$TDCREATE
 40
2459135.444575475
  9
$TDUCREATE
 40
2459135.361242141
  9
$TDUPDATE
 40
2459135.444575706
  9
$TDUUPDATE
 40
2459135.361242373
  9
$TDINDWG
 40
0.0000000116
  9
$TDUSRTIMER
 40
0.0000000116
  9
$USRTIMER
 70
     1
  9
$ANGBASE
 50
0.0
  9
$ANGDIR
 70
     0
  9
$PDMODE
 70
     0
  9
$PDSIZE
 40
-1.0
  9
$PLINEWID
 40
0.0
  9
$SPLFRAME
 70
     0
  9
$SPLINETYPE
 70
     6
  9
$SPLINESEGS
 70
     8
  9
$HANDSEED
  5
BA
  9
$SURFTAB1
 70
     6
  9
$SURFTAB2
 70
     6
  9
$SURFTYPE
 70
     6
  9
$SURFU
 70
     6
  9
$SURFV
 70
     6
  9
$UCSBASE
  2

  9
$UCSNAME
  2

  9
$UCSORG
 10
0.0
 20
0.0
 30
0.0
  9
$UCSXDIR
 10
1.0
 20
0.0
 30
0.0
  9
$UCSYDIR
 10
0.0
 20
1.0
 30
0.0
  9
$UCSORTHOREF
  2

  9
$UCSORTHOVIEW
 70
     0
  9
$UCSORGTOP
 10
0.0
 20
0.0
 30
0.0
  9
$UCSORGBOTTOM
 10
0.0
 20
0.0
 30
0.0
  9
$UCSORGLEFT
 10
0.0
 20
0.0
 30
0.0
  9
$UCSORGRIGHT
 10
0.0
 20
0.0
 30
0.0
  9
$UCSORGFRONT
 10
0.0
 20
0.0
 30
0.0
  9
$UCSORGBACK
 10
0.0
 20
0.0
 30
0.0
  9
$PUCSBASE
  2

  9
$PUCSNAME
  2

  9
$PUCSORG
 10
0.0
 20
0.0
 30
0.0
  9
$PUCSXDIR
 10
1.0
 20
0.0
 30
0.0
  9
$PUCSYDIR
 10
0.0
 20
1.0
 30
0.0
  9
$PUCSORTHOREF
  2

  9
$PUCSORTHOVIEW
 70
     0
  9
$PUCSORGTOP
 10
0.0
 20
0.0
 30
0.0
  9
$PUCSORGBOTTOM
 10
0.0
 20
0.0
 30
0.0
  9
$PUCSORGLEFT
 10
0.0
 20
0.0
 30
0.0
  9
$PUCSORGRIGHT
 10
0.0
 20
0.0
 30
0.0
  9
$PUCSORGFRONT
 10
0.0
 20
0.0
 30
0.0
  9
$PUCSORGBACK
 10
0.0
 20
0.0
 30
0.0
  9
$USERI1
 70
     0
  9
$USERI2
 70
     0
  9
$USERI3
 70
     0
  9
$USERI4
 70
     0
  9
$USERI5
 70
     0
  9
$USERR1
 40
0.0
  9
$USERR2
 40
0.0
  9
$USERR3
 40
0.0
  9
$USERR4
 40
0.0
  9
$USERR5
 40
0.0
  9
$WORLDVIEW
 70
     1
  9
$SHADEDGE
 70
     3
  9
$SHADEDIF
 70
    70
  9
$TILEMODE
 70
     1
  9
$MAXACTVP
 70
    64
  9
$PINSBASE
 10
0.0
 20
0.0
 30
0.0
  9
$PLIMCHECK
 70
     0
  9
$PEXTMIN
 10
1.0000000000E+20
 20
1.0000000000E+20
 30
1.0000000000E+20
  9
$PEXTMAX
 10
-1.0000000000E+20
 20
-1.0000000000E+20
 30
-1.0000000000E+20
  9
$PLIMMIN
 10
0.0
 20
0.0
  9
$PLIMMAX
 10
420.0
 20
297.0
  9
$UNITMODE
 70
     0
  9
$VISRETAIN
 70
     1
  9
$PLINEGEN
 70
     0
  9
$PSLTSCALE
 70
     1
  9
$TREEDEPTH
 70
  3020
  9
$CMLSTYLE
  2
Standard
  9
$CMLJUST
 70
     0
  9
$CMLSCALE
 40
20.0
  9
$PROXYGRAPHICS
 70
     1
  9
$MEASUREMENT
 70
     1
  9
$CELWEIGHT
370
    -1
  9
$ENDCAPS
280
     0
  9
$JOINSTYLE
280
     0
  9
$LWDISPLAY
290
     1
  9
$INSUNITS
 70
     4
  9
$HYPERLINKBASE
  1

  9
$STYLESHEET
  1

  9
$XEDIT
290
     1
  9
$CEPSNTYPE
380
     0
  9
$PSTYLEMODE
290
     1
  9
$FINGERPRINTGUID
  2
{86839c72-2302-4644-9200-4c31e197d897}
  9
$VERSIONGUID
  2
{FAEB1C32-E019-11D5-929B-00C0DF256EC4}
  9
$EXTNAMES
290
     1
  9
$PSVPSCALE
 40
0.0
  9
$OLESTARTUP
290
     0
  0
ENDSEC
  0
SECTION
  2
CLASSES
  0
CLASS
  1
ACDBDICTIONARYWDFLT
  2
AcDbDictionaryWithDefault
  3
ObjectDBX Classes
 90
        0
280
     0
281
     0
  0
CLASS
  1
VISUALSTYLE
  2
AcDbVisualStyle
  3
ObjectDBX Classes
 90
     4095
280
     0
281
     0
  0
CLASS
  1
MATERIAL
  2
AcDbMaterial
  3
ObjectDBX Classes
 90
     1153
280
     0
281
     0
  0
CLASS
  1
SCALE
  2
AcDbScale
  3
ObjectDBX Classes
 90
     1153
280
     0
281
     0
  0
CLASS
  1
TABLESTYLE
  2
AcDbTableStyle
  3
ObjectDBX Classes
 90
     4095
280
     0
281
     0
  0
CLASS
  1
MLEADERSTYLE
  2
AcDbMLeaderStyle
  3
ACDB_MLEADERSTYLE_CLASS
 90
     4095
280
     0
281
     0
  0
CLASS
  1
SUN
  2
AcDbSun
  3
SCENEOE
 90
     1153
280
     0
281
     0
  0
CLASS
  1
ACDBPLACEHOLDER
  2
AcDbPlaceHolder
  3
ObjectDBX Classes
 90
        0
280
     0
281
     0
  0
CLASS
  1
LAYOUT
  2
AcDbLayout
  3
ObjectDBX Classes
 90
        0
280
     0
281
     0
  0
ENDSEC
  0
SECTION
  2
TABLES
  0
TABLE
  2
VPORT
  5
8
330
0
100
AcDbSymbolTable
 70
     1
  0
VPORT
  5
29
330
8
100
AcDbSymbolTableRecord
100
AcDbViewportTableRecord
  2
*Active
 70
     0
 10
0.0
 20
0.0
 11
1.0
 21
1.0
 12
10000.0
 22
5000.0
 13
0.0
 23
0.0
 14
10.0
 24
10.0
 15
10.0
 25
10.0
 16
0.0
 26
0.0
 36
1.0
 17
0.0
 27
0.0
 37
0.0
 40
10000.0
 41
2.0
 42
50.0
 43
0.0
 44
0.0
 50
0.0
 51
0.0
 71
     0
 72
  2000
 73
     1
 74
     3
 75
     0
 76
     0
 77
     0
 78
     0
281
     0
 65
     1
110
0.0
120
0.0
130
0.0
111
1.0
121
0.0
131
0.0
112
0.0
122
1.0
132
0.0
 79
     0
146
0.0
  0
ENDTAB
  0
TABLE
  2
LTYPE
  5
5
330
0
100
AcDbSymbolTable
 70
     6
  0
LTYPE
  5
14
330
5
100
AcDbSymbolTableRecord
100
AcDbLinetypeTableRecord
  2
ByBlock
 70
     0
  3

 72
    65
 73
     0
 40
0.0
  0
LTYPE
  5
15
330
5
100
AcDbSymbolTableRecord
100
AcDbLinetypeTableRecord
  2
ByLayer
 70
     0
  3

 72
    65
 73
     0
 40
0.0
  0
LTYPE
  5
16
330
5
100
AcDbSymbolTableRecord
100
AcDbLinetypeTableRecord
  2
Continuous
 70
     0
  3
Solid line
 72
    65
 73
     0
 40
0.0
  0
LTYPE
  5
6E
330
5
100
AcDbSymbolTableRecord
100
AcDbLinetypeTableRecord
  2
HIDDEN
 70
     0
  3
Hidden __ __ __ __ __ __ __ __ __ __ __ __ __ __
 72
    65
 73
     2
 40
1.905
 49
1.27
 74
     0
 49
-0.635
 74
     0
  0
LTYPE
  5
6F
330
5
100
AcDbSymbolTableRecord
100
AcDbLinetypeTableRecord
  2
PHANTOM
 70
     0
  3
Phantom ______  __  __  ______  __  __  ______
 72
    65
 73
     6
 40
12.7
 49
6.35
 74
     0
 49
-1.27
 74
     0
 49
1.27
 74
     0
 49
-1.27
 74
     0
 49
1.27
 74
     0
 49
-1.27
 74
     0
  0
LTYPE
  5
70
330
5
100
AcDbSymbolTableRecord
100
AcDbLinetypeTableRecord
  2
CENTER
 70
     0
  3
Center ____ _ ____ _ ____ _ ____ _ ____ _ ____
 72
    65
 73
     4
 40
10.16
 49
6.35
 74
     0
 49
-1.27
 74
     0
 49
1.27
 74
     0
 49
-1.27
 74
     0
  0
LTYPE
  5
71
330
5
100
AcDbSymbolTableRecord
100
AcDbLinetypeTableRecord
  2
CENTERX2
 70
     0
  3
Center (2x) ________  __  ________  __  _____
 72
    65
 73
     4
 40
20.32
 49
12.7
 74
     0
 49
-2.54
 74
     0
 49
2.54
 74
     0
 49
-2.54
 74
     0
  0
LTYPE
  5
72
330
5
100
AcDbSymbolTableRecord
100
AcDbLinetypeTableRecord
  2
DOT2
 70
     0
  3
Dot (.5x) ........................................
 72
    65
 73
     2
 40
0.635
 49
0.0
 74
     0
 49
-0.635
 74
     0
  0
ENDTAB
  0
TABLE
  2
LAYER
  5
2
330
0
100
AcDbSymbolTable
 70
    13
  0
LAYER
  5
10
330
2
100
AcDbSymbolTableRecord
100
AcDbLayerTableRecord
  2
0
 70
     0
 62
     7
  6
Continuous
370
    -3
390
F
  0
LAYER
  5
73
330
2
100
AcDbSymbolTableRecord
100
AcDbLayerTableRecord
  2
FORMAT
 70
     0
 62
     7
  6
Continuous
370
    -3
390
F
  0
LAYER
  5
74
330
2
100
AcDbSymbolTableRecord
100
AcDbLayerTableRecord
  2
OSA
 70
     0
 62
     7
  6
CENTER
370
    -3
390
F
  0
LAYER
  5
75
330
2
100
AcDbSymbolTableRecord
100
AcDbLayerTableRecord
  2
0_35
 70
     0
 62
     7
  6
Continuous
370
    35
390
F
  0
LAYER
  5
76
330
2
100
AcDbSymbolTableRecord
100
AcDbLayerTableRecord
  2
0_5
 70
     0
 62
     7
  6
Continuous
370
    50
390
F
  0
LAYER
  5
77
330
2
100
AcDbSymbolTableRecord
100
AcDbLayerTableRecord
  2
0_25
 70
     0
 62
     7
  6
Continuous
370
    25
390
F
  0
LAYER
  5
78
330
2
100
AcDbSymbolTableRecord
100
AcDbLayerTableRecord
  2
0_18
 70
     0
 62
     7
  6
Continuous
370
    -3
390
F
  0
LAYER
  5
79
330
2
100
AcDbSymbolTableRecord
100
AcDbLayerTableRecord
  2
SLD-0
 70
     0
 62
   179
  6
Continuous
370
    -3
390
F
  0
LAYER
  5
7A
330
2
100
AcDbSymbolTableRecord
100
AcDbLayerTableRecord
  2
KOTY
 70
     0
 62
     7
  6
Continuous
370
    -3
390
F
  0
LAYER
  5
7B
330
2
100
AcDbSymbolTableRecord
100
AcDbLayerTableRecord
  2
SILNA
 70
     0
 62
   179
  6
Continuous
370
    -3
390
F
  0
LAYER
  5
7C
330
2
100
AcDbSymbolTableRecord
100
AcDbLayerTableRecord
  2
0_18_1
 70
     0
 62
   179
  6
Continuous
370
    -3
390
F
  0
LAYER
  5
7D
330
2
100
AcDbSymbolTableRecord
100
AcDbLayerTableRecord
  2
0_35_1
 70
     0
 62
   179
  6
Continuous
370
    35
390
F
  0
LAYER
  5
7E
330
2
100
AcDbSymbolTableRecord
100
AcDbLayerTableRecord
  2
0_5_1
 70
     0
 62
   179
  6
Continuous
370
    50
390
F
  0
ENDTAB
  0
TABLE
  2
STYLE
  5
3
330
0
100
AcDbSymbolTable
 70
     1
  0
STYLE
  5
11
330
3
100
AcDbSymbolTableRecord
100
AcDbTextStyleTableRecord
  2
Standard
 70
     0
 40
0.0
 41
1.0
 50
0.0
 71
     0
 42
2.0
  3
txt
  4

  0
ENDTAB
  0
TABLE
  2
VIEW
  5
6
330
0
100
AcDbSymbolTable
 70
     0
  0
ENDTAB
  0
TABLE
  2
UCS
  5
7
330
0
100
AcDbSymbolTable
 70
     0
  0
ENDTAB
  0
TABLE
  2
APPID
  5
9
330
0
100
AcDbSymbolTable
 70
     1
  0
APPID
  5
12
330
9
100
AcDbSymbolTableRecord
100
AcDbRegAppTableRecord
  2
ACAD
 70
     0
  0
ENDTAB
  0
TABLE
  2
DIMSTYLE
  5
A
330
0
100
AcDbSymbolTable
 70
     1
100
AcDbDimStyleTable
  0
DIMSTYLE
105
27
330
A
100
AcDbSymbolTableRecord
100
AcDbDimStyleTableRecord
  2
ISO-25
 70
     0
 41
2.5
 42
0.625
 43
3.75
 44
1.25
 73
     0
 74
     0
 77
     1
 78
     8
140
2.5
141
2.5
143
0.0393700787
147
0.625
171
     3
172
     1
178
     0
271
     2
272
     2
274
     3
278
    44
283
     0
284
     8
340
11
  0
ENDTAB
  0
TABLE
  2
BLOCK_RECORD
  5
1
330
0
100
AcDbSymbolTable
 70
     1
  0
BLOCK_RECORD
  5
1F
330
1
100
AcDbSymbolTableRecord
100
AcDbBlockTableRecord
  2
*Model_Space
340
22
  0
BLOCK_RECORD
  5
1B
330
1
100
AcDbSymbolTableRecord
100
AcDbBlockTableRecord
  2
*Paper_Space
340
1E
  0
BLOCK_RECORD
  5
23
330
1
100
AcDbSymbolTableRecord
100
AcDbBlockTableRecord
  2
*Paper_Space0
340
26
  0
ENDTAB
  0
ENDSEC
  0
SECTION
  2
BLOCKS
  0
BLOCK
  5
20
330
1F
100
AcDbEntity
  8
0
100
AcDbBlockBegin
  2
*Model_Space
 70
     0
 10
0.0
 20
0.0
 30
0.0
  3
*Model_Space
  1

  0
ENDBLK
  5
21
330
1F
100
AcDbEntity
  8
0
100
AcDbBlockEnd
  0
BLOCK
  5
1C
330
1B
100
AcDbEntity
 67
     1
  8
0
100
AcDbBlockBegin
  2
*Paper_Space
 70
     0
 10
0.0
 20
0.0
 30
0.0
  3
*Paper_Space
  1

  0
ENDBLK
  5
1D
330
1B
100
AcDbEntity
 67
     1
  8
0
100
AcDbBlockEnd
  0
BLOCK
  5
24
330
23
100
AcDbEntity
  8
0
100
AcDbBlockBegin
  2
*Paper_Space0
 70
     0
 10
0.0
 20
0.0
 30
0.0
  3
*Paper_Space0
  1

  0
ENDBLK
  5
25
330
23
100
AcDbEntity
  8
0
100
AcDbBlockEnd
  0
ENDSEC
  0
SECTION
  2
ENTITIES
  0
LINE
  5
7F
330
1F
100
AcDbEntity
  8
0
  6
Continuous
 62
     7
370
    25
100
AcDbLine
 10
6196.3875994856
 20
5410.1442883562
 30
0.0
 11
6195.7506416649
 21
5409.7663012337
 31
0.0
  0
LWPOLYLINE
  5
80
330
1F
100
AcDbEntity
  8
0
  6
Continuous
 62
     7
370
    25
100
AcDbPolyline
 90
       44
 70
   128
 43
0.0
 10
6485.8557735039
 20
5406.3418330549
 10
6483.2161103009
 20
5408.5110301501
 10
6480.52866514
 20
5410.2213563636
 10
6477.9303693168
 20
5411.5525487417
 10
6474.3556487935
 20
5413.0023454426
 10
6471.213616762
 20
5413.9942060435
 10
6465.2859348001
 20
5415.2880684218
 10
6458.3679414813
 20
5415.994721738
 10
6450.6272052939
 20
5416.1072251614
 10
6442.1243211426
 20
5416.1694545061
 10
6432.8019319441
 20
5416.2297007398
 10
6422.6870562313
 20
5416.2910954663
 10
6412.6046397062
 20
5416.3453099562
 10
6400.1323529414
 20
5416.4012160612
 10
6388.4424614625
 20
5416.4439582186
 10
6377.5224023315
 20
5416.4761586402
 10
6367.3608083578
 20
5416.4999887062
 10
6361.3584266876
 20
5416.5113377172
 10
6355.9233451184
 20
5416.5094377154
 10
6351.2598769605
 20
5416.4851444529
 10
6347.3647331026
 20
5416.4350527746
 10
6344.2354710515
 20
5416.3530655912
 10
6341.3421611819
 20
5416.3109723619
 10
6337.3991429423
 20
5416.3924140874
 10
6332.5937156104
 20
5416.5339126278
 10
6327.6254612571
 20
5416.6207369753
 10
6322.5560450427
 20
5416.6644575011
 10
6317.3847919326
 20
5416.680447954
 10
6312.1110699592
 20
5416.6772956316
 10
6301.9263141584
 20
5416.6529475092
 10
6290.9051034641
 20
5416.6184445436
 10
6279.0373370327
 20
5416.5707917246
 10
6268.2488331116
 20
5416.5169355939
 10
6256.8393302438
 20
5416.4477999155
 10
6244.8709170411
 20
5416.3592359421
 10
6233.3309169039
 20
5416.2556772913
 10
6227.8531199432
 20
5416.1967965872
 10
6222.5719236505
 20
5416.1306714521
 10
6217.4071896794
 20
5416.0435814176
 10
6212.3375108457
 20
5415.6837106517
 10
6207.5855774205
 20
5414.8295030195
 10
6203.1944961006
 20
5413.5310481215
 10
6199.2287346154
 20
5411.8302908785
 10
6196.3875994856
 20
5410.1442883562
  0
LWPOLYLINE
  5
81
330
1F
100
AcDbEntity
  8
0
  6
Continuous
 62
     7
370
    25
100
AcDbPolyline
 90
       81
 70
   128
 43
0.0
 10
6460.6607666361
 20
5313.6571267625
 10
6459.0805392829
 20
5308.6592393209
 10
6457.1902279472
 20
5302.9500931362
 10
6454.9477094333
 20
5296.5348269616
 10
6452.3112006149
 20
5289.4222595282
 10
6449.3417282081
 20
5281.8693104056
 10
6446.2406657554
 20
5274.4066237206
 10
6443.0219157744
 20
5267.0556573332
 10
6439.6937953723
 20
5259.8203890423
 10
6437.007454925
 20
5254.2187248731
 10
6434.2624975149
 20
5248.6917642221
 10
6431.4626636874
 20
5243.2407475743
 10
6428.6641082897
 20
5237.9642648998
 10
6426.1680007754
 20
5233.3918617341
 10
6424.0433303284
 20
5229.5925790132
 10
6422.3115437647
 20
5226.5553022692
 10
6420.9893420474
 20
5224.2706196471
 10
6420.1969112306
 20
5222.9150943673
 10
6419.0227536009
 20
5220.9250088841
 10
6417.4438553324
 20
5218.2825999729
 10
6415.4486153752
 20
5214.9965974595
 10
6413.0445166864
 20
5211.1126081025
 10
6410.679234333
 20
5207.3685101416
 10
6408.5453789782
 20
5204.0530789623
 10
6406.6535408486
 20
5201.1590826188
 10
6405.1327031447
 20
5198.8616793041
 10
6403.6935191005
 20
5196.9034476372
 10
6402.0402469399
 20
5194.9666836654
 10
6400.1384498046
 20
5193.027564076
 10
6397.8693493864
 20
5191.0039587493
 10
6395.1689749703
 20
5188.9020250169
 10
6389.5196621787
 20
5185.2653709553
 10
6382.6306520022
 20
5181.8014352306
 10
6377.3613666365
 20
5179.6791422902
 10
6371.6266329604
 20
5177.7818987484
 10
6366.18844637
 20
5176.321861421
 10
6361.3481689766
 20
5175.2677846394
 10
6357.1788418484
 20
5174.5298962349
 10
6353.4814026285
 20
5173.9997673691
 10
6349.0280439332
 20
5173.5099348642
 10
6343.6533023036
 20
5173.1272652319
 10
6337.3860615115
 20
5172.9631097462
 10
6331.4561773562
 20
5173.0833593787
 10
6326.1860802244
 20
5173.4176937871
 10
6321.8586018956
 20
5173.8551221427
 10
6318.491250043
 20
5174.3004337182
 10
6316.0496238678
 20
5174.6826947063
 10
6313.4222335613
 20
5175.1516231352
 10
6310.0999190766
 20
5175.8332602724
 10
6306.6473036245
 20
5176.6520039649
 10
6302.7235391618
 20
5177.7289756466
 10
6298.3827026718
 20
5179.1191492225
 10
6293.9406952564
 20
5180.7852729822
 10
6288.5905171636
 20
5183.177454853
 10
6283.917946149
 20
5185.6897811683
 10
6279.9135127198
 20
5188.2523503565
 10
6275.8841387511
 20
5191.3552703975
 10
6272.3520857239
 20
5194.7232483179
 10
6269.3975409983
 20
5198.3340483531
 10
6266.99672709
 20
5202.1264201075
 10
6264.500343396
 20
5206.2769691563
 10
6262.3197989189
 20
5209.9675381128
 10
6260.4493509688
 20
5213.1894072845
 10
6258.7427638946
 20
5216.1781092282
 10
6257.0192822076
 20
5219.2456977004
 10
6255.2799028441
 20
5222.3939855184
 10
6252.388381346
 20
5227.7507674294
 10
6249.1872589127
 20
5233.8742686792
 10
6245.6990721171
 20
5240.8006286076
 10
6241.9639437775
 20
5248.5446969506
 10
6238.0284592542
 20
5257.1208746528
 10
6234.1740980756
 20
5266.0009657554
 10
6230.7096788224
 20
5274.4599449037
 10
6228.541162363
 20
5280.0209601674
 10
6226.5362428912
 20
5285.3697881885
 10
6224.6863000648
 20
5290.5027334435
 10
6222.9829371657
 20
5295.4164508801
 10
6221.4203423584
 20
5300.1014760624
 10
6220.110969056
 20
5304.2104064371
 10
6219.0961594945
 20
5307.5440451277
 10
6218.3353589525
 20
5310.1021475526
  0
LINE
  5
82
330
1F
100
AcDbEntity
  8
0
  6
Continuous
 62
     7
370
    25
100
AcDbLine
 10
6218.4326653019
 20
5310.1142785901
 30
0.0
 11
6218.742870471
 21
5309.1000920383
 31
0.0
  0
LINE
  5
83
330
1F
100
AcDbEntity
  8
0
  6
Continuous
 62
     7
370
    25
100
AcDbLine
 10
6459.8425849905
 20
5311.4521706271
 30
0.0
 11
6460.5381835885
 21
5313.6552790605
 31
0.0
  0
LINE
  5
84
330
1F
100
AcDbEntity
  8
0
  6
Continuous
 62
     7
370
    25
100
AcDbLine
 10
6196.016391598
 20
5409.863646069
 30
0.0
 11
6196.4028330059
 21
5410.1087523267
 31
0.0
  0
LWPOLYLINE
  5
85
330
1F
100
AcDbEntity
  8
0
  6
Continuous
 62
     7
370
    25
100
AcDbPolyline
 90
       38
 70
   128
 43
0.0
 10
6337.0828546334
 20
4870.6095902297
 10
6332.8989076499
 20
4870.8419318784
 10
6328.832889616
 20
4871.5205888302
 10
6325.0027432133
 20
4872.6213883465
 10
6321.5125411664
 20
4874.0867784836
 10
6318.4649227797
 20
4875.8550989491
 10
6315.933103501
 20
4877.8440216824
 10
6313.9719024318
 20
4879.9898316566
 10
6312.6325578064
 20
4882.1939132889
 10
6311.9261146085
 20
4884.4515960656
 10
6311.8926838465
 20
4886.6287434748
 10
6312.5798621251
 20
4888.7961337208
 10
6313.9720549822
 20
4890.7775204395
 10
6316.1842343762
 20
4892.6401989288
 10
6319.1018113625
 20
4894.2368063902
 10
6322.6487606478
 20
4895.5307693836
 10
6326.7553060586
 20
4896.511737204
 10
6330.8331052051
 20
4897.0981857828
 10
6335.1407636385
 20
4897.390128812
 10
6339.0067872907
 20
4897.3897230738
 10
6342.815369175
 20
4897.1512876781
 10
6346.3342567789
 20
4896.6987116673
 10
6349.6161188535
 20
4896.041702344
 10
6352.7800896117
 20
4895.1284632853
 10
6355.5491856268
 20
4894.0130271971
 10
6358.1231446741
 20
4892.5439534255
 10
6360.1178199884
 20
4890.8583539291
 10
6361.5912142397
 20
4888.784376163
 10
6362.2892920349
 20
4886.5063009457
 10
6362.158043756
 20
4884.0350742121
 10
6361.1687373034
 20
4881.4761563155
 10
6359.4406606657
 20
4879.0744703595
 10
6356.9823884223
 20
4876.7835231053
 10
6354.0621382816
 20
4874.8383268437
 10
6350.6346844966
 20
4873.1768758274
 10
6346.908113352
 20
4871.9164857039
 10
6342.9017001521
 20
4871.0574025942
 10
6337.0828546334
 20
4870.6095902297
  0
ARC
  5
86
330
1F
100
AcDbEntity
  8
0
  6
Continuous
 62
     7
370
    25
100
AcDbCircle
 10
6476.5084273234
 20
5376.7564379149
 30
0.0
 40
40.00000000000098
100
AcDbArc
 50
358.3545000859
 51
90.0
  0
ARC
  5
87
330
1F
100
AcDbEntity
  8
0
  6
Continuous
 62
     7
370
    25
100
AcDbCircle
 10
5084.1041963204
 20
5416.7564379149
 30
0.0
 40
1432.978658312866
100
AcDbArc
 50
339.7316035845
 51
358.3545000859
  0
ARC
  5
88
330
1F
100
AcDbEntity
  8
0
  6
Continuous
 62
     7
370
    25
100
AcDbCircle
 10
6337.0828546332
 20
4954.0510941903
 30
0.0
 40
97.29465627540698
100
AcDbArc
 50
200.2683964144
 51
339.7316035856
  0
ARC
  5
89
330
1F
100
AcDbEntity
  8
0
  6
Continuous
 62
     7
370
    25
100
AcDbCircle
 10
7590.0615129461
 20
5416.7564379149
 30
0.0
 40
1432.978658312866
100
AcDbArc
 50
181.6454999141
 51
200.2683964155
  0
ARC
  5
8A
330
1F
100
AcDbEntity
  8
0
  6
Continuous
 62
     7
370
    25
100
AcDbCircle
 10
6197.6572819431
 20
5376.7564379149
 30
0.0
 40
40.00000000000026
100
AcDbArc
 50
90.0
 51
181.6454999141
  0
LINE
  5
8B
330
1F
100
AcDbEntity
  8
0
  6
Continuous
 62
     7
370
    25
100
AcDbLine
 10
6476.5084273234
 20
5416.7564379149
 30
0.0
 11
6197.6572819431
 21
5416.7564379149
 31
0.0
  0
LWPOLYLINE
  5
8C
330
1F
100
AcDbEntity
  8
0
  6
Continuous
 62
     7
370
    25
100
AcDbPolyline
 90
       41
 70
   128
 43
0.0
 10
6337.0828546332
 20
5376.2297411436
 10
6346.4268002342
 20
5376.2273600703
 10
6356.5148628071
 20
5376.2205036445
 10
6367.0172636962
 20
5376.2094865403
 10
6377.6529077022
 20
5376.194467385
 10
6388.3651519501
 20
5376.175513607
 10
6399.161373456
 20
5376.1526221384
 10
6409.9467141602
 20
5376.1256804636
 10
6420.092132243
 20
5376.0944494091
 10
6426.4166470825
 20
5376.0696894143
 10
6431.751553729
 20
5376.0422684759
 10
6436.041826321
 20
5376.0118160836
 10
6439.5253253614
 20
5375.9774252289
 10
6442.4614230777
 20
5375.9371727911
 10
6445.0655859397
 20
5375.8855482319
 10
6446.7978316766
 20
5375.78756928
 10
6448.0155732761
 20
5375.6619428644
 10
6449.0345661799
 20
5375.5206440405
 10
6451.8879516008
 20
5374.9444099115
 10
6454.2658676609
 20
5374.246286104
 10
6457.3830253861
 20
5373.0050359204
 10
6460.1650125002
 20
5371.5423420397
 10
6462.7424811826
 20
5369.8005293531
 10
6465.2136404926
 20
5367.6666808675
 10
6466.1802517965
 20
5366.5873833624
 10
6467.1101485843
 20
5365.1530406522
 10
6467.3273181769
 20
5364.6486598461
 10
6467.5083553937
 20
5364.0193567815
 10
6467.5720020631
 20
5363.0384182673
 10
6467.432913802
 20
5361.4597261848
 10
6467.2829396465
 20
5359.8440697037
 10
6467.1209498339
 20
5358.1856376973
 10
6466.6200358106
 20
5353.5069087082
 10
6466.0033641317
 20
5348.4334286344
 10
6465.2435850137
 20
5342.8980822426
 10
6464.3029070243
 20
5336.8206300224
 10
6463.1119365097
 20
5329.9867679904
 10
6461.6393422731
 20
5322.4672909859
 10
6459.8394844352
 20
5314.285089134
 10
6457.7108532531
 20
5305.6200778239
 10
6456.2482824422
 20
5300.2554303722
  0
LWPOLYLINE
  5
8D
330
1F
100
AcDbEntity
  8
0
  6
Continuous
 62
     7
370
    25
100
AcDbPolyline
 90
       40
 70
   128
 43
0.0
 10
6222.5972886396
 20
5296.5727154779
 10
6220.8580635578
 20
5303.2211191442
 10
6218.7888982477
 20
5311.986628398
 10
6217.0079702102
 20
5320.3964711708
 10
6215.5677527264
 20
5328.0296667207
 10
6214.3983586379
 20
5334.9843619886
 10
6213.4560263581
 20
5341.2863842989
 10
6212.697887791
 20
5347.0028824497
 10
6212.0204035603
 20
5352.814408571
 10
6211.4850091158
 20
5358.1024785177
 10
6211.3066664698
 20
5360.0569386743
 10
6211.1439417394
 20
5361.9504784309
 10
6210.9992228776
 20
5363.7735066969
 10
6211.0630925637
 20
5364.6912056594
 10
6211.4415299846
 20
5365.9345944988
 10
6211.900962752
 20
5366.8357733884
 10
6212.394367016
 20
5367.5902942853
 10
6214.2256445711
 20
5369.6971663435
 10
6216.259737572
 20
5371.4443090936
 10
6218.5403626225
 20
5372.9258249068
 10
6221.1586654575
 20
5374.1906199176
 10
6223.1805880188
 20
5374.9065782622
 10
6225.6197454793
 20
5375.5010484892
 10
6226.5263326001
 20
5375.6526322275
 10
6227.6297031261
 20
5375.787714706
 10
6229.348127349
 20
5375.8900338123
 10
6231.9924986886
 20
5375.9412635844
 10
6234.9551101028
 20
5375.9814222495
 10
6239.3354604987
 20
5376.0220565363
 10
6245.0787019709
 20
5376.0575653219
 10
6252.4156327786
 20
5376.088803813
 10
6260.9282503333
 20
5376.116555412
 10
6270.0966936384
 20
5376.1410459238
 10
6279.4204297306
 20
5376.162507873
 10
6288.6835977632
 20
5376.1810217323
 10
6298.8050406434
 20
5376.1980419184
 10
6308.8635400724
 20
5376.2115379398
 10
6318.7776660923
 20
5376.2214393804
 10
6328.2805430249
 20
5376.2276011045
 10
6337.0828546332
 20
5376.2297411436
  0
LWPOLYLINE
  5
8E
330
1F
100
AcDbEntity
  8
0
  6
Continuous
 62
     7
370
    25
100
AcDbPolyline
 90
       41
 70
   128
 43
0.0
 10
6337.0828546332
 20
5376.2297411436
 10
6346.8827199053
 20
5376.2029634093
 10
6357.503175752
 20
5376.124290591
 10
6368.5025703142
 20
5375.9957749402
 10
6379.6082349232
 20
5375.8190323267
 10
6390.808799689
 20
5375.5954174373
 10
6402.0594850955
 20
5375.325961287
 10
6412.6831754663
 20
5375.0113326006
 10
6418.4475992026
 20
5374.795120051
 10
6423.3165850145
 20
5374.5614485138
 10
6427.2408122384
 20
5374.3098888794
 10
6430.4370447215
 20
5374.0389662068
 10
6433.1428466571
 20
5373.745225054
 10
6436.2145775734
 20
5373.2992909608
 10
6438.0160176425
 20
5372.7515743042
 10
6439.3798907821
 20
5372.1485749775
 10
6442.2370656266
 20
5370.3859565161
 10
6444.6664356882
 20
5368.3514163657
 10
6447.8462846723
 20
5364.8782157012
 10
6450.6114798056
 20
5360.9866948413
 10
6453.0718246937
 20
5356.6884041074
 10
6455.3251620247
 20
5352.0261796155
 10
6455.7127010596
 20
5351.1390716491
 10
6456.0974058082
 20
5350.2148954773
 10
6456.4773027372
 20
5349.2385308551
 10
6456.8459089533
 20
5348.1828111291
 10
6457.1857612705
 20
5346.9891804965
 10
6457.422433338
 20
5345.4486931072
 10
6457.2456124181
 20
5342.6927419151
 10
6456.9941006299
 20
5339.7134169822
 10
6456.5280827885
 20
5334.7893542948
 10
6455.9571170873
 20
5329.5134663424
 10
6455.2562848797
 20
5323.8237874097
 10
6454.3912808998
 20
5317.6476077718
 10
6453.2989209578
 20
5310.7776414912
 10
6451.9510372966
 20
5303.292359226
 10
6450.3062452908
 20
5295.2132408364
 10
6448.36314855
 20
5286.7041154708
 10
6446.1730067958
 20
5278.0755242974
 10
6443.7668422074
 20
5269.467447248
 10
6443.0507830518
 20
5267.1215842883
  0
LWPOLYLINE
  5
8F
330
1F
100
AcDbEntity
  8
0
  6
Continuous
 62
     7
370
    25
100
AcDbPolyline
 90
       41
 70
   128
 43
0.0
 10
6235.5001848932
 20
5262.8815082193
 10
6232.0970464655
 20
5274.9808107749
 10
6230.009165205
 20
5283.4686313715
 10
6228.1275379048
 20
5291.9294309221
 10
6226.4919457293
 20
5300.1278417426
 10
6225.135169296
 20
5307.7893012167
 10
6224.029697999
 20
5314.8442800877
 10
6223.1360145207
 20
5321.3062239808
 10
6222.4148059615
 20
5327.2325441912
 10
6221.8306837139
 20
5332.698431281
 10
6221.5399402765
 20
5335.7199474196
 10
6221.2821455082
 20
5338.6199993476
 10
6221.053202103
 20
5341.4113599835
 10
6220.8495235728
 20
5344.1085097793
 10
6220.7504754299
 20
5346.3704703959
 10
6220.8939166453
 20
5347.5988676775
 10
6221.3900826067
 20
5349.8558019828
 10
6221.9618179639
 20
5351.8160870818
 10
6223.6291915305
 20
5356.4648522425
 10
6225.5910995065
 20
5360.7897994984
 10
6227.9000692894
 20
5364.7233478746
 10
6230.6299609263
 20
5368.242041832
 10
6232.7405612075
 20
5370.3079340288
 10
6235.2261034115
 20
5372.0997274916
 10
6236.1705040198
 20
5372.6008105605
 10
6237.3179366917
 20
5373.0682489363
 10
6239.1654154805
 20
5373.4818774458
 10
6241.7567290473
 20
5373.8195538088
 10
6244.7052896748
 20
5374.1250342686
 10
6248.3122911959
 20
5374.4058277202
 10
6252.5831131885
 20
5374.6516754844
 10
6257.8523569124
 20
5374.8795169502
 10
6263.9337707726
 20
5375.090116805
 10
6270.5666210832
 20
5375.2834525177
 10
6277.4902768494
 20
5375.4595537466
 10
6287.8480216027
 20
5375.6893992539
 10
6298.1212298926
 20
5375.8800833094
 10
6308.3209590687
 20
5376.0306849133
 10
6318.4133449359
 20
5376.1400948842
 10
6328.1200680725
 20
5376.2069996255
 10
6337.0828546332
 20
5376.2297411436
  0
LWPOLYLINE
  5
90
330
1F
100
AcDbEntity
  8
0
  6
Continuous
 62
     7
370
    25
100
AcDbPolyline
 90
        9
 70
   128
 43
0.0
 10
6337.0828554901
 20
4877.5841796588
 10
6332.8900800915
 20
4877.8217964606
 10
6328.8153794145
 20
4878.5155564293
 10
6324.9767284969
 20
4879.6401482721
 10
6321.4793689602
 20
4881.1351737729
 10
6318.4319328515
 20
4882.9323329033
 10
6315.902490935
 20
4884.9472057638
 10
6313.9542170641
 20
4887.1017800713
 10
6312.768777328
 20
4889.065000259
  0
LWPOLYLINE
  5
91
330
1F
100
AcDbEntity
  8
0
  6
Continuous
 62
     7
370
    25
100
AcDbPolyline
 90
       10
 70
   128
 43
0.0
 10
6361.3762169691
 20
4889.0870104095
 10
6361.2077778803
 20
4888.6398783565
 10
6359.5035613515
 20
4886.2298645883
 10
6357.0676108572
 20
4883.9161112585
 10
6354.1812565367
 20
4881.9495676796
 10
6350.7903584704
 20
4880.260007652
 10
6347.0872570295
 20
4878.964797562
 10
6343.1018106819
 20
4878.0723864943
 10
6340.1146428749
 20
4877.7075205798
 10
6337.0828554901
 20
4877.5841796588
  0
LWPOLYLINE
  5
92
330
1F
100
AcDbEntity
  8
0
  6
Continuous
 62
     8
370
    25
100
AcDbPolyline
 90
       32
 70
   128
 43
0.0
 10
6337.0828646405
 20
5404.0554836218
 10
6303.302232191
 20
5404.093304657
 10
6268.8129011419
 20
5404.2114598751
 10
6239.4183206874
 20
5404.3851387508
 10
6235.5486879891
 20
5404.4145560166
 10
6231.6753717211
 20
5404.4459164225
 10
6227.7986917052
 20
5404.4797859371
 10
6223.9189677635
 20
5404.5163282109
 10
6220.0365197112
 20
5404.6045894846
 10
6217.1885442584
 20
5404.5676067665
 10
6214.4051656678
 20
5404.2457697762
 10
6211.8371356441
 20
5403.7215833602
 10
6209.557447692
 20
5403.0157866355
 10
6207.6089291164
 20
5402.1773295674
 10
6206.0148703662
 20
5401.2655952386
 10
6204.7658493684
 20
5400.3556217387
 10
6203.820675845
 20
5399.5246488588
 10
6203.0551398317
 20
5398.6568370385
 10
6202.8959607305
 20
5398.4277936455
 10
6202.7511002868
 20
5398.1958339515
 10
6202.6208365768
 20
5397.9613103328
 10
6202.4889156913
 20
5397.5811206177
 10
6202.3487435848
 20
5395.8413631149
 10
6202.5447129861
 20
5393.979384854
 10
6202.5714389199
 20
5393.7673897415
 10
6203.0747784888
 20
5387.8889584866
 10
6204.3691379471
 20
5376.0634727734
 10
6206.043344591
 20
5364.1763878144
 10
6208.8607022733
 20
5348.2839533097
 10
6212.3387358678
 20
5332.3876181945
 10
6216.470097422
 20
5316.5307092259
 10
6218.4326653019
 20
5310.1142785901
  0
LWPOLYLINE
  5
93
330
1F
100
AcDbEntity
  8
0
  6
Continuous
 62
     8
370
    25
100
AcDbPolyline
 90
       40
 70
   128
 43
0.0
 10
6460.5381835885
 20
5313.6552790605
 10
6462.8980812024
 20
5321.1295758025
 10
6467.1177200275
 20
5336.9742334118
 10
6470.6310897496
 20
5352.8078761637
 10
6473.4353870658
 20
5368.5730466558
 10
6475.4319844394
 20
5383.3496704244
 10
6475.6879597216
 20
5385.6558783109
 10
6475.9282321558
 20
5387.9568848601
 10
6476.1527979135
 20
5390.2523668805
 10
6476.3616495896
 20
5392.541987078
 10
6476.6900395959
 20
5395.3752680664
 10
6476.6654746958
 20
5396.5033791878
 10
6476.6028362471
 20
5396.9832596835
 10
6476.564541037
 20
5397.1913835125
 10
6476.5294708825
 20
5397.3547112512
 10
6476.5273111038
 20
5397.3618921532
 10
6476.5233023994
 20
5397.3704805344
 10
6476.520124391
 20
5397.377211626
 10
6476.5143866684
 20
5397.3891933552
 10
6476.4872594957
 20
5397.4429930213
 10
6476.4276990037
 20
5397.5469867543
 10
6476.2967845306
 20
5397.7488779252
 10
6474.8167244206
 20
5399.262776539
 10
6473.651563763
 20
5400.162257995
 10
6472.0771041147
 20
5401.1203802913
 10
6470.0857842726
 20
5402.0450184995
 10
6467.7363013948
 20
5402.8702041392
 10
6465.0757324718
 20
5403.5575247639
 10
6462.1643355964
 20
5404.0860158914
 10
6459.0792070885
 20
5404.4398359121
 10
6455.8726088956
 20
5404.6113658262
 10
6452.7011515691
 20
5404.5361580674
 10
6449.2245816562
 20
5404.5021628416
 10
6445.7532395375
 20
5404.4706773457
 10
6442.2870756112
 20
5404.4412862123
 10
6438.8260402759
 20
5404.4137676784
 10
6404.4868471598
 20
5404.2069414185
 10
6370.6015470125
 20
5404.0925810412
 10
6337.0828646405
 20
5404.0554836218
 10
6337.0828646405
 20
5404.0554836218
  0
LWPOLYLINE
  5
94
330
1F
100
AcDbEntity
  8
0
  6
Continuous
 62
     8
370
    25
100
AcDbPolyline
 90
        5
 70
   128
 43
0.0
 10
6337.0828546756
 20
5416.7564379149
 10
6370.6015370453
 20
5416.7047840622
 10
6404.4868370822
 20
5416.5393692665
 10
6438.1344344298
 20
5416.2264162611
 10
6443.3248338217
 20
5416.1606684147
  0
LWPOLYLINE
  5
95
330
1F
100
AcDbEntity
  8
0
  6
Continuous
 62
     8
370
    25
100
AcDbPolyline
 90
       65
 70
   128
 43
0.0
 10
6485.5019362477
 20
5406.6326060397
 10
6487.9738814892
 20
5403.9571920376
 10
6489.7392727238
 20
5400.7124115171
 10
6490.354182157
 20
5397.2945506671
 10
6490.0873954306
 20
5395.266062236
 10
6489.7656355211
 20
5393.4490962058
 10
6489.5306115487
 20
5391.452926325
 10
6487.9540641126
 20
5379.4392113157
 10
6486.0440518823
 20
5367.4116590879
 10
6482.9362238577
 20
5351.3526451974
 10
6479.1651387764
 20
5335.2942327305
 10
6474.7153207147
 20
5319.2694359218
 10
6468.4693228845
 20
5300.1368493278
 10
6461.2577956284
 20
5281.1789987112
 10
6453.1117287063
 20
5262.4666132156
 10
6444.0813441833
 20
5244.0695126787
 10
6434.2349500509
 20
5226.0559920561
 10
6426.896192218
 20
5213.7115636368
 10
6419.2259910671
 20
5201.6112665005
 10
6416.1295934143
 20
5196.928741261
 10
6412.716483885
 20
5192.3887187156
 10
6408.4977067509
 20
5188.1550327474
 10
6403.549424032
 20
5184.2304238941
 10
6397.1701870389
 20
5180.2027318956
 10
6390.1251104566
 20
5176.6672731591
 10
6382.5527958863
 20
5173.6470296314
 10
6374.5835536884
 20
5171.1504559985
 10
6366.3346040366
 20
5169.1789056686
 10
6357.9144085995
 20
5167.7261968657
 10
6349.4258838024
 20
5166.781509801
 10
6340.9447107835
 20
5166.3278352745
 10
6332.507678876
 20
5166.347617945
 10
6323.9857604007
 20
5166.8452398068
 10
6315.4297849281
 20
5167.8448884829
 10
6306.93429173
 20
5169.365563975
 10
6298.6082573432
 20
5171.4222361897
 10
6290.5752647522
 20
5174.0197326784
 10
6282.9629776316
 20
5177.1581328377
 10
6275.9183378944
 20
5180.8195739866
 10
6269.5892258138
 20
5184.9779814773
 10
6264.1264506637
 20
5189.5810818985
 10
6261.0417462628
 20
5192.863966068
 10
6258.4479735528
 20
5196.2876819465
 10
6256.2139799045
 20
5199.8878162404
 10
6249.7196884143
 20
5210.7598799066
 10
6243.4847764028
 20
5221.8015430412
 10
6234.0914387841
 20
5239.7926662622
 10
6225.4634913227
 20
5258.1384264493
 10
6217.6529511632
 20
5276.7881145165
 10
6210.7004466308
 20
5295.6922613797
 10
6204.63175652
 20
5314.8010794562
 10
6200.3464902982
 20
5330.5231118982
 10
6196.6614073571
 20
5346.3265576618
 10
6193.5672674103
 20
5362.1939951495
 10
6190.3584966369
 20
5383.2218495943
 10
6190.0082233982
 20
5385.9844305045
 10
6189.6734744611
 20
5388.7495681131
 10
6189.3539357248
 20
5391.5176915681
 10
6189.0460310624
 20
5394.2837710701
 10
6188.589212276
 20
5396.8138452432
 10
6188.6194766351
 20
5399.9167649019
 10
6189.7727192085
 20
5403.316892026
 10
6191.9633895599
 20
5406.4593462068
 10
6194.9580785929
 20
5409.1923951761
 10
6196.016391598
 20
5409.863646069
  0
LWPOLYLINE
  5
96
330
1F
100
AcDbEntity
  8
0
  6
Continuous
 62
     8
370
    25
100
AcDbPolyline
 90
        4
 70
   128
 43
0.0
 10
6265.4483639734
 20
5416.4999662013
 10
6268.8128911859
 20
5416.532452882
 10
6303.3022222238
 20
5416.7036964593
 10
6337.0828546756
 20
5416.7564379149
  0
LWPOLYLINE
  5
97
330
1F
100
AcDbEntity
  8
0
  6
Continuous
 62
     7
370
    25
100
AcDbPolyline
 90
       25
 70
   128
 43
0.0
 10
6831.624199436
 20
4897.3801863475
 10
6835.6656019078
 20
4899.9650540831
 10
6841.3267335015
 20
4903.6676209516
 10
6847.9124509778
 20
4908.0892546558
 10
6855.3946192351
 20
4913.265974417
 10
6863.7402999574
 20
4919.2384653058
 10
6871.9204520258
 20
4925.3026266183
 10
6880.7324120403
 20
4932.0770098851
 10
6890.1415356792
 20
4939.599282791
 10
6900.1093148866
 20
4947.9093396747
 10
6910.5931497702
 20
4957.0490696989
 10
6921.3466921193
 20
4966.8753851482
 10
6932.5039753591
 20
4977.5868197973
 10
6944.0116755812
 20
4989.2272140799
 10
6955.8116576868
 20
5001.8412442395
 10
6968.0610973646
 20
5015.7317130345
 10
6980.4754638368
 20
5030.7263974158
 10
6992.9760895407
 20
5046.8731646165
 10
7005.4777779181
 20
5064.2193997043
 10
7017.8884167387
 20
5082.8116125853
 10
7027.511253076
 20
5098.3233872191
 10
7036.9650850097
 20
5114.6535286692
 10
7046.1952677074
 20
5131.8224641242
 10
7055.1439395126
 20
5149.8496965933
 10
7062.6421303325
 20
5166.320355269
  0
LWPOLYLINE
  5
98
330
1F
100
AcDbEntity
  8
0
  6
Continuous
 62
     7
370
    25
100
AcDbPolyline
 90
        7
 70
   128
 43
0.0
 10
6756.4863422861
 20
4856.7564379149
 10
6761.6200626323
 20
4859.1114462071
 10
6765.5031849333
 20
4860.9312061866
 10
6768.1768096561
 20
4862.2035968736
 10
6770.4994738683
 20
4863.3219339951
 10
6778.1631594549
 20
4867.0984264472
 10
6785.0313070828
 20
4870.6551388096
  0
LWPOLYLINE
  5
99
330
1F
100
AcDbEntity
  8
0
  6
Continuous
 62
     7
370
    25
100
AcDbPolyline
 90
        7
 70
   128
 43
0.0
 10
6812.9691290843
 20
5416.7564374519
 10
6804.34364946
 20
5416.7564361512
 10
6793.1075894244
 20
5416.7564332666
 10
6782.7038426969
 20
5416.7564175766
 10
6773.1324187667
 20
5416.7563766626
 10
6764.3932908384
 20
5416.7563369555
 10
6756.4863422861
 20
5416.7564379149
  0
ARC
  5
9A
330
1F
100
AcDbEntity
  8
0
  6
Continuous
 62
     7
370
    25
100
AcDbCircle
 10
7058.2821684483
 20
5168.1926550509
 30
0.0
 40
4.784459835571582
100
AcDbArc
 50
336.4201093004
 51
37.7535068401
  0
LWPOLYLINE
  5
9B
330
1F
100
AcDbEntity
  8
0
  6
Continuous
 62
     7
370
    25
100
AcDbPolyline
 90
       12
 70
   128
 43
0.0
 10
7061.9397891588
 20
5171.2704653023
 10
7061.3185368219
 20
5171.9092230184
 10
7060.1730326588
 20
5173.0641744113
 10
7058.5484096521
 20
5174.6930445467
 10
7056.497640294
 20
5176.7450572974
 10
7054.0782300302
 20
5179.164531077
 10
7051.3515997454
 20
5181.8909805965
 10
7048.3789109665
 20
5184.8638181585
 10
7045.2282138642
 20
5188.0145786673
 10
7041.9581158744
 20
5191.2840253404
 10
7037.9580542068
 20
5195.28072355
 10
7036.7753472569
 20
5196.4609433578
  0
LWPOLYLINE
  5
9C
330
1F
100
AcDbEntity
  8
0
  6
Continuous
 62
     7
370
    25
100
AcDbPolyline
 90
       17
 70
   128
 43
0.0
 10
6822.1293526499
 20
5411.1107259728
 10
6821.060452606
 20
5412.1821700308
 10
6820.0801690392
 20
5413.160156799
 10
6819.67053452
 20
5413.5679468372
 10
6819.6320312637
 20
5413.6027645845
 10
6819.5723491688
 20
5413.6626234765
 10
6819.514478555
 20
5413.7212115559
 10
6819.4595533363
 20
5413.7770853673
 10
6819.342646559
 20
5413.8960991351
 10
6819.208013556
 20
5414.0335084835
 10
6819.016837828
 20
5414.2252430699
 10
6818.7355750128
 20
5414.491417443
 10
6818.3565575013
 20
5414.8187270312
 10
6817.871658936
 20
5415.1885655364
 10
6816.9810137689
 20
5415.7411669609
 10
6815.3080031161
 20
5416.4244714419
 10
6812.9693694198
 20
5416.756437916
  0
LWPOLYLINE
  5
9D
330
1F
100
AcDbEntity
  8
0
  6
Continuous
 62
     7
370
    25
100
AcDbPolyline
 90
       71
 70
   128
 43
0.0
 10
7062.1144808692
 20
5171.041294077
 10
7062.0168896438
 20
5171.1666192364
 10
7061.431963352
 20
5171.7752886302
 10
7060.4276144386
 20
5172.7951635258
 10
7059.0506653081
 20
5174.1816278876
 10
7056.7251068254
 20
5176.5138066204
 10
7053.9633411967
 20
5179.2781134548
 10
7050.8969048828
 20
5182.3453912874
 10
7047.660062116
 20
5185.5822545978
 10
7044.3730238987
 20
5188.8689290214
 10
7041.1449389714
 20
5192.0957978682
 10
7037.9151685989
 20
5195.3228548661
 10
7034.9322658454
 20
5198.3012227652
 10
7032.1104562745
 20
5201.1176037778
 10
7029.053626924
 20
5204.1792367877
 10
7025.841393545
 20
5207.3951137438
 10
7022.5530975971
 20
5210.6859347484
 10
7019.1883513982
 20
5214.052347301
 10
7015.7467217558
 20
5217.4950090213
 10
7004.4239247379
 20
5228.8188185931
 10
6992.3572990685
 20
5240.8854647926
 10
6985.1644960564
 20
5248.0782627808
 10
6977.8979139285
 20
5255.3448470411
 10
6970.5605130669
 20
5262.6822554722
 10
6963.1557783051
 20
5270.0869967189
 10
6955.688154571
 20
5277.5546134538
 10
6948.1608662477
 20
5285.081885192
 10
6941.0197112872
 20
5292.2230317848
 10
6934.5983282792
 20
5298.6444178433
 10
6929.1122993856
 20
5304.1304559729
 10
6924.5718584203
 20
5308.6709066034
 10
6922.1115824426
 20
5311.1311874239
 10
6919.1221587427
 20
5314.1206153132
 10
6915.5662370105
 20
5317.6765382151
 10
6911.4429698318
 20
5321.7998082174
 10
6906.9303540021
 20
5326.3124555584
 10
6901.8875443278
 20
5331.3553236744
 10
6896.5708838935
 20
5336.6720519061
 10
6891.6641827037
 20
5341.5788006857
 10
6887.20607489
 20
5346.0369256082
 10
6883.1991159498
 20
5350.0438719846
 10
6879.0588302423
 20
5354.1841158271
 10
6875.5443865665
 20
5357.6985056541
 10
6872.1750671855
 20
5361.0677651596
 10
6868.6539743623
 20
5364.5887978338
 10
6865.3225649144
 20
5367.9201671156
 10
6861.7059484039
 20
5371.536828844
 10
6857.4515136936
 20
5375.7914054076
 10
6852.5460391681
 20
5380.69699182
 10
6846.9905067901
 20
5386.2523515729
 10
6844.8498830132
 20
5388.392775532
 10
6842.6277480832
 20
5390.6146055985
 10
6840.3244867399
 20
5392.917401236
 10
6837.9396524596
 20
5395.3014429897
 10
6835.4816593012
 20
5397.7611224159
 10
6832.9537084394
 20
5400.2484525498
 10
6830.9896348052
 20
5402.2195652569
 10
6829.35323925
 20
5403.8657200011
 10
6827.8536931128
 20
5405.3746205898
 10
6825.2363315306
 20
5408.0031175049
 10
6823.1621600846
 20
5410.0805895557
 10
6821.636237233
 20
5411.6025661084
 10
6820.6101634074
 20
5412.6210498622
 10
6820.0244611891
 20
5413.2015019847
 10
6819.831190645
 20
5413.3822576606
 10
6819.7273827839
 20
5413.4910463371
 10
6819.6083099181
 20
5413.6186329123
 10
6819.5187495239
 20
5413.7122907039
 10
6819.4631940348
 20
5413.7683444722
 10
6819.4413652698
 20
5413.7873637472
 10
6819.4422377332
 20
5413.7859662768
  0
ARC
  5
9E
330
1F
100
AcDbEntity
  8
0
  6
Continuous
 62
     7
370
    25
100
AcDbCircle
 10
6884.3483208132
 20
4751.8463121663
 30
0.0
 40
154.8028959039774
100
AcDbArc
 50
109.9155522226
 51
129.8977548565
  0
LINE
  5
9F
330
1F
100
AcDbEntity
  8
0
  6
Continuous
 62
     7
370
    25
100
AcDbLine
 10
6756.4863422861
 20
5416.7564379149
 30
0.0
 11
6756.4863422861
 21
5375.6078201737
 31
0.0
  0
LINE
  5
A0
330
1F
100
AcDbEntity
  8
0
  6
Continuous
 62
     7
370
    25
100
AcDbLine
 10
6756.4863422861
 20
5375.6078201737
 30
0.0
 11
6756.4863422861
 21
4920.3464475049
 31
0.0
  0
LINE
  5
A1
330
1F
100
AcDbEntity
  8
0
  6
Continuous
 62
     7
370
    25
100
AcDbLine
 10
6756.4863422861
 20
4920.3464475049
 30
0.0
 11
6756.4863422861
 21
4856.7564379167
 31
0.0
  0
LWPOLYLINE
  5
A2
330
1F
100
AcDbEntity
  8
0
  6
Continuous
 62
     8
370
    25
100
AcDbPolyline
 90
       46
 70
   128
 43
0.0
 10
7062.6058105904
 20
5166.3368896628
 10
7062.5944557191
 20
5166.347617945
 10
7062.0680390295
 20
5166.8452398068
 10
7061.0112332549
 20
5167.8448884829
 10
7059.4014774552
 20
5169.365563975
 10
7057.2204984513
 20
5171.4222361897
 10
7054.4589482294
 20
5174.0197326784
 10
7051.112452184
 20
5177.1581328377
 10
7047.195704832
 20
5180.8195739866
 10
7042.7320556954
 20
5184.9779814773
 10
7037.7711903255
 20
5189.5810818985
 10
7034.2218106712
 20
5192.863966068
 10
7030.513604291
 20
5196.2876819465
 10
7026.8890890589
 20
5199.8878162404
 10
7015.9668420458
 20
5210.7598799066
 10
7004.8715653963
 20
5221.8015430412
 10
6986.7929733888
 20
5239.7926662622
 10
6968.3606455965
 20
5258.1384264493
 10
6949.6293162198
 20
5276.7881145165
 10
6930.6574670724
 20
5295.6922613797
 10
6911.5066756535
 20
5314.8010794562
 10
6895.777007945
 20
5330.5231118982
 10
6880.0107861627
 20
5346.3265576618
 10
6864.2538956067
 20
5362.1939951495
 10
6843.5615443192
 20
5383.2218495943
 10
6840.8694816097
 20
5385.9844305045
 10
6838.1830111036
 20
5388.7495681131
 10
6835.5028495147
 20
5391.5176915681
 10
6832.8245297789
 20
5394.2837710701
 10
6829.8955370606
 20
5396.8138452432
 10
6826.8861317913
 20
5399.9167649019
 10
6823.708596004
 20
5403.316892026
 10
6820.8361127757
 20
5406.4593462068
 10
6818.3813934455
 20
5409.1923951761
 10
6816.3728739299
 20
5411.4710859244
 10
6814.8080776645
 20
5413.2731455419
 10
6813.6542366002
 20
5414.6074769408
 10
6812.8815619881
 20
5415.4824788154
 10
6812.4705304405
 20
5415.9023839225
 10
6812.5239729876
 20
5416.027757221
 10
6812.5691049692
 20
5416.115406388
 10
6812.6073269035
 20
5416.1942699567
 10
6812.7935665729
 20
5416.532452882
 10
6812.9226819888
 20
5416.7036964593
 10
6812.9693623129
 20
5416.7564379149
 10
6812.9693623129
 20
5416.7564379149
  0
LINE
  5
A3
330
1F
100
AcDbEntity
  8
0
  6
Continuous
 62
     7
370
    25
100
AcDbLine
 10
6475.5125072453
 20
4521.0914276655
 30
0.0
 11
6475.6985985495
 21
4521.7080288752
 31
0.0
  0
LWPOLYLINE
  5
A4
330
1F
100
AcDbEntity
  8
0
  6
Continuous
 62
     7
370
    25
100
AcDbPolyline
 90
       58
 70
   128
 43
0.0
 10
6205.6512135386
 20
4510.3724204
 10
6207.0479565167
 20
4505.8659310003
 10
6208.6765006398
 20
4500.8239513096
 10
6210.5312378169
 20
4495.257769083
 10
6212.5581288132
 20
4489.4070182607
 10
6214.7244338858
 20
4483.4210392306
 10
6219.4083190549
 20
4471.282795753
 10
6224.6978273168
 20
4458.6656948915
 10
6231.7242419596
 20
4443.3107273112
 10
6239.3483584827
 20
4428.0732243018
 10
6247.5450386901
 20
4413.0006646484
 10
6250.4654668327
 20
4407.9067508245
 10
6253.3793658529
 20
4402.9529599957
 10
6256.0528256669
 20
4398.5144526949
 10
6258.4564154612
 20
4394.6066835632
 10
6260.8144806196
 20
4391.1515150791
 10
6263.1628778883
 20
4388.3072055447
 10
6265.3216324225
 20
4386.0449682011
 10
6267.6842754231
 20
4383.853370531
 10
6270.6403982533
 20
4381.4307247505
 10
6274.263193247
 20
4378.8365212571
 10
6279.7401539885
 20
4375.5148598109
 10
6286.2113511404
 20
4372.2975284123
 10
6293.6897494411
 20
4369.3132364457
 10
6302.1493903453
 20
4366.6952661485
 10
6311.5258109273
 20
4364.5740210265
 10
6321.6882093421
 20
4363.0786175354
 10
6332.0089152158
 20
4362.3374806577
 10
6342.1363843514
 20
4362.3371106843
 10
6352.235812854
 20
4363.052644056
 10
6362.2290426626
 20
4364.4981805501
 10
6371.9740344836
 20
4366.6840493214
 10
6381.30365929
 20
4369.6104395158
 10
6387.2096812814
 20
4371.9678680636
 10
6392.7828690779
 20
4374.632664141
 10
6397.5845648208
 20
4377.3509585978
 10
6401.5160963935
 20
4379.9433065186
 10
6404.6611408508
 20
4382.3201675985
 10
6407.1065128106
 20
4384.4046644605
 10
6408.8763037423
 20
4386.073366184
 10
6410.1833493987
 20
4387.4105274143
 10
6411.6094098719
 20
4388.9922535918
 10
6413.2842774335
 20
4391.055255314
 10
6415.0934093084
 20
4393.6111873252
 10
6417.0576016931
 20
4396.5667591115
 10
6419.1823962288
 20
4399.8141762215
 10
6425.0923012077
 20
4409.1377660938
 10
6431.0643774075
 20
4419.0409376221
 10
6437.1620685079
 20
4429.7277528988
 10
6443.1738398832
 20
4440.9288640114
 10
6448.9493353139
 20
4452.4246977464
 10
6454.4560536369
 20
4464.1955803519
 10
6459.6642200449
 20
4476.2271327489
 10
6463.5295433617
 20
4485.8526990557
 10
6467.1110708375
 20
4495.4069601998
 10
6470.3192614814
 20
4504.5778646564
 10
6473.1759057394
 20
4513.3492533546
 10
6475.5125072453
 20
4521.0914276655
  0
LWPOLYLINE
  5
A5
330
1F
100
AcDbEntity
  8
0
  6
Continuous
 62
     7
370
    25
100
AcDbPolyline
 90
       45
 70
   128
 43
0.0
 10
6205.753153492
 20
4599.1059645882
 10
6207.6600039747
 20
4600.4438575783
 10
6210.623658233
 20
4601.8402016721
 10
6214.2235062477
 20
4602.8546337192
 10
6218.1501367783
 20
4603.3888803888
 10
6223.3059792229
 20
4603.5283180171
 10
6228.7830935426
 20
4603.5740290648
 10
6234.1651671878
 20
4603.608684501
 10
6239.3277283371
 20
4603.6367886905
 10
6243.2869844849
 20
4603.6559959501
 10
6245.9663818466
 20
4603.6679885384
 10
6247.5892456431
 20
4603.6748925018
 10
6249.5378976972
 20
4603.6828540503
 10
6253.301338482
 20
4603.6973249348
 10
6258.2123141384
 20
4603.7147016103
 10
6264.0882907073
 20
4603.7338177206
 10
6270.1836773104
 20
4603.7524336453
 10
6276.4119445793
 20
4603.7700844977
 10
6295.7045111882
 20
4603.8144493728
 10
6316.0722551012
 20
4603.8440341613
 10
6336.864379479
 20
4603.8553024222
 10
6380.6242523061
 20
4603.8102718202
 10
6389.3006913946
 20
4603.791552038
 10
6397.7089509235
 20
4603.7704107495
 10
6405.2310335785
 20
4603.7490155349
 10
6411.8395591836
 20
4603.7286416504
 10
6416.2343287142
 20
4603.714116743
 10
6420.0994034057
 20
4603.7004560362
 10
6423.4342430417
 20
4603.6878565126
 10
6427.0963791033
 20
4603.6730090793
 10
6431.7977339006
 20
4603.6521676079
 10
6437.5438150611
 20
4603.6235067739
 10
6441.2984551334
 20
4603.602507597
 10
6445.0026051381
 20
4603.5790205782
 10
6448.6557029809
 20
4603.5521587285
 10
6452.2574099353
 20
4603.5211712867
 10
6455.6229950908
 20
4603.4403960614
 10
6459.0843845509
 20
4603.1414953533
 10
6462.5719829061
 20
4602.5372757488
 10
6463.7204022374
 20
4602.2638893343
 10
6464.8733621307
 20
4601.9489108531
 10
6466.4048084384
 20
4601.4630093461
 10
6468.3399615119
 20
4600.7237628303
 10
6470.4721902365
 20
4599.7090952288
 10
6472.4920688268
 20
4598.4870560452
  0
LWPOLYLINE
  5
A6
330
1F
100
AcDbEntity
  8
0
  6
Continuous
 62
     7
370
    25
100
AcDbPolyline
 90
       43
 70
   128
 43
0.0
 10
6157.7207026829
 20
4668.828528982
 10
6159.5696034923
 20
4663.5031517866
 10
6161.1143709825
 20
4659.1017445267
 10
6162.3563020104
 20
4655.5756330691
 10
6163.2969086975
 20
4652.8965884859
 10
6164.0842273763
 20
4650.6345171504
 10
6164.798590442
 20
4648.5521796491
 10
6165.5139739779
 20
4646.4369343016
 10
6166.2302899144
 20
4644.2903584243
 10
6167.3293157168
 20
4640.944558604
 10
6168.3341256649
 20
4637.8338218555
 10
6168.953945495
 20
4635.8919646553
 10
6169.7887741285
 20
4633.250512132
 10
6170.8006492543
 20
4630.011425855
 10
6171.6732983598
 20
4627.1873798275
 10
6172.3483360813
 20
4624.9846928959
 10
6172.8794842834
 20
4623.241023235
 10
6173.3543498362
 20
4621.674654662
 10
6173.8562787805
 20
4620.0116800922
 10
6174.4077536606
 20
4618.1762404706
 10
6175.1261952743
 20
4615.7727155172
 10
6176.032108587
 20
4612.723338738
 10
6176.9722196877
 20
4609.5385731335
 10
6177.7468869339
 20
4606.9000698581
 10
6178.4027060968
 20
4604.6571447564
 10
6178.9400415351
 20
4602.813590788
 10
6179.4920804217
 20
4600.9144725685
 10
6180.0602474093
 20
4598.9548142938
 10
6180.7229226238
 20
4596.6632028874
 10
6183.4989381413
 20
4587.0057777711
 10
6185.7279864167
 20
4579.202605183
 10
6188.1576383617
 20
4570.672948636
 10
6190.7847182561
 20
4561.4474101005
 10
6193.3514463883
 20
4552.4564656333
 10
6195.2950407423
 20
4545.6778493157
 10
6197.1754722052
 20
4539.1538328832
 10
6199.0283316807
 20
4532.7664779581
 10
6200.451786126
 20
4527.8916200284
 10
6202.0296786463
 20
4522.5246154268
 10
6202.6680843358
 20
4520.364983861
 10
6203.3946187525
 20
4517.9159677183
 10
6204.4058127986
 20
4514.5235127694
 10
6205.6896608444
 20
4510.2448028073
  0
LWPOLYLINE
  5
A7
330
1F
100
AcDbEntity
  8
0
  6
Continuous
 62
     7
370
    25
100
AcDbPolyline
 90
       45
 70
   128
 43
0.0
 10
6475.6900609212
 20
4521.6810959908
 10
6476.1338176356
 20
4523.2117999715
 10
6476.7804853876
 20
4525.4577123872
 10
6477.2755850149
 20
4527.1855651435
 10
6477.7806490882
 20
4528.9555250359
 10
6478.2964864942
 20
4530.7707560785
 10
6479.5955113566
 20
4535.3746756405
 10
6481.006943833
 20
4540.4276672154
 10
6483.6200332486
 20
4549.9103041992
 10
6486.1484709378
 20
4559.223085202
 10
6487.7372275194
 20
4565.1320670742
 10
6489.286652029
 20
4570.9291106195
 10
6490.7984681966
 20
4576.6111513663
 10
6492.2740965346
 20
4582.1746921303
 10
6493.6753648562
 20
4587.4672963564
 10
6495.1087845763
 20
4592.883888457
 10
6496.6960969698
 20
4598.8760567234
 10
6497.611980633
 20
4602.3266786934
 10
6498.3876636207
 20
4605.243134115
 10
6498.9952488705
 20
4607.5228048336
 10
6499.5475312695
 20
4609.5907213172
 10
6500.2778685126
 20
4612.3181778846
 10
6501.1855439524
 20
4615.6947919292
 10
6502.0655964641
 20
4618.9525366951
 10
6502.8714508793
 20
4621.9196312712
 10
6503.59218949
 20
4624.5587605029
 10
6504.2870252414
 20
4627.0886017779
 10
6505.0715095622
 20
4629.926077996
 10
6506.004954344
 20
4633.2736426992
 10
6506.6209174705
 20
4635.4638737193
 10
6507.1211944937
 20
4637.2308498996
 10
6507.5084936354
 20
4638.5910219714
 10
6507.8086934644
 20
4639.640416928
 10
6508.2232463967
 20
4641.0830776394
 10
6508.6649721022
 20
4642.6159219656
 10
6509.1281871403
 20
4644.2258641359
 10
6509.5105555054
 20
4645.5429374963
 10
6509.9449162949
 20
4647.0073676253
 10
6510.1828346532
 20
4647.7982025578
 10
6510.4350693358
 20
4648.6311513352
 10
6511.0071440434
 20
4650.5144656363
 10
6511.8658835046
 20
4653.356133395
 10
6513.0578919568
 20
4657.3350848067
 10
6514.5827084652
 20
4662.4812750991
 10
6516.4397456142
 20
4668.828528982
  0
LINE
  5
A8
330
1F
100
AcDbEntity
  8
0
  6
Continuous
 62
     7
370
    25
100
AcDbLine
 10
6472.4622097029
 20
4598.4877434038
 30
0.0
 11
6472.2768311799
 21
4598.6217478053
 31
0.0
  0
LINE
  5
A9
330
1F
100
AcDbEntity
  8
0
  6
Continuous
 62
     7
370
    25
100
AcDbLine
 10
6475.6379891224
 20
4521.6961108272
 30
0.0
 11
6475.4769318205
 21
4521.1149692307
 31
0.0
  0
LINE
  5
AA
330
1F
100
AcDbEntity
  8
0
  6
Continuous
 62
     7
370
    25
100
AcDbLine
 10
6476.5084273234
 20
4668.828528982
 30
0.0
 11
6197.6572819431
 21
4668.828528982
 31
0.0
  0
LINE
  5
AB
330
1F
100
AcDbEntity
  8
0
  6
Continuous
 62
     7
370
    25
100
AcDbLine
 10
6197.6572819431
 20
4668.828528982
 30
0.0
 11
6157.673776878
 21
4668.828528982
 31
0.0
  0
LINE
  5
AC
330
1F
100
AcDbEntity
  8
0
  6
Continuous
 62
     7
370
    25
100
AcDbLine
 10
6516.4919323884
 20
4668.828528982
 30
0.0
 11
6476.5084273234
 21
4668.828528982
 31
0.0
  0
LWPOLYLINE
  5
AD
330
1F
100
AcDbEntity
  8
0
  6
Continuous
 62
     7
370
    25
100
AcDbPolyline
 90
       84
 70
   128
 43
0.0
 10
6465.3855854997
 20
4601.7863912103
 10
6466.1802517965
 20
4600.3324685039
 10
6467.1101485843
 20
4598.2042575846
 10
6467.3273181769
 20
4597.5176179503
 10
6467.5083553937
 20
4596.7059018262
 10
6467.5720020631
 20
4595.5424302413
 10
6467.432913802
 20
4593.7811192968
 10
6467.2829396465
 20
4591.9827923828
 10
6467.1209498339
 20
4590.1416725925
 10
6466.6200358106
 20
4584.9737787651
 10
6466.0033641317
 20
4579.4119125304
 10
6465.2435850137
 20
4573.3896163
 10
6464.3029070243
 20
4566.8273082083
 10
6463.1119365097
 20
4559.5015363166
 10
6461.6393422731
 20
4551.4937132571
 10
6459.8394844352
 20
4542.827427891
 10
6457.7108532531
 20
4533.6832943436
 10
6455.3100515808
 20
4524.4037938225
 10
6452.6713538794
 20
4515.143147418
 10
6449.8076088749
 20
4505.9398040379
 10
6445.8323658191
 20
4494.2892011809
 10
6441.4943276195
 20
4482.7242599876
 10
6436.7972632793
 20
4471.250348898
 10
6431.7482506071
 20
4459.8790345736
 10
6426.4169045235
 20
4448.7384374931
 10
6420.9714724783
 20
4438.105045998
 10
6415.5604290954
 20
4428.1571904574
 10
6412.2904047776
 20
4422.4049603591
 10
6409.0880679013
 20
4416.943046907
 10
6405.9610595329
 20
4411.7625568413
 10
6402.9125195754
 20
4406.851496585
 10
6399.9081458131
 20
4402.3012025384
 10
6396.8391912325
 20
4398.6819570936
 10
6393.6864328719
 20
4395.6774248063
 10
6390.4826969711
 20
4393.1030063426
 10
6387.2436095796
 20
4390.8562950967
 10
6380.7862912716
 20
4387.1675550995
 10
6374.2103311444
 20
4384.2309362555
 10
6367.4793702879
 20
4381.896255053
 10
6360.558043518
 20
4380.0819310264
 10
6353.4082065741
 20
4378.7486663244
 10
6345.9629115668
 20
4377.8906621472
 10
6338.1058233318
 20
4377.539007186
 10
6330.1076291936
 20
4377.753799416
 10
6322.5217163764
 20
4378.4983314914
 10
6315.2394749481
 20
4379.7325255112
 10
6308.1934202929
 20
4381.4551656686
 10
6301.3468392251
 20
4383.6974516603
 10
6294.6756576349
 20
4386.5291290813
 10
6288.1541203908
 20
4390.0772701848
 10
6285.1376296427
 20
4392.0544582305
 10
6282.1604621866
 20
4394.2776807024
 10
6279.2344130209
 20
4396.8026725141
 10
6276.3816464128
 20
4399.7158815135
 10
6273.6442493298
 20
4403.1672598771
 10
6271.06959021
 20
4407.3431222832
 10
6268.4783972812
 20
4411.8333201454
 10
6263.5716317073
 20
4420.6551337042
 10
6258.4805937447
 20
4430.2824782048
 10
6253.2669941779
 20
4440.713587971
 10
6247.6752234869
 20
4452.6670404957
 10
6242.274369838
 20
4465.1402370569
 10
6237.2463520939
 20
4477.7956205749
 10
6232.6300825148
 20
4490.5512061505
 10
6228.4274737142
 20
4503.4075693663
 10
6225.6903543625
 20
4512.6171448254
 10
6223.166114296
 20
4521.8748219432
 10
6220.8580635578
 20
4531.1709810627
 10
6218.7888982477
 20
4540.4156989374
 10
6217.0079702102
 20
4549.3099054097
 10
6215.5677527264
 20
4557.4231512364
 10
6214.3983586379
 20
4564.8615219483
 10
6213.4560263581
 20
4571.6501772168
 10
6212.697887791
 20
4577.8555981869
 10
6212.0204035603
 20
4584.2166120456
 10
6211.4850091158
 20
4590.0552666231
 10
6211.3066664698
 20
4592.2261232943
 10
6211.1439417394
 20
4594.3360272144
 10
6210.9992228776
 20
4596.3753304196
 10
6211.0630925637
 20
4597.5091582235
 10
6211.4415299846
 20
4599.2662172236
 10
6211.900962752
 20
4600.6791479982
 10
6212.394367016
 20
4601.9427348586
 10
6212.6135334549
 20
4602.4009456776
  0
LWPOLYLINE
  5
AE
330
1F
100
AcDbEntity
  8
0
  6
Continuous
 62
     7
370
    25
100
AcDbPolyline
 90
       68
 70
   128
 43
0.0
 10
6457.0114472996
 20
4603.320499311
 10
6456.9941006299
 20
4603.084816063
 10
6456.5280827885
 20
4597.4728880899
 10
6455.9571170873
 20
4591.5102298308
 10
6455.2562848797
 20
4585.1358003527
 10
6454.3912808998
 20
4578.2778147132
 10
6453.2989209578
 20
4570.7161230884
 10
6451.9510372966
 20
4562.5441269136
 10
6450.3062452908
 20
4553.784288614
 10
6448.36314855
 20
4544.601419903
 10
6446.1730067958
 20
4535.3070445142
 10
6443.7668422074
 20
4526.0421249443
 10
6441.1562568137
 20
4516.8427351033
 10
6437.533440284
 20
4505.2129196831
 10
6433.58087027
 20
4493.687381766
 10
6429.3017992276
 20
4482.2736070748
 10
6424.7024146399
 20
4470.9847197752
 10
6419.845479107
 20
4459.9394828179
 10
6414.8829787553
 20
4449.3911312432
 10
6409.9486703706
 20
4439.5040018916
 10
6406.9643246421
 20
4433.7750692975
 10
6404.0391037903
 20
4428.3261578316
 10
6401.1787885164
 20
4423.1499730031
 10
6398.3839582859
 20
4418.2365494747
 10
6395.6174312528
 20
4413.6699415638
 10
6392.7874045251
 20
4409.9737589588
 10
6389.8781133424
 20
4406.8535086792
 10
6386.9195377934
 20
4404.1425052992
 10
6383.9260719924
 20
4401.7485424366
 10
6377.9500203764
 20
4397.7622678991
 10
6371.8406985832
 20
4394.5420834189
 10
6365.5493735309
 20
4391.9563913424
 10
6359.0495642636
 20
4389.9357587532
 10
6352.3298964534
 20
4388.4490671788
 10
6345.3523389296
 20
4387.4955533543
 10
6338.0318448591
 20
4387.1078796614
 10
6330.5940532393
 20
4387.3444203172
 10
6323.4968834702
 20
4388.1701863777
 10
6316.6607249668
 20
4389.5443133547
 10
6310.0452856333
 20
4391.4611398103
 10
6303.6393523218
 20
4393.9443776552
 10
6297.4338871476
 20
4397.0526672148
 10
6291.3937387527
 20
4400.8965954378
 10
6288.272433066
 20
4403.2818946811
 10
6285.2000756648
 20
4405.9754821332
 10
6282.1942036533
 20
4409.0541357018
 10
6279.2889617238
 20
4412.6465685647
 10
6276.5587671561
 20
4417.0054694746
 10
6273.9111174905
 20
4421.9572185985
 10
6271.2041432882
 20
4427.180262538
 10
6266.0791992856
 20
4437.4979757048
 10
6260.786505228
 20
4448.7973273123
 10
6255.4436641321
 20
4460.9969962394
 10
6248.5500431166
 20
4478.2763120866
 10
6242.3250601
 20
4495.9489076286
 10
6236.8363578763
 20
4513.8680027439
 10
6232.0970464655
 20
4531.9957789252
 10
6230.009165205
 20
4541.1365143209
 10
6228.1275379048
 20
4550.2582770838
 10
6226.4919457293
 20
4559.1247606736
 10
6225.135169296
 20
4567.460463618
 10
6224.029697999
 20
4575.1949178042
 10
6223.1360145207
 20
4582.3406300015
 10
6222.4148059615
 20
4588.954072649
 10
6221.8306837139
 20
4595.1094974527
 10
6221.5399402765
 20
4598.5362897465
 10
6221.2821455082
 20
4601.8419364094
 10
6221.1655289536
 20
4603.4704304241
  0
LINE
  5
AF
330
1F
100
AcDbEntity
  8
0
  6
Continuous
 62
     7
370
    25
100
AcDbLine
 10
6319.7439112682
 20
4519.4326897941
 30
0.0
 11
6354.4217979982
 21
4519.4326897941
 31
0.0
  0
ARC
  5
B0
330
1F
100
AcDbEntity
  8
0
  6
Continuous
 62
     7
370
    25
100
AcDbCircle
 10
6354.9253632712
 20
4524.1696547828
 30
0.0
 40
4.763655664268472
100
AcDbArc
 50
263.9319350516
 51
338.8386892748
  0
LWPOLYLINE
  5
B1
330
1F
100
AcDbEntity
  8
0
  6
Continuous
 62
     7
370
    25
100
AcDbPolyline
 90
       12
 70
   128
 43
0.0
 10
6359.3677950469
 20
4522.4499992342
 10
6359.8113604769
 20
4525.5087138871
 10
6359.8650347629
 20
4528.5832333633
 10
6359.5283849656
 20
4531.6487584293
 10
6358.8041265195
 20
4534.6805624014
 10
6357.6981013307
 20
4537.6541905918
 10
6356.2192306558
 20
4540.5456575616
 10
6354.3794431421
 20
4543.3316405884
 10
6352.1935786109
 20
4545.9896677891
 10
6349.6792683588
 20
4548.4982993785
 10
6346.8567929422
 20
4550.8373006045
 10
6343.7489185942
 20
4552.9878049621
  0
ARC
  5
B2
330
1F
100
AcDbEntity
  8
0
  6
Continuous
 62
     7
370
    25
100
AcDbCircle
 10
6337.0828546332
 20
4541.7011284125
 30
0.0
 40
13.10822170495883
100
AcDbArc
 50
59.433326122
 51
120.5666738766
  0
LWPOLYLINE
  5
B3
330
1F
100
AcDbEntity
  8
0
  6
Continuous
 62
     7
370
    25
100
AcDbPolyline
 90
       12
 70
   128
 43
0.0
 10
6330.4167906725
 20
4552.9878049622
 10
6327.3089163244
 20
4550.8373006047
 10
6324.4864409079
 20
4548.4982993787
 10
6321.9721306557
 20
4545.9896677892
 10
6319.7862661245
 20
4543.3316405886
 10
6317.9464786108
 20
4540.5456575618
 10
6316.4676079358
 20
4537.654190592
 10
6315.361582747
 20
4534.6805624016
 10
6314.6373243009
 20
4531.6487584295
 10
6314.3006745035
 20
4528.5832333635
 10
6314.3543487896
 20
4525.5087138873
 10
6314.7979142195
 20
4522.4499992343
  0
ARC
  5
B4
330
1F
100
AcDbEntity
  8
0
  6
Continuous
 62
     7
370
    25
100
AcDbCircle
 10
6319.2403459952
 20
4524.1696547827
 30
0.0
 40
4.76365566416445
100
AcDbArc
 50
201.1613107221
 51
276.068064949
  0
LWPOLYLINE
  5
B5
330
1F
100
AcDbEntity
  8
0
  6
Continuous
 62
     8
370
    25
100
AcDbPolyline
 90
       82
 70
   128
 43
0.0
 10
6205.8899635385
 20
4599.2059525775
 10
6204.7658493684
 20
4598.2404240568
 10
6203.820675845
 20
4597.2435604402
 10
6203.0551398317
 20
4596.2223152989
 10
6202.8959607305
 20
4595.964341896
 10
6202.7511002868
 20
4595.7070799878
 10
6202.6208365768
 20
4595.4511103788
 10
6202.4889156913
 20
4595.1219290325
 10
6202.3487435848
 20
4594.064924635
 10
6202.5447129861
 20
4593.155285537
 10
6202.5714389199
 20
4592.9977006545
 10
6203.0747784888
 20
4587.0039923802
 10
6204.3691379471
 20
4575.0314675954
 10
6206.043344591
 20
4563.0753516928
 10
6208.8607022733
 20
4547.1606146264
 10
6212.3387358678
 20
4531.2932062509
 10
6216.470097422
 20
4515.4957523356
 10
6222.0406297781
 20
4497.3715814132
 10
6228.4400541915
 20
4479.4212528211
 10
6235.6385770702
 20
4461.6876505744
 10
6243.5993333757
 20
4444.2174452401
 10
6251.1974476158
 20
4429.096229819
 10
6259.3147457665
 20
4414.2422695764
 10
6261.5217184764
 20
4410.4001144374
 10
6263.7610406109
 20
4406.5791119237
 10
6266.0320667517
 20
4402.7798566935
 10
6268.2567784074
 20
4399.1300373359
 10
6270.3533509713
 20
4396.0486347029
 10
6272.9220527006
 20
4393.0602886617
 10
6277.3171561175
 20
4389.0256167008
 10
6282.5495075395
 20
4385.2711239646
 10
6288.5299506471
 20
4381.869756525
 10
6295.1285106227
 20
4378.8888750827
 10
6302.2164205462
 20
4376.3780624937
 10
6309.6655191987
 20
4374.3616434731
 10
6319.925831449
 20
4372.4688891209
 10
6330.313447867
 20
4371.473668901
 10
6340.6136115947
 20
4371.3414787831
 10
6348.3585737813
 20
4371.7973258252
 10
6356.0819842217
 20
4372.7393251081
 10
6363.6948040525
 20
4374.1780903665
 10
6371.0834199898
 20
4376.1114640297
 10
6378.1266269815
 20
4378.529771639
 10
6384.7085608856
 20
4381.4072355441
 10
6390.709149558
 20
4384.7045187666
 10
6396.0077857612
 20
4388.3586406213
 10
6400.5109333446
 20
4392.3106315759
 10
6404.1376859938
 20
4396.4768554669
 10
6407.3298892142
 20
4401.2325980505
 10
6410.7380369324
 20
4406.514320325
 10
6414.0851715372
 20
4411.8467769586
 10
6417.3686390342
 20
4417.2277276796
 10
6420.5856783657
 20
4422.6550816785
 10
6423.7335284737
 20
4428.1267481452
 10
6433.3102156099
 20
4445.90924557
 10
6442.0756450992
 20
4464.0568163362
 10
6449.9617421876
 20
4482.5028928205
 10
6456.9148797243
 20
4501.1764797862
 10
6462.8980812024
 20
4520.0085457301
 10
6467.1177200275
 20
4535.7711644269
 10
6470.6310897496
 20
4551.5547132085
 10
6473.4353870658
 20
4567.3239564192
 10
6475.4319844394
 20
4582.1829011049
 10
6475.6879597216
 20
4584.5130442117
 10
6475.9282321558
 20
4586.8417929376
 10
6476.1527979135
 20
4589.1691180612
 10
6476.3616495896
 20
4591.4950044858
 10
6476.6900395959
 20
4593.2575034971
 10
6476.6654746958
 20
4593.8538455803
 10
6476.6028362471
 20
4594.1366064463
 10
6476.564541037
 20
4594.2648178321
 10
6476.5294708825
 20
4594.3678128271
 10
6476.5273111038
 20
4594.3731344357
 10
6476.5233023994
 20
4594.3815206023
 10
6476.520124391
 20
4594.3881272443
 10
6476.5143866684
 20
4594.3999636107
 10
6476.4872594957
 20
4594.4544134571
 10
6476.4276990037
 20
4594.5665015278
 10
6476.2967845306
 20
4594.7926418964
 10
6474.8167244206
 20
4596.5974747137
 10
6473.651563763
 20
4597.6279961338
 10
6472.4622097029
 20
4598.4877434038
  0
LWPOLYLINE
  5
B6
330
1F
100
AcDbEntity
  8
0
  6
Continuous
 62
     8
370
    25
100
AcDbPolyline
 90
       25
 70
   128
 43
0.0
 10
6337.0828546756
 20
4612.3455089552
 10
6370.6015370453
 20
4612.3912450445
 10
6404.4868370822
 20
4612.516321877
 10
6438.1344344298
 20
4612.6922180507
 10
6443.4649837154
 20
4612.7251711968
 10
6448.807735982
 20
4612.7623622164
 10
6454.1628723825
 20
4612.8095298117
 10
6459.747666369
 20
4612.7717548252
 10
6465.3243573985
 20
4612.2662680718
 10
6469.7650126056
 20
4611.5540048526
 10
6474.0714663787
 20
4610.5373556538
 10
6478.1735126951
 20
4609.1755554067
 10
6481.9648786322
 20
4607.4224631088
 10
6485.2996393803
 20
4605.2396979043
 10
6487.9738814892
 20
4602.6219572315
 10
6489.7392727238
 20
4599.62442729
 10
6490.354182157
 20
4596.3976475804
 10
6490.0873954306
 20
4594.1517644617
 10
6489.7656355211
 20
4592.0358519221
 10
6489.5306115487
 20
4590.0858485972
 10
6487.9540641126
 20
4578.3235867342
 10
6486.0440518823
 20
4566.4371557866
 10
6482.9362238577
 20
4550.4675897542
 10
6479.1651387764
 20
4534.4230928189
 10
6475.6379891224
 20
4521.6961108272
  0
LINE
  5
B7
330
1F
100
AcDbEntity
  8
0
  6
Continuous
 62
     8
370
    25
100
AcDbLine
 10
6475.4769318205
 20
4521.1149692307
 30
0.0
 11
6474.9973152191
 21
4519.3843730135
 31
0.0
  0
LWPOLYLINE
  5
B8
330
1F
100
AcDbEntity
  8
0
  6
Continuous
 62
     8
370
    25
100
AcDbPolyline
 90
       26
 70
   128
 43
0.0
 10
6205.75212065
 20
4510.2726946455
 10
6204.63175652
 20
4513.8081956146
 10
6200.3464902982
 20
4529.5378633231
 10
6196.6614073571
 20
4545.3040851054
 10
6193.5672674103
 20
4561.0609756615
 10
6190.3584966369
 20
4581.7533269489
 10
6190.0082233982
 20
4584.4453896584
 10
6189.6734744611
 20
4587.1318601645
 10
6189.3539357248
 20
4589.8120217534
 10
6189.0460310624
 20
4592.4903414892
 10
6188.589212276
 20
4595.4193342075
 10
6188.6194766351
 20
4598.4287394769
 10
6189.7727192085
 20
4601.6062752642
 10
6191.9633895599
 20
4604.4787584925
 10
6194.9580785929
 20
4606.9334778226
 10
6198.5507264077
 20
4608.9419973382
 10
6202.5578342281
 20
4610.5067936036
 10
6206.8578775467
 20
4611.660634668
 10
6211.3488926862
 20
4612.4333092801
 10
6215.9666295949
 20
4612.8443408277
 10
6222.0368792556
 20
4612.7908982805
 10
6227.9162033068
 20
4612.7457662989
 10
6233.7885172075
 20
4612.7075443646
 10
6268.8128911859
 20
4612.5213046952
 10
6303.3022222238
 20
4612.3921892793
 10
6337.0828546756
 20
4612.3455089552
  0
ENDSEC
  0
SECTION
  2
OBJECTS
  0
DICTIONARY
  5
C
330
0
100
AcDbDictionary
281
     1
  3
ACAD_GROUP
350
D
  3
ACAD_LAYOUT
350
1A
  3
ACAD_MLINESTYLE
350
17
  3
ACAD_PLOTSETTINGS
350
19
  3
ACAD_PLOTSTYLENAME
350
E
  3
ACAD_SCALELIST
350
47
  3
DWGPROPS
350
B9
  0
DICTIONARY
  5
D
102
{ACAD_REACTORS
330
C
102
}
330
C
100
AcDbDictionary
281
     1
  0
DICTIONARY
  5
1A
102
{ACAD_REACTORS
330
C
102
}
330
C
100
AcDbDictionary
281
     1
  3
Layout1
350
1E
  3
Layout2
350
26
  3
Model
350
22
  0
DICTIONARY
  5
17
102
{ACAD_REACTORS
330
C
102
}
330
C
100
AcDbDictionary
281
     1
  3
Standard
350
18
  0
DICTIONARY
  5
19
102
{ACAD_REACTORS
330
C
102
}
330
C
100
AcDbDictionary
281
     1
  0
ACDBDICTIONARYWDFLT
  5
E
102
{ACAD_REACTORS
330
C
102
}
330
C
100
AcDbDictionary
281
     1
  3
Normal
350
F
100
AcDbDictionaryWithDefault
340
F
  0
DICTIONARY
  5
47
102
{ACAD_REACTORS
330
C
102
}
330
C
100
AcDbDictionary
281
     1
  3
A0
350
48
  3
A1
350
49
  3
A2
350
4A
  3
A3
350
4B
  3
A4
350
4C
  3
A5
350
4D
  3
A6
350
4E
  3
A7
350
4F
  3
A8
350
50
  3
A9
350
51
  3
B0
350
52
  3
B1
350
53
  3
B2
350
54
  3
B3
350
55
  3
B4
350
56
  3
B5
350
57
  3
B6
350
58
  3
B7
350
59
  3
B8
350
5A
  3
B9
350
5B
  3
C0
350
5C
  3
C1
350
5D
  3
C2
350
5E
  3
C3
350
5F
  3
C4
350
60
  3
C5
350
61
  3
C6
350
62
  3
C7
350
63
  3
C8
350
64
  3
C9
350
65
  3
D0
350
66
  3
D1
350
67
  3
D2
350
68
  0
XRECORD
  5
B9
102
{ACAD_REACTORS
330
C
102
}
330
C
100
AcDbXrecord
280
     1
  1
DWGPROPS COOKIE
  2

  3

  4

  6

  7

  8
radek.stransky
  9

300
=
301
=
302
=
303
=
304
=
305
=
306
=
307
=
308
=
309
=
 40
0.0
 41
2459135.361242141
 42
2459135.361242373
  1

 90
        0
  0
LAYOUT
  5
1E
102
{ACAD_REACTORS
330
1A
102
}
330
1A
100
AcDbPlotSettings
  1

  2
none_device
  4

  6

 40
0.0
 41
0.0
 42
0.0
 43
0.0
 44
0.0
 45
0.0
 46
0.0
 47
0.0
 48
0.0
 49
0.0
140
0.0
141
0.0
142
1.0
143
1.0
 70
   688
 72
     1
 73
     0
 74
     5
  7

 75
    16
147
1.0
148
0.0
149
0.0
100
AcDbLayout
  1
Layout1
 70
     1
 71
     1
 10
0.0
 20
0.0
 11
420.0
 21
297.0
 12
0.0
 22
0.0
 32
0.0
 14
1.0000000000E+20
 24
1.0000000000E+20
 34
1.0000000000E+20
 15
-1.0000000000E+20
 25
-1.0000000000E+20
 35
-1.0000000000E+20
146
0.0
 13
0.0
 23
0.0
 33
0.0
 16
1.0
 26
0.0
 36
0.0
 17
0.0
 27
1.0
 37
0.0
 76
     0
330
1B
  0
LAYOUT
  5
26
102
{ACAD_REACTORS
330
1A
102
}
330
1A
100
AcDbPlotSettings
  1

  2
none_device
  4

  6

 40
0.0
 41
0.0
 42
0.0
 43
0.0
 44
0.0
 45
0.0
 46
0.0
 47
0.0
 48
0.0
 49
0.0
140
0.0
141
0.0
142
1.0
143
1.0
 70
   688
 72
     1
 73
     0
 74
     5
  7

 75
    16
147
1.0
148
0.0
149
0.0
100
AcDbLayout
  1
Layout2
 70
     1
 71
     2
 10
0.0
 20
0.0
 11
0.0
 21
0.0
 12
0.0
 22
0.0
 32
0.0
 14
0.0
 24
0.0
 34
0.0
 15
0.0
 25
0.0
 35
0.0
146
0.0
 13
0.0
 23
0.0
 33
0.0
 16
1.0
 26
0.0
 36
0.0
 17
0.0
 27
1.0
 37
0.0
 76
     0
330
23
  0
LAYOUT
  5
22
102
{ACAD_REACTORS
330
1A
102
}
330
1A
100
AcDbPlotSettings
  1

  2
none_device
  4
Letter_(8.50_x_11.00_Inches)
  6

 40
6.35
 41
6.35
 42
6.35000508
 43
6.35000508
 44
215.9
 45
279.4
 46
0.0
 47
0.0
 48
0.0
 49
0.0
140
0.0
141
0.0
142
1.0
143
1.0
 70
  1712
 72
     1
 73
     0
 74
     0
  7

 75
     0
147
1.0
148
0.0
149
0.0
100
AcDbLayout
  1
Model
 70
     1
 71
     0
 10
0.0
 20
0.0
 11
20000.0
 21
10000.0
 12
0.0
 22
0.0
 32
0.0
 14
0.0
 24
0.0
 34
0.0
 15
20000.0
 25
10000.0
 35
0.0
146
0.0
 13
0.0
 23
0.0
 33
0.0
 16
1.0
 26
0.0
 36
0.0
 17
0.0
 27
1.0
 37
0.0
 76
     0
330
1F
331
29
  0
MLINESTYLE
  5
18
102
{ACAD_REACTORS
330
17
102
}
330
17
100
AcDbMlineStyle
  2
Standard
 70
     0
  3

 62
   256
 51
90.0
 52
90.0
 71
     2
 49
0.5
 62
   256
  6
BYLAYER
 49
-0.5
 62
   256
  6
BYLAYER
  0
ACDBPLACEHOLDER
  5
F
102
{ACAD_REACTORS
330
E
102
}
330
E
  0
SCALE
  5
48
102
{ACAD_REACTORS
330
47
102
}
330
47
100
AcDbScale
 70
     0
300
1:1
140
1.0
141
1.0
290
     1
  0
SCALE
  5
49
102
{ACAD_REACTORS
330
47
102
}
330
47
100
AcDbScale
 70
     0
300
1:2
140
1.0
141
2.0
290
     0
  0
SCALE
  5
4A
102
{ACAD_REACTORS
330
47
102
}
330
47
100
AcDbScale
 70
     0
300
1:4
140
1.0
141
4.0
290
     0
  0
SCALE
  5
4B
102
{ACAD_REACTORS
330
47
102
}
330
47
100
AcDbScale
 70
     0
300
1:5
140
1.0
141
5.0
290
     0
  0
SCALE
  5
4C
102
{ACAD_REACTORS
330
47
102
}
330
47
100
AcDbScale
 70
     0
300
1:8
140
1.0
141
8.0
290
     0
  0
SCALE
  5
4D
102
{ACAD_REACTORS
330
47
102
}
330
47
100
AcDbScale
 70
     0
300
1:10
140
1.0
141
10.0
290
     0
  0
SCALE
  5
4E
102
{ACAD_REACTORS
330
47
102
}
330
47
100
AcDbScale
 70
     0
300
1:16
140
1.0
141
16.0
290
     0
  0
SCALE
  5
4F
102
{ACAD_REACTORS
330
47
102
}
330
47
100
AcDbScale
 70
     0
300
1:20
140
1.0
141
20.0
290
     0
  0
SCALE
  5
50
102
{ACAD_REACTORS
330
47
102
}
330
47
100
AcDbScale
 70
     0
300
1:30
140
1.0
141
30.0
290
     0
  0
SCALE
  5
51
102
{ACAD_REACTORS
330
47
102
}
330
47
100
AcDbScale
 70
     0
300
1:40
140
1.0
141
40.0
290
     0
  0
SCALE
  5
52
102
{ACAD_REACTORS
330
47
102
}
330
47
100
AcDbScale
 70
     0
300
1:50
140
1.0
141
50.0
290
     0
  0
SCALE
  5
53
102
{ACAD_REACTORS
330
47
102
}
330
47
100
AcDbScale
 70
     0
300
1:100
140
1.0
141
100.0
290
     0
  0
SCALE
  5
54
102
{ACAD_REACTORS
330
47
102
}
330
47
100
AcDbScale
 70
     0
300
2:1
140
2.0
141
1.0
290
     0
  0
SCALE
  5
55
102
{ACAD_REACTORS
330
47
102
}
330
47
100
AcDbScale
 70
     0
300
4:1
140
4.0
141
1.0
290
     0
  0
SCALE
  5
56
102
{ACAD_REACTORS
330
47
102
}
330
47
100
AcDbScale
 70
     0
300
8:1
140
8.0
141
1.0
290
     0
  0
SCALE
  5
57
102
{ACAD_REACTORS
330
47
102
}
330
47
100
AcDbScale
 70
     0
300
10:1
140
10.0
141
1.0
290
     0
  0
SCALE
  5
58
102
{ACAD_REACTORS
330
47
102
}
330
47
100
AcDbScale
 70
     0
300
100:1
140
100.0
141
1.0
290
     0
  0
SCALE
  5
59
102
{ACAD_REACTORS
330
47
102
}
330
47
100
AcDbScale
 70
     0
300
1/128" = 1'-0"
140
0.0078125
141
12.0
290
     0
  0
SCALE
  5
5A
102
{ACAD_REACTORS
330
47
102
}
330
47
100
AcDbScale
 70
     0
300
1/64" = 1'-0"
140
0.015625
141
12.0
290
     0
  0
SCALE
  5
5B
102
{ACAD_REACTORS
330
47
102
}
330
47
100
AcDbScale
 70
     0
300
1/32" = 1'-0"
140
0.03125
141
12.0
290
     0
  0
SCALE
  5
5C
102
{ACAD_REACTORS
330
47
102
}
330
47
100
AcDbScale
 70
     0
300
1/16" = 1'-0"
140
0.0625
141
12.0
290
     0
  0
SCALE
  5
5D
102
{ACAD_REACTORS
330
47
102
}
330
47
100
AcDbScale
 70
     0
300
3/32" = 1'-0"
140
0.09375
141
12.0
290
     0
  0
SCALE
  5
5E
102
{ACAD_REACTORS
330
47
102
}
330
47
100
AcDbScale
 70
     0
300
1/8" = 1'-0"
140
0.125
141
12.0
290
     0
  0
SCALE
  5
5F
102
{ACAD_REACTORS
330
47
102
}
330
47
100
AcDbScale
 70
     0
300
3/16" = 1'-0"
140
0.1875
141
12.0
290
     0
  0
SCALE
  5
60
102
{ACAD_REACTORS
330
47
102
}
330
47
100
AcDbScale
 70
     0
300
1/4" = 1'-0"
140
0.25
141
12.0
290
     0
  0
SCALE
  5
61
102
{ACAD_REACTORS
330
47
102
}
330
47
100
AcDbScale
 70
     0
300
3/8" = 1'-0"
140
0.375
141
12.0
290
     0
  0
SCALE
  5
62
102
{ACAD_REACTORS
330
47
102
}
330
47
100
AcDbScale
 70
     0
300
1/2" = 1'-0"
140
0.5
141
12.0
290
     0
  0
SCALE
  5
63
102
{ACAD_REACTORS
330
47
102
}
330
47
100
AcDbScale
 70
     0
300
3/4" = 1'-0"
140
0.75
141
12.0
290
     0
  0
SCALE
  5
64
102
{ACAD_REACTORS
330
47
102
}
330
47
100
AcDbScale
 70
     0
300
1" = 1'-0"
140
1.0
141
12.0
290
     0
  0
SCALE
  5
65
102
{ACAD_REACTORS
330
47
102
}
330
47
100
AcDbScale
 70
     0
300
1-1/2" = 1'-0"
140
1.5
141
12.0
290
     0
  0
SCALE
  5
66
102
{ACAD_REACTORS
330
47
102
}
330
47
100
AcDbScale
 70
     0
300
3" = 1'-0"
140
3.0
141
12.0
290
     0
  0
SCALE
  5
67
102
{ACAD_REACTORS
330
47
102
}
330
47
100
AcDbScale
 70
     0
300
6" = 1'-0"
140
6.0
141
12.0
290
     0
  0
SCALE
  5
68
102
{ACAD_REACTORS
330
47
102
}
330
47
100
AcDbScale
 70
     0
300
1'-0" = 1'-0"
140
12.0
141
12.0
290
     0
  0
ENDSEC
  0
EOF
