  0
SECTION
  2
HEADER
  9
$ACADVER
  1
AC1015
  9
$ACADMAINTVER
 70
     6
  9
$DWGCODEPAGE
  3
ANSI_1250
  9
$INSBASE
 10
0.0
 20
0.0
 30
0.0
  9
$EXTMIN
 10
0.0
 20
0.0
 30
0.0
  9
$EXTMAX
 10
20000.0
 20
10000.0
 30
0.0
  9
$LIMMIN
 10
0.0
 20
0.0
  9
$LIMMAX
 10
20000.0
 20
10000.0
  9
$ORTHOMODE
 70
     0
  9
$REGENMODE
 70
     1
  9
$FILLMODE
 70
     1
  9
$QTEXTMODE
 70
     0
  9
$MIRRTEXT
 70
     1
  9
$LTSCALE
 40
1.0
  9
$ATTMODE
 70
     1
  9
$TEXTSIZE
 40
2.0
  9
$TRACEWID
 40
1.0
  9
$TEXTSTYLE
  7
Standard
  9
$CLAYER
  8
0
  9
$CELTYPE
  6
ByLayer
  9
$CECOLOR
 62
   256
  9
$CELTSCALE
 40
1.0
  9
$DISPSILH
 70
     0
  9
$DIMSCALE
 40
1.0
  9
$DIMASZ
 40
2.0
  9
$DIMEXO
 40
1.0
  9
$DIMDLI
 40
3.75
  9
$DIMRND
 40
0.0
  9
$DIMDLE
 40
0.0
  9
$DIMEXE
 40
1.0
  9
$DIMTP
 40
0.0
  9
$DIMTM
 40
0.0
  9
$DIMTXT
 40
2.0
  9
$DIMCEN
 40
2.5
  9
$DIMTSZ
 40
0.0
  9
$DIMTOL
 70
     0
  9
$DIMLIM
 70
     0
  9
$DIMTIH
 70
     1
  9
$DIMTOH
 70
     1
  9
$DIMSE1
 70
     0
  9
$DIMSE2
 70
     0
  9
$DIMTAD
 70
     1
  9
$DIMZIN
 70
     0
  9
$DIMBLK
  1

  9
$DIMASO
 70
     1
  9
$DIMSHO
 70
     1
  9
$DIMPOST
  1

  9
$DIMAPOST
  1

  9
$DIMALT
 70
     0
  9
$DIMALTD
 70
     3
  9
$DIMALTF
 40
0.0393700787
  9
$DIMLFAC
 40
1.0
  9
$DIMTOFL
 70
     1
  9
$DIMTVP
 40
0.0
  9
$DIMTIX
 70
     0
  9
$DIMSOXD
 70
     0
  9
$DIMSAH
 70
     0
  9
$DIMBLK1
  1

  9
$DIMBLK2
  1

  9
$DIMSTYLE
  2
ISO-25
  9
$DIMCLRD
 70
     0
  9
$DIMCLRE
 70
     0
  9
$DIMCLRT
 70
     0
  9
$DIMTFAC
 40
1.0
  9
$DIMGAP
 40
1.524
  9
$DIMJUST
 70
     0
  9
$DIMSD1
 70
     0
  9
$DIMSD2
 70
     0
  9
$DIMTOLJ
 70
     0
  9
$DIMTZIN
 70
     0
  9
$DIMALTZ
 70
     0
  9
$DIMALTTZ
 70
     0
  9
$DIMUPT
 70
     0
  9
$DIMDEC
 70
     2
  9
$DIMTDEC
 70
     0
  9
$DIMALTU
 70
     2
  9
$DIMALTTD
 70
     3
  9
$DIMTXSTY
  7
Standard
  9
$DIMAUNIT
 70
     0
  9
$DIMADEC
 70
     2
  9
$DIMALTRND
 40
0.0
  9
$DIMAZIN
 70
     0
  9
$DIMDSEP
 70
    44
  9
$DIMATFIT
 70
     3
  9
$DIMFRAC
 70
     0
  9
$DIMLDRBLK
  1

  9
$DIMLUNIT
 70
     2
  9
$DIMLWD
 70
    -2
  9
$DIMLWE
 70
    -2
  9
$DIMTMOVE
 70
     0
  9
$LUNITS
 70
     2
  9
$LUPREC
 70
     3
  9
$SKETCHINC
 40
1.0
  9
$FILLETRAD
 40
10.0
  9
$AUNITS
 70
     0
  9
$AUPREC
 70
     2
  9
$MENU
  1
.
  9
$ELEVATION
 40
0.0
  9
$PELEVATION
 40
0.0
  9
$THICKNESS
 40
0.0
  9
$LIMCHECK
 70
     0
  9
$CHAMFERA
 40
0.0
  9
$CHAMFERB
 40
0.0
  9
$CHAMFERC
 40
0.0
  9
$CHAMFERD
 40
0.0
  9
$SKPOLY
 70
     0
  9
$TDCREATE
 40
2459129.567206863
  9
$TDUCREATE
 40
2459129.48387353
  9
$TDUPDATE
 40
2459129.567207326
  9
$TDUUPDATE
 40
2459129.483873993
  9
$TDINDWG
 40
0.0000000116
  9
$TDUSRTIMER
 40
0.0000000116
  9
$USRTIMER
 70
     1
  9
$ANGBASE
 50
0.0
  9
$ANGDIR
 70
     0
  9
$PDMODE
 70
     0
  9
$PDSIZE
 40
-1.0
  9
$PLINEWID
 40
0.0
  9
$SPLFRAME
 70
     0
  9
$SPLINETYPE
 70
     6
  9
$SPLINESEGS
 70
     8
  9
$HANDSEED
  5
59E
  9
$SURFTAB1
 70
     6
  9
$SURFTAB2
 70
     6
  9
$SURFTYPE
 70
     6
  9
$SURFU
 70
     6
  9
$SURFV
 70
     6
  9
$UCSBASE
  2

  9
$UCSNAME
  2

  9
$UCSORG
 10
0.0
 20
0.0
 30
0.0
  9
$UCSXDIR
 10
1.0
 20
0.0
 30
0.0
  9
$UCSYDIR
 10
0.0
 20
1.0
 30
0.0
  9
$UCSORTHOREF
  2

  9
$UCSORTHOVIEW
 70
     0
  9
$UCSORGTOP
 10
0.0
 20
0.0
 30
0.0
  9
$UCSORGBOTTOM
 10
0.0
 20
0.0
 30
0.0
  9
$UCSORGLEFT
 10
0.0
 20
0.0
 30
0.0
  9
$UCSORGRIGHT
 10
0.0
 20
0.0
 30
0.0
  9
$UCSORGFRONT
 10
0.0
 20
0.0
 30
0.0
  9
$UCSORGBACK
 10
0.0
 20
0.0
 30
0.0
  9
$PUCSBASE
  2

  9
$PUCSNAME
  2

  9
$PUCSORG
 10
0.0
 20
0.0
 30
0.0
  9
$PUCSXDIR
 10
1.0
 20
0.0
 30
0.0
  9
$PUCSYDIR
 10
0.0
 20
1.0
 30
0.0
  9
$PUCSORTHOREF
  2

  9
$PUCSORTHOVIEW
 70
     0
  9
$PUCSORGTOP
 10
0.0
 20
0.0
 30
0.0
  9
$PUCSORGBOTTOM
 10
0.0
 20
0.0
 30
0.0
  9
$PUCSORGLEFT
 10
0.0
 20
0.0
 30
0.0
  9
$PUCSORGRIGHT
 10
0.0
 20
0.0
 30
0.0
  9
$PUCSORGFRONT
 10
0.0
 20
0.0
 30
0.0
  9
$PUCSORGBACK
 10
0.0
 20
0.0
 30
0.0
  9
$USERI1
 70
     0
  9
$USERI2
 70
     0
  9
$USERI3
 70
     0
  9
$USERI4
 70
     0
  9
$USERI5
 70
     0
  9
$USERR1
 40
0.0
  9
$USERR2
 40
0.0
  9
$USERR3
 40
0.0
  9
$USERR4
 40
0.0
  9
$USERR5
 40
0.0
  9
$WORLDVIEW
 70
     1
  9
$SHADEDGE
 70
     3
  9
$SHADEDIF
 70
    70
  9
$TILEMODE
 70
     1
  9
$MAXACTVP
 70
    64
  9
$PINSBASE
 10
0.0
 20
0.0
 30
0.0
  9
$PLIMCHECK
 70
     0
  9
$PEXTMIN
 10
1.0000000000E+20
 20
1.0000000000E+20
 30
1.0000000000E+20
  9
$PEXTMAX
 10
-1.0000000000E+20
 20
-1.0000000000E+20
 30
-1.0000000000E+20
  9
$PLIMMIN
 10
0.0
 20
0.0
  9
$PLIMMAX
 10
420.0
 20
297.0
  9
$UNITMODE
 70
     0
  9
$VISRETAIN
 70
     1
  9
$PLINEGEN
 70
     0
  9
$PSLTSCALE
 70
     1
  9
$TREEDEPTH
 70
  3020
  9
$CMLSTYLE
  2
Standard
  9
$CMLJUST
 70
     0
  9
$CMLSCALE
 40
20.0
  9
$PROXYGRAPHICS
 70
     1
  9
$MEASUREMENT
 70
     1
  9
$CELWEIGHT
370
    -1
  9
$ENDCAPS
280
     0
  9
$JOINSTYLE
280
     0
  9
$LWDISPLAY
290
     1
  9
$INSUNITS
 70
     4
  9
$HYPERLINKBASE
  1

  9
$STYLESHEET
  1

  9
$XEDIT
290
     1
  9
$CEPSNTYPE
380
     0
  9
$PSTYLEMODE
290
     1
  9
$FINGERPRINTGUID
  2
{1b570554-53ef-4729-996d-2e9813e34956}
  9
$VERSIONGUID
  2
{FAEB1C32-E019-11D5-929B-00C0DF256EC4}
  9
$EXTNAMES
290
     1
  9
$PSVPSCALE
 40
0.0
  9
$OLESTARTUP
290
     0
  0
ENDSEC
  0
SECTION
  2
CLASSES
  0
CLASS
  1
ACDBDICTIONARYWDFLT
  2
AcDbDictionaryWithDefault
  3
ObjectDBX Classes
 90
        0
280
     0
281
     0
  0
CLASS
  1
VISUALSTYLE
  2
AcDbVisualStyle
  3
ObjectDBX Classes
 90
     4095
280
     0
281
     0
  0
CLASS
  1
MATERIAL
  2
AcDbMaterial
  3
ObjectDBX Classes
 90
     1153
280
     0
281
     0
  0
CLASS
  1
SCALE
  2
AcDbScale
  3
ObjectDBX Classes
 90
     1153
280
     0
281
     0
  0
CLASS
  1
TABLESTYLE
  2
AcDbTableStyle
  3
ObjectDBX Classes
 90
     4095
280
     0
281
     0
  0
CLASS
  1
MLEADERSTYLE
  2
AcDbMLeaderStyle
  3
ACDB_MLEADERSTYLE_CLASS
 90
     4095
280
     0
281
     0
  0
CLASS
  1
SUN
  2
AcDbSun
  3
SCENEOE
 90
     1153
280
     0
281
     0
  0
CLASS
  1
ACDBPLACEHOLDER
  2
AcDbPlaceHolder
  3
ObjectDBX Classes
 90
        0
280
     0
281
     0
  0
CLASS
  1
LAYOUT
  2
AcDbLayout
  3
ObjectDBX Classes
 90
        0
280
     0
281
     0
  0
ENDSEC
  0
SECTION
  2
TABLES
  0
TABLE
  2
VPORT
  5
8
330
0
100
AcDbSymbolTable
 70
     1
  0
VPORT
  5
29
330
8
100
AcDbSymbolTableRecord
100
AcDbViewportTableRecord
  2
*Active
 70
     0
 10
0.0
 20
0.0
 11
1.0
 21
1.0
 12
10000.0
 22
5000.0
 13
0.0
 23
0.0
 14
10.0
 24
10.0
 15
10.0
 25
10.0
 16
0.0
 26
0.0
 36
1.0
 17
0.0
 27
0.0
 37
0.0
 40
10000.0
 41
2.0
 42
50.0
 43
0.0
 44
0.0
 50
0.0
 51
0.0
 71
     0
 72
  2000
 73
     1
 74
     3
 75
     0
 76
     0
 77
     0
 78
     0
281
     0
 65
     1
110
0.0
120
0.0
130
0.0
111
1.0
121
0.0
131
0.0
112
0.0
122
1.0
132
0.0
 79
     0
146
0.0
  0
ENDTAB
  0
TABLE
  2
LTYPE
  5
5
330
0
100
AcDbSymbolTable
 70
     6
  0
LTYPE
  5
14
330
5
100
AcDbSymbolTableRecord
100
AcDbLinetypeTableRecord
  2
ByBlock
 70
     0
  3

 72
    65
 73
     0
 40
0.0
  0
LTYPE
  5
15
330
5
100
AcDbSymbolTableRecord
100
AcDbLinetypeTableRecord
  2
ByLayer
 70
     0
  3

 72
    65
 73
     0
 40
0.0
  0
LTYPE
  5
16
330
5
100
AcDbSymbolTableRecord
100
AcDbLinetypeTableRecord
  2
Continuous
 70
     0
  3
Solid line
 72
    65
 73
     0
 40
0.0
  0
LTYPE
  5
6E
330
5
100
AcDbSymbolTableRecord
100
AcDbLinetypeTableRecord
  2
HIDDEN
 70
     0
  3
Hidden __ __ __ __ __ __ __ __ __ __ __ __ __ __
 72
    65
 73
     2
 40
1.905
 49
1.27
 74
     0
 49
-0.635
 74
     0
  0
LTYPE
  5
6F
330
5
100
AcDbSymbolTableRecord
100
AcDbLinetypeTableRecord
  2
PHANTOM
 70
     0
  3
Phantom ______  __  __  ______  __  __  ______
 72
    65
 73
     6
 40
12.7
 49
6.35
 74
     0
 49
-1.27
 74
     0
 49
1.27
 74
     0
 49
-1.27
 74
     0
 49
1.27
 74
     0
 49
-1.27
 74
     0
  0
LTYPE
  5
70
330
5
100
AcDbSymbolTableRecord
100
AcDbLinetypeTableRecord
  2
CENTER
 70
     0
  3
Center ____ _ ____ _ ____ _ ____ _ ____ _ ____
 72
    65
 73
     4
 40
10.16
 49
6.35
 74
     0
 49
-1.27
 74
     0
 49
1.27
 74
     0
 49
-1.27
 74
     0
  0
LTYPE
  5
71
330
5
100
AcDbSymbolTableRecord
100
AcDbLinetypeTableRecord
  2
CENTERX2
 70
     0
  3
Center (2x) ________  __  ________  __  _____
 72
    65
 73
     4
 40
20.32
 49
12.7
 74
     0
 49
-2.54
 74
     0
 49
2.54
 74
     0
 49
-2.54
 74
     0
  0
LTYPE
  5
72
330
5
100
AcDbSymbolTableRecord
100
AcDbLinetypeTableRecord
  2
DOT2
 70
     0
  3
Dot (.5x) ........................................
 72
    65
 73
     2
 40
0.635
 49
0.0
 74
     0
 49
-0.635
 74
     0
  0
ENDTAB
  0
TABLE
  2
LAYER
  5
2
330
0
100
AcDbSymbolTable
 70
    13
  0
LAYER
  5
10
330
2
100
AcDbSymbolTableRecord
100
AcDbLayerTableRecord
  2
0
 70
     0
 62
     7
  6
Continuous
370
    -3
390
F
  0
LAYER
  5
73
330
2
100
AcDbSymbolTableRecord
100
AcDbLayerTableRecord
  2
FORMAT
 70
     0
 62
     7
  6
Continuous
370
    -3
390
F
  0
LAYER
  5
74
330
2
100
AcDbSymbolTableRecord
100
AcDbLayerTableRecord
  2
OSA
 70
     0
 62
     7
  6
CENTER
370
    -3
390
F
  0
LAYER
  5
75
330
2
100
AcDbSymbolTableRecord
100
AcDbLayerTableRecord
  2
0_35
 70
     0
 62
     7
  6
Continuous
370
    35
390
F
  0
LAYER
  5
76
330
2
100
AcDbSymbolTableRecord
100
AcDbLayerTableRecord
  2
0_5
 70
     0
 62
     7
  6
Continuous
370
    50
390
F
  0
LAYER
  5
77
330
2
100
AcDbSymbolTableRecord
100
AcDbLayerTableRecord
  2
0_25
 70
     0
 62
     7
  6
Continuous
370
    25
390
F
  0
LAYER
  5
78
330
2
100
AcDbSymbolTableRecord
100
AcDbLayerTableRecord
  2
0_18
 70
     0
 62
     7
  6
Continuous
370
    -3
390
F
  0
LAYER
  5
79
330
2
100
AcDbSymbolTableRecord
100
AcDbLayerTableRecord
  2
SLD-0
 70
     0
 62
   179
  6
Continuous
370
    -3
390
F
  0
LAYER
  5
7A
330
2
100
AcDbSymbolTableRecord
100
AcDbLayerTableRecord
  2
KOTY
 70
     0
 62
     7
  6
Continuous
370
    -3
390
F
  0
LAYER
  5
7B
330
2
100
AcDbSymbolTableRecord
100
AcDbLayerTableRecord
  2
SILNA
 70
     0
 62
   179
  6
Continuous
370
    -3
390
F
  0
LAYER
  5
7C
330
2
100
AcDbSymbolTableRecord
100
AcDbLayerTableRecord
  2
0_18_1
 70
     0
 62
   179
  6
Continuous
370
    -3
390
F
  0
LAYER
  5
7D
330
2
100
AcDbSymbolTableRecord
100
AcDbLayerTableRecord
  2
0_35_1
 70
     0
 62
   179
  6
Continuous
370
    35
390
F
  0
LAYER
  5
7E
330
2
100
AcDbSymbolTableRecord
100
AcDbLayerTableRecord
  2
0_5_1
 70
     0
 62
   179
  6
Continuous
370
    50
390
F
  0
ENDTAB
  0
TABLE
  2
STYLE
  5
3
330
0
100
AcDbSymbolTable
 70
     1
  0
STYLE
  5
11
330
3
100
AcDbSymbolTableRecord
100
AcDbTextStyleTableRecord
  2
Standard
 70
     0
 40
0.0
 41
1.0
 50
0.0
 71
     0
 42
2.0
  3
txt
  4

  0
ENDTAB
  0
TABLE
  2
VIEW
  5
6
330
0
100
AcDbSymbolTable
 70
     0
  0
ENDTAB
  0
TABLE
  2
UCS
  5
7
330
0
100
AcDbSymbolTable
 70
     0
  0
ENDTAB
  0
TABLE
  2
APPID
  5
9
330
0
100
AcDbSymbolTable
 70
     1
  0
APPID
  5
12
330
9
100
AcDbSymbolTableRecord
100
AcDbRegAppTableRecord
  2
ACAD
 70
     0
  0
ENDTAB
  0
TABLE
  2
DIMSTYLE
  5
A
330
0
100
AcDbSymbolTable
 70
     1
100
AcDbDimStyleTable
  0
DIMSTYLE
105
27
330
A
100
AcDbSymbolTableRecord
100
AcDbDimStyleTableRecord
  2
ISO-25
 70
     0
 41
2.5
 42
0.625
 43
3.75
 44
1.25
 73
     0
 74
     0
 77
     1
 78
     8
140
2.5
141
2.5
143
0.0393700787
147
0.625
171
     3
172
     1
178
     0
271
     2
272
     2
274
     3
278
    44
283
     0
284
     8
340
11
  0
ENDTAB
  0
TABLE
  2
BLOCK_RECORD
  5
1
330
0
100
AcDbSymbolTable
 70
     1
  0
BLOCK_RECORD
  5
1F
330
1
100
AcDbSymbolTableRecord
100
AcDbBlockTableRecord
  2
*Model_Space
340
22
  0
BLOCK_RECORD
  5
1B
330
1
100
AcDbSymbolTableRecord
100
AcDbBlockTableRecord
  2
*Paper_Space
340
1E
  0
BLOCK_RECORD
  5
23
330
1
100
AcDbSymbolTableRecord
100
AcDbBlockTableRecord
  2
*Paper_Space0
340
26
  0
ENDTAB
  0
ENDSEC
  0
SECTION
  2
BLOCKS
  0
BLOCK
  5
20
330
1F
100
AcDbEntity
  8
0
100
AcDbBlockBegin
  2
*Model_Space
 70
     0
 10
0.0
 20
0.0
 30
0.0
  3
*Model_Space
  1

  0
ENDBLK
  5
21
330
1F
100
AcDbEntity
  8
0
100
AcDbBlockEnd
  0
BLOCK
  5
1C
330
1B
100
AcDbEntity
 67
     1
  8
0
100
AcDbBlockBegin
  2
*Paper_Space
 70
     0
 10
0.0
 20
0.0
 30
0.0
  3
*Paper_Space
  1

  0
ENDBLK
  5
1D
330
1B
100
AcDbEntity
 67
     1
  8
0
100
AcDbBlockEnd
  0
BLOCK
  5
24
330
23
100
AcDbEntity
  8
0
100
AcDbBlockBegin
  2
*Paper_Space0
 70
     0
 10
0.0
 20
0.0
 30
0.0
  3
*Paper_Space0
  1

  0
ENDBLK
  5
25
330
23
100
AcDbEntity
  8
0
100
AcDbBlockEnd
  0
ENDSEC
  0
SECTION
  2
ENTITIES
  0
LINE
  5
7F
330
1F
100
AcDbEntity
  8
0
  6
Continuous
 62
     7
370
    25
100
AcDbLine
 10
6007.7020690907
 20
5187.1621613257
 30
0.0
 11
6007.9254681467
 21
5186.9387622697
 31
0.0
  0
LINE
  5
80
330
1F
100
AcDbEntity
  8
0
  6
Continuous
 62
     7
370
    25
100
AcDbLine
 10
6033.4139983055
 20
5186.4330905405
 30
0.0
 11
6034.1430690907
 21
5187.1621613257
 31
0.0
  0
LINE
  5
81
330
1F
100
AcDbEntity
  8
0
  6
Continuous
 62
     7
370
    25
100
AcDbLine
 10
6007.7020690907
 20
5188.1621613258
 30
0.0
 11
6007.7020690907
 21
5187.1621613257
 31
0.0
  0
LINE
  5
82
330
1F
100
AcDbEntity
  8
0
  6
Continuous
 62
     7
370
    25
100
AcDbLine
 10
6034.1430690907
 20
5187.1621613257
 30
0.0
 11
6034.1430690907
 21
5188.4554782277
 31
0.0
  0
LINE
  5
83
330
1F
100
AcDbEntity
  8
0
  6
Continuous
 62
     7
370
    25
100
AcDbLine
 10
6035.6725690907
 20
5198.1621613258
 30
0.0
 11
6035.6725690907
 21
5204.1621613257
 31
0.0
  0
LINE
  5
84
330
1F
100
AcDbEntity
  8
0
  6
Continuous
 62
     7
370
    25
100
AcDbLine
 10
6006.1725690907
 20
5204.0419592136
 30
0.0
 11
6006.1725690907
 21
5198.2823634379
 31
0.0
  0
LWPOLYLINE
  5
85
330
1F
100
AcDbEntity
  8
0
  6
Continuous
 62
     7
370
    25
100
AcDbPolyline
 90
        3
 70
   128
 43
0.0
 10
6033.2768945049
 20
5183.5236260369
 10
6033.7067461437
 20
5183.7719394759
 10
6034.1366127965
 20
5184.0202527513
  0
LWPOLYLINE
  5
86
330
1F
100
AcDbEntity
  8
0
  6
Continuous
 62
     7
370
    25
100
AcDbPolyline
 90
        3
 70
   128
 43
0.0
 10
6033.2768945049
 20
5185.1111260369
 10
6033.7067461437
 20
5185.3594394759
 10
6034.1366127965
 20
5185.6077527513
  0
LWPOLYLINE
  5
87
330
1F
100
AcDbEntity
  8
0
  6
Continuous
 62
     7
370
    25
100
AcDbPolyline
 90
        3
 70
   128
 43
0.0
 10
6007.7085253848
 20
5184.8140027513
 10
6008.1383920377
 20
5184.5656894759
 10
6008.5613304897
 20
5184.3213695943
  0
LWPOLYLINE
  5
88
330
1F
100
AcDbEntity
  8
0
  6
Continuous
 62
     7
370
    25
100
AcDbPolyline
 90
        3
 70
   128
 43
0.0
 10
6007.7085253848
 20
5186.4015027513
 10
6008.1383920377
 20
5186.1531894759
 10
6008.5613304897
 20
5185.9088695943
  0
LWPOLYLINE
  5
89
330
1F
100
AcDbEntity
  8
0
  6
Continuous
 62
     7
370
    25
100
AcDbPolyline
 90
        3
 70
   128
 43
0.0
 10
6007.7085253848
 20
5183.2265027513
 10
6008.1383920377
 20
5182.9781894759
 10
6008.5613304897
 20
5182.7338695943
  0
LWPOLYLINE
  5
8A
330
1F
100
AcDbEntity
  8
0
  6
Continuous
 62
     7
370
    25
100
AcDbPolyline
 90
        3
 70
   128
 43
0.0
 10
6034.1366157951
 20
5182.844693146
 10
6033.7067494219
 20
5183.0930062593
 10
6033.2838095004
 20
5183.337326985
  0
LWPOLYLINE
  5
8B
330
1F
100
AcDbEntity
  8
0
  6
Continuous
 62
     7
370
    25
100
AcDbPolyline
 90
        3
 70
   128
 43
0.0
 10
6034.1366157951
 20
5184.432193146
 10
6033.7067494219
 20
5184.6805062593
 10
6033.2838095004
 20
5184.924826985
  0
LWPOLYLINE
  5
8C
330
1F
100
AcDbEntity
  8
0
  6
Continuous
 62
     7
370
    25
100
AcDbPolyline
 90
        3
 70
   128
 43
0.0
 10
6034.1366157951
 20
5186.019693146
 10
6033.7067494219
 20
5186.2680062593
 10
6033.416552678
 20
5186.435644913
  0
LWPOLYLINE
  5
8D
330
1F
100
AcDbEntity
  8
0
  6
Continuous
 62
     7
370
    25
100
AcDbPolyline
 90
        3
 70
   128
 43
0.0
 10
6008.5682401259
 20
5184.135069536
 10
6008.1383887595
 20
5183.8867562593
 10
6007.7085223862
 20
5183.638443146
  0
LWPOLYLINE
  5
8E
330
1F
100
AcDbEntity
  8
0
  6
Continuous
 62
     7
370
    25
100
AcDbPolyline
 90
        3
 70
   128
 43
0.0
 10
6008.5682401259
 20
5185.722569536
 10
6008.1383887595
 20
5185.4742562593
 10
6007.7085223862
 20
5185.225943146
  0
LINE
  5
8F
330
1F
100
AcDbEntity
  8
0
  6
Continuous
 62
     7
370
    25
100
AcDbLine
 10
6007.9296357378
 20
5186.9411696864
 30
0.0
 11
6007.7085223862
 21
5186.813443146
 31
0.0
  0
LWPOLYLINE
  5
90
330
1F
100
AcDbEntity
  8
0
  6
Continuous
 62
     7
370
    25
100
AcDbPolyline
 90
        3
 70
   128
 43
0.0
 10
6008.5682401259
 20
5182.547569536
 10
6008.1383887595
 20
5182.2992562593
 10
6007.9010573472
 20
5182.1621613258
  0
LINE
  5
91
330
1F
100
AcDbEntity
  8
0
  6
Continuous
 62
     7
370
    25
100
AcDbLine
 10
6007.7020690907
 20
5183.6310431371
 30
0.0
 11
6007.7020690907
 21
5183.2339081781
 31
0.0
  0
LINE
  5
92
330
1F
100
AcDbEntity
  8
0
  6
Continuous
 62
     7
370
    25
100
AcDbLine
 10
6007.7020690907
 20
5185.2185431371
 30
0.0
 11
6007.7020690907
 21
5184.821408178
 31
0.0
  0
LINE
  5
93
330
1F
100
AcDbEntity
  8
0
  6
Continuous
 62
     7
370
    25
100
AcDbLine
 10
6007.7020690907
 20
5186.8060431371
 30
0.0
 11
6007.7020690907
 21
5186.4089081781
 31
0.0
  0
LINE
  5
94
330
1F
100
AcDbEntity
  8
0
  6
Continuous
 62
     7
370
    25
100
AcDbLine
 10
6007.7020690907
 20
5188.1621613258
 30
0.0
 11
6007.7020690907
 21
5187.9964081781
 31
0.0
  0
LINE
  5
95
330
1F
100
AcDbEntity
  8
0
  6
Continuous
 62
     7
370
    25
100
AcDbLine
 10
6034.1430690907
 20
5187.2028338738
 30
0.0
 11
6034.1430690907
 21
5187.5995295158
 31
0.0
  0
LINE
  5
96
330
1F
100
AcDbEntity
  8
0
  6
Continuous
 62
     7
370
    25
100
AcDbLine
 10
6034.1430690907
 20
5185.6153338738
 30
0.0
 11
6034.1430690907
 21
5186.0120295158
 31
0.0
  0
LINE
  5
97
330
1F
100
AcDbEntity
  8
0
  6
Continuous
 62
     7
370
    25
100
AcDbLine
 10
6034.1430690907
 20
5184.0278338738
 30
0.0
 11
6034.1430690907
 21
5184.4245295158
 31
0.0
  0
LINE
  5
98
330
1F
100
AcDbEntity
  8
0
  6
Continuous
 62
     7
370
    25
100
AcDbLine
 10
6034.1430690907
 20
5182.4411367222
 30
0.0
 11
6034.1430690907
 21
5182.8370295158
 31
0.0
  0
LINE
  5
99
330
1F
100
AcDbEntity
  8
0
  6
Continuous
 62
     7
370
    25
100
AcDbLine
 10
6033.2838095004
 20
5183.3332624336
 30
0.0
 11
6033.2838095004
 21
5183.5276206391
 31
0.0
  0
LINE
  5
9A
330
1F
100
AcDbEntity
  8
0
  6
Continuous
 62
     7
370
    25
100
AcDbLine
 10
6033.2838095004
 20
5184.9207624336
 30
0.0
 11
6033.2838095004
 21
5185.1151206391
 31
0.0
  0
LINE
  5
9B
330
1F
100
AcDbEntity
  8
0
  6
Continuous
 62
     7
370
    25
100
AcDbLine
 10
6008.5613304897
 20
5184.3255723802
 30
0.0
 11
6008.5613304897
 21
5184.1310780298
 31
0.0
  0
LINE
  5
9C
330
1F
100
AcDbEntity
  8
0
  6
Continuous
 62
     7
370
    25
100
AcDbLine
 10
6008.5613304897
 20
5185.9130723802
 30
0.0
 11
6008.5613304897
 21
5185.7185780298
 31
0.0
  0
LINE
  5
9D
330
1F
100
AcDbEntity
  8
0
  6
Continuous
 62
     7
370
    25
100
AcDbLine
 10
6008.5613304897
 20
5182.7380723802
 30
0.0
 11
6008.5613304897
 21
5182.5435780298
 31
0.0
  0
LINE
  5
9E
330
1F
100
AcDbEntity
  8
0
  6
Continuous
 62
     7
370
    25
100
AcDbLine
 10
6033.5427570675
 20
5438.762473349
 30
0.0
 11
6032.6430690907
 21
5439.6621613258
 31
0.0
  0
LINE
  5
9F
330
1F
100
AcDbEntity
  8
0
  6
Continuous
 62
     7
370
    25
100
AcDbLine
 10
6009.2020690907
 20
5439.6621613258
 30
0.0
 11
6007.7860177698
 21
5438.2461100049
 31
0.0
  0
LWPOLYLINE
  5
A0
330
1F
100
AcDbEntity
  8
0
  6
Continuous
 62
     7
370
    25
100
AcDbPolyline
 90
        3
 70
   128
 43
0.0
 10
6007.7085223862
 20
5436.6858795063
 10
6008.1383887595
 20
5436.437566393
 10
6008.5613304897
 20
5436.1932446225
  0
LWPOLYLINE
  5
A1
330
1F
100
AcDbEntity
  8
0
  6
Continuous
 62
     7
370
    25
100
AcDbPolyline
 90
        3
 70
   128
 43
0.0
 10
6007.7085223862
 20
5435.0983795063
 10
6008.1383887595
 20
5434.850066393
 10
6008.5613304897
 20
5434.6057446225
  0
LWPOLYLINE
  5
A2
330
1F
100
AcDbEntity
  8
0
  6
Continuous
 62
     7
370
    25
100
AcDbPolyline
 90
        3
 70
   128
 43
0.0
 10
6007.7085223862
 20
5433.5108795063
 10
6008.1383887595
 20
5433.262566393
 10
6008.3121984563
 20
5433.1621613258
  0
LWPOLYLINE
  5
A3
330
1F
100
AcDbEntity
  8
0
  6
Continuous
 62
     7
370
    25
100
AcDbPolyline
 90
        3
 70
   128
 43
0.0
 10
6033.2768980555
 20
5436.9830031163
 10
6033.7067494219
 20
5437.231316393
 10
6034.1366157951
 20
5437.4796295063
  0
LWPOLYLINE
  5
A4
330
1F
100
AcDbEntity
  8
0
  6
Continuous
 62
     7
370
    25
100
AcDbPolyline
 90
        3
 70
   128
 43
0.0
 10
6033.2768980555
 20
5435.3955031163
 10
6033.7067494219
 20
5435.643816393
 10
6034.1366157951
 20
5435.8921295063
  0
LWPOLYLINE
  5
A5
330
1F
100
AcDbEntity
  8
0
  6
Continuous
 62
     7
370
    25
100
AcDbPolyline
 90
        3
 70
   128
 43
0.0
 10
6033.2768980555
 20
5433.8080031163
 10
6033.7067494219
 20
5434.056316393
 10
6034.1366157951
 20
5434.3046295063
  0
LINE
  5
A6
330
1F
100
AcDbEntity
  8
0
  6
Continuous
 62
     7
370
    25
100
AcDbLine
 10
6033.2768980555
 20
5438.5705031163
 30
0.0
 11
6033.5381153278
 21
5438.7214011287
 31
0.0
  0
LWPOLYLINE
  5
A7
330
1F
100
AcDbEntity
  8
0
  6
Continuous
 62
     7
370
    25
100
AcDbPolyline
 90
        3
 70
   128
 43
0.0
 10
6007.7085223862
 20
5438.2733795063
 10
6008.1383887595
 20
5438.025066393
 10
6008.5613304897
 20
5437.7807446225
  0
LWPOLYLINE
  5
A8
330
1F
100
AcDbEntity
  8
0
  6
Continuous
 62
     7
370
    25
100
AcDbPolyline
 90
        3
 70
   128
 43
0.0
 10
6008.5682436765
 20
5436.0069466154
 10
6008.1383920377
 20
5435.7586331764
 10
6007.7085253848
 20
5435.510319901
  0
LWPOLYLINE
  5
A9
330
1F
100
AcDbEntity
  8
0
  6
Continuous
 62
     7
370
    25
100
AcDbPolyline
 90
        3
 70
   128
 43
0.0
 10
6008.5682436765
 20
5434.4194466154
 10
6008.1383920377
 20
5434.1711331764
 10
6007.7085253848
 20
5433.922819901
  0
LWPOLYLINE
  5
AA
330
1F
100
AcDbEntity
  8
0
  6
Continuous
 62
     7
370
    25
100
AcDbPolyline
 90
        3
 70
   128
 43
0.0
 10
6034.1366127965
 20
5436.304069901
 10
6033.7067461437
 20
5436.5523831764
 10
6033.2838095004
 20
5436.7967020132
  0
LWPOLYLINE
  5
AB
330
1F
100
AcDbEntity
  8
0
  6
Continuous
 62
     7
370
    25
100
AcDbPolyline
 90
        3
 70
   128
 43
0.0
 10
6034.1366127965
 20
5434.716569901
 10
6033.7067461437
 20
5434.9648831764
 10
6033.2838095004
 20
5435.2092020132
  0
LWPOLYLINE
  5
AC
330
1F
100
AcDbEntity
  8
0
  6
Continuous
 62
     7
370
    25
100
AcDbPolyline
 90
        3
 70
   128
 43
0.0
 10
6034.079326693
 20
5433.1621613258
 10
6033.7067461437
 20
5433.3773831764
 10
6033.2838095004
 20
5433.6217020132
  0
LWPOLYLINE
  5
AD
330
1F
100
AcDbEntity
  8
0
  6
Continuous
 62
     7
370
    25
100
AcDbPolyline
 90
        3
 70
   128
 43
0.0
 10
6034.1366127965
 20
5437.891569901
 10
6033.7067461437
 20
5438.1398831764
 10
6033.2838095004
 20
5438.3842020132
  0
LWPOLYLINE
  5
AE
330
1F
100
AcDbEntity
  8
0
  6
Continuous
 62
     7
370
    25
100
AcDbPolyline
 90
        3
 70
   128
 43
0.0
 10
6008.5682436765
 20
5437.5944466154
 10
6008.1383920377
 20
5437.3461331764
 10
6007.7085253848
 20
5437.097819901
  0
LINE
  5
AF
330
1F
100
AcDbEntity
  8
0
  6
Continuous
 62
     7
370
    25
100
AcDbLine
 10
6034.1430690907
 20
5437.4872931365
 30
0.0
 11
6034.1430690907
 21
5437.8839887785
 31
0.0
  0
LINE
  5
B0
330
1F
100
AcDbEntity
  8
0
  6
Continuous
 62
     7
370
    25
100
AcDbLine
 10
6034.1430690907
 20
5435.8997931365
 30
0.0
 11
6034.1430690907
 21
5436.2964887785
 31
0.0
  0
LINE
  5
B1
330
1F
100
AcDbEntity
  8
0
  6
Continuous
 62
     7
370
    25
100
AcDbLine
 10
6034.1430690907
 20
5434.3122931365
 30
0.0
 11
6034.1430690907
 21
5434.7089887785
 31
0.0
  0
LINE
  5
B2
330
1F
100
AcDbEntity
  8
0
  6
Continuous
 62
     7
370
    25
100
AcDbLine
 10
6007.7020690907
 20
5433.9154144742
 30
0.0
 11
6007.7020690907
 21
5433.5182795151
 31
0.0
  0
LINE
  5
B3
330
1F
100
AcDbEntity
  8
0
  6
Continuous
 62
     7
370
    25
100
AcDbLine
 10
6007.7020690907
 20
5435.5029144742
 30
0.0
 11
6007.7020690907
 21
5435.1057795151
 31
0.0
  0
LINE
  5
B4
330
1F
100
AcDbEntity
  8
0
  6
Continuous
 62
     7
370
    25
100
AcDbLine
 10
6007.7020690907
 20
5437.0904144742
 30
0.0
 11
6007.7020690907
 21
5436.6932795151
 31
0.0
  0
LINE
  5
B5
330
1F
100
AcDbEntity
  8
0
  6
Continuous
 62
     7
370
    25
100
AcDbLine
 10
6008.5613304897
 20
5436.197187772
 30
0.0
 11
6008.5613304897
 21
5436.002953058
 31
0.0
  0
LINE
  5
B6
330
1F
100
AcDbEntity
  8
0
  6
Continuous
 62
     7
370
    25
100
AcDbLine
 10
6008.5613304897
 20
5434.609687772
 30
0.0
 11
6008.5613304897
 21
5434.415453058
 31
0.0
  0
LINE
  5
B7
330
1F
100
AcDbEntity
  8
0
  6
Continuous
 62
     7
370
    25
100
AcDbLine
 10
6033.2838095004
 20
5436.7926227186
 30
0.0
 11
6033.2838095004
 21
5436.9869956673
 31
0.0
  0
LINE
  5
B8
330
1F
100
AcDbEntity
  8
0
  6
Continuous
 62
     7
370
    25
100
AcDbLine
 10
6033.2838095004
 20
5435.2051227186
 30
0.0
 11
6033.2838095004
 21
5435.3994956673
 31
0.0
  0
LINE
  5
B9
330
1F
100
AcDbEntity
  8
0
  6
Continuous
 62
     7
370
    25
100
AcDbLine
 10
6033.2838095004
 20
5433.6176227186
 30
0.0
 11
6033.2838095004
 21
5433.8119956673
 31
0.0
  0
LINE
  5
BA
330
1F
100
AcDbEntity
  8
0
  6
Continuous
 62
     7
370
    25
100
AcDbLine
 10
6033.2838095004
 20
5438.3801227186
 30
0.0
 11
6033.2838095004
 21
5438.5744956673
 31
0.0
  0
LINE
  5
BB
330
1F
100
AcDbEntity
  8
0
  6
Continuous
 62
     7
370
    25
100
AcDbLine
 10
6008.5613304897
 20
5437.784687772
 30
0.0
 11
6008.5613304897
 21
5437.590453058
 31
0.0
  0
ARC
  5
BC
330
1F
100
AcDbEntity
  8
0
  6
Continuous
 62
     7
370
    25
100
AcDbCircle
 10
5941.5225690907
 20
5240.9621613257
 30
0.0
 40
0.7999999999994823
100
AcDbArc
 50
97.1807557805
 51
180.0
  0
ARC
  5
BD
330
1F
100
AcDbEntity
  8
0
  6
Continuous
 62
     7
370
    25
100
AcDbCircle
 10
5941.5225690907
 20
5229.3621613257
 30
0.0
 40
0.7999999999994823
100
AcDbArc
 50
180.0
 51
262.8192442195
  0
LINE
  5
BE
330
1F
100
AcDbEntity
  8
0
  6
Continuous
 62
     7
370
    25
100
AcDbLine
 10
5957.4882545156
 20
5218.1621613258
 30
0.0
 11
5957.4882545156
 21
5219.6621613258
 31
0.0
  0
LINE
  5
BF
330
1F
100
AcDbEntity
  8
0
  6
Continuous
 62
     7
370
    25
100
AcDbLine
 10
6127.3568836657
 20
5219.6621613258
 30
0.0
 11
5957.4882545156
 21
5219.6621613258
 31
0.0
  0
LINE
  5
C0
330
1F
100
AcDbEntity
  8
0
  6
Continuous
 62
     7
370
    25
100
AcDbLine
 10
6127.3568836657
 20
5218.1621613258
 30
0.0
 11
6127.3568836657
 21
5219.6621613258
 31
0.0
  0
LINE
  5
C1
330
1F
100
AcDbEntity
  8
0
  6
Continuous
 62
     7
370
    25
100
AcDbLine
 10
6127.3568836657
 20
5218.1621613258
 30
0.0
 11
5957.4882545156
 21
5218.1621613258
 31
0.0
  0
LINE
  5
C2
330
1F
100
AcDbEntity
  8
0
  6
Continuous
 62
     7
370
    25
100
AcDbLine
 10
5957.4882545156
 20
5392.1621613258
 30
0.0
 11
5957.4882545156
 21
5390.6621613258
 31
0.0
  0
LINE
  5
C3
330
1F
100
AcDbEntity
  8
0
  6
Continuous
 62
     7
370
    25
100
AcDbLine
 10
5957.4882545156
 20
5392.1621613258
 30
0.0
 11
6127.3568836657
 21
5392.1621613258
 31
0.0
  0
LINE
  5
C4
330
1F
100
AcDbEntity
  8
0
  6
Continuous
 62
     7
370
    25
100
AcDbLine
 10
5957.4882545156
 20
5390.6621613258
 30
0.0
 11
6127.3568836657
 21
5390.6621613258
 31
0.0
  0
LINE
  5
C5
330
1F
100
AcDbEntity
  8
0
  6
Continuous
 62
     7
370
    25
100
AcDbLine
 10
6127.3568836657
 20
5392.1621613258
 30
0.0
 11
6127.3568836657
 21
5390.6621613258
 31
0.0
  0
LINE
  5
C6
330
1F
100
AcDbEntity
  8
0
  6
Continuous
 62
     7
370
    25
100
AcDbLine
 10
6129.4225690907
 20
5390.0964759008
 30
0.0
 11
6127.9225690907
 21
5390.0964759008
 31
0.0
  0
LINE
  5
C7
330
1F
100
AcDbEntity
  8
0
  6
Continuous
 62
     7
370
    25
100
AcDbLine
 10
6129.4225690907
 20
5390.0964759008
 30
0.0
 11
6129.4225690907
 21
5220.2278467507
 31
0.0
  0
LINE
  5
C8
330
1F
100
AcDbEntity
  8
0
  6
Continuous
 62
     7
370
    25
100
AcDbLine
 10
6127.9225690907
 20
5390.0964759008
 30
0.0
 11
6127.9225690907
 21
5220.2278467507
 31
0.0
  0
LINE
  5
C9
330
1F
100
AcDbEntity
  8
0
  6
Continuous
 62
     7
370
    25
100
AcDbLine
 10
6129.4225690907
 20
5220.2278467507
 30
0.0
 11
6127.9225690907
 21
5220.2278467507
 31
0.0
  0
LINE
  5
CA
330
1F
100
AcDbEntity
  8
0
  6
Continuous
 62
     7
370
    25
100
AcDbLine
 10
5955.4225690907
 20
5220.2278467507
 30
0.0
 11
5955.4225690907
 21
5390.0964759008
 31
0.0
  0
LINE
  5
CB
330
1F
100
AcDbEntity
  8
0
  6
Continuous
 62
     7
370
    25
100
AcDbLine
 10
5955.4225690907
 20
5220.2278467507
 30
0.0
 11
5956.9225690907
 21
5220.2278467507
 31
0.0
  0
LINE
  5
CC
330
1F
100
AcDbEntity
  8
0
  6
Continuous
 62
     7
370
    25
100
AcDbLine
 10
5955.4225690907
 20
5390.0964759008
 30
0.0
 11
5956.9225690907
 21
5390.0964759008
 31
0.0
  0
LINE
  5
CD
330
1F
100
AcDbEntity
  8
0
  6
Continuous
 62
     7
370
    25
100
AcDbLine
 10
5956.9225690907
 20
5220.2278467507
 30
0.0
 11
5956.9225690907
 21
5390.0964759008
 31
0.0
  0
ARC
  5
CE
330
1F
100
AcDbEntity
  8
0
  6
Continuous
 62
     7
370
    25
100
AcDbCircle
 10
5959.5814368793
 20
5389.908099279
 30
0.0
 40
0.7706156918702771
100
AcDbArc
 50
19.2497843724
 51
101.8972347925
  0
ARC
  5
CF
330
1F
100
AcDbEntity
  8
0
  6
Continuous
 62
     7
370
    25
100
AcDbCircle
 10
6125.2637013021
 20
5389.908099279
 30
0.0
 40
0.7706156919112126
100
AcDbArc
 50
78.1027652095
 51
160.7502156251
  0
LWPOLYLINE
  5
D0
330
1F
100
AcDbEntity
  8
0
  6
Continuous
 62
     7
370
    25
100
AcDbPolyline
 90
        5
 70
   128
 43
0.0
 10
6127.9225690907
 20
5222.1621613258
 10
6127.8330182774
 20
5222.6651680045
 10
6127.6523644057
 20
5222.9450903964
 10
6127.5278962788
 20
5223.0297858816
 10
6127.4225690907
 20
5223.0713377423
  0
LWPOLYLINE
  5
D1
330
1F
100
AcDbEntity
  8
0
  6
Continuous
 62
     7
370
    25
100
AcDbPolyline
 90
        5
 70
   128
 43
0.0
 10
6127.4225690907
 20
5387.2529849092
 10
6127.5278962788
 20
5387.2945367699
 10
6127.6523644057
 20
5387.3792322551
 10
6127.8330182774
 20
5387.659154647
 10
6127.9225690907
 20
5388.1621613258
  0
LWPOLYLINE
  5
D2
330
1F
100
AcDbEntity
  8
0
  6
Continuous
 62
     7
370
    25
100
AcDbPolyline
 90
        5
 70
   128
 43
0.0
 10
5959.4225690907
 20
5219.6621613258
 10
5959.9255757694
 20
5219.751712139
 10
5960.2054981614
 20
5219.9323660107
 10
5960.2901936466
 20
5220.0568341377
 10
5960.3317455072
 20
5220.1621613258
  0
ARC
  5
D3
330
1F
100
AcDbEntity
  8
0
  6
Continuous
 62
     7
370
    25
100
AcDbCircle
 10
6125.263701302
 20
5220.4162233725
 30
0.0
 40
0.7706156918672799
100
AcDbArc
 50
199.2497843723
 51
281.8972347927
  0
ARC
  5
D4
330
1F
100
AcDbEntity
  8
0
  6
Continuous
 62
     7
370
    25
100
AcDbCircle
 10
5957.6766311374
 20
5222.3210291144
 30
0.0
 40
0.7706156918630881
100
AcDbArc
 50
109.249784372
 51
191.8972347929
  0
LWPOLYLINE
  5
D5
330
1F
100
AcDbEntity
  8
0
  6
Continuous
 62
     7
370
    25
100
AcDbPolyline
 90
        5
 70
   128
 43
0.0
 10
5956.9225690907
 20
5388.1621613258
 10
5957.0121199039
 20
5387.6591546471
 10
5957.1927737756
 20
5387.3792322551
 10
5957.3172419026
 20
5387.2945367699
 10
5957.4225690907
 20
5387.2529849092
  0
LINE
  5
D6
330
1F
100
AcDbEntity
  8
0
  6
Continuous
 62
     7
370
    25
100
AcDbLine
 10
6026.8650012527
 20
5198.1621613258
 30
0.0
 11
6026.8650012527
 21
5204.1621613257
 31
0.0
  0
LINE
  5
D7
330
1F
100
AcDbEntity
  8
0
  6
Continuous
 62
     7
370
    25
100
AcDbLine
 10
6014.9801369287
 20
5204.1414698551
 30
0.0
 11
6014.9801369287
 21
5198.1828527964
 31
0.0
  0
LINE
  5
D8
330
1F
100
AcDbEntity
  8
0
  6
Continuous
 62
     7
370
    25
100
AcDbLine
 10
6032.3718579414
 20
5187.1621613257
 30
0.0
 11
6034.1430690907
 21
5187.1621613257
 31
0.0
  0
LINE
  5
D9
330
1F
100
AcDbEntity
  8
0
  6
Continuous
 62
     7
370
    25
100
AcDbLine
 10
6007.7020690907
 20
5187.1621613257
 30
0.0
 11
6024.1999479385
 21
5187.1621613257
 31
0.0
  0
LINE
  5
DA
330
1F
100
AcDbEntity
  8
0
  6
Continuous
 62
     7
370
    25
100
AcDbLine
 10
6029.3913270907
 20
5187.1621613257
 30
0.0
 11
6032.3718579414
 21
5187.1621613257
 31
0.0
  0
LINE
  5
DB
330
1F
100
AcDbEntity
  8
0
  6
Continuous
 62
     7
370
    25
100
AcDbLine
 10
6029.6426959608
 20
5204.1621613257
 30
0.0
 11
6029.6426959608
 21
5198.1621613258
 31
0.0
  0
LINE
  5
DC
330
1F
100
AcDbEntity
  8
0
  6
Continuous
 62
     7
370
    25
100
AcDbLine
 10
6035.5851281228
 20
5198.1621613258
 30
0.0
 11
6035.5851281228
 21
5204.1621613257
 31
0.0
  0
LINE
  5
DD
330
1F
100
AcDbEntity
  8
0
  6
Continuous
 62
     7
370
    25
100
AcDbLine
 10
6006.2600100586
 20
5204.0149788794
 30
0.0
 11
6006.2600100586
 21
5198.3093437721
 31
0.0
  0
LINE
  5
DE
330
1F
100
AcDbEntity
  8
0
  6
Continuous
 62
     7
370
    25
100
AcDbLine
 10
6028.7167977247
 20
5412.1621613257
 30
0.0
 11
6028.7167977247
 21
5406.1621613257
 31
0.0
  0
LINE
  5
DF
330
1F
100
AcDbEntity
  8
0
  6
Continuous
 62
     7
370
    25
100
AcDbLine
 10
6013.1283404566
 20
5411.197948434
 30
0.0
 11
6013.1283404566
 21
5407.1263742175
 31
0.0
  0
LINE
  5
E0
330
1F
100
AcDbEntity
  8
0
  6
Continuous
 62
     7
370
    25
100
AcDbLine
 10
6036.5110263588
 20
5412.1621613257
 30
0.0
 11
6036.5110263588
 21
5406.1621613257
 31
0.0
  0
LINE
  5
E1
330
1F
100
AcDbEntity
  8
0
  6
Continuous
 62
     7
370
    25
100
AcDbLine
 10
6005.3341118226
 20
5412.1621604929
 30
0.0
 11
6005.3341118226
 21
5406.1621621586
 31
0.0
  0
LINE
  5
E2
330
1F
100
AcDbEntity
  8
0
  6
Continuous
 62
     7
370
    25
100
AcDbLine
 10
6020.9225690907
 20
5198.1621613258
 30
0.0
 11
6020.9225690907
 21
5200.1621613265
 31
0.0
  0
LINE
  5
E3
330
1F
100
AcDbEntity
  8
0
  6
Continuous
 62
     7
370
    25
100
AcDbLine
 10
6034.4225690907
 20
5200.1621613265
 30
0.0
 11
6030.8052549929
 21
5200.1621613265
 31
0.0
  0
LINE
  5
E4
330
1F
100
AcDbEntity
  8
0
  6
Continuous
 62
     7
370
    25
100
AcDbLine
 10
6024.5398831884
 20
5200.1621613265
 30
0.0
 11
6020.9225690907
 21
5200.1621613265
 31
0.0
  0
LINE
  5
E5
330
1F
100
AcDbEntity
  8
0
  6
Continuous
 62
     7
370
    25
100
AcDbLine
 10
6034.4225690907
 20
5198.1621613258
 30
0.0
 11
6034.4225690907
 21
5200.1621613265
 31
0.0
  0
LINE
  5
E6
330
1F
100
AcDbEntity
  8
0
  6
Continuous
 62
     7
370
    25
100
AcDbLine
 10
6007.4225690907
 20
5199.0106492391
 30
0.0
 11
6007.4225690907
 21
5200.1621613265
 31
0.0
  0
LINE
  5
E7
330
1F
100
AcDbEntity
  8
0
  6
Continuous
 62
     7
370
    25
100
AcDbLine
 10
6020.9225690907
 20
5200.1621613265
 30
0.0
 11
6017.305254993
 21
5200.1621613265
 31
0.0
  0
LINE
  5
E8
330
1F
100
AcDbEntity
  8
0
  6
Continuous
 62
     7
370
    25
100
AcDbLine
 10
6008.1603035695
 20
5200.1621613265
 30
0.0
 11
6007.4225690907
 21
5200.1621613265
 31
0.0
  0
LWPOLYLINE
  5
E9
330
1F
100
AcDbEntity
  8
0
  6
Continuous
 62
     7
370
    25
100
AcDbPolyline
 90
       11
 70
   128
 43
0.0
 10
6008.6258545122
 20
5182.7379472913
 10
6008.5935666658
 20
5182.7554897103
 10
6009.0893037167
 20
5182.8114388246
 10
6010.1760117612
 20
5182.8692699064
 10
6010.7170259551
 20
5182.890401742
 10
6012.6118147159
 20
5182.948001018
 10
6014.8142329692
 20
5183.0034902513
 10
6017.3484824665
 20
5183.0613213331
 10
6020.0304010478
 20
5183.1172704475
 10
6022.7126845057
 20
5183.1705522262
 10
6024.2003676224
 20
5183.2025133569
  0
LWPOLYLINE
  5
EA
330
1F
100
AcDbEntity
  8
0
  6
Continuous
 62
     7
370
    25
100
AcDbPolyline
 90
        5
 70
   128
 43
0.0
 10
6030.0886294206
 20
5183.3463258118
 10
6031.5146817958
 20
5183.394008679
 10
6032.6635026851
 20
5183.4517865497
 10
6033.2262808975
 20
5183.5081479681
 10
6033.2168143017
 20
5183.5235482478
  0
LWPOLYLINE
  5
EB
330
1F
100
AcDbEntity
  8
0
  6
Continuous
 62
     7
370
    25
100
AcDbPolyline
 90
       11
 70
   128
 43
0.0
 10
6008.6258545122
 20
5184.3254472913
 10
6008.5935666658
 20
5184.3429897103
 10
6009.0893037167
 20
5184.3989388246
 10
6010.1760117612
 20
5184.4567699064
 10
6010.7170259551
 20
5184.477901742
 10
6012.6118147159
 20
5184.535501018
 10
6014.8142329692
 20
5184.5909902513
 10
6017.3484824665
 20
5184.6488213331
 10
6020.0304010478
 20
5184.7047704475
 10
6022.7126845057
 20
5184.7580522262
 10
6024.8853054631
 20
5184.8047284448
  0
LWPOLYLINE
  5
EC
330
1F
100
AcDbEntity
  8
0
  6
Continuous
 62
     7
370
    25
100
AcDbPolyline
 90
        6
 70
   128
 43
0.0
 10
6029.0967305712
 20
5184.9062823229
 10
6029.8703006912
 20
5184.9265255611
 10
6031.5146817958
 20
5184.981508679
 10
6032.6635026851
 20
5185.0392865497
 10
6033.2262808975
 20
5185.0956479681
 10
6033.2168143017
 20
5185.1110482478
  0
LWPOLYLINE
  5
ED
330
1F
100
AcDbEntity
  8
0
  6
Continuous
 62
     7
370
    25
100
AcDbPolyline
 90
       11
 70
   128
 43
0.0
 10
6008.6258545122
 20
5185.9129472913
 10
6008.5935666658
 20
5185.9304897103
 10
6009.0893037167
 20
5185.9864388246
 10
6010.1760117612
 20
5186.0442699064
 10
6010.7170259551
 20
5186.065401742
 10
6012.6118147159
 20
5186.123001018
 10
6014.8142329692
 20
5186.1784902513
 10
6017.3484824665
 20
5186.2363213331
 10
6020.0304010478
 20
5186.2922704475
 10
6022.7126845057
 20
5186.3455522262
 10
6024.6950466869
 20
5186.3881409577
  0
LWPOLYLINE
  5
EE
330
1F
100
AcDbEntity
  8
0
  6
Continuous
 62
     7
370
    25
100
AcDbPolyline
 90
       11
 70
   128
 43
0.0
 10
6007.77134182
 20
5183.2339081781
 10
6007.7365480217
 20
5183.2515834627
 10
6008.2667449485
 20
5183.3075325771
 10
6009.4289926858
 20
5183.3653636588
 10
6011.135997201
 20
5183.4208528922
 10
6013.2889659005
 20
5183.4743911816
 10
6015.8633027731
 20
5183.5316925813
 10
6018.687854443
 20
5183.588993981
 10
6021.5576336889
 20
5183.6425322704
 10
6024.4302678315
 20
5183.6980215037
 10
6024.5185461933
 20
5183.699876661
  0
LWPOLYLINE
  5
EF
330
1F
100
AcDbEntity
  8
0
  6
Continuous
 62
     7
370
    25
100
AcDbPolyline
 90
        6
 70
   128
 43
0.0
 10
6029.6203163693
 20
5183.8137843269
 10
6030.492279059
 20
5183.8351193135
 10
6032.2509650534
 20
5183.8901024314
 10
6033.4796432489
 20
5183.9478803021
 10
6034.0815415299
 20
5184.0042417205
 10
6034.0660312857
 20
5184.0278338738
  0
LWPOLYLINE
  5
F0
330
1F
100
AcDbEntity
  8
0
  6
Continuous
 62
     7
370
    25
100
AcDbPolyline
 90
       11
 70
   128
 43
0.0
 10
6007.77134182
 20
5184.821408178
 10
6007.7365480217
 20
5184.8390834627
 10
6008.2667449485
 20
5184.8950325771
 10
6009.4289926858
 20
5184.9528636588
 10
6011.135997201
 20
5185.0083528922
 10
6013.2889659005
 20
5185.0618911816
 10
6015.8633027731
 20
5185.1191925813
 10
6018.687854443
 20
5185.176493981
 10
6021.5576336889
 20
5185.2300322704
 10
6024.4302678315
 20
5185.2855215037
 10
6024.9531990822
 20
5185.29651083
  0
LWPOLYLINE
  5
F1
330
1F
100
AcDbEntity
  8
0
  6
Continuous
 62
     7
370
    25
100
AcDbPolyline
 90
        6
 70
   128
 43
0.0
 10
6029.0265934503
 20
5185.3867572483
 10
6030.492279059
 20
5185.4226193135
 10
6032.2509650534
 20
5185.4776024314
 10
6033.4796432489
 20
5185.5353803021
 10
6034.0815415299
 20
5185.5917417205
 10
6034.0660312857
 20
5185.6153338738
  0
LWPOLYLINE
  5
F2
330
1F
100
AcDbEntity
  8
0
  6
Continuous
 62
     7
370
    25
100
AcDbPolyline
 90
       10
 70
   128
 43
0.0
 10
6007.77134182
 20
5186.4089081781
 10
6007.7365480217
 20
5186.4265834627
 10
6008.2667449485
 20
5186.4825325771
 10
6009.4289926858
 20
5186.5403636588
 10
6011.135997201
 20
5186.5958528922
 10
6013.2889659005
 20
5186.6493911816
 10
6015.8633027731
 20
5186.7066925813
 10
6018.687854443
 20
5186.763993981
 10
6021.5576336889
 20
5186.8175322704
 10
6024.3561165284
 20
5186.8715891602
  0
LWPOLYLINE
  5
F3
330
1F
100
AcDbEntity
  8
0
  6
Continuous
 62
     7
370
    25
100
AcDbPolyline
 90
        6
 70
   128
 43
0.0
 10
6029.3020510755
 20
5186.9809970834
 10
6030.492279059
 20
5187.0101193135
 10
6032.2509650534
 20
5187.0651024314
 10
6033.4796432489
 20
5187.1228803021
 10
6034.0815415299
 20
5187.1792417205
 10
6034.0660312857
 20
5187.2028338738
  0
LWPOLYLINE
  5
F4
330
1F
100
AcDbEntity
  8
0
  6
Continuous
 62
     7
370
    25
100
AcDbPolyline
 90
        5
 70
   128
 43
0.0
 10
6007.77134182
 20
5187.9964081781
 10
6007.7365480217
 20
5188.0140834627
 10
6008.2667449485
 20
5188.0700325771
 10
6009.4289926858
 20
5188.1278636588
 10
6010.4840851559
 20
5188.1621613258
  0
LWPOLYLINE
  5
F5
330
1F
100
AcDbEntity
  8
0
  6
Continuous
 62
     7
370
    25
100
AcDbPolyline
 90
        8
 70
   128
 43
0.0
 10
6009.1242471079
 20
5182.1621613265
 10
6009.4289926858
 20
5182.174738654
 10
6011.135997201
 20
5182.2302278874
 10
6013.2889659005
 20
5182.2837661768
 10
6015.8633027731
 20
5182.3410675765
 10
6018.687854443
 20
5182.3983689761
 10
6021.5576336889
 20
5182.4519072656
 10
6023.2579474045
 20
5182.484751373
  0
ARC
  5
F6
330
1F
100
AcDbEntity
  8
0
  6
Continuous
 62
     7
370
    25
100
AcDbCircle
 10
6031.8636346036
 20
5197.958656936
 30
0.0
 40
15.28792458931259
100
AcDbArc
 50
268.7349694343
 51
278.4586344408
  0
ARC
  5
F7
330
1F
100
AcDbEntity
  8
0
  6
Continuous
 62
     7
370
    25
100
AcDbCircle
 10
6029.1775893384
 20
4710.0477219697
 30
0.0
 40
474.0747891847182
100
AcDbArc
 50
90.5332089583
 51
92.5883818467
  0
ARC
  5
F8
330
1F
100
AcDbEntity
  8
0
  6
Continuous
 62
     7
370
    25
100
AcDbCircle
 10
6029.4522309373
 20
5233.6068695165
 30
0.0
 40
49.40263052099541
100
AcDbArc
 50
269.9199906833
 51
275.4128003579
  0
ARC
  5
F9
330
1F
100
AcDbEntity
  8
0
  6
Continuous
 62
     7
370
    25
100
AcDbCircle
 10
6029.320388213
 20
4707.529176713
 30
0.0
 40
478.1830960101134
100
AcDbArc
 50
90.5344745171
 51
92.5832562515
  0
ARC
  5
FA
330
1F
100
AcDbEntity
  8
0
  6
Continuous
 62
     7
370
    25
100
AcDbCircle
 10
6029.1540545592
 20
5239.2946205134
 30
0.0
 40
53.51280091567988
100
AcDbArc
 50
269.8017319621
 51
275.3165098141
  0
ARC
  5
FB
330
1F
100
AcDbEntity
  8
0
  6
Continuous
 62
     7
370
    25
100
AcDbCircle
 10
6026.4355740517
 20
4805.2929185856
 30
0.0
 40
381.977331474385
100
AcDbArc
 50
90.3549745886
 51
92.8011859536
  0
ARC
  5
FC
330
1F
100
AcDbEntity
  8
0
  6
Continuous
 62
     7
370
    25
100
AcDbCircle
 10
6030.0890640494
 20
5224.657784816
 30
0.0
 40
37.27601984020654
100
AcDbArc
 50
269.2684172555
 51
276.1962381039
  0
LWPOLYLINE
  5
FD
330
1F
100
AcDbEntity
  8
0
  6
Continuous
 62
     7
370
    25
100
AcDbPolyline
 90
       11
 70
   128
 43
0.0
 10
6008.610979995
 20
5182.5475913155
 10
6008.5935666658
 20
5182.5570522103
 10
6009.0893037167
 20
5182.6130013246
 10
6010.1760117612
 20
5182.6708324064
 10
6011.7720703976
 20
5182.7263216398
 10
6013.7851080059
 20
5182.7798599292
 10
6016.1921271802
 20
5182.8371613289
 10
6018.6380541849
 20
5182.890401742
 10
6020.0304010478
 20
5182.9188329475
 10
6022.7126845057
 20
5182.9721147262
 10
6024.0094247939
 20
5182.9999736737
  0
LWPOLYLINE
  5
FE
330
1F
100
AcDbEntity
  8
0
  6
Continuous
 62
     7
370
    25
100
AcDbPolyline
 90
        5
 70
   128
 43
0.0
 10
6030.3517495318
 20
5183.1566862504
 10
6031.5146817958
 20
5183.195571179
 10
6032.6635026851
 20
5183.2533490497
 10
6033.2262808975
 20
5183.3097104681
 10
6033.2117741102
 20
5183.3333101428
  0
LWPOLYLINE
  5
FF
330
1F
100
AcDbEntity
  8
0
  6
Continuous
 62
     7
370
    25
100
AcDbPolyline
 90
       11
 70
   128
 43
0.0
 10
6008.610979995
 20
5184.1350913155
 10
6008.5935666658
 20
5184.1445522103
 10
6009.0893037167
 20
5184.2005013246
 10
6010.1760117612
 20
5184.2583324064
 10
6011.7720703976
 20
5184.3138216398
 10
6013.7851080059
 20
5184.3673599292
 10
6016.1921271802
 20
5184.4246613289
 10
6018.6380541849
 20
5184.477901742
 10
6020.0304010478
 20
5184.5063329475
 10
6022.7126845057
 20
5184.5596147262
 10
6024.851434622
 20
5184.6055632694
  0
LWPOLYLINE
  5
100
330
1F
100
AcDbEntity
  8
0
  6
Continuous
 62
     7
370
    25
100
AcDbPolyline
 90
        6
 70
   128
 43
0.0
 10
6029.1255871693
 20
5184.7085999593
 10
6029.8703006912
 20
5184.7280880611
 10
6031.5146817958
 20
5184.783071179
 10
6032.6635026851
 20
5184.8408490497
 10
6033.2262808975
 20
5184.8972104681
 10
6033.2117741102
 20
5184.9208101428
  0
LWPOLYLINE
  5
101
330
1F
100
AcDbEntity
  8
0
  6
Continuous
 62
     7
370
    25
100
AcDbPolyline
 90
       11
 70
   128
 43
0.0
 10
6008.610979995
 20
5185.7225913155
 10
6008.5935666658
 20
5185.7320522103
 10
6009.0893037167
 20
5185.7880013246
 10
6010.1760117612
 20
5185.8458324064
 10
6011.7720703976
 20
5185.9013216398
 10
6013.7851080059
 20
5185.9548599292
 10
6016.1921271802
 20
5186.0121613289
 10
6018.6380541849
 20
5186.065401742
 10
6020.0304010478
 20
5186.0938329475
 10
6022.7126845057
 20
5186.1471147262
 10
6024.7417366484
 20
5186.1907065369
  0
LWPOLYLINE
  5
102
330
1F
100
AcDbEntity
  8
0
  6
Continuous
 62
     7
370
    25
100
AcDbPolyline
 90
        3
 70
   128
 43
0.0
 10
6029.1019770288
 20
5186.2954821153
 10
6029.8703006912
 20
5186.3155880611
 10
6031.3783559724
 20
5186.3660128568
  0
LINE
  5
103
330
1F
100
AcDbEntity
  8
0
  6
Continuous
 62
     7
370
    25
100
AcDbLine
 10
6020.9225690907
 20
5428.1621613257
 30
0.0
 11
6020.9225690907
 21
5422.1621613257
 31
0.0
  0
LINE
  5
104
330
1F
100
AcDbEntity
  8
0
  6
Continuous
 62
     7
370
    25
100
AcDbLine
 10
6007.4225690907
 20
5428.1621613257
 30
0.0
 11
6007.4225690907
 21
5422.1621613257
 31
0.0
  0
LINE
  5
105
330
1F
100
AcDbEntity
  8
0
  6
Continuous
 62
     7
370
    25
100
AcDbLine
 10
6034.4225690907
 20
5427.9017230001
 30
0.0
 11
6034.4225690907
 21
5421.888336625
 31
0.0
  0
LWPOLYLINE
  5
106
330
1F
100
AcDbEntity
  8
0
  6
Continuous
 62
     7
370
    25
100
AcDbPolyline
 90
       21
 70
   128
 43
0.0
 10
6007.7947357733
 20
5438.2373920014
 10
6007.7822403153
 20
5438.2401948952
 10
6008.0307343861
 20
5438.2664882708
 10
6008.6629709916
 20
5438.2945981213
 10
6009.6146547559
 20
5438.3218789379
 10
6010.9174792706
 20
5438.3493813341
 10
6012.4623548537
 20
5438.3751608703
 10
6014.295989195
 20
5438.4027117286
 10
6016.2480097411
 20
5438.4300098617
 10
6018.3874599145
 20
5438.4580460271
 10
6020.528099382
 20
5438.4843807224
 10
6022.7375802795
 20
5438.5110965576
 10
6024.8207031993
 20
5438.5381082559
 10
6026.8465093165
 20
5438.566369486
 10
6028.6330900985
 20
5438.5933255481
 10
6030.2447128
 20
5438.6199869135
 10
6031.5431549746
 20
5438.6463973652
 10
6032.5662891326
 20
5438.6745565979
 10
6033.2222495435
 20
5438.7018195408
 10
6033.5411778025
 20
5438.7292317399
 10
6033.5209816561
 20
5438.7406979375
  0
LINE
  5
107
330
1F
100
AcDbEntity
  8
0
  6
Continuous
 62
     7
370
    25
100
AcDbLine
 10
6009.2020690907
 20
5439.6621613258
 30
0.0
 11
6032.6430690907
 21
5439.6621613258
 31
0.0
  0
LWPOLYLINE
  5
108
330
1F
100
AcDbEntity
  8
0
  6
Continuous
 62
     7
370
    25
100
AcDbPolyline
 90
       17
 70
   128
 43
0.0
 10
6034.1124170327
 20
5437.4872931365
 10
6034.1392701416
 20
5437.4813908436
 10
6033.7521385045
 20
5437.4264077257
 10
6032.7259286831
 20
5437.368629855
 10
6031.1282186101
 20
5437.3122684365
 10
6029.0753788897
 20
5437.2591150971
 10
6026.5825948603
 20
5437.2023901665
 10
6023.7959079724
 20
5437.1447185555
 10
6020.9225690907
 20
5437.0902863258
 10
6018.049230209
 20
5437.035854096
 10
6015.2625433211
 20
5436.9781824851
 10
6012.7697592917
 20
5436.9214575545
 10
6010.7169195713
 20
5436.868304215
 10
6009.1192094983
 20
5436.8119427966
 10
6008.0929996769
 20
5436.7541649259
 10
6007.7058680397
 20
5436.699181808
 10
6007.768172315
 20
5436.6854873757
  0
LWPOLYLINE
  5
109
330
1F
100
AcDbEntity
  8
0
  6
Continuous
 62
     7
370
    25
100
AcDbPolyline
 90
       17
 70
   128
 43
0.0
 10
6034.1124170327
 20
5435.8997931365
 10
6034.1392701416
 20
5435.8938908436
 10
6033.7521385045
 20
5435.8389077257
 10
6032.7259286831
 20
5435.781129855
 10
6031.1282186101
 20
5435.7247684365
 10
6029.0753788897
 20
5435.6716150971
 10
6026.5825948603
 20
5435.6148901665
 10
6023.7959079724
 20
5435.5572185555
 10
6020.9225690907
 20
5435.5027863258
 10
6018.049230209
 20
5435.448354096
 10
6015.2625433211
 20
5435.3906824851
 10
6012.7697592917
 20
5435.3339575545
 10
6010.7169195713
 20
5435.280804215
 10
6009.1192094983
 20
5435.2244427966
 10
6008.0929996769
 20
5435.1666649259
 10
6007.7058680397
 20
5435.111681808
 10
6007.768172315
 20
5435.0979873757
  0
LWPOLYLINE
  5
10A
330
1F
100
AcDbEntity
  8
0
  6
Continuous
 62
     7
370
    25
100
AcDbPolyline
 90
       17
 70
   128
 43
0.0
 10
6034.1124170327
 20
5434.3122931365
 10
6034.1392701416
 20
5434.3063908436
 10
6033.7521385045
 20
5434.2514077257
 10
6032.7259286831
 20
5434.193629855
 10
6031.1282186101
 20
5434.1372684365
 10
6029.0753788897
 20
5434.0841150971
 10
6026.5825948603
 20
5434.0273901665
 10
6023.7959079724
 20
5433.9697185555
 10
6020.9225690907
 20
5433.9152863258
 10
6018.049230209
 20
5433.860854096
 10
6015.2625433211
 20
5433.8031824851
 10
6012.7697592917
 20
5433.7464575545
 10
6010.7169195713
 20
5433.693304215
 10
6009.1192094983
 20
5433.6369427966
 10
6008.0929996769
 20
5433.5791649259
 10
6007.7058680397
 20
5433.524181808
 10
6007.768172315
 20
5433.5104873757
  0
LWPOLYLINE
  5
10B
330
1F
100
AcDbEntity
  8
0
  6
Continuous
 62
     7
370
    25
100
AcDbPolyline
 90
       16
 70
   128
 43
0.0
 10
6033.2067508383
 20
5438.5703406392
 10
6033.1936073883
 20
5438.5489588447
 10
6032.5638448133
 20
5438.492233914
 10
6031.3540526288
 20
5438.4345623031
 10
6029.6632860124
 20
5438.3801300734
 10
6027.5546438644
 20
5438.3256978436
 10
6025.0796069976
 20
5438.2680262327
 10
6022.4131675305
 20
5438.2113013021
 10
6019.7313762493
 20
5438.1581479626
 10
6017.0559500325
 20
5438.1017865442
 10
6014.5501744817
 20
5438.0440086735
 10
6012.3938901886
 20
5437.9890255556
 10
6010.6577148514
 20
5437.9351034175
 10
6009.3882019121
 20
5437.8775907913
 10
6008.6916348905
 20
5437.8205522207
 10
6008.625818454
 20
5437.7847932701
  0
LWPOLYLINE
  5
10C
330
1F
100
AcDbEntity
  8
0
  6
Continuous
 62
     7
370
    25
100
AcDbPolyline
 90
       16
 70
   128
 43
0.0
 10
6033.2067508383
 20
5436.9828406392
 10
6033.1936073883
 20
5436.9614588447
 10
6032.5638448133
 20
5436.904733914
 10
6031.3540526288
 20
5436.8470623031
 10
6029.6632860124
 20
5436.7926300734
 10
6027.5546438644
 20
5436.7381978436
 10
6025.0796069976
 20
5436.6805262327
 10
6022.4131675305
 20
5436.6238013021
 10
6019.7313762493
 20
5436.5706479626
 10
6017.0559500325
 20
5436.5142865442
 10
6014.5501744817
 20
5436.4565086735
 10
6012.3938901886
 20
5436.4015255556
 10
6010.6577148514
 20
5436.3476034175
 10
6009.3882019121
 20
5436.2900907913
 10
6008.6916348905
 20
5436.2330522207
 10
6008.625818454
 20
5436.1972932701
  0
LWPOLYLINE
  5
10D
330
1F
100
AcDbEntity
  8
0
  6
Continuous
 62
     7
370
    25
100
AcDbPolyline
 90
       16
 70
   128
 43
0.0
 10
6033.2067508383
 20
5435.3953406392
 10
6033.1936073883
 20
5435.3739588447
 10
6032.5638448133
 20
5435.317233914
 10
6031.3540526288
 20
5435.2595623031
 10
6029.6632860124
 20
5435.2051300734
 10
6027.5546438644
 20
5435.1506978436
 10
6025.0796069976
 20
5435.0930262327
 10
6022.4131675305
 20
5435.0363013021
 10
6019.7313762493
 20
5434.9831479626
 10
6017.0559500325
 20
5434.9267865442
 10
6014.5501744817
 20
5434.8690086735
 10
6012.3938901886
 20
5434.8140255556
 10
6010.6577148514
 20
5434.7601034175
 10
6009.3882019121
 20
5434.7025907913
 10
6008.6916348905
 20
5434.6455522207
 10
6008.625818454
 20
5434.6097932701
  0
LWPOLYLINE
  5
10E
330
1F
100
AcDbEntity
  8
0
  6
Continuous
 62
     7
370
    25
100
AcDbPolyline
 90
       14
 70
   128
 43
0.0
 10
6033.2067508383
 20
5433.8078406392
 10
6033.1936073883
 20
5433.7864588447
 10
6032.5638448133
 20
5433.729733914
 10
6031.3540526288
 20
5433.6720623031
 10
6029.6632860124
 20
5433.6176300734
 10
6027.5546438644
 20
5433.5631978436
 10
6025.0796069976
 20
5433.5055262327
 10
6022.4131675305
 20
5433.4488013021
 10
6019.7313762493
 20
5433.3956479626
 10
6017.0559500325
 20
5433.3392865442
 10
6014.5501744817
 20
5433.2815086735
 10
6012.3938901886
 20
5433.2265255556
 10
6010.6577148514
 20
5433.1726034175
 10
6010.4272198886
 20
5433.1621613258
  0
LWPOLYLINE
  5
10F
330
1F
100
AcDbEntity
  8
0
  6
Continuous
 62
     7
370
    25
100
AcDbPolyline
 90
       16
 70
   128
 43
0.0
 10
6033.2117860948
 20
5438.380094506
 10
6033.1936073883
 20
5438.3505213447
 10
6032.5638448133
 20
5438.293796414
 10
6031.3540526288
 20
5438.2361248031
 10
6029.6632860124
 20
5438.1816925734
 10
6027.5546438644
 20
5438.1272603436
 10
6025.0796069976
 20
5438.0695887327
 10
6022.4131675305
 20
5438.0128638021
 10
6019.7313762493
 20
5437.9597104626
 10
6017.0559500325
 20
5437.9033490442
 10
6014.5501744817
 20
5437.8455711735
 10
6012.3938901886
 20
5437.7905880556
 10
6010.6577148514
 20
5437.7366659175
 10
6009.3882019121
 20
5437.6791532913
 10
6008.6916348905
 20
5437.6221147207
 10
6008.6411564821
 20
5437.594689126
  0
LWPOLYLINE
  5
110
330
1F
100
AcDbEntity
  8
0
  6
Continuous
 62
     7
370
    25
100
AcDbPolyline
 90
       16
 70
   128
 43
0.0
 10
6033.2117860948
 20
5436.792594506
 10
6033.1936073883
 20
5436.7630213447
 10
6032.5638448133
 20
5436.706296414
 10
6031.3540526288
 20
5436.6486248031
 10
6029.6632860124
 20
5436.5941925734
 10
6027.5546438644
 20
5436.5397603436
 10
6025.0796069976
 20
5436.4820887327
 10
6022.4131675305
 20
5436.4253638021
 10
6019.7313762493
 20
5436.3722104626
 10
6017.0559500325
 20
5436.3158490442
 10
6014.5501744817
 20
5436.2580711735
 10
6012.3938901886
 20
5436.2030880556
 10
6010.6577148514
 20
5436.1491659175
 10
6009.3882019121
 20
5436.0916532913
 10
6008.6916348905
 20
5436.0346147207
 10
6008.6411564821
 20
5436.007189126
  0
LWPOLYLINE
  5
111
330
1F
100
AcDbEntity
  8
0
  6
Continuous
 62
     7
370
    25
100
AcDbPolyline
 90
       16
 70
   128
 43
0.0
 10
6033.2117860948
 20
5435.205094506
 10
6033.1936073883
 20
5435.1755213447
 10
6032.5638448133
 20
5435.118796414
 10
6031.3540526288
 20
5435.0611248031
 10
6029.6632860124
 20
5435.0066925734
 10
6027.5546438644
 20
5434.9522603436
 10
6025.0796069976
 20
5434.8945887327
 10
6022.4131675305
 20
5434.8378638021
 10
6019.7313762493
 20
5434.7847104626
 10
6017.0559500325
 20
5434.7283490442
 10
6014.5501744817
 20
5434.6705711735
 10
6012.3938901886
 20
5434.6155880556
 10
6010.6577148514
 20
5434.5616659175
 10
6009.3882019121
 20
5434.5041532913
 10
6008.6916348905
 20
5434.4471147207
 10
6008.6411564821
 20
5434.419689126
  0
ARC
  5
112
330
1F
100
AcDbEntity
  8
0
  6
Continuous
 62
     7
370
    25
100
AcDbCircle
 10
6016.1367254621
 20
5749.3849953418
 30
0.0
 40
316.2287291284734
100
AcDbArc
 50
270.3498514592
 51
273.0952435367
  0
LWPOLYLINE
  5
113
330
1F
100
AcDbEntity
  8
0
  6
Continuous
 62
     7
370
    25
100
AcDbPolyline
 90
       16
 70
   128
 43
0.0
 10
6034.0660312857
 20
5437.8839887785
 10
6034.0465968064
 20
5437.8544275922
 10
6033.3730579185
 20
5437.7977026616
 10
6032.0791701663
 20
5437.7400310507
 10
6030.2708742914
 20
5437.685598821
 10
6028.0156553505
 20
5437.6311665912
 10
6025.3685727117
 20
5437.5734949803
 10
6022.5167826171
 20
5437.5167700497
 10
6019.6485735667
 20
5437.4636167102
 10
6016.7871720318
 20
5437.4072552918
 10
6014.107213989
 20
5437.3494774211
 10
6011.8010411829
 20
5437.2944943032
 10
6009.9441801176
 20
5437.2405721651
 10
6008.5864202772
 20
5437.1830595389
 10
6007.8414332047
 20
5437.1260209683
 10
6007.77134182
 20
5437.0904144742
  0
LWPOLYLINE
  5
114
330
1F
100
AcDbEntity
  8
0
  6
Continuous
 62
     7
370
    25
100
AcDbPolyline
 90
       16
 70
   128
 43
0.0
 10
6034.0660312857
 20
5436.2964887785
 10
6034.0465968064
 20
5436.2669275922
 10
6033.3730579185
 20
5436.2102026616
 10
6032.0791701663
 20
5436.1525310507
 10
6030.2708742914
 20
5436.098098821
 10
6028.0156553505
 20
5436.0436665912
 10
6025.3685727117
 20
5435.9859949803
 10
6022.5167826171
 20
5435.9292700497
 10
6019.6485735667
 20
5435.8761167102
 10
6016.7871720318
 20
5435.8197552918
 10
6014.107213989
 20
5435.7619774211
 10
6011.8010411829
 20
5435.7069943032
 10
6009.9441801176
 20
5435.6530721651
 10
6008.5864202772
 20
5435.5955595389
 10
6007.8414332047
 20
5435.5385209683
 10
6007.77134182
 20
5435.5029144742
  0
LWPOLYLINE
  5
115
330
1F
100
AcDbEntity
  8
0
  6
Continuous
 62
     7
370
    25
100
AcDbPolyline
 90
       16
 70
   128
 43
0.0
 10
6034.0660312857
 20
5434.7089887785
 10
6034.0465968064
 20
5434.6794275922
 10
6033.3730579185
 20
5434.6227026616
 10
6032.0791701663
 20
5434.5650310507
 10
6030.2708742914
 20
5434.510598821
 10
6028.0156553505
 20
5434.4561665912
 10
6025.3685727117
 20
5434.3984949803
 10
6022.5167826171
 20
5434.3417700497
 10
6019.6485735667
 20
5434.2886167102
 10
6016.7871720318
 20
5434.2322552918
 10
6014.107213989
 20
5434.1744774211
 10
6011.8010411829
 20
5434.1194943032
 10
6009.9441801176
 20
5434.0655721651
 10
6008.5864202772
 20
5434.0080595389
 10
6007.8414332047
 20
5433.9510209683
 10
6007.77134182
 20
5433.9154144742
  0
LINE
  5
116
330
1F
100
AcDbEntity
  8
0
  6
Continuous
 62
     7
370
    25
100
AcDbLine
 10
5940.7225690907
 20
5238.3344373296
 30
0.0
 11
5940.7225690907
 21
5229.3621613257
 31
0.0
  0
LINE
  5
117
330
1F
100
AcDbEntity
  8
0
  6
Continuous
 62
     7
370
    25
100
AcDbLine
 10
5940.7225690907
 20
5240.9621613257
 30
0.0
 11
5940.7225690907
 21
5238.3344373296
 31
0.0
  0
ARC
  5
118
330
1F
100
AcDbEntity
  8
0
  6
Continuous
 62
     7
370
    25
100
AcDbCircle
 10
5945.2610467218
 20
5403.3621613258
 30
0.0
 40
0.8000000000001819
100
AcDbArc
 50
115.6033014813
 51
180.0
  0
LINE
  5
119
330
1F
100
AcDbEntity
  8
0
  6
Continuous
 62
     7
370
    25
100
AcDbLine
 10
5944.4610467218
 20
5403.3621613258
 30
0.0
 11
5943.4610467218
 21
5403.3621613258
 31
0.0
  0
ARC
  5
11A
330
1F
100
AcDbEntity
  8
0
  6
Continuous
 62
     7
370
    25
100
AcDbCircle
 10
5945.2610467218
 20
5403.3621613258
 30
0.0
 40
1.800000000000783
100
AcDbArc
 50
126.5119568428
 51
180.0
  0
LINE
  5
11B
330
1F
100
AcDbEntity
  8
0
  6
Continuous
 62
     7
370
    25
100
AcDbLine
 10
6140.3840914596
 20
5403.3621613258
 30
0.0
 11
6141.3840914596
 21
5403.3621613258
 31
0.0
  0
ARC
  5
11C
330
1F
100
AcDbEntity
  8
0
  6
Continuous
 62
     7
370
    25
100
AcDbCircle
 10
6139.5840914596
 20
5403.3621613258
 30
0.0
 40
0.8000000000002876
100
AcDbArc
 50
0.0
 51
64.3966985184
  0
ARC
  5
11D
330
1F
100
AcDbEntity
  8
0
  6
Continuous
 62
     7
370
    25
100
AcDbCircle
 10
6139.5840914596
 20
5403.3621613258
 30
0.0
 40
1.800000000000754
100
AcDbArc
 50
0.0
 51
53.4880431571
  0
ARC
  5
11E
330
1F
100
AcDbEntity
  8
0
  6
Continuous
 62
     7
370
    25
100
AcDbCircle
 10
5945.2610467218
 20
5206.9621613257
 30
0.0
 40
1.799999999999663
100
AcDbArc
 50
180.0
 51
233.4880431561
  0
LINE
  5
11F
330
1F
100
AcDbEntity
  8
0
  6
Continuous
 62
     7
370
    25
100
AcDbLine
 10
5944.4610467218
 20
5206.9621613257
 30
0.0
 11
5943.4610467218
 21
5206.9621613257
 31
0.0
  0
ARC
  5
120
330
1F
100
AcDbEntity
  8
0
  6
Continuous
 62
     7
370
    25
100
AcDbCircle
 10
5945.2610467218
 20
5206.9621613257
 30
0.0
 40
0.8000000000001819
100
AcDbArc
 50
180.0
 51
244.3966985162
  0
ARC
  5
121
330
1F
100
AcDbEntity
  8
0
  6
Continuous
 62
     7
370
    25
100
AcDbCircle
 10
6139.5840914596
 20
5206.9621613257
 30
0.0
 40
1.800000000000182
100
AcDbArc
 50
306.5119568428
 51
0.0
  0
ARC
  5
122
330
1F
100
AcDbEntity
  8
0
  6
Continuous
 62
     7
370
    25
100
AcDbCircle
 10
6139.5840914596
 20
5206.9621613257
 30
0.0
 40
0.8000000000001819
100
AcDbArc
 50
295.6033014814
 51
0.0
  0
LINE
  5
123
330
1F
100
AcDbEntity
  8
0
  6
Continuous
 62
     7
370
    25
100
AcDbLine
 10
6140.3840914596
 20
5206.9621613257
 30
0.0
 11
6141.3840914596
 21
5206.9621613257
 31
0.0
  0
LINE
  5
124
330
1F
100
AcDbEntity
  8
0
  6
Continuous
 62
     7
370
    25
100
AcDbLine
 10
5943.4610467218
 20
5402.7094701323
 30
0.0
 11
5943.4610467218
 21
5403.3621613258
 31
0.0
  0
LINE
  5
125
330
1F
100
AcDbEntity
  8
0
  6
Continuous
 62
     7
370
    25
100
AcDbLine
 10
5944.4610467218
 20
5401.7094701323
 30
0.0
 11
5944.4610467218
 21
5403.3621613258
 31
0.0
  0
LINE
  5
126
330
1F
100
AcDbEntity
  8
0
  6
Continuous
 62
     7
370
    25
100
AcDbLine
 10
5943.4610467218
 20
5207.6148525192
 30
0.0
 11
5943.4610467218
 21
5206.9621613257
 31
0.0
  0
LINE
  5
127
330
1F
100
AcDbEntity
  8
0
  6
Continuous
 62
     7
370
    25
100
AcDbLine
 10
5944.4610467218
 20
5208.6148525192
 30
0.0
 11
5944.4610467218
 21
5206.9621613257
 31
0.0
  0
LINE
  5
128
330
1F
100
AcDbEntity
  8
0
  6
Continuous
 62
     7
370
    25
100
AcDbLine
 10
6141.3840914596
 20
5402.7094701323
 30
0.0
 11
6141.3840914596
 21
5403.3621613258
 31
0.0
  0
LINE
  5
129
330
1F
100
AcDbEntity
  8
0
  6
Continuous
 62
     7
370
    25
100
AcDbLine
 10
6140.3840914596
 20
5401.7094701323
 30
0.0
 11
6140.3840914596
 21
5403.3621613258
 31
0.0
  0
LINE
  5
12A
330
1F
100
AcDbEntity
  8
0
  6
Continuous
 62
     7
370
    25
100
AcDbLine
 10
6140.3840914596
 20
5208.6148525192
 30
0.0
 11
6140.3840914596
 21
5206.9621613257
 31
0.0
  0
LINE
  5
12B
330
1F
100
AcDbEntity
  8
0
  6
Continuous
 62
     7
370
    25
100
AcDbLine
 10
6141.3840914596
 20
5207.6148525192
 30
0.0
 11
6141.3840914596
 21
5206.9621613257
 31
0.0
  0
LINE
  5
12C
330
1F
100
AcDbEntity
  8
0
  6
Continuous
 62
     7
370
    25
100
AcDbLine
 10
5943.4610467218
 20
5402.9228146893
 30
0.0
 11
5943.3257558185
 21
5402.8447610355
 31
0.0
  0
LINE
  5
12D
330
1F
100
AcDbEntity
  8
0
  6
Continuous
 62
     7
370
    25
100
AcDbLine
 10
5943.3257558185
 20
5207.479561616
 30
0.0
 11
5943.4610467218
 21
5207.4015079622
 31
0.0
  0
LINE
  5
12E
330
1F
100
AcDbEntity
  8
0
  6
Continuous
 62
     7
370
    25
100
AcDbLine
 10
5945.0213980377
 20
5403.9775459412
 30
0.0
 11
5944.4875226976
 21
5403.5662705711
 31
0.0
  0
LINE
  5
12F
330
1F
100
AcDbEntity
  8
0
  6
Continuous
 62
     7
370
    25
100
AcDbLine
 10
6141.5193823628
 20
5402.8447610355
 30
0.0
 11
6141.3840914596
 21
5402.9228146893
 31
0.0
  0
LINE
  5
130
330
1F
100
AcDbEntity
  8
0
  6
Continuous
 62
     7
370
    25
100
AcDbLine
 10
6140.3576154838
 20
5403.5662705711
 30
0.0
 11
6139.8237401437
 21
5403.9775459412
 31
0.0
  0
LINE
  5
131
330
1F
100
AcDbEntity
  8
0
  6
Continuous
 62
     7
370
    25
100
AcDbLine
 10
5944.4875226976
 20
5206.7580520804
 30
0.0
 11
5945.0213980376
 21
5206.3467767103
 31
0.0
  0
LINE
  5
132
330
1F
100
AcDbEntity
  8
0
  6
Continuous
 62
     7
370
    25
100
AcDbLine
 10
6141.3840914596
 20
5207.4015079622
 30
0.0
 11
6141.5193823629
 21
5207.4795616159
 31
0.0
  0
LINE
  5
133
330
1F
100
AcDbEntity
  8
0
  6
Continuous
 62
     7
370
    25
100
AcDbLine
 10
6139.8237401437
 20
5206.3467767103
 30
0.0
 11
6140.3576154838
 21
5206.7580520804
 31
0.0
  0
LINE
  5
134
330
1F
100
AcDbEntity
  8
0
  6
Continuous
 62
     7
370
    25
100
AcDbLine
 10
5954.0367826531
 20
5215.3621613258
 30
0.0
 11
6130.8083555283
 21
5215.3621613258
 31
0.0
  0
LINE
  5
135
330
1F
100
AcDbEntity
  8
0
  6
Continuous
 62
     7
370
    25
100
AcDbLine
 10
6160.4728216223
 20
5185.6976952317
 30
0.0
 11
6130.8083555283
 21
5215.3621613258
 31
0.0
  0
ARC
  5
136
330
1F
100
AcDbEntity
  8
0
  6
Continuous
 62
     7
370
    25
100
AcDbCircle
 10
6156.9372877164
 20
5182.1621613258
 30
0.0
 40
5.000000000000201
100
AcDbArc
 50
270.0
 51
45.0
  0
LINE
  5
137
330
1F
100
AcDbEntity
  8
0
  6
Continuous
 62
     7
370
    25
100
AcDbLine
 10
5927.9078504649
 20
5177.1621613258
 30
0.0
 11
6156.9372877164
 21
5177.1621613258
 31
0.0
  0
ARC
  5
138
330
1F
100
AcDbEntity
  8
0
  6
Continuous
 62
     7
370
    25
100
AcDbCircle
 10
5927.9078504649
 20
5182.1621613258
 30
0.0
 40
5.0
100
AcDbArc
 50
135.0
 51
270.0
  0
LINE
  5
139
330
1F
100
AcDbEntity
  8
0
  6
Continuous
 62
     7
370
    25
100
AcDbLine
 10
5954.0367826531
 20
5215.3621613258
 30
0.0
 11
5924.372316559
 21
5185.6976952317
 31
0.0
  0
ARC
  5
13A
330
1F
100
AcDbEntity
  8
0
  6
Continuous
 62
     7
370
    25
100
AcDbCircle
 10
6042.4225690907
 20
5305.1621613258
 30
0.0
 40
122.9999999999999
100
AcDbArc
 50
265.0
 51
275.0
  0
ARC
  5
13B
330
1F
100
AcDbEntity
  8
0
  6
Continuous
 62
     7
370
    25
100
AcDbCircle
 10
6052.8812582204
 20
5185.6187975547
 30
0.0
 40
3.000000000000013
100
AcDbArc
 50
275.0
 51
95.0
  0
ARC
  5
13C
330
1F
100
AcDbEntity
  8
0
  6
Continuous
 62
     7
370
    25
100
AcDbCircle
 10
6042.4225690907
 20
5305.1621613258
 30
0.0
 40
116.9999999999999
100
AcDbArc
 50
265.0
 51
275.0
  0
ARC
  5
13D
330
1F
100
AcDbEntity
  8
0
  6
Continuous
 62
     7
370
    25
100
AcDbCircle
 10
6031.963879961
 20
5185.6187975547
 30
0.0
 40
3.000000000000013
100
AcDbArc
 50
85.0
 51
265.0
  0
LINE
  5
13E
330
1F
100
AcDbEntity
  8
0
  6
Continuous
 62
     7
370
    25
100
AcDbLine
 10
6062.8812582204
 20
5182.1621613258
 30
0.0
 11
6149.6946470293
 21
5182.1621613258
 31
0.0
  0
ARC
  5
13F
330
1F
100
AcDbEntity
  8
0
  6
Continuous
 62
     7
370
    25
100
AcDbCircle
 10
6149.6946470293
 20
5185.1621613258
 30
0.0
 40
3.0
100
AcDbArc
 50
270.0
 51
90.0
  0
LINE
  5
140
330
1F
100
AcDbEntity
  8
0
  6
Continuous
 62
     7
370
    25
100
AcDbLine
 10
6149.6946470293
 20
5188.1621613258
 30
0.0
 11
6062.8812582204
 21
5188.1621613258
 31
0.0
  0
ARC
  5
141
330
1F
100
AcDbEntity
  8
0
  6
Continuous
 62
     7
370
    25
100
AcDbCircle
 10
6062.8812582204
 20
5185.1621613258
 30
0.0
 40
3.0
100
AcDbArc
 50
90.0
 51
270.0
  0
LINE
  5
142
330
1F
100
AcDbEntity
  8
0
  6
Continuous
 62
     7
370
    25
100
AcDbLine
 10
6133.6946470293
 20
5204.1621613258
 30
0.0
 11
6079.5132617369
 21
5204.1621613258
 31
0.0
  0
ARC
  5
143
330
1F
100
AcDbEntity
  8
0
  6
Continuous
 62
     7
370
    25
100
AcDbCircle
 10
6079.5132617369
 20
5201.1621613258
 30
0.0
 40
3.0
100
AcDbArc
 50
90.0
 51
270.0
  0
LINE
  5
144
330
1F
100
AcDbEntity
  8
0
  6
Continuous
 62
     7
370
    25
100
AcDbLine
 10
6079.5132617369
 20
5198.1621613258
 30
0.0
 11
6133.6946470293
 21
5198.1621613258
 31
0.0
  0
ARC
  5
145
330
1F
100
AcDbEntity
  8
0
  6
Continuous
 62
     7
370
    25
100
AcDbCircle
 10
6133.6946470293
 20
5201.1621613258
 30
0.0
 40
3.0
100
AcDbArc
 50
270.0
 51
90.0
  0
LINE
  5
146
330
1F
100
AcDbEntity
  8
0
  6
Continuous
 62
     7
370
    25
100
AcDbLine
 10
6069.5132617369
 20
5204.1621613258
 30
0.0
 11
6015.3318764445
 21
5204.1621613258
 31
0.0
  0
ARC
  5
147
330
1F
100
AcDbEntity
  8
0
  6
Continuous
 62
     7
370
    25
100
AcDbCircle
 10
6015.3318764445
 20
5201.1621613258
 30
0.0
 40
3.0
100
AcDbArc
 50
90.0
 51
270.0
  0
LINE
  5
148
330
1F
100
AcDbEntity
  8
0
  6
Continuous
 62
     7
370
    25
100
AcDbLine
 10
6015.3318764445
 20
5198.1621613258
 30
0.0
 11
6069.5132617369
 21
5198.1621613258
 31
0.0
  0
ARC
  5
149
330
1F
100
AcDbEntity
  8
0
  6
Continuous
 62
     7
370
    25
100
AcDbCircle
 10
6069.5132617369
 20
5201.1621613258
 30
0.0
 40
3.0
100
AcDbArc
 50
270.0
 51
90.0
  0
LINE
  5
14A
330
1F
100
AcDbEntity
  8
0
  6
Continuous
 62
     7
370
    25
100
AcDbLine
 10
6005.3318764445
 20
5204.1621613258
 30
0.0
 11
5951.1504911521
 21
5204.1621613258
 31
0.0
  0
ARC
  5
14B
330
1F
100
AcDbEntity
  8
0
  6
Continuous
 62
     7
370
    25
100
AcDbCircle
 10
5951.1504911521
 20
5201.1621613258
 30
0.0
 40
3.0
100
AcDbArc
 50
90.0
 51
270.0
  0
LINE
  5
14C
330
1F
100
AcDbEntity
  8
0
  6
Continuous
 62
     7
370
    25
100
AcDbLine
 10
5951.1504911521
 20
5198.1621613258
 30
0.0
 11
6005.3318764445
 21
5198.1621613258
 31
0.0
  0
ARC
  5
14D
330
1F
100
AcDbEntity
  8
0
  6
Continuous
 62
     7
370
    25
100
AcDbCircle
 10
6005.3318764445
 20
5201.1621613258
 30
0.0
 40
3.0
100
AcDbArc
 50
270.0
 51
90.0
  0
LINE
  5
14E
330
1F
100
AcDbEntity
  8
0
  6
Continuous
 62
     7
370
    25
100
AcDbLine
 10
6021.963879961
 20
5188.1621613258
 30
0.0
 11
5935.150491152
 21
5188.1621613258
 31
0.0
  0
ARC
  5
14F
330
1F
100
AcDbEntity
  8
0
  6
Continuous
 62
     7
370
    25
100
AcDbCircle
 10
5935.150491152
 20
5185.1621613258
 30
0.0
 40
3.0
100
AcDbArc
 50
90.0
 51
270.0
  0
LINE
  5
150
330
1F
100
AcDbEntity
  8
0
  6
Continuous
 62
     7
370
    25
100
AcDbLine
 10
5935.150491152
 20
5182.1621613258
 30
0.0
 11
6021.963879961
 21
5182.1621613258
 31
0.0
  0
ARC
  5
151
330
1F
100
AcDbEntity
  8
0
  6
Continuous
 62
     7
370
    25
100
AcDbCircle
 10
6021.963879961
 20
5185.1621613258
 30
0.0
 40
3.0
100
AcDbArc
 50
270.0
 51
90.0
  0
LINE
  5
152
330
1F
100
AcDbEntity
  8
0
  6
Continuous
 62
     7
370
    25
100
AcDbLine
 10
5952.6225690907
 20
5393.5479477633
 30
0.0
 11
5952.6225690907
 21
5216.7763748882
 31
0.0
  0
LINE
  5
153
330
1F
100
AcDbEntity
  8
0
  6
Continuous
 62
     7
370
    25
100
AcDbLine
 10
5922.9581029966
 20
5187.1119087941
 30
0.0
 11
5952.6225690907
 21
5216.7763748882
 31
0.0
  0
ARC
  5
154
330
1F
100
AcDbEntity
  8
0
  6
Continuous
 62
     7
370
    25
100
AcDbCircle
 10
5919.4225690907
 20
5190.6474427
 30
0.0
 40
5.000000000000201
100
AcDbArc
 50
180.0
 51
315.0
  0
LINE
  5
155
330
1F
100
AcDbEntity
  8
0
  6
Continuous
 62
     7
370
    25
100
AcDbLine
 10
5914.4225690907
 20
5419.6768799515
 30
0.0
 11
5914.4225690907
 21
5190.6474427
 31
0.0
  0
ARC
  5
156
330
1F
100
AcDbEntity
  8
0
  6
Continuous
 62
     7
370
    25
100
AcDbCircle
 10
5919.4225690907
 20
5419.6768799515
 30
0.0
 40
5.000000000000844
100
AcDbArc
 50
45.0
 51
180.0
  0
LINE
  5
157
330
1F
100
AcDbEntity
  8
0
  6
Continuous
 62
     7
370
    25
100
AcDbLine
 10
5952.6225690907
 20
5393.5479477633
 30
0.0
 11
5922.9581029966
 21
5423.2124138574
 31
0.0
  0
ARC
  5
158
330
1F
100
AcDbEntity
  8
0
  6
Continuous
 62
     7
370
    25
100
AcDbCircle
 10
6042.4225690907
 20
5305.1621613258
 30
0.0
 40
122.9999999999999
100
AcDbArc
 50
175.0
 51
185.0
  0
ARC
  5
159
330
1F
100
AcDbEntity
  8
0
  6
Continuous
 62
     7
370
    25
100
AcDbCircle
 10
5922.8792053197
 20
5294.703472196
 30
0.0
 40
3.000000000000013
100
AcDbArc
 50
185.0
 51
5.0
  0
ARC
  5
15A
330
1F
100
AcDbEntity
  8
0
  6
Continuous
 62
     7
370
    25
100
AcDbCircle
 10
6042.4225690907
 20
5305.1621613258
 30
0.0
 40
117.0000000000009
100
AcDbArc
 50
175.0
 51
185.0
  0
ARC
  5
15B
330
1F
100
AcDbEntity
  8
0
  6
Continuous
 62
     7
370
    25
100
AcDbCircle
 10
5922.8792053197
 20
5315.6208504555
 30
0.0
 40
2.999999999999934
100
AcDbArc
 50
355.0
 51
175.0
  0
LINE
  5
15C
330
1F
100
AcDbEntity
  8
0
  6
Continuous
 62
     7
370
    25
100
AcDbLine
 10
5919.4225690907
 20
5284.703472196
 30
0.0
 11
5919.4225690907
 21
5197.8900833871
 31
0.0
  0
ARC
  5
15D
330
1F
100
AcDbEntity
  8
0
  6
Continuous
 62
     7
370
    25
100
AcDbCircle
 10
5922.4225690907
 20
5197.8900833871
 30
0.0
 40
3.0
100
AcDbArc
 50
180.0
 51
0.0
  0
LINE
  5
15E
330
1F
100
AcDbEntity
  8
0
  6
Continuous
 62
     7
370
    25
100
AcDbLine
 10
5925.4225690907
 20
5197.8900833871
 30
0.0
 11
5925.4225690907
 21
5284.703472196
 31
0.0
  0
ARC
  5
15F
330
1F
100
AcDbEntity
  8
0
  6
Continuous
 62
     7
370
    25
100
AcDbCircle
 10
5922.4225690907
 20
5284.703472196
 30
0.0
 40
3.0
100
AcDbArc
 50
0.0
 51
180.0
  0
LINE
  5
160
330
1F
100
AcDbEntity
  8
0
  6
Continuous
 62
     7
370
    25
100
AcDbLine
 10
5941.4225690907
 20
5213.8900833871
 30
0.0
 11
5941.4225690907
 21
5268.0714686795
 31
0.0
  0
ARC
  5
161
330
1F
100
AcDbEntity
  8
0
  6
Continuous
 62
     7
370
    25
100
AcDbCircle
 10
5938.4225690907
 20
5268.0714686795
 30
0.0
 40
3.0
100
AcDbArc
 50
0.0
 51
180.0
  0
LINE
  5
162
330
1F
100
AcDbEntity
  8
0
  6
Continuous
 62
     7
370
    25
100
AcDbLine
 10
5935.4225690907
 20
5268.0714686795
 30
0.0
 11
5935.4225690907
 21
5213.8900833871
 31
0.0
  0
ARC
  5
163
330
1F
100
AcDbEntity
  8
0
  6
Continuous
 62
     7
370
    25
100
AcDbCircle
 10
5938.4225690907
 20
5213.8900833871
 30
0.0
 40
3.0
100
AcDbArc
 50
180.0
 51
0.0
  0
LINE
  5
164
330
1F
100
AcDbEntity
  8
0
  6
Continuous
 62
     7
370
    25
100
AcDbLine
 10
5941.4225690907
 20
5278.0714686795
 30
0.0
 11
5941.4225690907
 21
5332.2528539719
 31
0.0
  0
ARC
  5
165
330
1F
100
AcDbEntity
  8
0
  6
Continuous
 62
     7
370
    25
100
AcDbCircle
 10
5938.4225690907
 20
5332.2528539719
 30
0.0
 40
3.0
100
AcDbArc
 50
0.0
 51
180.0
  0
LINE
  5
166
330
1F
100
AcDbEntity
  8
0
  6
Continuous
 62
     7
370
    25
100
AcDbLine
 10
5935.4225690907
 20
5332.2528539719
 30
0.0
 11
5935.4225690907
 21
5278.0714686795
 31
0.0
  0
ARC
  5
167
330
1F
100
AcDbEntity
  8
0
  6
Continuous
 62
     7
370
    25
100
AcDbCircle
 10
5938.4225690907
 20
5278.0714686795
 30
0.0
 40
3.0
100
AcDbArc
 50
180.0
 51
0.0
  0
LINE
  5
168
330
1F
100
AcDbEntity
  8
0
  6
Continuous
 62
     7
370
    25
100
AcDbLine
 10
5941.4225690907
 20
5342.2528539719
 30
0.0
 11
5941.4225690907
 21
5396.4342392644
 31
0.0
  0
ARC
  5
169
330
1F
100
AcDbEntity
  8
0
  6
Continuous
 62
     7
370
    25
100
AcDbCircle
 10
5938.4225690907
 20
5396.4342392644
 30
0.0
 40
3.0
100
AcDbArc
 50
0.0
 51
180.0
  0
LINE
  5
16A
330
1F
100
AcDbEntity
  8
0
  6
Continuous
 62
     7
370
    25
100
AcDbLine
 10
5935.4225690907
 20
5396.4342392644
 30
0.0
 11
5935.4225690907
 21
5342.2528539719
 31
0.0
  0
ARC
  5
16B
330
1F
100
AcDbEntity
  8
0
  6
Continuous
 62
     7
370
    25
100
AcDbCircle
 10
5938.4225690907
 20
5342.2528539719
 30
0.0
 40
3.0
100
AcDbArc
 50
180.0
 51
0.0
  0
LINE
  5
16C
330
1F
100
AcDbEntity
  8
0
  6
Continuous
 62
     7
370
    25
100
AcDbLine
 10
5925.4225690907
 20
5325.6208504555
 30
0.0
 11
5925.4225690907
 21
5412.4342392644
 31
0.0
  0
ARC
  5
16D
330
1F
100
AcDbEntity
  8
0
  6
Continuous
 62
     7
370
    25
100
AcDbCircle
 10
5922.4225690907
 20
5412.4342392644
 30
0.0
 40
3.0
100
AcDbArc
 50
0.0
 51
180.0
  0
LINE
  5
16E
330
1F
100
AcDbEntity
  8
0
  6
Continuous
 62
     7
370
    25
100
AcDbLine
 10
5919.4225690907
 20
5412.4342392644
 30
0.0
 11
5919.4225690907
 21
5325.6208504555
 31
0.0
  0
ARC
  5
16F
330
1F
100
AcDbEntity
  8
0
  6
Continuous
 62
     7
370
    25
100
AcDbCircle
 10
5922.4225690907
 20
5325.6208504555
 30
0.0
 40
3.0
100
AcDbArc
 50
180.0
 51
0.0
  0
LINE
  5
170
330
1F
100
AcDbEntity
  8
0
  6
Continuous
 62
     7
370
    25
100
AcDbLine
 10
5952.6225690907
 20
5216.7763748882
 30
0.0
 11
5954.4225690907
 21
5218.5763748882
 31
0.0
  0
LINE
  5
171
330
1F
100
AcDbEntity
  8
0
  6
Continuous
 62
     7
370
    25
100
AcDbLine
 10
5955.836782653
 20
5217.1621613258
 30
0.0
 11
6129.0083555283
 21
5217.1621613258
 31
0.0
  0
LINE
  5
172
330
1F
100
AcDbEntity
  8
0
  6
Continuous
 62
     7
370
    25
100
AcDbLine
 10
6130.8083555283
 20
5215.3621613258
 30
0.0
 11
6129.0083555283
 21
5217.1621613258
 31
0.0
  0
LINE
  5
173
330
1F
100
AcDbEntity
  8
0
  6
Continuous
 62
     7
370
    25
100
AcDbLine
 10
5955.836782653
 20
5217.1621613258
 30
0.0
 11
5954.036782653
 21
5215.3621613258
 31
0.0
  0
LINE
  5
174
330
1F
100
AcDbEntity
  8
0
  6
Continuous
 62
     7
370
    25
100
AcDbLine
 10
5954.4225690907
 20
5391.7479477633
 30
0.0
 11
5952.6225690907
 21
5393.5479477633
 31
0.0
  0
LINE
  5
175
330
1F
100
AcDbEntity
  8
0
  6
Continuous
 62
     7
370
    25
100
AcDbLine
 10
5954.4225690907
 20
5391.7479477633
 30
0.0
 11
5954.4225690907
 21
5218.5763748882
 31
0.0
  0
ARC
  5
176
330
1F
100
AcDbEntity
  8
0
  6
Continuous
 62
     7
370
    25
100
AcDbCircle
 10
6165.4225690907
 20
5190.6474427
 30
0.0
 40
5.000000000000201
100
AcDbArc
 50
225.0
 51
0.0
  0
LINE
  5
177
330
1F
100
AcDbEntity
  8
0
  6
Continuous
 62
     7
370
    25
100
AcDbLine
 10
6132.2225690907
 20
5216.7763748882
 30
0.0
 11
6161.8870351848
 21
5187.1119087941
 31
0.0
  0
LINE
  5
178
330
1F
100
AcDbEntity
  8
0
  6
Continuous
 62
     7
370
    25
100
AcDbLine
 10
6132.2225690907
 20
5216.7763748882
 30
0.0
 11
6132.2225690907
 21
5393.5479477634
 31
0.0
  0
LINE
  5
179
330
1F
100
AcDbEntity
  8
0
  6
Continuous
 62
     7
370
    25
100
AcDbLine
 10
6161.8870351848
 20
5423.2124138574
 30
0.0
 11
6132.2225690907
 21
5393.5479477634
 31
0.0
  0
ARC
  5
17A
330
1F
100
AcDbEntity
  8
0
  6
Continuous
 62
     7
370
    25
100
AcDbCircle
 10
6165.4225690907
 20
5419.6768799515
 30
0.0
 40
5.000000000000201
100
AcDbArc
 50
0.0
 51
135.0
  0
LINE
  5
17B
330
1F
100
AcDbEntity
  8
0
  6
Continuous
 62
     7
370
    25
100
AcDbLine
 10
6170.4225690907
 20
5190.6474427
 30
0.0
 11
6170.4225690907
 21
5419.6768799515
 31
0.0
  0
ARC
  5
17C
330
1F
100
AcDbEntity
  8
0
  6
Continuous
 62
     7
370
    25
100
AcDbCircle
 10
6042.4225690907
 20
5305.1621613258
 30
0.0
 40
122.9999999999999
100
AcDbArc
 50
355.0
 51
5.0
  0
ARC
  5
17D
330
1F
100
AcDbEntity
  8
0
  6
Continuous
 62
     7
370
    25
100
AcDbCircle
 10
6161.9659328617
 20
5315.6208504555
 30
0.0
 40
2.999999999999934
100
AcDbArc
 50
5.0
 51
185.0
  0
ARC
  5
17E
330
1F
100
AcDbEntity
  8
0
  6
Continuous
 62
     7
370
    25
100
AcDbCircle
 10
6042.4225690907
 20
5305.1621613258
 30
0.0
 40
117.0
100
AcDbArc
 50
355.0
 51
5.0
  0
ARC
  5
17F
330
1F
100
AcDbEntity
  8
0
  6
Continuous
 62
     7
370
    25
100
AcDbCircle
 10
6161.9659328617
 20
5294.703472196
 30
0.0
 40
3.000000000000013
100
AcDbArc
 50
175.0
 51
355.0
  0
LINE
  5
180
330
1F
100
AcDbEntity
  8
0
  6
Continuous
 62
     7
370
    25
100
AcDbLine
 10
6159.4225690907
 20
5284.703472196
 30
0.0
 11
6159.4225690907
 21
5197.8900833871
 31
0.0
  0
ARC
  5
181
330
1F
100
AcDbEntity
  8
0
  6
Continuous
 62
     7
370
    25
100
AcDbCircle
 10
6162.4225690907
 20
5197.8900833871
 30
0.0
 40
3.0
100
AcDbArc
 50
180.0
 51
0.0
  0
LINE
  5
182
330
1F
100
AcDbEntity
  8
0
  6
Continuous
 62
     7
370
    25
100
AcDbLine
 10
6165.4225690907
 20
5197.8900833871
 30
0.0
 11
6165.4225690907
 21
5284.703472196
 31
0.0
  0
ARC
  5
183
330
1F
100
AcDbEntity
  8
0
  6
Continuous
 62
     7
370
    25
100
AcDbCircle
 10
6162.4225690907
 20
5284.703472196
 30
0.0
 40
3.0
100
AcDbArc
 50
0.0
 51
180.0
  0
LINE
  5
184
330
1F
100
AcDbEntity
  8
0
  6
Continuous
 62
     7
370
    25
100
AcDbLine
 10
6143.4225690907
 20
5268.0714686796
 30
0.0
 11
6143.4225690907
 21
5213.8900833871
 31
0.0
  0
ARC
  5
185
330
1F
100
AcDbEntity
  8
0
  6
Continuous
 62
     7
370
    25
100
AcDbCircle
 10
6146.4225690907
 20
5213.8900833871
 30
0.0
 40
3.0
100
AcDbArc
 50
180.0
 51
0.0
  0
LINE
  5
186
330
1F
100
AcDbEntity
  8
0
  6
Continuous
 62
     7
370
    25
100
AcDbLine
 10
6149.4225690907
 20
5213.8900833871
 30
0.0
 11
6149.4225690907
 21
5268.0714686796
 31
0.0
  0
ARC
  5
187
330
1F
100
AcDbEntity
  8
0
  6
Continuous
 62
     7
370
    25
100
AcDbCircle
 10
6146.4225690907
 20
5268.0714686796
 30
0.0
 40
3.0
100
AcDbArc
 50
0.0
 51
180.0
  0
LINE
  5
188
330
1F
100
AcDbEntity
  8
0
  6
Continuous
 62
     7
370
    25
100
AcDbLine
 10
6143.4225690907
 20
5332.252853972
 30
0.0
 11
6143.4225690907
 21
5278.0714686796
 31
0.0
  0
ARC
  5
189
330
1F
100
AcDbEntity
  8
0
  6
Continuous
 62
     7
370
    25
100
AcDbCircle
 10
6146.4225690907
 20
5278.0714686796
 30
0.0
 40
3.0
100
AcDbArc
 50
180.0
 51
0.0
  0
LINE
  5
18A
330
1F
100
AcDbEntity
  8
0
  6
Continuous
 62
     7
370
    25
100
AcDbLine
 10
6149.4225690907
 20
5278.0714686796
 30
0.0
 11
6149.4225690907
 21
5332.252853972
 31
0.0
  0
ARC
  5
18B
330
1F
100
AcDbEntity
  8
0
  6
Continuous
 62
     7
370
    25
100
AcDbCircle
 10
6146.4225690907
 20
5332.252853972
 30
0.0
 40
3.0
100
AcDbArc
 50
0.0
 51
180.0
  0
LINE
  5
18C
330
1F
100
AcDbEntity
  8
0
  6
Continuous
 62
     7
370
    25
100
AcDbLine
 10
6165.4225690907
 20
5325.6208504555
 30
0.0
 11
6165.4225690907
 21
5412.4342392644
 31
0.0
  0
ARC
  5
18D
330
1F
100
AcDbEntity
  8
0
  6
Continuous
 62
     7
370
    25
100
AcDbCircle
 10
6162.4225690907
 20
5412.4342392644
 30
0.0
 40
3.0
100
AcDbArc
 50
0.0
 51
180.0
  0
LINE
  5
18E
330
1F
100
AcDbEntity
  8
0
  6
Continuous
 62
     7
370
    25
100
AcDbLine
 10
6159.4225690907
 20
5412.4342392644
 30
0.0
 11
6159.4225690907
 21
5325.6208504555
 31
0.0
  0
ARC
  5
18F
330
1F
100
AcDbEntity
  8
0
  6
Continuous
 62
     7
370
    25
100
AcDbCircle
 10
6162.4225690907
 20
5325.6208504555
 30
0.0
 40
3.0
100
AcDbArc
 50
180.0
 51
0.0
  0
LINE
  5
190
330
1F
100
AcDbEntity
  8
0
  6
Continuous
 62
     7
370
    25
100
AcDbLine
 10
6143.4225690907
 20
5396.4342392644
 30
0.0
 11
6143.4225690907
 21
5342.252853972
 31
0.0
  0
ARC
  5
191
330
1F
100
AcDbEntity
  8
0
  6
Continuous
 62
     7
370
    25
100
AcDbCircle
 10
6146.4225690907
 20
5342.252853972
 30
0.0
 40
3.0
100
AcDbArc
 50
180.0
 51
0.0
  0
LINE
  5
192
330
1F
100
AcDbEntity
  8
0
  6
Continuous
 62
     7
370
    25
100
AcDbLine
 10
6149.4225690907
 20
5342.252853972
 30
0.0
 11
6149.4225690907
 21
5396.4342392644
 31
0.0
  0
ARC
  5
193
330
1F
100
AcDbEntity
  8
0
  6
Continuous
 62
     7
370
    25
100
AcDbCircle
 10
6146.4225690907
 20
5396.4342392644
 30
0.0
 40
3.0
100
AcDbArc
 50
0.0
 51
180.0
  0
LINE
  5
194
330
1F
100
AcDbEntity
  8
0
  6
Continuous
 62
     7
370
    25
100
AcDbLine
 10
6130.4225690907
 20
5218.5763748882
 30
0.0
 11
6130.4225690907
 21
5391.7479477634
 31
0.0
  0
LINE
  5
195
330
1F
100
AcDbEntity
  8
0
  6
Continuous
 62
     7
370
    25
100
AcDbLine
 10
6132.2225690907
 20
5393.5479477634
 30
0.0
 11
6130.4225690907
 21
5391.7479477634
 31
0.0
  0
LINE
  5
196
330
1F
100
AcDbEntity
  8
0
  6
Continuous
 62
     7
370
    25
100
AcDbLine
 10
6130.4225690907
 20
5218.5763748882
 30
0.0
 11
6132.2225690907
 21
5216.7763748882
 31
0.0
  0
ARC
  5
197
330
1F
100
AcDbEntity
  8
0
  6
Continuous
 62
     7
370
    25
100
AcDbCircle
 10
6156.9372877164
 20
5428.1621613258
 30
0.0
 40
5.000000000000201
100
AcDbArc
 50
315.0
 51
90.0
  0
LINE
  5
198
330
1F
100
AcDbEntity
  8
0
  6
Continuous
 62
     7
370
    25
100
AcDbLine
 10
6130.8083555283
 20
5394.9621613258
 30
0.0
 11
6160.4728216224
 21
5424.6266274198
 31
0.0
  0
LINE
  5
199
330
1F
100
AcDbEntity
  8
0
  6
Continuous
 62
     7
370
    25
100
AcDbLine
 10
6130.8083555283
 20
5394.9621613258
 30
0.0
 11
5954.0367826531
 21
5394.9621613258
 31
0.0
  0
LINE
  5
19A
330
1F
100
AcDbEntity
  8
0
  6
Continuous
 62
     7
370
    25
100
AcDbLine
 10
5924.372316559
 20
5424.6266274198
 30
0.0
 11
5954.0367826531
 21
5394.9621613258
 31
0.0
  0
ARC
  5
19B
330
1F
100
AcDbEntity
  8
0
  6
Continuous
 62
     7
370
    25
100
AcDbCircle
 10
5927.907850465
 20
5428.1621613258
 30
0.0
 40
5.000000000000844
100
AcDbArc
 50
90.0
 51
225.0
  0
LINE
  5
19C
330
1F
100
AcDbEntity
  8
0
  6
Continuous
 62
     7
370
    25
100
AcDbLine
 10
6156.9372877164
 20
5433.1621613258
 30
0.0
 11
5927.907850465
 21
5433.1621613258
 31
0.0
  0
ARC
  5
19D
330
1F
100
AcDbEntity
  8
0
  6
Continuous
 62
     7
370
    25
100
AcDbCircle
 10
6042.4225690907
 20
5305.1621613258
 30
0.0
 40
123.0000000000009
100
AcDbArc
 50
85.0
 51
95.0
  0
ARC
  5
19E
330
1F
100
AcDbEntity
  8
0
  6
Continuous
 62
     7
370
    25
100
AcDbCircle
 10
6031.963879961
 20
5424.7055250968
 30
0.0
 40
3.000000000000919
100
AcDbArc
 50
95.0
 51
275.0
  0
ARC
  5
19F
330
1F
100
AcDbEntity
  8
0
  6
Continuous
 62
     7
370
    25
100
AcDbCircle
 10
6042.4225690907
 20
5305.1621613258
 30
0.0
 40
116.9999999999999
100
AcDbArc
 50
85.0
 51
95.0
  0
ARC
  5
1A0
330
1F
100
AcDbEntity
  8
0
  6
Continuous
 62
     7
370
    25
100
AcDbCircle
 10
6052.8812582204
 20
5424.7055250968
 30
0.0
 40
3.000000000000919
100
AcDbArc
 50
265.0
 51
85.0
  0
LINE
  5
1A1
330
1F
100
AcDbEntity
  8
0
  6
Continuous
 62
     7
370
    25
100
AcDbLine
 10
6079.5132617369
 20
5406.1621613257
 30
0.0
 11
6133.6946470293
 21
5406.1621613257
 31
0.0
  0
ARC
  5
1A2
330
1F
100
AcDbEntity
  8
0
  6
Continuous
 62
     7
370
    25
100
AcDbCircle
 10
6133.6946470293
 20
5409.1621613257
 30
0.0
 40
3.0
100
AcDbArc
 50
270.0
 51
90.0
  0
LINE
  5
1A3
330
1F
100
AcDbEntity
  8
0
  6
Continuous
 62
     7
370
    25
100
AcDbLine
 10
6133.6946470293
 20
5412.1621613257
 30
0.0
 11
6079.5132617369
 21
5412.1621613257
 31
0.0
  0
ARC
  5
1A4
330
1F
100
AcDbEntity
  8
0
  6
Continuous
 62
     7
370
    25
100
AcDbCircle
 10
6079.5132617369
 20
5409.1621613257
 30
0.0
 40
3.0
100
AcDbArc
 50
90.0
 51
270.0
  0
LINE
  5
1A5
330
1F
100
AcDbEntity
  8
0
  6
Continuous
 62
     7
370
    25
100
AcDbLine
 10
6062.8812582204
 20
5422.1621613257
 30
0.0
 11
6149.6946470293
 21
5422.1621613257
 31
0.0
  0
ARC
  5
1A6
330
1F
100
AcDbEntity
  8
0
  6
Continuous
 62
     7
370
    25
100
AcDbCircle
 10
6149.6946470293
 20
5425.1621613257
 30
0.0
 40
3.0
100
AcDbArc
 50
270.0
 51
90.0
  0
LINE
  5
1A7
330
1F
100
AcDbEntity
  8
0
  6
Continuous
 62
     7
370
    25
100
AcDbLine
 10
6149.6946470293
 20
5428.1621613257
 30
0.0
 11
6062.8812582204
 21
5428.1621613257
 31
0.0
  0
ARC
  5
1A8
330
1F
100
AcDbEntity
  8
0
  6
Continuous
 62
     7
370
    25
100
AcDbCircle
 10
6062.8812582204
 20
5425.1621613257
 30
0.0
 40
3.0
100
AcDbArc
 50
90.0
 51
270.0
  0
LINE
  5
1A9
330
1F
100
AcDbEntity
  8
0
  6
Continuous
 62
     7
370
    25
100
AcDbLine
 10
6021.963879961
 20
5428.1621613257
 30
0.0
 11
5935.150491152
 21
5428.1621613257
 31
0.0
  0
ARC
  5
1AA
330
1F
100
AcDbEntity
  8
0
  6
Continuous
 62
     7
370
    25
100
AcDbCircle
 10
5935.150491152
 20
5425.1621613257
 30
0.0
 40
3.0
100
AcDbArc
 50
90.0
 51
270.0
  0
LINE
  5
1AB
330
1F
100
AcDbEntity
  8
0
  6
Continuous
 62
     7
370
    25
100
AcDbLine
 10
5935.150491152
 20
5422.1621613257
 30
0.0
 11
6021.963879961
 21
5422.1621613257
 31
0.0
  0
ARC
  5
1AC
330
1F
100
AcDbEntity
  8
0
  6
Continuous
 62
     7
370
    25
100
AcDbCircle
 10
6021.963879961
 20
5425.1621613257
 30
0.0
 40
3.0
100
AcDbArc
 50
270.0
 51
90.0
  0
LINE
  5
1AD
330
1F
100
AcDbEntity
  8
0
  6
Continuous
 62
     7
370
    25
100
AcDbLine
 10
5951.1504911521
 20
5406.1621613257
 30
0.0
 11
6005.3318764445
 21
5406.1621613257
 31
0.0
  0
ARC
  5
1AE
330
1F
100
AcDbEntity
  8
0
  6
Continuous
 62
     7
370
    25
100
AcDbCircle
 10
6005.3318764445
 20
5409.1621613257
 30
0.0
 40
3.0
100
AcDbArc
 50
270.0
 51
90.0
  0
LINE
  5
1AF
330
1F
100
AcDbEntity
  8
0
  6
Continuous
 62
     7
370
    25
100
AcDbLine
 10
6005.3318764445
 20
5412.1621613257
 30
0.0
 11
5951.1504911521
 21
5412.1621613257
 31
0.0
  0
ARC
  5
1B0
330
1F
100
AcDbEntity
  8
0
  6
Continuous
 62
     7
370
    25
100
AcDbCircle
 10
5951.1504911521
 20
5409.1621613257
 30
0.0
 40
3.0
100
AcDbArc
 50
90.0
 51
270.0
  0
LINE
  5
1B1
330
1F
100
AcDbEntity
  8
0
  6
Continuous
 62
     7
370
    25
100
AcDbLine
 10
6015.3318764445
 20
5406.1621613257
 30
0.0
 11
6069.5132617369
 21
5406.1621613257
 31
0.0
  0
ARC
  5
1B2
330
1F
100
AcDbEntity
  8
0
  6
Continuous
 62
     7
370
    25
100
AcDbCircle
 10
6069.5132617369
 20
5409.1621613257
 30
0.0
 40
3.0
100
AcDbArc
 50
270.0
 51
90.0
  0
LINE
  5
1B3
330
1F
100
AcDbEntity
  8
0
  6
Continuous
 62
     7
370
    25
100
AcDbLine
 10
6069.5132617369
 20
5412.1621613257
 30
0.0
 11
6015.3318764445
 21
5412.1621613257
 31
0.0
  0
ARC
  5
1B4
330
1F
100
AcDbEntity
  8
0
  6
Continuous
 62
     7
370
    25
100
AcDbCircle
 10
6015.3318764445
 20
5409.1621613257
 30
0.0
 40
3.0
100
AcDbArc
 50
90.0
 51
270.0
  0
LINE
  5
1B5
330
1F
100
AcDbEntity
  8
0
  6
Continuous
 62
     7
370
    25
100
AcDbLine
 10
6129.0083555283
 20
5393.1621613258
 30
0.0
 11
6130.8083555283
 21
5394.9621613257
 31
0.0
  0
LINE
  5
1B6
330
1F
100
AcDbEntity
  8
0
  6
Continuous
 62
     7
370
    25
100
AcDbLine
 10
6129.0083555283
 20
5393.1621613258
 30
0.0
 11
5955.8367826531
 21
5393.1621613258
 31
0.0
  0
LINE
  5
1B7
330
1F
100
AcDbEntity
  8
0
  6
Continuous
 62
     7
370
    25
100
AcDbLine
 10
5954.0367826531
 20
5394.9621613257
 30
0.0
 11
5955.8367826531
 21
5393.1621613258
 31
0.0
  0
LINE
  5
1B8
330
1F
100
AcDbEntity
  8
0
  6
Continuous
 62
     7
370
    25
100
AcDbLine
 10
5955.5823670653
 20
5216.907745738
 30
0.0
 11
5955.2225690907
 21
5217.9621613258
 31
0.0
  0
LINE
  5
1B9
330
1F
100
AcDbEntity
  8
0
  6
Continuous
 62
     7
370
    25
100
AcDbLine
 10
6129.6225690907
 20
5217.9621613257
 30
0.0
 11
6129.262771116
 21
5216.907745738
 31
0.0
  0
LINE
  5
1BA
330
1F
100
AcDbEntity
  8
0
  6
Continuous
 62
     7
370
    25
100
AcDbLine
 10
5954.4225690907
 20
5391.7479477634
 30
0.0
 11
5955.2225690907
 21
5392.3621613258
 31
0.0
  0
LINE
  5
1BB
330
1F
100
AcDbEntity
  8
0
  6
Continuous
 62
     7
370
    25
100
AcDbLine
 10
5955.2225690907
 20
5392.3621613258
 30
0.0
 11
5955.2225690907
 21
5217.9621613258
 31
0.0
  0
LINE
  5
1BC
330
1F
100
AcDbEntity
  8
0
  6
Continuous
 62
     7
370
    25
100
AcDbLine
 10
5955.2225690907
 20
5217.9621613257
 30
0.0
 11
5954.4225690907
 21
5218.5763748881
 31
0.0
  0
LINE
  5
1BD
330
1F
100
AcDbEntity
  8
0
  6
Continuous
 62
     7
370
    25
100
AcDbLine
 10
5955.2225690907
 20
5217.9621613257
 30
0.0
 11
5954.1681535029
 21
5218.3219593004
 31
0.0
  0
LINE
  5
1BE
330
1F
100
AcDbEntity
  8
0
  6
Continuous
 62
     7
370
    25
100
AcDbLine
 10
5955.836782653
 20
5217.1621613258
 30
0.0
 11
5955.2225690907
 21
5217.9621613257
 31
0.0
  0
LINE
  5
1BF
330
1F
100
AcDbEntity
  8
0
  6
Continuous
 62
     7
370
    25
100
AcDbLine
 10
5955.2225690907
 20
5217.9621613258
 30
0.0
 11
6129.6225690907
 21
5217.9621613258
 31
0.0
  0
LINE
  5
1C0
330
1F
100
AcDbEntity
  8
0
  6
Continuous
 62
     7
370
    25
100
AcDbLine
 10
6129.6225690907
 20
5217.9621613257
 30
0.0
 11
6129.0083555283
 21
5217.1621613258
 31
0.0
  0
LINE
  5
1C1
330
1F
100
AcDbEntity
  8
0
  6
Continuous
 62
     7
370
    25
100
AcDbLine
 10
5954.1681535029
 20
5392.0023633511
 30
0.0
 11
5955.2225690907
 21
5392.3621613258
 31
0.0
  0
LINE
  5
1C2
330
1F
100
AcDbEntity
  8
0
  6
Continuous
 62
     7
370
    25
100
AcDbLine
 10
6130.4225690907
 20
5218.5763748882
 30
0.0
 11
6129.6225690907
 21
5217.9621613258
 31
0.0
  0
LINE
  5
1C3
330
1F
100
AcDbEntity
  8
0
  6
Continuous
 62
     7
370
    25
100
AcDbLine
 10
6130.6769846784
 20
5218.3219593005
 30
0.0
 11
6129.6225690907
 21
5217.9621613258
 31
0.0
  0
LINE
  5
1C4
330
1F
100
AcDbEntity
  8
0
  6
Continuous
 62
     7
370
    25
100
AcDbLine
 10
6129.6225690907
 20
5217.9621613258
 30
0.0
 11
6129.6225690907
 21
5392.3621613258
 31
0.0
  0
LINE
  5
1C5
330
1F
100
AcDbEntity
  8
0
  6
Continuous
 62
     7
370
    25
100
AcDbLine
 10
6129.6225690907
 20
5392.3621613257
 30
0.0
 11
6130.4225690907
 21
5391.7479477634
 31
0.0
  0
LINE
  5
1C6
330
1F
100
AcDbEntity
  8
0
  6
Continuous
 62
     7
370
    25
100
AcDbLine
 10
6129.6225690907
 20
5392.3621613257
 30
0.0
 11
6130.6769846784
 21
5392.0023633511
 31
0.0
  0
LINE
  5
1C7
330
1F
100
AcDbEntity
  8
0
  6
Continuous
 62
     7
370
    25
100
AcDbLine
 10
6129.262771116
 20
5393.4165769135
 30
0.0
 11
6129.6225690907
 21
5392.3621613258
 31
0.0
  0
LINE
  5
1C8
330
1F
100
AcDbEntity
  8
0
  6
Continuous
 62
     7
370
    25
100
AcDbLine
 10
5955.2225690907
 20
5392.3621613258
 30
0.0
 11
5955.5823670654
 21
5393.4165769135
 31
0.0
  0
LINE
  5
1C9
330
1F
100
AcDbEntity
  8
0
  6
Continuous
 62
     7
370
    25
100
AcDbLine
 10
6129.0083555283
 20
5393.1621613258
 30
0.0
 11
6129.6225690907
 21
5392.3621613258
 31
0.0
  0
LINE
  5
1CA
330
1F
100
AcDbEntity
  8
0
  6
Continuous
 62
     7
370
    25
100
AcDbLine
 10
6129.6225690907
 20
5392.3621613258
 30
0.0
 11
5955.2225690907
 21
5392.3621613258
 31
0.0
  0
LINE
  5
1CB
330
1F
100
AcDbEntity
  8
0
  6
Continuous
 62
     7
370
    25
100
AcDbLine
 10
5955.2225690907
 20
5392.3621613257
 30
0.0
 11
5955.8367826531
 21
5393.1621613258
 31
0.0
  0
ARC
  5
1CC
330
1F
100
AcDbEntity
  8
0
  6
Continuous
 62
     7
370
    25
100
AcDbCircle
 10
6034.9225690907
 20
5297.6621613258
 30
0.0
 40
8.50000000000091
100
AcDbArc
 50
180.0
 51
270.0
  0
LINE
  5
1CD
330
1F
100
AcDbEntity
  8
0
  6
Continuous
 62
     7
370
    25
100
AcDbLine
 10
6026.4225690907
 20
5312.6621613258
 30
0.0
 11
6026.4225690907
 21
5297.6621613258
 31
0.0
  0
ARC
  5
1CE
330
1F
100
AcDbEntity
  8
0
  6
Continuous
 62
     7
370
    25
100
AcDbCircle
 10
6034.9225690907
 20
5312.6621613258
 30
0.0
 40
8.5
100
AcDbArc
 50
90.0
 51
180.0
  0
LINE
  5
1CF
330
1F
100
AcDbEntity
  8
0
  6
Continuous
 62
     7
370
    25
100
AcDbLine
 10
6049.9225690907
 20
5321.1621613258
 30
0.0
 11
6034.9225690907
 21
5321.1621613258
 31
0.0
  0
ARC
  5
1D0
330
1F
100
AcDbEntity
  8
0
  6
Continuous
 62
     7
370
    25
100
AcDbCircle
 10
6049.9225690907
 20
5312.6621613258
 30
0.0
 40
8.5
100
AcDbArc
 50
0.0
 51
90.0
  0
LINE
  5
1D1
330
1F
100
AcDbEntity
  8
0
  6
Continuous
 62
     7
370
    25
100
AcDbLine
 10
6058.4225690907
 20
5297.6621613258
 30
0.0
 11
6058.4225690907
 21
5312.6621613258
 31
0.0
  0
ARC
  5
1D2
330
1F
100
AcDbEntity
  8
0
  6
Continuous
 62
     7
370
    25
100
AcDbCircle
 10
6049.9225690907
 20
5297.6621613258
 30
0.0
 40
8.50000000000091
100
AcDbArc
 50
270.0
 51
0.0
  0
LINE
  5
1D3
330
1F
100
AcDbEntity
  8
0
  6
Continuous
 62
     7
370
    25
100
AcDbLine
 10
6055.9225690907
 20
5297.6621613258
 30
0.0
 11
6055.9225690907
 21
5312.6621613258
 31
0.0
  0
ARC
  5
1D4
330
1F
100
AcDbEntity
  8
0
  6
Continuous
 62
     7
370
    25
100
AcDbCircle
 10
6049.9225690907
 20
5312.6621613258
 30
0.0
 40
6.000000000000909
100
AcDbArc
 50
0.0
 51
90.0
  0
LINE
  5
1D5
330
1F
100
AcDbEntity
  8
0
  6
Continuous
 62
     7
370
    25
100
AcDbLine
 10
6049.9225690907
 20
5318.6621613258
 30
0.0
 11
6034.9225690907
 21
5318.6621613258
 31
0.0
  0
ARC
  5
1D6
330
1F
100
AcDbEntity
  8
0
  6
Continuous
 62
     7
370
    25
100
AcDbCircle
 10
6034.9225690907
 20
5312.6621613258
 30
0.0
 40
6.000000000000909
100
AcDbArc
 50
90.0
 51
180.0
  0
LINE
  5
1D7
330
1F
100
AcDbEntity
  8
0
  6
Continuous
 62
     7
370
    25
100
AcDbLine
 10
6028.9225690907
 20
5312.6621613258
 30
0.0
 11
6028.9225690907
 21
5297.6621613258
 31
0.0
  0
ARC
  5
1D8
330
1F
100
AcDbEntity
  8
0
  6
Continuous
 62
     7
370
    25
100
AcDbCircle
 10
6034.9225690907
 20
5297.6621613258
 30
0.0
 40
6.000000000000909
100
AcDbArc
 50
180.0
 51
270.0
  0
LINE
  5
1D9
330
1F
100
AcDbEntity
  8
0
  6
Continuous
 62
     7
370
    25
100
AcDbLine
 10
6034.9225690907
 20
5291.6621613258
 30
0.0
 11
6049.9225690907
 21
5291.6621613258
 31
0.0
  0
ARC
  5
1DA
330
1F
100
AcDbEntity
  8
0
  6
Continuous
 62
     7
370
    25
100
AcDbCircle
 10
6049.9225690907
 20
5297.6621613258
 30
0.0
 40
6.000000000000909
100
AcDbArc
 50
270.0
 51
0.0
  0
LINE
  5
1DB
330
1F
100
AcDbEntity
  8
0
  6
Continuous
 62
     7
370
    25
100
AcDbLine
 10
6034.9225690907
 20
5289.1621613258
 30
0.0
 11
6049.9225690907
 21
5289.1621613258
 31
0.0
  0
LINE
  5
1DC
330
1F
100
AcDbEntity
  8
0
  6
Continuous
 62
     7
370
    25
100
AcDbLine
 10
6037.6749006667
 20
5295.6977958352
 30
0.0
 11
6037.1965690907
 21
5297.2468235637
 31
0.0
  0
LINE
  5
1DD
330
1F
100
AcDbEntity
  8
0
  6
Continuous
 62
     7
370
    25
100
AcDbLine
 10
6037.1965690907
 20
5297.2468235637
 30
0.0
 11
6036.0942375147
 21
5296.0580624033
 31
0.0
  0
ARC
  5
1DE
330
1F
100
AcDbEntity
  8
0
  6
Continuous
 62
     7
370
    25
100
AcDbCircle
 10
6036.7805690907
 20
5295.4216309711
 30
0.0
 40
0.9360000000001678
100
AcDbArc
 50
137.1604115927
 51
17.1604115891
  0
ARC
  5
1DF
330
1F
100
AcDbEntity
  8
0
  6
Continuous
 62
     7
370
    25
100
AcDbCircle
 10
6037.5085690907
 20
5298.6157180081
 30
0.0
 40
0.9360000000004639
100
AcDbArc
 50
137.1604115926
 51
17.160411589
  0
LINE
  5
1E0
330
1F
100
AcDbEntity
  8
0
  6
Continuous
 62
     7
370
    25
100
AcDbLine
 10
6038.4029006667
 20
5298.8918828722
 30
0.0
 11
6037.9245690907
 21
5300.4409106006
 31
0.0
  0
LINE
  5
1E1
330
1F
100
AcDbEntity
  8
0
  6
Continuous
 62
     7
370
    25
100
AcDbLine
 10
6037.9245690907
 20
5300.4409106006
 30
0.0
 11
6036.8222375147
 21
5299.2521494403
 31
0.0
  0
LINE
  5
1E2
330
1F
100
AcDbEntity
  8
0
  6
Continuous
 62
     7
370
    25
100
AcDbLine
 10
6039.1309006667
 20
5302.0859699093
 30
0.0
 11
6038.6525690907
 21
5303.6349976377
 31
0.0
  0
ARC
  5
1E3
330
1F
100
AcDbEntity
  8
0
  6
Continuous
 62
     7
370
    25
100
AcDbCircle
 10
6038.2365690907
 20
5301.8098050451
 30
0.0
 40
0.9360000000004878
100
AcDbArc
 50
137.1604115948
 51
17.1604115938
  0
LINE
  5
1E4
330
1F
100
AcDbEntity
  8
0
  6
Continuous
 62
     7
370
    25
100
AcDbLine
 10
6038.6525690907
 20
5303.6349976377
 30
0.0
 11
6037.5502375147
 21
5302.4462364773
 31
0.0
  0
LINE
  5
1E5
330
1F
100
AcDbEntity
  8
0
  6
Continuous
 62
     7
370
    25
100
AcDbLine
 10
6043.2331688686
 20
5298.8730846747
 30
0.0
 11
6042.4225690907
 21
5300.2770846747
 31
0.0
  0
LINE
  5
1E6
330
1F
100
AcDbEntity
  8
0
  6
Continuous
 62
     7
370
    25
100
AcDbLine
 10
6042.4225690907
 20
5300.2770846747
 30
0.0
 11
6041.6119693127
 21
5298.8730846747
 31
0.0
  0
ARC
  5
1E7
330
1F
100
AcDbEntity
  8
0
  6
Continuous
 62
     7
370
    25
100
AcDbCircle
 10
6042.4225690907
 20
5298.4050846747
 30
0.0
 40
0.9360000000010632
100
AcDbArc
 50
150.0
 51
30.0
  0
ARC
  5
1E8
330
1F
100
AcDbEntity
  8
0
  6
Continuous
 62
     7
370
    25
100
AcDbCircle
 10
6042.4225690907
 20
5295.1290846747
 30
0.0
 40
0.9360000000002517
100
AcDbArc
 50
149.9999999987
 51
30.0
  0
LINE
  5
1E9
330
1F
100
AcDbEntity
  8
0
  6
Continuous
 62
     7
370
    25
100
AcDbLine
 10
6042.4225690907
 20
5297.0010846746
 30
0.0
 11
6041.6119693128
 21
5295.5970846747
 31
0.0
  0
LINE
  5
1EA
330
1F
100
AcDbEntity
  8
0
  6
Continuous
 62
     7
370
    25
100
AcDbLine
 10
6043.2331688686
 20
5295.5970846747
 30
0.0
 11
6042.4225690907
 21
5297.0010846746
 31
0.0
  0
LINE
  5
1EB
330
1F
100
AcDbEntity
  8
0
  6
Continuous
 62
     7
370
    25
100
AcDbLine
 10
6043.2331688686
 20
5305.4250846747
 30
0.0
 11
6042.4225690907
 21
5306.8290846747
 31
0.0
  0
ARC
  5
1EC
330
1F
100
AcDbEntity
  8
0
  6
Continuous
 62
     7
370
    25
100
AcDbCircle
 10
6042.4225690907
 20
5304.9570846747
 30
0.0
 40
0.9360000000007065
100
AcDbArc
 50
149.9999999987
 51
30.0
  0
LINE
  5
1ED
330
1F
100
AcDbEntity
  8
0
  6
Continuous
 62
     7
370
    25
100
AcDbLine
 10
6042.4225690907
 20
5306.8290846747
 30
0.0
 11
6041.6119693128
 21
5305.4250846747
 31
0.0
  0
LINE
  5
1EE
330
1F
100
AcDbEntity
  8
0
  6
Continuous
 62
     7
370
    25
100
AcDbLine
 10
6039.0295690907
 20
5309.8710846747
 30
0.0
 11
6039.0295690907
 21
5308.4670846747
 31
0.0
  0
LINE
  5
1EF
330
1F
100
AcDbEntity
  8
0
  6
Continuous
 62
     7
370
    25
100
AcDbLine
 10
6045.8155690907
 20
5309.8710846747
 30
0.0
 11
6039.0295690907
 21
5309.8710846747
 31
0.0
  0
LINE
  5
1F0
330
1F
100
AcDbEntity
  8
0
  6
Continuous
 62
     7
370
    25
100
AcDbLine
 10
6045.8155690907
 20
5308.4670846747
 30
0.0
 11
6045.8155690907
 21
5309.8710846747
 31
0.0
  0
LINE
  5
1F1
330
1F
100
AcDbEntity
  8
0
  6
Continuous
 62
     7
370
    25
100
AcDbLine
 10
6039.0295690907
 20
5308.4670846747
 30
0.0
 11
6045.8155690907
 21
5308.4670846747
 31
0.0
  0
LINE
  5
1F2
330
1F
100
AcDbEntity
  8
0
  6
Continuous
 62
     7
370
    25
100
AcDbLine
 10
6046.5669006667
 20
5305.6403235143
 30
0.0
 11
6045.4645690907
 21
5306.8290846747
 31
0.0
  0
ARC
  5
1F3
330
1F
100
AcDbEntity
  8
0
  6
Continuous
 62
     7
370
    25
100
AcDbCircle
 10
6045.8805690907
 20
5305.0038920821
 30
0.0
 40
0.9359999999999425
100
AcDbArc
 50
162.8395884105
 51
42.8395884072
  0
LINE
  5
1F4
330
1F
100
AcDbEntity
  8
0
  6
Continuous
 62
     7
370
    25
100
AcDbLine
 10
6045.4645690907
 20
5306.8290846747
 30
0.0
 11
6044.9862375147
 21
5305.2800569462
 31
0.0
  0
ARC
  5
1F5
330
1F
100
AcDbEntity
  8
0
  6
Continuous
 62
     7
370
    25
100
AcDbCircle
 10
6038.9645690907
 20
5305.0038920821
 30
0.0
 40
0.9360000000007153
100
AcDbArc
 50
137.1604115947
 51
17.1604115939
  0
LINE
  5
1F6
330
1F
100
AcDbEntity
  8
0
  6
Continuous
 62
     7
370
    25
100
AcDbLine
 10
6039.3805690907
 20
5306.8290846747
 30
0.0
 11
6038.2782375147
 21
5305.6403235143
 31
0.0
  0
LINE
  5
1F7
330
1F
100
AcDbEntity
  8
0
  6
Continuous
 62
     7
370
    25
100
AcDbLine
 10
6039.8589006667
 20
5305.2800569463
 30
0.0
 11
6039.3805690907
 21
5306.8290846747
 31
0.0
  0
LINE
  5
1F8
330
1F
100
AcDbEntity
  8
0
  6
Continuous
 62
     7
370
    25
100
AcDbLine
 10
6041.2525690907
 20
5315.7210846747
 30
0.0
 11
6041.2525690907
 21
5313.8490846747
 31
0.0
  0
LINE
  5
1F9
330
1F
100
AcDbEntity
  8
0
  6
Continuous
 62
     7
370
    25
100
AcDbLine
 10
6043.5925690907
 20
5315.7210846747
 30
0.0
 11
6041.2525690907
 21
5315.7210846747
 31
0.0
  0
LINE
  5
1FA
330
1F
100
AcDbEntity
  8
0
  6
Continuous
 62
     7
370
    25
100
AcDbLine
 10
6043.5925690907
 20
5313.8490846747
 30
0.0
 11
6043.5925690907
 21
5315.7210846747
 31
0.0
  0
LINE
  5
1FB
330
1F
100
AcDbEntity
  8
0
  6
Continuous
 62
     7
370
    25
100
AcDbLine
 10
6039.0295690907
 20
5310.5730846747
 30
0.0
 11
6045.8155690907
 21
5310.5730846747
 31
0.0
  0
LINE
  5
1FC
330
1F
100
AcDbEntity
  8
0
  6
Continuous
 62
     7
370
    25
100
AcDbLine
 10
6041.2525690907
 20
5313.8490846747
 30
0.0
 11
6039.0295690907
 21
5310.5730846747
 31
0.0
  0
LINE
  5
1FD
330
1F
100
AcDbEntity
  8
0
  6
Continuous
 62
     7
370
    25
100
AcDbLine
 10
6045.8155690907
 20
5310.5730846747
 30
0.0
 11
6043.5925690907
 21
5313.8490846747
 31
0.0
  0
LINE
  5
1FE
330
1F
100
AcDbEntity
  8
0
  6
Continuous
 62
     7
370
    25
100
AcDbLine
 10
6048.0229006667
 20
5299.2521494402
 30
0.0
 11
6046.9205690907
 21
5300.4409106006
 31
0.0
  0
LINE
  5
1FF
330
1F
100
AcDbEntity
  8
0
  6
Continuous
 62
     7
370
    25
100
AcDbLine
 10
6046.9205690907
 20
5300.4409106006
 30
0.0
 11
6046.4422375147
 21
5298.8918828722
 31
0.0
  0
ARC
  5
200
330
1F
100
AcDbEntity
  8
0
  6
Continuous
 62
     7
370
    25
100
AcDbCircle
 10
6047.3365690907
 20
5298.6157180081
 30
0.0
 40
0.9359999999999663
100
AcDbArc
 50
162.8395884056
 51
42.839588405
  0
LINE
  5
201
330
1F
100
AcDbEntity
  8
0
  6
Continuous
 62
     7
370
    25
100
AcDbLine
 10
6047.2949006667
 20
5302.4462364773
 30
0.0
 11
6046.1925690907
 21
5303.6349976377
 31
0.0
  0
ARC
  5
202
330
1F
100
AcDbEntity
  8
0
  6
Continuous
 62
     7
370
    25
100
AcDbCircle
 10
6046.6085690907
 20
5301.8098050451
 30
0.0
 40
0.9360000000011133
100
AcDbArc
 50
162.8395884104
 51
42.8395884072
  0
LINE
  5
203
330
1F
100
AcDbEntity
  8
0
  6
Continuous
 62
     7
370
    25
100
AcDbLine
 10
6046.1925690907
 20
5303.6349976377
 30
0.0
 11
6045.7142375147
 21
5302.0859699093
 31
0.0
  0
LINE
  5
204
330
1F
100
AcDbEntity
  8
0
  6
Continuous
 62
     7
370
    25
100
AcDbLine
 10
6043.2331688686
 20
5302.1490846747
 30
0.0
 11
6042.4225690907
 21
5303.5530846747
 31
0.0
  0
ARC
  5
205
330
1F
100
AcDbEntity
  8
0
  6
Continuous
 62
     7
370
    25
100
AcDbCircle
 10
6042.4225690907
 20
5301.6810846747
 30
0.0
 40
0.9360000000007065
100
AcDbArc
 50
149.9999999987
 51
30.0
  0
LINE
  5
206
330
1F
100
AcDbEntity
  8
0
  6
Continuous
 62
     7
370
    25
100
AcDbLine
 10
6042.4225690907
 20
5303.5530846747
 30
0.0
 11
6041.6119693128
 21
5302.1490846747
 31
0.0
  0
LINE
  5
207
330
1F
100
AcDbEntity
  8
0
  6
Continuous
 62
     7
370
    25
100
AcDbLine
 10
6048.7509006667
 20
5296.0580624032
 30
0.0
 11
6047.6485690907
 21
5297.2468235637
 31
0.0
  0
ARC
  5
208
330
1F
100
AcDbEntity
  8
0
  6
Continuous
 62
     7
370
    25
100
AcDbCircle
 10
6048.0645690907
 20
5295.4216309711
 30
0.0
 40
0.9360000000005233
100
AcDbArc
 50
162.8395884056
 51
42.839588405
  0
LINE
  5
209
330
1F
100
AcDbEntity
  8
0
  6
Continuous
 62
     7
370
    25
100
AcDbLine
 10
6047.6485690907
 20
5297.2468235637
 30
0.0
 11
6047.1702375147
 21
5295.6977958353
 31
0.0
  0
LWPOLYLINE
  5
20A
330
1F
100
AcDbEntity
  8
0
  6
Continuous
 62
     7
370
    25
100
AcDbPolyline
 90
        3
 70
   128
 43
0.0
 10
6101.3524596016
 20
5246.3673973595
 10
6101.2100689155
 20
5246.4722641045
 10
6101.1220478378
 20
5246.5572271617
  0
LWPOLYLINE
  5
20B
330
1F
100
AcDbEntity
  8
0
  6
Continuous
 62
     7
370
    25
100
AcDbPolyline
 90
        3
 70
   128
 43
0.0
 10
6101.1220478378
 20
5246.5572271617
 10
6100.7662090189
 20
5246.3806762882
 10
6100.4481897441
 20
5246.1740271201
  0
LWPOLYLINE
  5
20C
330
1F
100
AcDbEntity
  8
0
  6
Continuous
 62
     7
370
    25
100
AcDbPolyline
 90
        3
 70
   128
 43
0.0
 10
6100.4481897441
 20
5246.1740271201
 10
6100.140899909
 20
5245.9368579571
 10
6099.8964644497
 20
5245.72679675
  0
LWPOLYLINE
  5
20D
330
1F
100
AcDbEntity
  8
0
  6
Continuous
 62
     7
370
    25
100
AcDbPolyline
 90
        3
 70
   128
 43
0.0
 10
6099.8964644497
 20
5245.72679675
 10
6100.1659996608
 20
5246.3004404119
 10
6100.4486882259
 20
5246.6349758692
  0
LWPOLYLINE
  5
20E
330
1F
100
AcDbEntity
  8
0
  6
Continuous
 62
     7
370
    25
100
AcDbPolyline
 90
        3
 70
   128
 43
0.0
 10
6100.4486882259
 20
5246.6349758692
 10
6100.9221196382
 20
5246.9432274277
 10
6101.3531085474
 20
5247.0724814264
  0
LWPOLYLINE
  5
20F
330
1F
100
AcDbEntity
  8
0
  6
Continuous
 62
     7
370
    25
100
AcDbPolyline
 90
        3
 70
   128
 43
0.0
 10
6101.3531085474
 20
5247.0724814264
 10
6101.5854053952
 20
5247.105945083
 10
6101.7736681975
 20
5247.1174551292
  0
LINE
  5
210
330
1F
100
AcDbEntity
  8
0
  6
Continuous
 62
     7
370
    25
100
AcDbLine
 10
6101.7736681975
 20
5247.1174551292
 30
0.0
 11
6101.7826288647
 21
5247.1174334845
 31
0.0
  0
LINE
  5
211
330
1F
100
AcDbEntity
  8
0
  6
Continuous
 62
     7
370
    25
100
AcDbLine
 10
6102.3796255673
 20
5247.0309524391
 30
0.0
 11
6102.5376133432
 21
5246.9719308131
 31
0.0
  0
LWPOLYLINE
  5
212
330
1F
100
AcDbEntity
  8
0
  6
Continuous
 62
     7
370
    25
100
AcDbPolyline
 90
        3
 70
   128
 43
0.0
 10
6102.5376133432
 20
5246.9719308131
 10
6102.5821707197
 20
5246.9533034469
 10
6102.6144827645
 20
5246.9357704798
  0
LWPOLYLINE
  5
213
330
1F
100
AcDbEntity
  8
0
  6
Continuous
 62
     7
370
    25
100
AcDbPolyline
 90
        3
 70
   128
 43
0.0
 10
6102.6144827645
 20
5246.9357704798
 10
6102.7645211105
 20
5246.8596724227
 10
6102.8762778741
 20
5246.7909320184
  0
LWPOLYLINE
  5
214
330
1F
100
AcDbEntity
  8
0
  6
Continuous
 62
     7
370
    25
100
AcDbPolyline
 90
        3
 70
   128
 43
0.0
 10
6102.8762778741
 20
5246.7909320184
 10
6103.3915012477
 20
5246.3026307532
 10
6103.6212369326
 20
5245.8409654379
  0
LWPOLYLINE
  5
215
330
1F
100
AcDbEntity
  8
0
  6
Continuous
 62
     7
370
    25
100
AcDbPolyline
 90
        3
 70
   128
 43
0.0
 10
6103.6212369326
 20
5245.8409654379
 10
6103.2728540193
 20
5246.137042407
 10
6102.8758665017
 20
5246.3660455624
  0
LWPOLYLINE
  5
216
330
1F
100
AcDbEntity
  8
0
  6
Continuous
 62
     7
370
    25
100
AcDbPolyline
 90
        3
 70
   128
 43
0.0
 10
6102.8758665017
 20
5246.3660455624
 10
6102.7309454816
 20
5246.4336001813
 10
6102.6140058214
 20
5246.4837384731
  0
LWPOLYLINE
  5
217
330
1F
100
AcDbEntity
  8
0
  6
Continuous
 62
     7
370
    25
100
AcDbPolyline
 90
        3
 70
   128
 43
0.0
 10
6102.6140058214
 20
5246.4837384731
 10
6102.5799930185
 20
5246.4989434759
 10
6102.5507311372
 20
5246.5107734732
  0
LINE
  5
218
330
1F
100
AcDbEntity
  8
0
  6
Continuous
 62
     7
370
    25
100
AcDbLine
 10
6102.5507311372
 20
5246.5107734732
 30
0.0
 11
6102.5371699258
 21
5246.4974090766
 31
0.0
  0
LWPOLYLINE
  5
219
330
1F
100
AcDbEntity
  8
0
  6
Continuous
 62
     7
370
    25
100
AcDbPolyline
 90
        3
 70
   128
 43
0.0
 10
6102.5371699258
 20
5246.4974090766
 10
6102.4501413522
 20
5246.4188953315
 10
6102.3788991722
 20
5246.3665431978
  0
LWPOLYLINE
  5
21A
330
1F
100
AcDbEntity
  8
0
  6
Continuous
 62
     7
370
    25
100
AcDbPolyline
 90
        3
 70
   128
 43
0.0
 10
6102.3788991722
 20
5246.3665431978
 10
6102.1038013957
 20
5246.2464966323
 10
6101.8361530259
 20
5246.2178939382
  0
LINE
  5
21B
330
1F
100
AcDbEntity
  8
0
  6
Continuous
 62
     7
370
    25
100
AcDbLine
 10
6101.8361530259
 20
5246.2178939382
 30
0.0
 11
6101.7817846849
 21
5246.2224177759
 31
0.0
  0
LWPOLYLINE
  5
21C
330
1F
100
AcDbEntity
  8
0
  6
Continuous
 62
     7
370
    25
100
AcDbPolyline
 90
        3
 70
   128
 43
0.0
 10
6101.7817846849
 20
5246.2224177759
 10
6101.5278087707
 20
5246.2789441322
 10
6101.3524596016
 20
5246.3673973595
  0
LWPOLYLINE
  5
21D
330
1F
100
AcDbEntity
  8
0
  6
Continuous
 62
     7
370
    25
100
AcDbPolyline
 90
        3
 70
   128
 43
0.0
 10
6101.7826288647
 20
5247.1174334845
 10
6102.1221540917
 20
5247.0954644975
 10
6102.3796255673
 20
5247.0309524391
  0
LWPOLYLINE
  5
21E
330
1F
100
AcDbEntity
  8
0
  6
Continuous
 62
     7
370
    25
100
AcDbPolyline
 90
        3
 70
   128
 43
0.0
 10
6102.1849705276
 20
5247.1487465635
 10
6102.2941824927
 20
5247.2362057547
 10
6102.3798412837
 20
5247.3021015332
  0
LWPOLYLINE
  5
21F
330
1F
100
AcDbEntity
  8
0
  6
Continuous
 62
     7
370
    25
100
AcDbPolyline
 90
        3
 70
   128
 43
0.0
 10
6102.3798412837
 20
5247.3021015332
 10
6102.468108139
 20
5247.3620230068
 10
6102.538047103
 20
5247.4060854102
  0
LWPOLYLINE
  5
220
330
1F
100
AcDbEntity
  8
0
  6
Continuous
 62
     7
370
    25
100
AcDbPolyline
 90
        3
 70
   128
 43
0.0
 10
6102.538047103
 20
5247.4060854102
 10
6102.5825629045
 20
5247.4313463458
 10
6102.614849157
 20
5247.4511427414
  0
LWPOLYLINE
  5
221
330
1F
100
AcDbEntity
  8
0
  6
Continuous
 62
     7
370
    25
100
AcDbPolyline
 90
        3
 70
   128
 43
0.0
 10
6102.614849157
 20
5247.4511427414
 10
6102.7631636955
 20
5247.5268104949
 10
6102.8769482571
 20
5247.5776288612
  0
LWPOLYLINE
  5
222
330
1F
100
AcDbEntity
  8
0
  6
Continuous
 62
     7
370
    25
100
AcDbPolyline
 90
        3
 70
   128
 43
0.0
 10
6102.8769482571
 20
5247.5776288612
 10
6103.0889795166
 20
5247.6528930646
 10
6103.2522632055
 20
5247.6945733102
  0
LWPOLYLINE
  5
223
330
1F
100
AcDbEntity
  8
0
  6
Continuous
 62
     7
370
    25
100
AcDbPolyline
 90
        3
 70
   128
 43
0.0
 10
6103.2522632055
 20
5247.6945733102
 10
6103.0335620526
 20
5247.5723178261
 10
6102.8767622588
 20
5247.4642586388
  0
LWPOLYLINE
  5
224
330
1F
100
AcDbEntity
  8
0
  6
Continuous
 62
     7
370
    25
100
AcDbPolyline
 90
        3
 70
   128
 43
0.0
 10
6102.8767622588
 20
5247.4642586388
 10
6102.7250632735
 20
5247.3490019405
 10
6102.6146322783
 20
5247.2522504325
  0
LINE
  5
225
330
1F
100
AcDbEntity
  8
0
  6
Continuous
 62
     7
370
    25
100
AcDbLine
 10
6102.6146322783
 20
5247.2522504325
 30
0.0
 11
6102.5378409382
 21
5247.1752595309
 31
0.0
  0
LWPOLYLINE
  5
226
330
1F
100
AcDbEntity
  8
0
  6
Continuous
 62
     7
370
    25
100
AcDbPolyline
 90
        3
 70
   128
 43
0.0
 10
6102.5378409382
 20
5247.1752595309
 10
6102.4843226534
 20
5247.1172860779
 10
6102.4425363375
 20
5247.0714751151
  0
LWPOLYLINE
  5
227
330
1F
100
AcDbEntity
  8
0
  6
Continuous
 62
     7
370
    25
100
AcDbPolyline
 90
        3
 70
   128
 43
0.0
 10
6102.4425363375
 20
5247.0714751151
 10
6102.4089138595
 20
5247.0840662714
 10
6102.3796900794
 20
5247.0940287206
  0
LWPOLYLINE
  5
228
330
1F
100
AcDbEntity
  8
0
  6
Continuous
 62
     7
370
    25
100
AcDbPolyline
 90
        3
 70
   128
 43
0.0
 10
6102.3796900794
 20
5247.0940287206
 10
6102.2723217811
 20
5247.1265018397
 10
6102.1849705276
 20
5247.1487465635
  0
LINE
  5
229
330
1F
100
AcDbEntity
  8
0
  6
Continuous
 62
     7
370
    25
100
AcDbLine
 10
6093.0193182459
 20
5243.7754326119
 30
0.0
 11
6093.2675174716
 21
5243.0209904463
 31
0.0
  0
LINE
  5
22A
330
1F
100
AcDbEntity
  8
0
  6
Continuous
 62
     7
370
    25
100
AcDbLine
 10
6091.722037565
 20
5243.7767651552
 30
0.0
 11
6093.0193182459
 21
5243.7754326119
 31
0.0
  0
LINE
  5
22B
330
1F
100
AcDbEntity
  8
0
  6
Continuous
 62
     7
370
    25
100
AcDbLine
 10
6091.7235248867
 20
5245.1198591509
 30
0.0
 11
6091.722037565
 21
5243.7767651552
 31
0.0
  0
LINE
  5
22C
330
1F
100
AcDbEntity
  8
0
  6
Continuous
 62
     7
370
    25
100
AcDbLine
 10
6093.0567359827
 20
5245.1184398167
 30
0.0
 11
6091.7235248867
 21
5245.1198591509
 31
0.0
  0
LINE
  5
22D
330
1F
100
AcDbEntity
  8
0
  6
Continuous
 62
     7
370
    25
100
AcDbLine
 10
6093.0576035007
 20
5245.8776830562
 30
0.0
 11
6093.0567359827
 21
5245.1184398167
 31
0.0
  0
LINE
  5
22E
330
1F
100
AcDbEntity
  8
0
  6
Continuous
 62
     7
370
    25
100
AcDbLine
 10
6091.0056899915
 20
5245.8790376186
 30
0.0
 11
6093.0576035007
 21
5245.8776830562
 31
0.0
  0
LINE
  5
22F
330
1F
100
AcDbEntity
  8
0
  6
Continuous
 62
     7
370
    25
100
AcDbLine
 10
6091.0041832792
 20
5243.7641357231
 30
0.0
 11
6091.0056899915
 21
5245.8790376186
 31
0.0
  0
LINE
  5
230
330
1F
100
AcDbEntity
  8
0
  6
Continuous
 62
     7
370
    25
100
AcDbLine
 10
6090.4338609345
 20
5243.7645907582
 30
0.0
 11
6091.0041832792
 21
5243.7641357231
 31
0.0
  0
LINE
  5
231
330
1F
100
AcDbEntity
  8
0
  6
Continuous
 62
     7
370
    25
100
AcDbLine
 10
6090.4317658889
 20
5245.8795454689
 30
0.0
 11
6090.4338609345
 21
5243.7645907582
 31
0.0
  0
LINE
  5
232
330
1F
100
AcDbEntity
  8
0
  6
Continuous
 62
     7
370
    25
100
AcDbLine
 10
6090.2734167059
 20
5245.8799279653
 30
0.0
 11
6090.4317658889
 21
5245.8795454689
 31
0.0
  0
LINE
  5
233
330
1F
100
AcDbEntity
  8
0
  6
Continuous
 62
     7
370
    25
100
AcDbLine
 10
6089.5996513629
 20
5245.8806328694
 30
0.0
 11
6090.2734167059
 21
5245.8799279653
 31
0.0
  0
LINE
  5
234
330
1F
100
AcDbEntity
  8
0
  6
Continuous
 62
     7
370
    25
100
AcDbLine
 10
6089.5980175496
 20
5244.0949499914
 30
0.0
 11
6089.5996513629
 21
5245.8806328694
 31
0.0
  0
LINE
  5
235
330
1F
100
AcDbEntity
  8
0
  6
Continuous
 62
     7
370
    25
100
AcDbLine
 10
6087.2806621157
 20
5245.9501016766
 30
0.0
 11
6089.5980175496
 21
5244.0949499914
 31
0.0
  0
LINE
  5
236
330
1F
100
AcDbEntity
  8
0
  6
Continuous
 62
     7
370
    25
100
AcDbLine
 10
6087.2814051863
 20
5240.6569499897
 30
0.0
 11
6087.2806621157
 21
5245.9501016766
 31
0.0
  0
LINE
  5
237
330
1F
100
AcDbEntity
  8
0
  6
Continuous
 62
     7
370
    25
100
AcDbLine
 10
6088.0262432389
 20
5240.6569518852
 30
0.0
 11
6087.2814051863
 21
5240.6569499897
 31
0.0
  0
LINE
  5
238
330
1F
100
AcDbEntity
  8
0
  6
Continuous
 62
     7
370
    25
100
AcDbLine
 10
6088.0392937153
 20
5244.2048821371
 30
0.0
 11
6088.0262432389
 21
5240.6569518852
 31
0.0
  0
LINE
  5
239
330
1F
100
AcDbEntity
  8
0
  6
Continuous
 62
     7
370
    25
100
AcDbLine
 10
6089.6106720556
 20
5243.005533041
 30
0.0
 11
6088.0392937153
 21
5244.2048821371
 31
0.0
  0
LINE
  5
23A
330
1F
100
AcDbEntity
  8
0
  6
Continuous
 62
     7
370
    25
100
AcDbLine
 10
6089.6085655514
 20
5240.64232409
 30
0.0
 11
6089.6106720556
 21
5243.005533041
 31
0.0
  0
LINE
  5
23B
330
1F
100
AcDbEntity
  8
0
  6
Continuous
 62
     7
370
    25
100
AcDbLine
 10
6090.2679868183
 20
5240.6497358278
 30
0.0
 11
6089.6085655514
 21
5240.64232409
 31
0.0
  0
LINE
  5
23C
330
1F
100
AcDbEntity
  8
0
  6
Continuous
 62
     7
370
    25
100
AcDbLine
 10
6090.4137426541
 20
5240.6547867068
 30
0.0
 11
6090.2679868183
 21
5240.6497358278
 31
0.0
  0
LINE
  5
23D
330
1F
100
AcDbEntity
  8
0
  6
Continuous
 62
     7
370
    25
100
AcDbLine
 10
6090.4023661546
 20
5243.0189067039
 30
0.0
 11
6090.4137426541
 21
5240.6547867068
 31
0.0
  0
LINE
  5
23E
330
1F
100
AcDbEntity
  8
0
  6
Continuous
 62
     7
370
    25
100
AcDbLine
 10
6091.0212694269
 20
5243.0183340654
 30
0.0
 11
6090.4023661546
 21
5243.0189067039
 31
0.0
  0
LINE
  5
23F
330
1F
100
AcDbEntity
  8
0
  6
Continuous
 62
     7
370
    25
100
AcDbLine
 10
6091.0191933738
 20
5240.6677315126
 30
0.0
 11
6091.0212694269
 21
5243.0183340654
 31
0.0
  0
LINE
  5
240
330
1F
100
AcDbEntity
  8
0
  6
Continuous
 62
     7
370
    25
100
AcDbLine
 10
6093.0171651725
 20
5240.6655849101
 30
0.0
 11
6091.0191933738
 21
5240.6677315126
 31
0.0
  0
LINE
  5
241
330
1F
100
AcDbEntity
  8
0
  6
Continuous
 62
     7
370
    25
100
AcDbLine
 10
6093.017255243
 20
5241.4302327283
 30
0.0
 11
6093.0171651725
 21
5240.6655849101
 31
0.0
  0
LINE
  5
242
330
1F
100
AcDbEntity
  8
0
  6
Continuous
 62
     7
370
    25
100
AcDbLine
 10
6091.6705130395
 20
5241.4308062696
 30
0.0
 11
6093.017255243
 21
5241.4302327283
 31
0.0
  0
LINE
  5
243
330
1F
100
AcDbEntity
  8
0
  6
Continuous
 62
     7
370
    25
100
AcDbLine
 10
6091.67174322
 20
5243.0311265118
 30
0.0
 11
6091.6705130395
 21
5241.4308062696
 31
0.0
  0
LINE
  5
244
330
1F
100
AcDbEntity
  8
0
  6
Continuous
 62
     7
370
    25
100
AcDbLine
 10
6093.2675174716
 20
5243.0209904463
 30
0.0
 11
6091.67174322
 21
5243.0311265118
 31
0.0
  0
LINE
  5
245
330
1F
100
AcDbEntity
  8
0
  6
Continuous
 62
     7
370
    25
100
AcDbLine
 10
6093.5416466282
 20
5245.8729119526
 30
0.0
 11
6094.3143854541
 21
5245.8764480836
 31
0.0
  0
LINE
  5
246
330
1F
100
AcDbEntity
  8
0
  6
Continuous
 62
     7
370
    25
100
AcDbLine
 10
6093.5460004859
 20
5240.6561813866
 30
0.0
 11
6093.5416466282
 21
5245.8729119526
 31
0.0
  0
LINE
  5
247
330
1F
100
AcDbEntity
  8
0
  6
Continuous
 62
     7
370
    25
100
AcDbLine
 10
6095.783266212
 20
5240.6498987384
 30
0.0
 11
6093.5460004859
 21
5240.6561813866
 31
0.0
  0
LINE
  5
248
330
1F
100
AcDbEntity
  8
0
  6
Continuous
 62
     7
370
    25
100
AcDbLine
 10
6095.9047623925
 20
5240.6496052613
 30
0.0
 11
6095.783266212
 21
5240.6498987384
 31
0.0
  0
LINE
  5
249
330
1F
100
AcDbEntity
  8
0
  6
Continuous
 62
     7
370
    25
100
AcDbLine
 10
6095.9099809261
 20
5241.3188793384
 30
0.0
 11
6095.9047623925
 21
5240.6496052613
 31
0.0
  0
LINE
  5
24A
330
1F
100
AcDbEntity
  8
0
  6
Continuous
 62
     7
370
    25
100
AcDbLine
 10
6095.7840900058
 20
5241.3183046984
 30
0.0
 11
6095.9099809261
 21
5241.3188793384
 31
0.0
  0
LINE
  5
24B
330
1F
100
AcDbEntity
  8
0
  6
Continuous
 62
     7
370
    25
100
AcDbLine
 10
6094.3060918994
 20
5241.315549801
 30
0.0
 11
6095.7840900058
 21
5241.3183046984
 31
0.0
  0
LINE
  5
24C
330
1F
100
AcDbEntity
  8
0
  6
Continuous
 62
     7
370
    25
100
AcDbLine
 10
6094.3143854541
 20
5245.8764480836
 30
0.0
 11
6094.3060918994
 21
5241.315549801
 31
0.0
  0
ARC
  5
24D
330
1F
100
AcDbEntity
  8
0
  6
Continuous
 62
     7
370
    25
100
AcDbCircle
 10
6105.1686766187
 20
5247.3401513417
 30
0.0
 40
0.5876112262351699
100
AcDbArc
 50
269.918916743
 51
359.5249302718
  0
ARC
  5
24E
330
1F
100
AcDbEntity
  8
0
  6
Continuous
 62
     7
370
    25
100
AcDbCircle
 10
6105.1599596614
 20
5247.3317644726
 30
0.0
 40
0.5963183427514763
100
AcDbArc
 50
0.3377059622
 51
89.155204209
  0
LINE
  5
24F
330
1F
100
AcDbEntity
  8
0
  6
Continuous
 62
     7
370
    25
100
AcDbLine
 10
6105.1687517396
 20
5247.9280179969
 30
0.0
 11
6105.164534955
 21
5247.9280281826
 31
0.0
  0
ARC
  5
250
330
1F
100
AcDbEntity
  8
0
  6
Continuous
 62
     7
370
    25
100
AcDbCircle
 10
6105.1675222866
 20
5247.3411534051
 30
0.0
 40
0.5868823805806943
100
AcDbArc
 50
90.2916465626
 51
180.4634979472
  0
ARC
  5
251
330
1F
100
AcDbEntity
  8
0
  6
Continuous
 62
     7
370
    25
100
AcDbCircle
 10
6105.1625406578
 20
5247.3344354841
 30
0.0
 40
0.581884884714301
100
AcDbArc
 50
179.8059875331
 51
270.0897917778
  0
LINE
  5
252
330
1F
100
AcDbEntity
  8
0
  6
Continuous
 62
     7
370
    25
100
AcDbLine
 10
6105.1634525654
 20
5246.752551314
 30
0.0
 11
6105.1678450493
 21
5246.7525407038
 31
0.0
  0
LINE
  5
253
330
1F
100
AcDbEntity
  8
0
  6
Continuous
 62
     7
370
    25
100
AcDbLine
 10
5957.9225690907
 20
5220.6621613258
 30
0.0
 11
6126.9225690907
 21
5220.6621613258
 31
0.0
  0
LINE
  5
254
330
1F
100
AcDbEntity
  8
0
  6
Continuous
 62
     7
370
    25
100
AcDbLine
 10
5957.9225690907
 20
5389.6621613258
 30
0.0
 11
5957.9225690907
 21
5220.6621613258
 31
0.0
  0
LINE
  5
255
330
1F
100
AcDbEntity
  8
0
  6
Continuous
 62
     7
370
    25
100
AcDbLine
 10
6126.9225690907
 20
5389.6621613258
 30
0.0
 11
5957.9225690907
 21
5389.6621613258
 31
0.0
  0
LINE
  5
256
330
1F
100
AcDbEntity
  8
0
  6
Continuous
 62
     7
370
    25
100
AcDbLine
 10
6126.9225690907
 20
5220.6621613258
 30
0.0
 11
6126.9225690907
 21
5389.6621613258
 31
0.0
  0
LWPOLYLINE
  5
257
330
1F
100
AcDbEntity
  8
0
  6
Continuous
 62
     7
370
    25
100
AcDbPolyline
 90
        7
 70
   128
 43
0.0
 10
6082.0333132722
 20
5241.4531628165
 10
6082.2506874274
 20
5241.4723695792
 10
6082.4199021046
 20
5241.5282090633
 10
6082.5465475577
 20
5241.6174091038
 10
6082.6362140404
 20
5241.7366975358
 10
6082.7158518457
 20
5241.97707125
 10
6082.7396715316
 20
5242.2709670991
  0
LINE
  5
258
330
1F
100
AcDbEntity
  8
0
  6
Continuous
 62
     7
370
    25
100
AcDbLine
 10
6080.5058205133
 20
5241.4541730822
 30
0.0
 11
6082.0333132722
 21
5241.4531628165
 31
0.0
  0
LINE
  5
259
330
1F
100
AcDbEntity
  8
0
  6
Continuous
 62
     7
370
    25
100
AcDbLine
 10
6080.504832895
 20
5240.6634358969
 30
0.0
 11
6080.5058205133
 21
5241.4541730822
 31
0.0
  0
LINE
  5
25A
330
1F
100
AcDbEntity
  8
0
  6
Continuous
 62
     7
370
    25
100
AcDbLine
 10
6082.100672704
 20
5240.6622605372
 30
0.0
 11
6080.504832895
 21
5240.6634358969
 31
0.0
  0
ARC
  5
25B
330
1F
100
AcDbEntity
  8
0
  6
Continuous
 62
     7
370
    25
100
AcDbCircle
 10
6082.0218215961
 20
5242.2125761303
 30
0.0
 40
1.552319533894574
100
AcDbArc
 50
272.9116304141
 51
347.8491007433
  0
ARC
  5
25C
330
1F
100
AcDbEntity
  8
0
  6
Continuous
 62
     7
370
    25
100
AcDbCircle
 10
6081.71455199
 20
5242.2007300206
 30
0.0
 40
1.851782623664867
100
AcDbArc
 50
350.2092268183
 51
41.8785714631
  0
LWPOLYLINE
  5
25D
330
1F
100
AcDbEntity
  8
0
  6
Continuous
 62
     7
370
    25
100
AcDbPolyline
 90
        3
 70
   128
 43
0.0
 10
6082.3567058412
 20
5244.2420205498
 10
6082.8469412443
 20
5243.7437117587
 10
6083.0933175983
 20
5243.4368951725
  0
ARC
  5
25E
330
1F
100
AcDbEntity
  8
0
  6
Continuous
 62
     7
370
    25
100
AcDbCircle
 10
6083.3239919531
 20
5245.6647016047
 30
0.0
 40
1.720367346337835
100
AcDbArc
 50
179.804534936
 51
235.7880710371
  0
LWPOLYLINE
  5
25F
330
1F
100
AcDbEntity
  8
0
  6
Continuous
 62
     7
370
    25
100
AcDbPolyline
 90
        6
 70
   128
 43
0.0
 10
6082.5301900018
 20
5246.4158937264
 10
6082.1328367282
 20
5246.3586729871
 10
6081.8196301145
 20
5246.1948716961
 10
6081.7039727558
 20
5246.059337897
 10
6081.6298594811
 20
5245.8855978912
 10
6081.6036346179
 20
5245.6705706419
  0
LINE
  5
260
330
1F
100
AcDbEntity
  8
0
  6
Continuous
 62
     7
370
    25
100
AcDbLine
 10
6085.4376190401
 20
5246.4088707596
 30
0.0
 11
6082.5301900018
 21
5246.4158937264
 31
0.0
  0
LINE
  5
261
330
1F
100
AcDbEntity
  8
0
  6
Continuous
 62
     7
370
    25
100
AcDbLine
 10
6090.2737942443
 20
5246.3998682895
 30
0.0
 11
6085.4376190401
 21
5246.4088707596
 31
0.0
  0
LINE
  5
262
330
1F
100
AcDbEntity
  8
0
  6
Continuous
 62
     7
370
    25
100
AcDbLine
 10
6095.7882698676
 20
5246.3946301548
 30
0.0
 11
6090.2737942443
 21
5246.3998682895
 31
0.0
  0
LINE
  5
263
330
1F
100
AcDbEntity
  8
0
  6
Continuous
 62
     7
370
    25
100
AcDbLine
 10
6097.4974689705
 20
5246.3887445383
 30
0.0
 11
6095.7882698676
 21
5246.3946301548
 31
0.0
  0
LINE
  5
264
330
1F
100
AcDbEntity
  8
0
  6
Continuous
 62
     7
370
    25
100
AcDbLine
 10
6099.0339663215
 20
5246.3877125217
 30
0.0
 11
6097.4974689705
 21
5246.3887445383
 31
0.0
  0
LINE
  5
265
330
1F
100
AcDbEntity
  8
0
  6
Continuous
 62
     7
370
    25
100
AcDbLine
 10
6099.0348774417
 20
5247.1649648874
 30
0.0
 11
6099.0339663215
 21
5246.3877125217
 31
0.0
  0
LINE
  5
266
330
1F
100
AcDbEntity
  8
0
  6
Continuous
 62
     7
370
    25
100
AcDbLine
 10
6097.4974136381
 20
5247.1659553133
 30
0.0
 11
6099.0348774417
 21
5247.1649648874
 31
0.0
  0
LINE
  5
267
330
1F
100
AcDbEntity
  8
0
  6
Continuous
 62
     7
370
    25
100
AcDbLine
 10
6095.7891722875
 20
5247.1682806837
 30
0.0
 11
6097.4974136381
 21
5247.1659553133
 31
0.0
  0
LINE
  5
268
330
1F
100
AcDbEntity
  8
0
  6
Continuous
 62
     7
370
    25
100
AcDbLine
 10
6090.274738361
 20
5247.1725962907
 30
0.0
 11
6095.7891722875
 21
5247.1682806837
 31
0.0
  0
LINE
  5
269
330
1F
100
AcDbEntity
  8
0
  6
Continuous
 62
     7
370
    25
100
AcDbLine
 10
6085.4376629091
 20
5247.1725962907
 30
0.0
 11
6090.274738361
 21
5247.1725962907
 31
0.0
  0
LINE
  5
26A
330
1F
100
AcDbEntity
  8
0
  6
Continuous
 62
     7
370
    25
100
AcDbLine
 10
6082.4771618426
 20
5247.1752670945
 30
0.0
 11
6085.4376629091
 21
5247.1725962907
 31
0.0
  0
ARC
  5
26B
330
1F
100
AcDbEntity
  8
0
  6
Continuous
 62
     7
370
    25
100
AcDbCircle
 10
6082.3555591431
 20
5245.6049134746
 30
0.0
 40
1.575054827025658
100
AcDbArc
 50
85.5720514477
 51
175.6051402176
  0
ARC
  5
26C
330
1F
100
AcDbEntity
  8
0
  6
Continuous
 62
     7
370
    25
100
AcDbCircle
 10
6082.959906111
 20
5245.5422853861
 30
0.0
 40
2.182483585183161
100
AcDbArc
 50
175.1816015809
 51
235.2213443038
  0
ARC
  5
26D
330
1F
100
AcDbEntity
  8
0
  6
Continuous
 62
     7
370
    25
100
AcDbCircle
 10
6080.1845060095
 20
5241.5947444616
 30
0.0
 40
2.643132214045413
100
AcDbArc
 50
14.8234475719
 51
54.6165371189
  0
LWPOLYLINE
  5
26E
330
1F
100
AcDbEntity
  8
0
  6
Continuous
 62
     7
370
    25
100
AcDbPolyline
 90
        3
 70
   128
 43
0.0
 10
6104.0292747873
 20
5242.1568166218
 10
6104.0430653655
 20
5242.3194581097
 10
6104.0476201107
 20
5242.4414069277
  0
LINE
  5
26F
330
1F
100
AcDbEntity
  8
0
  6
Continuous
 62
     7
370
    25
100
AcDbLine
 10
6104.0476201107
 20
5242.4414069277
 30
0.0
 11
6104.0477831936
 21
5242.581659364
 31
0.0
  0
ARC
  5
270
330
1F
100
AcDbEntity
  8
0
  6
Continuous
 62
     7
370
    25
100
AcDbCircle
 10
6100.8888617844
 20
5242.4588578714
 30
0.0
 40
3.161307431396104
100
AcDbArc
 50
2.2262238297
 51
50.9815981164
  0
LINE
  5
271
330
1F
100
AcDbEntity
  8
0
  6
Continuous
 62
     7
370
    25
100
AcDbLine
 10
6102.8791259688
 20
5244.9150160813
 30
0.0
 11
6102.874546751
 21
5244.9104589326
 31
0.0
  0
LWPOLYLINE
  5
272
330
1F
100
AcDbEntity
  8
0
  6
Continuous
 62
     7
370
    25
100
AcDbPolyline
 90
        3
 70
   128
 43
0.0
 10
6102.874546751
 20
5244.9104589326
 10
6102.8185339257
 20
5244.8493153258
 10
6102.7754077437
 20
5244.7831399277
  0
LINE
  5
273
330
1F
100
AcDbEntity
  8
0
  6
Continuous
 62
     7
370
    25
100
AcDbLine
 10
6102.7754077437
 20
5244.7831399277
 30
0.0
 11
6102.6440802267
 21
5244.895773622
 31
0.0
  0
LWPOLYLINE
  5
274
330
1F
100
AcDbEntity
  8
0
  6
Continuous
 62
     7
370
    25
100
AcDbPolyline
 90
        3
 70
   128
 43
0.0
 10
6102.6440802267
 20
5244.895773622
 10
6102.766603383
 20
5245.0402853428
 10
6102.8747303162
 20
5245.1319288212
  0
LWPOLYLINE
  5
275
330
1F
100
AcDbEntity
  8
0
  6
Continuous
 62
     7
370
    25
100
AcDbPolyline
 90
        3
 70
   128
 43
0.0
 10
6102.8747303162
 20
5245.1319288212
 10
6103.3101110537
 20
5245.3056445475
 10
6103.7910022662
 20
5245.3478475683
  0
LINE
  5
276
330
1F
100
AcDbEntity
  8
0
  6
Continuous
 62
     7
370
    25
100
AcDbLine
 10
6103.7910022662
 20
5245.3478475683
 30
0.0
 11
6103.8032019126
 21
5245.3430741894
 31
0.0
  0
LINE
  5
277
330
1F
100
AcDbEntity
  8
0
  6
Continuous
 62
     7
370
    25
100
AcDbLine
 10
6103.8032019126
 20
5245.3430741894
 30
0.0
 11
6103.808466315
 21
5245.3403381172
 31
0.0
  0
LINE
  5
278
330
1F
100
AcDbEntity
  8
0
  6
Continuous
 62
     7
370
    25
100
AcDbLine
 10
6103.808466315
 20
5245.3403381172
 30
0.0
 11
6103.8133224507
 21
5245.3504291591
 31
0.0
  0
ARC
  5
279
330
1F
100
AcDbEntity
  8
0
  6
Continuous
 62
     7
370
    25
100
AcDbCircle
 10
6103.5558825025
 20
5245.4514975333
 30
0.0
 40
0.2765685144740695
100
AcDbArc
 50
338.5655197575
 51
32.7637253043
  0
LWPOLYLINE
  5
27A
330
1F
100
AcDbEntity
  8
0
  6
Continuous
 62
     7
370
    25
100
AcDbPolyline
 90
        3
 70
   128
 43
0.0
 10
6103.7884515654
 20
5245.6011697559
 10
6103.6511892001
 20
5245.9871777793
 10
6103.5085964825
 20
5246.2341914289
  0
LWPOLYLINE
  5
27B
330
1F
100
AcDbEntity
  8
0
  6
Continuous
 62
     7
370
    25
100
AcDbPolyline
 90
        3
 70
   128
 43
0.0
 10
6103.5085964825
 20
5246.2341914289
 10
6103.9206515928
 20
5247.1475982381
 10
6104.0163134133
 20
5247.9198643973
  0
LWPOLYLINE
  5
27C
330
1F
100
AcDbEntity
  8
0
  6
Continuous
 62
     7
370
    25
100
AcDbPolyline
 90
        3
 70
   128
 43
0.0
 10
6104.0163134133
 20
5247.9198643973
 10
6103.3642781453
 20
5247.8075128309
 10
6102.8769359542
 20
5247.6452735382
  0
LWPOLYLINE
  5
27D
330
1F
100
AcDbEntity
  8
0
  6
Continuous
 62
     7
370
    25
100
AcDbPolyline
 90
        3
 70
   128
 43
0.0
 10
6102.8769359542
 20
5247.6452735382
 10
6102.7285746212
 20
5247.5803434007
 10
6102.6148484191
 20
5247.5235752259
  0
LWPOLYLINE
  5
27E
330
1F
100
AcDbEntity
  8
0
  6
Continuous
 62
     7
370
    25
100
AcDbPolyline
 90
        3
 70
   128
 43
0.0
 10
6102.6148484191
 20
5247.5235752259
 10
6102.5733103805
 20
5247.4998544921
 10
6102.5381334721
 20
5247.4782102086
  0
LWPOLYLINE
  5
27F
330
1F
100
AcDbEntity
  8
0
  6
Continuous
 62
     7
370
    25
100
AcDbPolyline
 90
        3
 70
   128
 43
0.0
 10
6102.5381334721
 20
5247.4782102086
 10
6102.4475277954
 20
5247.424317641
 10
6102.3799387934
 20
5247.3788384396
  0
LWPOLYLINE
  5
280
330
1F
100
AcDbEntity
  8
0
  6
Continuous
 62
     7
370
    25
100
AcDbPolyline
 90
        3
 70
   128
 43
0.0
 10
6102.3799387934
 20
5247.3788384396
 10
6102.2208923673
 20
5247.2623506953
 10
6102.1083096948
 20
5247.1621531935
  0
LWPOLYLINE
  5
281
330
1F
100
AcDbEntity
  8
0
  6
Continuous
 62
     7
370
    25
100
AcDbPolyline
 90
        3
 70
   128
 43
0.0
 10
6102.1083096948
 20
5247.1621531935
 10
6101.9445071839
 20
5247.1858033506
 10
6101.7826280207
 20
5247.1898220441
  0
LINE
  5
282
330
1F
100
AcDbEntity
  8
0
  6
Continuous
 62
     7
370
    25
100
AcDbLine
 10
6101.7826280207
 20
5247.1898220441
 30
0.0
 11
6101.7553831613
 21
5247.1851439444
 31
0.0
  0
ARC
  5
283
330
1F
100
AcDbEntity
  8
0
  6
Continuous
 62
     7
370
    25
100
AcDbCircle
 10
6101.6841317617
 20
5245.6508301428
 30
0.0
 40
1.535967318555569
100
AcDbArc
 50
87.3411738592
 51
101.0520480677
  0
LINE
  5
284
330
1F
100
AcDbEntity
  8
0
  6
Continuous
 62
     7
370
    25
100
AcDbLine
 10
6101.3896858489
 20
5247.15831056
 30
0.0
 11
6101.3532058473
 21
5247.1855004623
 31
0.0
  0
LWPOLYLINE
  5
285
330
1F
100
AcDbEntity
  8
0
  6
Continuous
 62
     7
370
    25
100
AcDbPolyline
 90
        3
 70
   128
 43
0.0
 10
6101.3532058473
 20
5247.1855004623
 10
6100.8556831922
 20
5247.4981429586
 10
6100.4495737948
 20
5247.6926021818
  0
LWPOLYLINE
  5
286
330
1F
100
AcDbEntity
  8
0
  6
Continuous
 62
     7
370
    25
100
AcDbPolyline
 90
        3
 70
   128
 43
0.0
 10
6100.4495737948
 20
5247.6926021818
 10
6099.977419493
 20
5247.8471698335
 10
6099.591287542
 20
5247.9150036729
  0
LINE
  5
287
330
1F
100
AcDbEntity
  8
0
  6
Continuous
 62
     7
370
    25
100
AcDbLine
 10
6099.591287542
 20
5247.9150036729
 30
0.0
 11
6099.5912546506
 21
5247.9013869728
 31
0.0
  0
LINE
  5
288
330
1F
100
AcDbEntity
  8
0
  6
Continuous
 62
     7
370
    25
100
AcDbLine
 10
6099.5912546506
 20
5247.9013869728
 30
0.0
 11
6099.5910383
 21
5247.6663443088
 31
0.0
  0
LWPOLYLINE
  5
289
330
1F
100
AcDbEntity
  8
0
  6
Continuous
 62
     7
370
    25
100
AcDbPolyline
 90
        3
 70
   128
 43
0.0
 10
6099.5910383
 20
5247.6663443088
 10
6099.7775912333
 20
5246.793037935
 10
6100.0415854679
 20
5246.2328586337
  0
LWPOLYLINE
  5
28A
330
1F
100
AcDbEntity
  8
0
  6
Continuous
 62
     7
370
    25
100
AcDbPolyline
 90
        3
 70
   128
 43
0.0
 10
6100.0415854679
 20
5246.2328586337
 10
6099.8686403117
 20
5245.8452162744
 10
6099.7870342955
 20
5245.557861613
  0
LINE
  5
28B
330
1F
100
AcDbEntity
  8
0
  6
Continuous
 62
     7
370
    25
100
AcDbLine
 10
6099.7870342955
 20
5245.557861613
 30
0.0
 11
6099.7626813644
 21
5245.5138635672
 31
0.0
  0
ARC
  5
28C
330
1F
100
AcDbEntity
  8
0
  6
Continuous
 62
     7
370
    25
100
AcDbCircle
 10
6100.3070849745
 20
5245.2947791841
 30
0.0
 40
0.5868332452432382
100
AcDbArc
 50
158.0786629256
 51
164.0744977803
  0
LWPOLYLINE
  5
28D
330
1F
100
AcDbEntity
  8
0
  6
Continuous
 62
     7
370
    25
100
AcDbPolyline
 90
        3
 70
   128
 43
0.0
 10
6099.7427748143
 20
5245.4557987505
 10
6099.7855487886
 20
5245.4505384175
 10
6099.8197077904
 20
5245.445949396
  0
LINE
  5
28E
330
1F
100
AcDbEntity
  8
0
  6
Continuous
 62
     7
370
    25
100
AcDbLine
 10
6099.8197077904
 20
5245.445949396
 30
0.0
 11
6099.8391165216
 21
5245.4433987833
 31
0.0
  0
LWPOLYLINE
  5
28F
330
1F
100
AcDbEntity
  8
0
  6
Continuous
 62
     7
370
    25
100
AcDbPolyline
 90
        3
 70
   128
 43
0.0
 10
6099.8391165216
 20
5245.4433987833
 10
6100.1932249238
 20
5245.3678055657
 10
6100.4474221673
 20
5245.2743551663
  0
ARC
  5
290
330
1F
100
AcDbEntity
  8
0
  6
Continuous
 62
     7
370
    25
100
AcDbCircle
 10
6100.2427443746
 20
5244.6234046059
 30
0.0
 40
0.6823705964291429
100
AcDbArc
 50
338.180649561
 51
72.5453355142
  0
LWPOLYLINE
  5
291
330
1F
100
AcDbEntity
  8
0
  6
Continuous
 62
     7
370
    25
100
AcDbPolyline
 90
        3
 70
   128
 43
0.0
 10
6100.8762301819
 20
5244.3697801535
 10
6100.6434960264
 20
5243.8633651499
 10
6100.4457999091
 20
5243.5116889238
  0
LWPOLYLINE
  5
292
330
1F
100
AcDbEntity
  8
0
  6
Continuous
 62
     7
370
    25
100
AcDbPolyline
 90
        3
 70
   128
 43
0.0
 10
6100.4457999091
 20
5243.5116889238
 10
6100.2167342289
 20
5242.9687852009
 10
6100.0243664602
 20
5242.3048546281
  0
ARC
  5
293
330
1F
100
AcDbEntity
  8
0
  6
Continuous
 62
     7
370
    25
100
AcDbCircle
 10
6101.8317885769
 20
5241.82545312
 30
0.0
 40
1.869919921793889
100
AcDbArc
 50
165.1448993755
 51
222.0464481261
  0
LWPOLYLINE
  5
294
330
1F
100
AcDbEntity
  8
0
  6
Continuous
 62
     7
370
    25
100
AcDbPolyline
 90
        3
 70
   128
 43
0.0
 10
6100.44318205
 20
5240.5731063521
 10
6100.9081162365
 20
5240.225228349
 10
6101.3469025887
 20
5240.0662679695
  0
LWPOLYLINE
  5
295
330
1F
100
AcDbEntity
  8
0
  6
Continuous
 62
     7
370
    25
100
AcDbPolyline
 90
        3
 70
   128
 43
0.0
 10
6101.3469025887
 20
5240.0662679695
 10
6101.5838909982
 20
5240.02904493
 10
6101.7761159567
 20
5240.0205154467
  0
LINE
  5
296
330
1F
100
AcDbEntity
  8
0
  6
Continuous
 62
     7
370
    25
100
AcDbLine
 10
6101.7761159567
 20
5240.0205154467
 30
0.0
 11
6101.826102636
 21
5240.0204825528
 31
0.0
  0
LWPOLYLINE
  5
297
330
1F
100
AcDbEntity
  8
0
  6
Continuous
 62
     7
370
    25
100
AcDbPolyline
 90
        3
 70
   128
 43
0.0
 10
6101.826102636
 20
5240.0204825528
 10
6102.1392628128
 20
5240.0485216114
 10
6102.3734190829
 20
5240.0972593163
  0
LWPOLYLINE
  5
298
330
1F
100
AcDbEntity
  8
0
  6
Continuous
 62
     7
370
    25
100
AcDbPolyline
 90
        3
 70
   128
 43
0.0
 10
6102.3734190829
 20
5240.0972593163
 10
6102.4636856262
 20
5240.1205062047
 10
6102.5315693027
 20
5240.1418565985
  0
LWPOLYLINE
  5
299
330
1F
100
AcDbEntity
  8
0
  6
Continuous
 62
     7
370
    25
100
AcDbPolyline
 90
        3
 70
   128
 43
0.0
 10
6102.5315693027
 20
5240.1418565985
 10
6102.5760897044
 20
5240.1571930545
 10
6102.6083282795
 20
5240.1690804449
  0
LWPOLYLINE
  5
29A
330
1F
100
AcDbEntity
  8
0
  6
Continuous
 62
     7
370
    25
100
AcDbPolyline
 90
        3
 70
   128
 43
0.0
 10
6102.6083282795
 20
5240.1690804449
 10
6102.7585423298
 20
5240.233208894
 10
6102.8704049921
 20
5240.2862984236
  0
ARC
  5
29B
330
1F
100
AcDbEntity
  8
0
  6
Continuous
 62
     7
370
    25
100
AcDbCircle
 10
6101.7806392177
 20
5242.2557020944
 30
0.0
 40
2.250808801659436
100
AcDbArc
 50
298.9578652279
 51
357.4819965091
  0
ARC
  5
29C
330
1F
100
AcDbEntity
  8
0
  6
Continuous
 62
     7
370
    25
100
AcDbCircle
 10
6097.5475111325
 20
5244.6755227911
 30
0.0
 40
1.296095985138747
100
AcDbArc
 50
93.8521920128
 51
181.3209866074
  0
LINE
  5
29D
330
1F
100
AcDbEntity
  8
0
  6
Continuous
 62
     7
370
    25
100
AcDbLine
 10
6096.2517596079
 20
5244.6456432122
 30
0.0
 11
6096.2378678399
 21
5243.7316833791
 31
0.0
  0
LINE
  5
29E
330
1F
100
AcDbEntity
  8
0
  6
Continuous
 62
     7
370
    25
100
AcDbLine
 10
6096.2378678399
 20
5243.7316833791
 30
0.0
 11
6095.7863204919
 21
5243.7327741028
 31
0.0
  0
LINE
  5
29F
330
1F
100
AcDbEntity
  8
0
  6
Continuous
 62
     7
370
    25
100
AcDbLine
 10
6095.7863204919
 20
5243.7327741028
 30
0.0
 11
6095.6594633279
 21
5243.7321581024
 31
0.0
  0
LINE
  5
2A0
330
1F
100
AcDbEntity
  8
0
  6
Continuous
 62
     7
370
    25
100
AcDbLine
 10
6095.6594633279
 20
5243.7321581024
 30
0.0
 11
6095.7862493799
 21
5243.3396446691
 31
0.0
  0
LINE
  5
2A1
330
1F
100
AcDbEntity
  8
0
  6
Continuous
 62
     7
370
    25
100
AcDbLine
 10
6095.7862493799
 20
5243.3396446691
 30
0.0
 11
6095.8934083535
 21
5243.0047644457
 31
0.0
  0
LINE
  5
2A2
330
1F
100
AcDbEntity
  8
0
  6
Continuous
 62
     7
370
    25
100
AcDbLine
 10
6095.8934083535
 20
5243.0047644457
 30
0.0
 11
6096.2055708347
 21
5243.0174954138
 31
0.0
  0
LINE
  5
2A3
330
1F
100
AcDbEntity
  8
0
  6
Continuous
 62
     7
370
    25
100
AcDbLine
 10
6096.2055708347
 20
5243.0174954138
 30
0.0
 11
6096.1989730407
 21
5240.649772998
 31
0.0
  0
LINE
  5
2A4
330
1F
100
AcDbEntity
  8
0
  6
Continuous
 62
     7
370
    25
100
AcDbLine
 10
6096.1989730407
 20
5240.649772998
 30
0.0
 11
6096.9087128223
 21
5240.6489810311
 31
0.0
  0
LINE
  5
2A5
330
1F
100
AcDbEntity
  8
0
  6
Continuous
 62
     7
370
    25
100
AcDbLine
 10
6096.9087128223
 20
5240.6489810311
 30
0.0
 11
6096.9197474483
 21
5242.9986834403
 31
0.0
  0
LINE
  5
2A6
330
1F
100
AcDbEntity
  8
0
  6
Continuous
 62
     7
370
    25
100
AcDbLine
 10
6096.9197474483
 20
5242.9986834403
 30
0.0
 11
6097.4937593703
 21
5242.9981754023
 31
0.0
  0
LINE
  5
2A7
330
1F
100
AcDbEntity
  8
0
  6
Continuous
 62
     7
370
    25
100
AcDbLine
 10
6097.4937593703
 20
5242.9981754023
 30
0.0
 11
6098.0451940311
 21
5242.9977658252
 31
0.0
  0
LINE
  5
2A8
330
1F
100
AcDbEntity
  8
0
  6
Continuous
 62
     7
370
    25
100
AcDbLine
 10
6098.0451940311
 20
5242.9977658252
 30
0.0
 11
6098.0431200723
 21
5240.6480417712
 31
0.0
  0
LINE
  5
2A9
330
1F
100
AcDbEntity
  8
0
  6
Continuous
 62
     7
370
    25
100
AcDbLine
 10
6098.0431200723
 20
5240.6480417712
 30
0.0
 11
6098.761820415
 21
5240.6471842347
 31
0.0
  0
LINE
  5
2AA
330
1F
100
AcDbEntity
  8
0
  6
Continuous
 62
     7
370
    25
100
AcDbLine
 10
6098.761820415
 20
5240.6471842347
 30
0.0
 11
6098.7788610803
 21
5244.7195704603
 31
0.0
  0
ARC
  5
2AB
330
1F
100
AcDbEntity
  8
0
  6
Continuous
 62
     7
370
    25
100
AcDbCircle
 10
6097.5885246138
 20
5244.7770612895
 30
0.0
 40
1.191724002851426
100
AcDbArc
 50
357.2348791592
 51
91.3603327904
  0
LINE
  5
2AC
330
1F
100
AcDbEntity
  8
0
  6
Continuous
 62
     7
370
    25
100
AcDbLine
 10
6097.5602330197
 20
5245.968449423
 30
0.0
 11
6097.4604357848
 21
5245.9686904857
 31
0.0
  0
ARC
  5
2AD
330
1F
100
AcDbEntity
  8
0
  6
Continuous
 62
     7
370
    25
100
AcDbCircle
 10
6085.4804093827
 20
5244.7027495687
 30
0.0
 40
1.287958671080815
100
AcDbArc
 50
93.7511437571
 51
181.4870821495
  0
LINE
  5
2AE
330
1F
100
AcDbEntity
  8
0
  6
Continuous
 62
     7
370
    25
100
AcDbLine
 10
6084.1928844943
 20
5244.6693250244
 30
0.0
 11
6084.1781164577
 21
5243.7562897349
 31
0.0
  0
LINE
  5
2AF
330
1F
100
AcDbEntity
  8
0
  6
Continuous
 62
     7
370
    25
100
AcDbLine
 10
6084.1781164577
 20
5243.7562897349
 30
0.0
 11
6083.5861832012
 21
5243.7568410624
 31
0.0
  0
LINE
  5
2B0
330
1F
100
AcDbEntity
  8
0
  6
Continuous
 62
     7
370
    25
100
AcDbLine
 10
6083.5861832012
 20
5243.7568410624
 30
0.0
 11
6083.825486951
 21
5243.0293905364
 31
0.0
  0
LINE
  5
2B1
330
1F
100
AcDbEntity
  8
0
  6
Continuous
 62
     7
370
    25
100
AcDbLine
 10
6083.825486951
 20
5243.0293905364
 30
0.0
 11
6084.1412517985
 21
5243.0241474389
 31
0.0
  0
LINE
  5
2B2
330
1F
100
AcDbEntity
  8
0
  6
Continuous
 62
     7
370
    25
100
AcDbLine
 10
6084.1412517985
 20
5243.0241474389
 30
0.0
 11
6084.1391539668
 21
5240.664540296
 31
0.0
  0
LINE
  5
2B3
330
1F
100
AcDbEntity
  8
0
  6
Continuous
 62
     7
370
    25
100
AcDbLine
 10
6084.1391539668
 20
5240.664540296
 30
0.0
 11
6084.8354304675
 21
5240.6727415694
 31
0.0
  0
LINE
  5
2B4
330
1F
100
AcDbEntity
  8
0
  6
Continuous
 62
     7
370
    25
100
AcDbLine
 10
6084.8354304675
 20
5240.6727415694
 30
0.0
 11
6084.8374847974
 21
5243.0143395281
 31
0.0
  0
LINE
  5
2B5
330
1F
100
AcDbEntity
  8
0
  6
Continuous
 62
     7
370
    25
100
AcDbLine
 10
6084.8374847974
 20
5243.0143395281
 30
0.0
 11
6085.4348317376
 21
5243.0182994086
 31
0.0
  0
LINE
  5
2B6
330
1F
100
AcDbEntity
  8
0
  6
Continuous
 62
     7
370
    25
100
AcDbLine
 10
6085.4348317376
 20
5243.0182994086
 30
0.0
 11
6085.9853987239
 21
5243.0223722871
 31
0.0
  0
LINE
  5
2B7
330
1F
100
AcDbEntity
  8
0
  6
Continuous
 62
     7
370
    25
100
AcDbLine
 10
6085.9853987239
 20
5243.0223722871
 30
0.0
 11
6085.9742963002
 21
5240.6627868952
 31
0.0
  0
LINE
  5
2B8
330
1F
100
AcDbEntity
  8
0
  6
Continuous
 62
     7
370
    25
100
AcDbLine
 10
6085.9742963002
 20
5240.6627868952
 30
0.0
 11
6086.688581985
 21
5240.6709446669
 31
0.0
  0
LINE
  5
2B9
330
1F
100
AcDbEntity
  8
0
  6
Continuous
 62
     7
370
    25
100
AcDbLine
 10
6086.688581985
 20
5240.6709446669
 30
0.0
 11
6086.7011445449
 21
5244.7442641365
 31
0.0
  0
ARC
  5
2BA
330
1F
100
AcDbEntity
  8
0
  6
Continuous
 62
     7
370
    25
100
AcDbCircle
 10
6085.5186426991
 20
5244.8089416518
 30
0.0
 40
1.18426930897876
100
AcDbArc
 50
356.8692988344
 51
90.9211868748
  0
LINE
  5
2BB
330
1F
100
AcDbEntity
  8
0
  6
Continuous
 62
     7
370
    25
100
AcDbLine
 10
6085.4996031407
 20
5245.9930579009
 30
0.0
 11
6085.4366019767
 21
5245.9878512201
 31
0.0
  0
LINE
  5
2BC
330
1F
100
AcDbEntity
  8
0
  6
Continuous
 62
     7
370
    25
100
AcDbLine
 10
6085.4366019767
 20
5245.9878512201
 30
0.0
 11
6085.3961471997
 21
5245.9879489396
 31
0.0
  0
LINE
  5
2BD
330
1F
100
AcDbEntity
  8
0
  6
Continuous
 62
     7
370
    25
100
AcDbLine
 10
6126.9225690907
 20
5220.6621613258
 30
0.0
 11
6127.4225690907
 21
5220.1621613258
 31
0.0
  0
LINE
  5
2BE
330
1F
100
AcDbEntity
  8
0
  6
Continuous
 62
     7
370
    25
100
AcDbLine
 10
6127.4225690907
 20
5220.1621613258
 30
0.0
 11
5957.4225690907
 21
5220.1621613258
 31
0.0
  0
LINE
  5
2BF
330
1F
100
AcDbEntity
  8
0
  6
Continuous
 62
     7
370
    25
100
AcDbLine
 10
5957.4225690907
 20
5220.1621613258
 30
0.0
 11
5957.9225690907
 21
5220.6621613258
 31
0.0
  0
LINE
  5
2C0
330
1F
100
AcDbEntity
  8
0
  6
Continuous
 62
     7
370
    25
100
AcDbLine
 10
5957.4225690907
 20
5220.1621613258
 30
0.0
 11
5957.4225690907
 21
5390.1621613258
 31
0.0
  0
LINE
  5
2C1
330
1F
100
AcDbEntity
  8
0
  6
Continuous
 62
     7
370
    25
100
AcDbLine
 10
5957.4225690907
 20
5390.1621613258
 30
0.0
 11
5957.9225690907
 21
5389.6621613258
 31
0.0
  0
LWPOLYLINE
  5
2C2
330
1F
100
AcDbEntity
  8
0
  6
Continuous
 62
     7
370
    25
100
AcDbPolyline
 90
        6
 70
   128
 43
0.0
 10
6084.8336503529
 20
5244.0273054198
 10
6084.9436840151
 20
5244.884786935
 10
6085.0189193673
 20
5245.0451737322
 10
6085.1177620479
 20
5245.1686908436
 10
6085.2424703336
 20
5245.2477001426
 10
6085.3953025015
 20
5245.2745635025
  0
LINE
  5
2C3
330
1F
100
AcDbEntity
  8
0
  6
Continuous
 62
     7
370
    25
100
AcDbLine
 10
6085.3953025015
 20
5245.2745635025
 30
0.0
 11
6085.4366688777
 21
5245.2699832212
 31
0.0
  0
LINE
  5
2C4
330
1F
100
AcDbEntity
  8
0
  6
Continuous
 62
     7
370
    25
100
AcDbLine
 10
6085.4366688777
 20
5245.2699832212
 30
0.0
 11
6085.6255678607
 21
5245.2605222865
 31
0.0
  0
LWPOLYLINE
  5
2C5
330
1F
100
AcDbEntity
  8
0
  6
Continuous
 62
     7
370
    25
100
AcDbPolyline
 90
        7
 70
   128
 43
0.0
 10
6085.6255678607
 20
5245.2605222865
 10
6085.7123109276
 20
5245.2567345134
 10
6085.7856824265
 20
5245.2267912943
 10
6085.8468093613
 20
5245.1731760977
 10
6085.918006527
 20
5245.0538009325
 10
6085.9679928206
 20
5244.895133329
 10
6086.0319020391
 20
5244.0351726616
  0
LINE
  5
2C6
330
1F
100
AcDbEntity
  8
0
  6
Continuous
 62
     7
370
    25
100
AcDbLine
 10
6086.0319020391
 20
5244.0351726616
 30
0.0
 11
6086.026776396
 21
5243.7680326114
 31
0.0
  0
LINE
  5
2C7
330
1F
100
AcDbEntity
  8
0
  6
Continuous
 62
     7
370
    25
100
AcDbLine
 10
6086.026776396
 20
5243.7680326114
 30
0.0
 11
6085.4348430334
 21
5243.768540014
 31
0.0
  0
LINE
  5
2C8
330
1F
100
AcDbEntity
  8
0
  6
Continuous
 62
     7
370
    25
100
AcDbLine
 10
6085.4348430334
 20
5243.768540014
 30
0.0
 11
6084.8339491097
 21
5243.7691129863
 31
0.0
  0
LINE
  5
2C9
330
1F
100
AcDbEntity
  8
0
  6
Continuous
 62
     7
370
    25
100
AcDbLine
 10
6084.8339491097
 20
5243.7691129863
 30
0.0
 11
6084.8336503529
 21
5244.0273054198
 31
0.0
  0
ARC
  5
2CA
330
1F
100
AcDbEntity
  8
0
  6
Continuous
 62
     7
370
    25
100
AcDbCircle
 10
6102.3437795694
 20
5241.9820922571
 30
0.0
 40
2.282383891131404
100
AcDbArc
 50
146.2699313081
 51
213.6242847269
  0
LWPOLYLINE
  5
2CB
330
1F
100
AcDbEntity
  8
0
  6
Continuous
 62
     7
370
    25
100
AcDbPolyline
 90
        3
 70
   128
 43
0.0
 10
6100.4456057313
 20
5243.2494565721
 10
6100.7134499945
 20
5243.7867910189
 10
6100.8398322766
 20
5244.0308981109
  0
LWPOLYLINE
  5
2CC
330
1F
100
AcDbEntity
  8
0
  6
Continuous
 62
     7
370
    25
100
AcDbPolyline
 90
        3
 70
   128
 43
0.0
 10
6100.8398322766
 20
5244.0308981109
 10
6101.0033924119
 20
5244.4568388919
 10
6101.0300624178
 20
5244.699813137
  0
LWPOLYLINE
  5
2CD
330
1F
100
AcDbEntity
  8
0
  6
Continuous
 62
     7
370
    25
100
AcDbPolyline
 90
        3
 70
   128
 43
0.0
 10
6101.0300624178
 20
5244.699813137
 10
6101.2715021096
 20
5243.7170646048
 10
6101.3493783755
 20
5242.9096652022
  0
LWPOLYLINE
  5
2CE
330
1F
100
AcDbEntity
  8
0
  6
Continuous
 62
     7
370
    25
100
AcDbPolyline
 90
        3
 70
   128
 43
0.0
 10
6101.3493783755
 20
5242.9096652022
 10
6101.3631586753
 20
5241.3989000311
 10
6101.3513923702
 20
5240.1429064161
  0
LINE
  5
2CF
330
1F
100
AcDbEntity
  8
0
  6
Continuous
 62
     7
370
    25
100
AcDbLine
 10
6101.3513923702
 20
5240.1429064161
 30
0.0
 11
6101.3469232833
 21
5240.1475732715
 31
0.0
  0
LWPOLYLINE
  5
2D0
330
1F
100
AcDbEntity
  8
0
  6
Continuous
 62
     7
370
    25
100
AcDbPolyline
 90
        3
 70
   128
 43
0.0
 10
6101.3469232833
 20
5240.1475732715
 10
6100.7627382758
 20
5240.4374436333
 10
6100.4432690604
 20
5240.7182346577
  0
LINE
  5
2D1
330
1F
100
AcDbEntity
  8
0
  6
Continuous
 62
     7
370
    25
100
AcDbLine
 10
6097.4460492917
 20
5245.2499788974
 30
0.0
 11
6097.4955965104
 21
5245.2498592149
 31
0.0
  0
LINE
  5
2D2
330
1F
100
AcDbEntity
  8
0
  6
Continuous
 62
     7
370
    25
100
AcDbLine
 10
6097.4955965104
 20
5245.2498592149
 30
0.0
 11
6097.6853300654
 21
5245.2403962642
 31
0.0
  0
LWPOLYLINE
  5
2D3
330
1F
100
AcDbEntity
  8
0
  6
Continuous
 62
     7
370
    25
100
AcDbPolyline
 90
        7
 70
   128
 43
0.0
 10
6097.6853300654
 20
5245.2403962642
 10
6097.772156226
 20
5245.2355864982
 10
6097.8457513165
 20
5245.2048227276
 10
6097.9071956098
 20
5245.1505633685
 10
6097.9789424023
 20
5245.0304978866
 10
6098.0294264367
 20
5244.8713959209
 10
6098.0916534215
 20
5244.0105663058
  0
LINE
  5
2D4
330
1F
100
AcDbEntity
  8
0
  6
Continuous
 62
     7
370
    25
100
AcDbLine
 10
6098.0916534215
 20
5244.0105663058
 30
0.0
 11
6098.0910102339
 21
5243.7442939299
 31
0.0
  0
LINE
  5
2D5
330
1F
100
AcDbEntity
  8
0
  6
Continuous
 62
     7
370
    25
100
AcDbLine
 10
6098.0910102339
 20
5243.7442939299
 30
0.0
 11
6097.4945965378
 21
5243.744812155
 31
0.0
  0
LINE
  5
2D6
330
1F
100
AcDbEntity
  8
0
  6
Continuous
 62
     7
370
    25
100
AcDbLine
 10
6097.4945965378
 20
5243.744812155
 30
0.0
 11
6096.8928241173
 21
5243.7453872492
 31
0.0
  0
LINE
  5
2D7
330
1F
100
AcDbEntity
  8
0
  6
Continuous
 62
     7
370
    25
100
AcDbLine
 10
6096.8928241173
 20
5243.7453872492
 30
0.0
 11
6096.893445554
 21
5244.002655033
 31
0.0
  0
LWPOLYLINE
  5
2D8
330
1F
100
AcDbEntity
  8
0
  6
Continuous
 62
     7
370
    25
100
AcDbPolyline
 90
        6
 70
   128
 43
0.0
 10
6096.893445554
 20
5244.002655033
 10
6097.0057257621
 20
5244.8604989943
 10
6097.0788803755
 20
5245.0207961899
 10
6097.1750065795
 20
5245.1442133961
 10
6097.2965732572
 20
5245.2231433772
 10
6097.4460492917
 20
5245.2499788974
  0
ARC
  5
2D9
330
1F
100
AcDbEntity
  8
0
  6
Continuous
 62
     7
370
    25
100
AcDbCircle
 10
6101.7064433675
 20
5242.3264953237
 30
0.0
 40
2.255172509826281
100
AcDbArc
 50
301.0755736439
 51
352.6825443942
  0
LWPOLYLINE
  5
2DA
330
1F
100
AcDbEntity
  8
0
  6
Continuous
 62
     7
370
    25
100
AcDbPolyline
 90
        3
 70
   128
 43
0.0
 10
6102.870491788
 20
5240.3949689004
 10
6102.7288088047
 20
5240.3225266401
 10
6102.6083930062
 20
5240.2686145552
  0
LWPOLYLINE
  5
2DB
330
1F
100
AcDbEntity
  8
0
  6
Continuous
 62
     7
370
    25
100
AcDbPolyline
 90
        3
 70
   128
 43
0.0
 10
6102.6083930062
 20
5240.2686145552
 10
6102.5668041219
 20
5240.2507282483
 10
6102.5317110567
 20
5240.2369101629
  0
LWPOLYLINE
  5
2DC
330
1F
100
AcDbEntity
  8
0
  6
Continuous
 62
     7
370
    25
100
AcDbPolyline
 90
        3
 70
   128
 43
0.0
 10
6102.5317110567
 20
5240.2369101629
 10
6102.4446095363
 20
5240.2066331802
 10
6102.3735380251
 20
5240.1828690403
  0
LWPOLYLINE
  5
2DD
330
1F
100
AcDbEntity
  8
0
  6
Continuous
 62
     7
370
    25
100
AcDbPolyline
 90
        3
 70
   128
 43
0.0
 10
6102.3735380251
 20
5240.1828690403
 10
6102.2811035992
 20
5240.155114177
 10
6102.2057998826
 20
5240.133199607
  0
LWPOLYLINE
  5
2DE
330
1F
100
AcDbEntity
  8
0
  6
Continuous
 62
     7
370
    25
100
AcDbPolyline
 90
        3
 70
   128
 43
0.0
 10
6102.2057998826
 20
5240.133199607
 10
6102.1388079482
 20
5242.3234186223
 10
6102.3318189243
 20
5244.223858983
  0
LWPOLYLINE
  5
2DF
330
1F
100
AcDbEntity
  8
0
  6
Continuous
 62
     7
370
    25
100
AcDbPolyline
 90
        3
 70
   128
 43
0.0
 10
6102.3318189243
 20
5244.223858983
 10
6102.3586456053
 20
5244.2956491506
 10
6102.3771815144
 20
5244.3461686499
  0
LWPOLYLINE
  5
2E0
330
1F
100
AcDbEntity
  8
0
  6
Continuous
 62
     7
370
    25
100
AcDbPolyline
 90
        3
 70
   128
 43
0.0
 10
6102.3771815144
 20
5244.3461686499
 10
6102.4641023948
 20
5244.566950319
 10
6102.5356791226
 20
5244.7164257517
  0
LWPOLYLINE
  5
2E1
330
1F
100
AcDbEntity
  8
0
  6
Continuous
 62
     7
370
    25
100
AcDbPolyline
 90
        3
 70
   128
 43
0.0
 10
6102.5356791226
 20
5244.7164257517
 10
6102.5783023579
 20
5244.7957593941
 10
6102.6125242586
 20
5244.8520565259
  0
LINE
  5
2E2
330
1F
100
AcDbEntity
  8
0
  6
Continuous
 62
     7
370
    25
100
AcDbLine
 10
6102.6125242586
 20
5244.8520565259
 30
0.0
 11
6102.6158738993
 21
5244.85674842
 31
0.0
  0
LWPOLYLINE
  5
2E3
330
1F
100
AcDbEntity
  8
0
  6
Continuous
 62
     7
370
    25
100
AcDbPolyline
 90
        3
 70
   128
 43
0.0
 10
6102.6158738993
 20
5244.85674842
 10
6102.6922183392
 20
5244.7924356231
 10
6102.7522895887
 20
5244.7411594537
  0
LWPOLYLINE
  5
2E4
330
1F
100
AcDbEntity
  8
0
  6
Continuous
 62
     7
370
    25
100
AcDbPolyline
 90
        3
 70
   128
 43
0.0
 10
6102.7522895887
 20
5244.7411594537
 10
6102.6734890988
 20
5244.5675153146
 10
6102.6122228026
 20
5244.3999362452
  0
LWPOLYLINE
  5
2E5
330
1F
100
AcDbEntity
  8
0
  6
Continuous
 62
     7
370
    25
100
AcDbPolyline
 90
        3
 70
   128
 43
0.0
 10
6102.6122228026
 20
5244.3999362452
 10
6102.5688824823
 20
5244.2506381037
 10
6102.535039521
 20
5244.124317008
  0
LWPOLYLINE
  5
2E6
330
1F
100
AcDbEntity
  8
0
  6
Continuous
 62
     7
370
    25
100
AcDbPolyline
 90
        3
 70
   128
 43
0.0
 10
6102.535039521
 20
5244.124317008
 10
6102.4374955229
 20
5243.6743595639
 10
6102.3761854962
 20
5243.2791865588
  0
LWPOLYLINE
  5
2E7
330
1F
100
AcDbEntity
  8
0
  6
Continuous
 62
     7
370
    25
100
AcDbPolyline
 90
        3
 70
   128
 43
0.0
 10
6102.3761854962
 20
5243.2791865588
 10
6102.2901163517
 20
5241.9573577086
 10
6102.3741095215
 20
5240.9286279329
  0
LWPOLYLINE
  5
2E8
330
1F
100
AcDbEntity
  8
0
  6
Continuous
 62
     7
370
    25
100
AcDbPolyline
 90
        3
 70
   128
 43
0.0
 10
6102.3741095215
 20
5240.9286279329
 10
6102.3964888995
 20
5240.8045503316
 10
6102.414249171
 20
5240.7071484928
  0
LWPOLYLINE
  5
2E9
330
1F
100
AcDbEntity
  8
0
  6
Continuous
 62
     7
370
    25
100
AcDbPolyline
 90
        3
 70
   128
 43
0.0
 10
6102.414249171
 20
5240.7071484928
 10
6102.393396144
 20
5241.1119648723
 10
6102.3745092275
 20
5241.4214226148
  0
LWPOLYLINE
  5
2EA
330
1F
100
AcDbEntity
  8
0
  6
Continuous
 62
     7
370
    25
100
AcDbPolyline
 90
        3
 70
   128
 43
0.0
 10
6102.3745092275
 20
5241.4214226148
 10
6102.3561444228
 20
5241.7564715267
 10
6102.3478706563
 20
5242.0314308384
  0
LINE
  5
2EB
330
1F
100
AcDbEntity
  8
0
  6
Continuous
 62
     7
370
    25
100
AcDbLine
 10
6102.3478706563
 20
5242.0314308384
 30
0.0
 11
6102.3751819328
 21
5242.0272359083
 31
0.0
  0
LWPOLYLINE
  5
2EC
330
1F
100
AcDbEntity
  8
0
  6
Continuous
 62
     7
370
    25
100
AcDbPolyline
 90
        3
 70
   128
 43
0.0
 10
6102.3751819328
 20
5242.0272359083
 10
6102.4653386459
 20
5242.0050143275
 10
6102.5331358648
 20
5241.9905722377
  0
LWPOLYLINE
  5
2ED
330
1F
100
AcDbEntity
  8
0
  6
Continuous
 62
     7
370
    25
100
AcDbPolyline
 90
        3
 70
   128
 43
0.0
 10
6102.5331358648
 20
5241.9905722377
 10
6102.5777136705
 20
5241.9804023414
 10
6102.6100492121
 20
5241.9725967879
  0
LWPOLYLINE
  5
2EE
330
1F
100
AcDbEntity
  8
0
  6
Continuous
 62
     7
370
    25
100
AcDbPolyline
 90
        3
 70
   128
 43
0.0
 10
6102.6100492121
 20
5241.9725967879
 10
6102.7582566616
 20
5241.9492180022
 10
6102.8719311176
 20
5241.9364288034
  0
LWPOLYLINE
  5
2EF
330
1F
100
AcDbEntity
  8
0
  6
Continuous
 62
     7
370
    25
100
AcDbPolyline
 90
        3
 70
   128
 43
0.0
 10
6102.8719311176
 20
5241.9364288034
 10
6103.3958404917
 20
5241.9452749764
 10
6103.9432490428
 20
5242.0392612378
  0
LWPOLYLINE
  5
2F0
330
1F
100
AcDbEntity
  8
0
  6
Continuous
 62
     7
370
    25
100
AcDbPolyline
 90
        3
 70
   128
 43
0.0
 10
6101.3521129536
 20
5246.0056750346
 10
6100.8224116614
 20
5245.9147752444
 10
6100.4478761973
 20
5245.7896393659
  0
LWPOLYLINE
  5
2F1
330
1F
100
AcDbEntity
  8
0
  6
Continuous
 62
     7
370
    25
100
AcDbPolyline
 90
        3
 70
   128
 43
0.0
 10
6100.4478761973
 20
5245.7896393659
 10
6100.0889769499
 20
5245.6275415937
 10
6099.7707450707
 20
5245.4698311434
  0
LWPOLYLINE
  5
2F2
330
1F
100
AcDbEntity
  8
0
  6
Continuous
 62
     7
370
    25
100
AcDbPolyline
 90
        3
 70
   128
 43
0.0
 10
6099.7707450707
 20
5245.4698311434
 10
6099.7938969909
 20
5245.5287787081
 10
6099.838945182
 20
5245.5906800427
  0
LINE
  5
2F3
330
1F
100
AcDbEntity
  8
0
  6
Continuous
 62
     7
370
    25
100
AcDbLine
 10
6099.838945182
 20
5245.5906800427
 30
0.0
 11
6099.8362179162
 21
5245.5890614019
 31
0.0
  0
LWPOLYLINE
  5
2F4
330
1F
100
AcDbEntity
  8
0
  6
Continuous
 62
     7
370
    25
100
AcDbPolyline
 90
        3
 70
   128
 43
0.0
 10
6099.8362179162
 20
5245.5890614019
 10
6100.1838631018
 20
5245.8867685076
 10
6100.4480696348
 20
5246.0879342229
  0
LWPOLYLINE
  5
2F5
330
1F
100
AcDbEntity
  8
0
  6
Continuous
 62
     7
370
    25
100
AcDbPolyline
 90
        3
 70
   128
 43
0.0
 10
6100.4480696348
 20
5246.0879342229
 10
6100.8038358955
 20
5246.3211598167
 10
6101.0953322999
 20
5246.4807302521
  0
LWPOLYLINE
  5
2F6
330
1F
100
AcDbEntity
  8
0
  6
Continuous
 62
     7
370
    25
100
AcDbPolyline
 90
        3
 70
   128
 43
0.0
 10
6101.0953322999
 20
5246.4807302521
 10
6101.2225652601
 20
5246.368314829
 10
6101.3523508452
 20
5246.28600442
  0
LWPOLYLINE
  5
2F7
330
1F
100
AcDbEntity
  8
0
  6
Continuous
 62
     7
370
    25
100
AcDbPolyline
 90
        3
 70
   128
 43
0.0
 10
6101.3523508452
 20
5246.28600442
 10
6101.5744935686
 20
5246.1917738822
 10
6101.7817087139
 20
5246.1545976118
  0
LINE
  5
2F8
330
1F
100
AcDbEntity
  8
0
  6
Continuous
 62
     7
370
    25
100
AcDbLine
 10
6101.7817087139
 20
5246.1545976118
 30
0.0
 11
6101.8360768426
 21
5246.1499859244
 31
0.0
  0
LWPOLYLINE
  5
2F9
330
1F
100
AcDbEntity
  8
0
  6
Continuous
 62
     7
370
    25
100
AcDbPolyline
 90
        3
 70
   128
 43
0.0
 10
6101.8360768426
 20
5246.1499859244
 10
6102.1985234419
 20
5246.1951782901
 10
6102.3788669126
 20
5246.2804500884
  0
LWPOLYLINE
  5
2FA
330
1F
100
AcDbEntity
  8
0
  6
Continuous
 62
     7
370
    25
100
AcDbPolyline
 90
        3
 70
   128
 43
0.0
 10
6102.3788669126
 20
5246.2804500884
 10
6102.4672591333
 20
5246.3503324476
 10
6102.5371380905
 20
5246.4114916665
  0
LINE
  5
2FB
330
1F
100
AcDbEntity
  8
0
  6
Continuous
 62
     7
370
    25
100
AcDbLine
 10
6102.5371380905
 20
5246.4114916665
 30
0.0
 11
6102.5594956227
 21
5246.4295348006
 31
0.0
  0
LWPOLYLINE
  5
2FC
330
1F
100
AcDbEntity
  8
0
  6
Continuous
 62
     7
370
    25
100
AcDbPolyline
 90
        3
 70
   128
 43
0.0
 10
6102.5594956227
 20
5246.4295348006
 10
6102.5932018099
 20
5246.4185229128
 10
6102.6139959491
 20
5246.4069135048
  0
LWPOLYLINE
  5
2FD
330
1F
100
AcDbEntity
  8
0
  6
Continuous
 62
     7
370
    25
100
AcDbPolyline
 90
        3
 70
   128
 43
0.0
 10
6102.6139959491
 20
5246.4069135048
 10
6102.765491952
 20
5246.3342190523
 10
6102.8758342421
 20
5246.279952453
  0
LWPOLYLINE
  5
2FE
330
1F
100
AcDbEntity
  8
0
  6
Continuous
 62
     7
370
    25
100
AcDbPolyline
 90
        3
 70
   128
 43
0.0
 10
6102.8758342421
 20
5246.279952453
 10
6103.4421926454
 20
5245.9230265027
 10
6103.7855935825
 20
5245.5454357131
  0
ARC
  5
2FF
330
1F
100
AcDbEntity
  8
0
  6
Continuous
 62
     7
370
    25
100
AcDbCircle
 10
6103.6112734043
 20
5245.4532827383
 30
0.0
 40
0.1971793480031069
100
AcDbArc
 50
335.7551758965
 51
27.8628128997
  0
LWPOLYLINE
  5
300
330
1F
100
AcDbEntity
  8
0
  6
Continuous
 62
     7
370
    25
100
AcDbPolyline
 90
        3
 70
   128
 43
0.0
 10
6103.7910613648
 20
5245.3723137038
 10
6103.3673784322
 20
5245.6692439511
 10
6102.8754561855
 20
5245.8688583966
  0
LWPOLYLINE
  5
301
330
1F
100
AcDbEntity
  8
0
  6
Continuous
 62
     7
370
    25
100
AcDbPolyline
 90
        3
 70
   128
 43
0.0
 10
6102.8754561855
 20
5245.8688583966
 10
6102.7319100339
 20
5245.9109851462
 10
6102.6135743886
 20
5245.9414402851
  0
LWPOLYLINE
  5
302
330
1F
100
AcDbEntity
  8
0
  6
Continuous
 62
     7
370
    25
100
AcDbPolyline
 90
        3
 70
   128
 43
0.0
 10
6102.6135743886
 20
5245.9414402851
 10
6102.5719645625
 20
5245.9491002685
 10
6102.5367383869
 20
5245.9550669636
  0
LWPOLYLINE
  5
303
330
1F
100
AcDbEntity
  8
0
  6
Continuous
 62
     7
370
    25
100
AcDbPolyline
 90
        3
 70
   128
 43
0.0
 10
6102.5367383869
 20
5245.9550669636
 10
6102.449728051
 20
5245.9720872523
 10
6102.3785858376
 20
5245.9822432933
  0
LWPOLYLINE
  5
304
330
1F
100
AcDbEntity
  8
0
  6
Continuous
 62
     7
370
    25
100
AcDbPolyline
 90
        3
 70
   128
 43
0.0
 10
6102.3785858376
 20
5245.9822432933
 10
6102.0805952772
 20
5246.0153272086
 10
6101.8313787862
 20
5246.0234929974
  0
LINE
  5
305
330
1F
100
AcDbEntity
  8
0
  6
Continuous
 62
     7
370
    25
100
AcDbLine
 10
6101.8313787862
 20
5246.0234929974
 30
0.0
 11
6101.7815678062
 21
5246.0235254669
 31
0.0
  0
LWPOLYLINE
  5
306
330
1F
100
AcDbEntity
  8
0
  6
Continuous
 62
     7
370
    25
100
AcDbPolyline
 90
        3
 70
   128
 43
0.0
 10
6101.7815678062
 20
5246.0235254669
 10
6101.5313080542
 20
5246.018563495
 10
6101.3521129536
 20
5246.0056750346
  0
LWPOLYLINE
  5
307
330
1F
100
AcDbEntity
  8
0
  6
Continuous
 62
     7
370
    25
100
AcDbPolyline
 90
        3
 70
   128
 43
0.0
 10
6102.8765572586
 20
5247.1975459535
 10
6102.7425810063
 20
5247.0838259948
 10
6102.6370043273
 20
5246.9853514365
  0
LINE
  5
308
330
1F
100
AcDbEntity
  8
0
  6
Continuous
 62
     7
370
    25
100
AcDbLine
 10
6102.6370043273
 20
5246.9853514365
 30
0.0
 11
6102.6145479133
 21
5246.9991103103
 31
0.0
  0
LWPOLYLINE
  5
309
330
1F
100
AcDbEntity
  8
0
  6
Continuous
 62
     7
370
    25
100
AcDbPolyline
 90
        3
 70
   128
 43
0.0
 10
6102.6145479133
 20
5246.9991103103
 10
6102.5695552612
 20
5247.0192740401
 10
6102.5376782797
 20
5247.0351827939
  0
LINE
  5
30A
330
1F
100
AcDbEntity
  8
0
  6
Continuous
 62
     7
370
    25
100
AcDbLine
 10
6102.5376782797
 20
5247.0351827939
 30
0.0
 11
6102.496948602
 21
5247.0487661818
 31
0.0
  0
LINE
  5
30B
330
1F
100
AcDbEntity
  8
0
  6
Continuous
 62
     7
370
    25
100
AcDbLine
 10
6102.496948602
 20
5247.0487661818
 30
0.0
 11
6102.5377107492
 21
5247.0849937739
 31
0.0
  0
LWPOLYLINE
  5
30C
330
1F
100
AcDbEntity
  8
0
  6
Continuous
 62
     7
370
    25
100
AcDbPolyline
 90
        3
 70
   128
 43
0.0
 10
6102.5377107492
 20
5247.0849937739
 10
6102.5823075344
 20
5247.1255651295
 10
6102.6146663297
 20
5247.1572403684
  0
LWPOLYLINE
  5
30D
330
1F
100
AcDbEntity
  8
0
  6
Continuous
 62
     7
370
    25
100
AcDbPolyline
 90
        3
 70
   128
 43
0.0
 10
6102.6146663297
 20
5247.1572403684
 10
6102.7596377297
 20
5247.2778421216
 10
6102.8767085666
 20
5247.3692927118
  0
LWPOLYLINE
  5
30E
330
1F
100
AcDbEntity
  8
0
  6
Continuous
 62
     7
370
    25
100
AcDbPolyline
 90
        3
 70
   128
 43
0.0
 10
6103.9665688457
 20
5247.8382838787
 10
6103.8078957144
 20
5247.0027539839
 10
6103.4680308378
 20
5246.3156826184
  0
LWPOLYLINE
  5
30F
330
1F
100
AcDbEntity
  8
0
  6
Continuous
 62
     7
370
    25
100
AcDbPolyline
 90
        3
 70
   128
 43
0.0
 10
6103.4680308378
 20
5246.3156826184
 10
6103.4227708977
 20
5246.3913187137
 10
6103.3776091247
 20
5246.4512781789
  0
LWPOLYLINE
  5
310
330
1F
100
AcDbEntity
  8
0
  6
Continuous
 62
     7
370
    25
100
AcDbPolyline
 90
        3
 70
   128
 43
0.0
 10
6103.8085625938
 20
5247.6714427078
 10
6103.2634164509
 20
5247.4626329125
 10
6102.8765572586
 20
5247.1975459535
  0
LWPOLYLINE
  5
311
330
1F
100
AcDbEntity
  8
0
  6
Continuous
 62
     7
370
    25
100
AcDbPolyline
 90
        3
 70
   128
 43
0.0
 10
6103.3776091247
 20
5246.4512781789
 10
6103.7041307545
 20
5247.1231093387
 10
6103.8085625938
 20
5247.6714427078
  0
LWPOLYLINE
  5
312
330
1F
100
AcDbEntity
  8
0
  6
Continuous
 62
     7
370
    25
100
AcDbPolyline
 90
        3
 70
   128
 43
0.0
 10
6102.8767085666
 20
5247.3692927118
 10
6103.4449937218
 20
5247.7038205157
 10
6103.9665688457
 20
5247.8382838787
  0
LWPOLYLINE
  5
313
330
1F
100
AcDbEntity
  8
0
  6
Continuous
 62
     7
370
    25
100
AcDbPolyline
 90
        3
 70
   128
 43
0.0
 10
6101.3515402949
 20
5245.3321729271
 10
6101.5955343801
 20
5245.565643872
 10
6101.781166622
 20
5245.6392257746
  0
ARC
  5
314
330
1F
100
AcDbEntity
  8
0
  6
Continuous
 62
     7
370
    25
100
AcDbCircle
 10
6101.8097268223
 20
5244.9722176121
 30
0.0
 40
0.6676193330230851
100
AcDbArc
 50
31.6363683456
 51
92.4518140565
  0
LWPOLYLINE
  5
315
330
1F
100
AcDbEntity
  8
0
  6
Continuous
 62
     7
370
    25
100
AcDbPolyline
 90
        3
 70
   128
 43
0.0
 10
6102.3781340262
 20
5245.3224015987
 10
6102.4184215531
 20
5245.2690933409
 10
6102.4498536275
 20
5245.2273062267
  0
LWPOLYLINE
  5
316
330
1F
100
AcDbEntity
  8
0
  6
Continuous
 62
     7
370
    25
100
AcDbPolyline
 90
        3
 70
   128
 43
0.0
 10
6102.4498536275
 20
5245.2273062267
 10
6102.4997751104
 20
5245.2500634435
 10
6102.5362202619
 20
5245.2677722444
  0
LWPOLYLINE
  5
317
330
1F
100
AcDbEntity
  8
0
  6
Continuous
 62
     7
370
    25
100
AcDbPolyline
 90
        3
 70
   128
 43
0.0
 10
6102.5362202619
 20
5245.2677722444
 10
6102.5806699659
 20
5245.2871115452
 10
6102.6129021053
 20
5245.2994327118
  0
LWPOLYLINE
  5
318
330
1F
100
AcDbEntity
  8
0
  6
Continuous
 62
     7
370
    25
100
AcDbPolyline
 90
        3
 70
   128
 43
0.0
 10
6102.6129021053
 20
5245.2994327118
 10
6102.759718813
 20
5245.3550653282
 10
6102.8749135655
 20
5245.3896369144
  0
LWPOLYLINE
  5
319
330
1F
100
AcDbEntity
  8
0
  6
Continuous
 62
     7
370
    25
100
AcDbPolyline
 90
        3
 70
   128
 43
0.0
 10
6102.8749135655
 20
5245.3896369144
 10
6103.3123475964
 20
5245.446743619
 10
6103.670527258
 20
5245.4071739072
  0
LWPOLYLINE
  5
31A
330
1F
100
AcDbEntity
  8
0
  6
Continuous
 62
     7
370
    25
100
AcDbPolyline
 90
        3
 70
   128
 43
0.0
 10
6103.670527258
 20
5245.4071739072
 10
6103.2050273346
 20
5245.3408673944
 10
6102.8747843267
 20
5245.2270265227
  0
LWPOLYLINE
  5
31B
330
1F
100
AcDbEntity
  8
0
  6
Continuous
 62
     7
370
    25
100
AcDbPolyline
 90
        3
 70
   128
 43
0.0
 10
6102.8747843267
 20
5245.2270265227
 10
6102.7264064825
 20
5245.1552609212
 10
6102.6126740859
 20
5245.0959282947
  0
LWPOLYLINE
  5
31C
330
1F
100
AcDbEntity
  8
0
  6
Continuous
 62
     7
370
    25
100
AcDbPolyline
 90
        3
 70
   128
 43
0.0
 10
6102.6126740859
 20
5245.0959282947
 10
6102.5711223958
 20
5245.0665559846
 10
6102.5359494836
 20
5245.0465661171
  0
LWPOLYLINE
  5
31D
330
1F
100
AcDbEntity
  8
0
  6
Continuous
 62
     7
370
    25
100
AcDbPolyline
 90
        3
 70
   128
 43
0.0
 10
6102.5359494836
 20
5245.0465661171
 10
6102.4472908365
 20
5244.9857509685
 10
6102.3777328419
 20
5244.9381019064
  0
ARC
  5
31E
330
1F
100
AcDbEntity
  8
0
  6
Continuous
 62
     7
370
    25
100
AcDbCircle
 10
6101.9897551877
 20
5245.3874953299
 30
0.0
 40
0.5937011952438471
100
AcDbArc
 50
262.8985040412
 51
310.8052348467
  0
LWPOLYLINE
  5
31F
330
1F
100
AcDbEntity
  8
0
  6
Continuous
 62
     7
370
    25
100
AcDbPolyline
 90
       12
 70
   128
 43
0.0
 10
6101.916357461
 20
5244.7983485885
 10
6101.9075110357
 20
5244.8002305325
 10
6101.8996937569
 20
5244.805537821
 10
6101.8929699436
 20
5244.8137809026
 10
6101.8874039148
 20
5244.8244702262
 10
6101.8800024871
 20
5244.8512293939
 10
6101.8780040262
 20
5244.8818989138
 10
6101.8819230846
 20
5244.9125623758
 10
6101.8922742149
 20
5244.9393033696
 10
6101.9095719695
 20
5244.958205485
 10
6101.9209866285
 20
5244.9634930851
 10
6101.9343309008
 20
5244.9653523118
  0
LINE
  5
320
330
1F
100
AcDbEntity
  8
0
  6
Continuous
 62
     7
370
    25
100
AcDbLine
 10
6101.9343309008
 20
5244.9653523118
 30
0.0
 11
6102.0384331944
 21
5244.9652765504
 31
0.0
  0
ARC
  5
321
330
1F
100
AcDbEntity
  8
0
  6
Continuous
 62
     7
370
    25
100
AcDbCircle
 10
6102.0399732726
 20
5245.0274138193
 30
0.0
 40
0.0621563514260081
100
AcDbArc
 50
268.5802092419
 51
352.8105468246
  0
ARC
  5
322
330
1F
100
AcDbEntity
  8
0
  6
Continuous
 62
     7
370
    25
100
AcDbCircle
 10
6102.0393066455
 20
5245.011127654
 30
0.0
 40
0.0629121387593869
100
AcDbArc
 50
7.7715997921
 51
90.7162535461
  0
LINE
  5
323
330
1F
100
AcDbEntity
  8
0
  6
Continuous
 62
     7
370
    25
100
AcDbLine
 10
6102.0385202024
 20
5245.074034877
 30
0.0
 11
6101.7806803347
 21
5245.0742184446
 31
0.0
  0
LINE
  5
324
330
1F
100
AcDbEntity
  8
0
  6
Continuous
 62
     7
370
    25
100
AcDbLine
 10
6101.7806803347
 20
5245.0742184446
 30
0.0
 11
6101.6227258699
 21
5245.0742925119
 31
0.0
  0
ARC
  5
325
330
1F
100
AcDbEntity
  8
0
  6
Continuous
 62
     7
370
    25
100
AcDbCircle
 10
6101.6260021342
 20
5245.0060791299
 30
0.0
 40
0.0682920155577387
100
AcDbArc
 50
92.7497826334
 51
168.1433240341
  0
ARC
  5
326
330
1F
100
AcDbEntity
  8
0
  6
Continuous
 62
     7
370
    25
100
AcDbCircle
 10
6101.6177519742
 20
5245.0240474073
 30
0.0
 40
0.0587169380268623
100
AcDbArc
 50
183.8443123911
 51
274.7741301033
  0
LINE
  5
327
330
1F
100
AcDbEntity
  8
0
  6
Continuous
 62
     7
370
    25
100
AcDbLine
 10
6101.6226388618
 20
5244.9655341853
 30
0.0
 11
6101.7221729721
 21
5244.9654694586
 31
0.0
  0
LWPOLYLINE
  5
328
330
1F
100
AcDbEntity
  8
0
  6
Continuous
 62
     7
370
    25
100
AcDbPolyline
 90
       11
 70
   128
 43
0.0
 10
6101.7221729721
 20
5244.9654694586
 10
6101.7332591729
 20
5244.963642126
 10
6101.7428643815
 20
5244.9584850609
 10
6101.7576333311
 20
5244.9400850072
 10
6101.7664828386
 20
5244.9140758457
 10
6101.7694159218
 20
5244.884264125
 10
6101.7664355988
 20
5244.8544563933
 10
6101.7575448872
 20
5244.828459199
 10
6101.7427468049
 20
5244.8100790904
 10
6101.7331334429
 20
5244.8049349896
 10
6101.7220443698
 20
5244.803122616
  0
LWPOLYLINE
  5
329
330
1F
100
AcDbEntity
  8
0
  6
Continuous
 62
     7
370
    25
100
AcDbPolyline
 90
        3
 70
   128
 43
0.0
 10
6101.7220443698
 20
5244.803122616
 10
6101.5241912334
 20
5244.8375293978
 10
6101.3512059498
 20
5244.9028059253
  0
LWPOLYLINE
  5
32A
330
1F
100
AcDbEntity
  8
0
  6
Continuous
 62
     7
370
    25
100
AcDbPolyline
 90
        3
 70
   128
 43
0.0
 10
6101.3512059498
 20
5244.9028059253
 10
6101.0471802995
 20
5245.0558954553
 10
6100.808881786
 20
5245.1834356056
  0
LWPOLYLINE
  5
32B
330
1F
100
AcDbEntity
  8
0
  6
Continuous
 62
     7
370
    25
100
AcDbPolyline
 90
        3
 70
   128
 43
0.0
 10
6100.808881786
 20
5245.1834356056
 10
6100.6068017387
 20
5245.2856954462
 10
6100.4474322517
 20
5245.3512679843
  0
LWPOLYLINE
  5
32C
330
1F
100
AcDbEntity
  8
0
  6
Continuous
 62
     7
370
    25
100
AcDbPolyline
 90
        3
 70
   128
 43
0.0
 10
6100.4474322517
 20
5245.3512679843
 10
6100.1373687992
 20
5245.4416676065
 10
6099.8875072671
 20
5245.4736780604
  0
LWPOLYLINE
  5
32D
330
1F
100
AcDbEntity
  8
0
  6
Continuous
 62
     7
370
    25
100
AcDbPolyline
 90
        3
 70
   128
 43
0.0
 10
6099.8875072671
 20
5245.4736780604
 10
6100.1695257798
 20
5245.5007163252
 10
6100.4475178805
 20
5245.4594552879
  0
LWPOLYLINE
  5
32E
330
1F
100
AcDbEntity
  8
0
  6
Continuous
 62
     7
370
    25
100
AcDbPolyline
 90
        3
 70
   128
 43
0.0
 10
6100.4475178805
 20
5245.4594552879
 10
6100.8751830704
 20
5245.3279223757
 10
6101.242927207
 20
5245.1741731653
  0
LWPOLYLINE
  5
32F
330
1F
100
AcDbEntity
  8
0
  6
Continuous
 62
     7
370
    25
100
AcDbPolyline
 90
        3
 70
   128
 43
0.0
 10
6101.242927207
 20
5245.1741731653
 10
6101.3071374674
 20
5245.2679139899
 10
6101.3515402949
 20
5245.3321729271
  0
ARC
  5
330
330
1F
100
AcDbEntity
  8
0
  6
Continuous
 62
     7
370
    25
100
AcDbCircle
 10
6105.1672478367
 20
5247.3416867025
 30
0.0
 40
0.5212381016001887
100
AcDbArc
 50
270.0643647039
 51
359.3040053993
  0
ARC
  5
331
330
1F
100
AcDbEntity
  8
0
  6
Continuous
 62
     7
370
    25
100
AcDbCircle
 10
6105.1647127117
 20
5247.3362336883
 30
0.0
 40
0.5157941989720133
100
AcDbArc
 50
179.9894345795
 51
270.3466545021
  0
ARC
  5
332
330
1F
100
AcDbEntity
  8
0
  6
Continuous
 62
     7
370
    25
100
AcDbCircle
 10
6105.1691984685
 20
5247.3396000979
 30
0.0
 40
0.5202902311593349
100
AcDbArc
 50
90.0479687001
 51
180.3602464605
  0
LWPOLYLINE
  5
333
330
1F
100
AcDbEntity
  8
0
  6
Continuous
 62
     7
370
    25
100
AcDbPolyline
 90
        3
 70
   128
 43
0.0
 10
6105.3446042294
 20
5247.2272075116
 10
6105.3116805171
 20
5247.2686149969
 10
6105.2859083411
 20
5247.2949939402
  0
LINE
  5
334
330
1F
100
AcDbEntity
  8
0
  6
Continuous
 62
     7
370
    25
100
AcDbLine
 10
6105.2859083411
 20
5247.2949939402
 30
0.0
 11
6105.2408085668
 21
5247.3178560794
 31
0.0
  0
LWPOLYLINE
  5
335
330
1F
100
AcDbEntity
  8
0
  6
Continuous
 62
     7
370
    25
100
AcDbPolyline
 90
        3
 70
   128
 43
0.0
 10
6105.2408085668
 20
5247.3178560794
 10
6105.3143270759
 20
5247.3404728604
 10
6105.3540786354
 20
5247.3671299805
  0
LWPOLYLINE
  5
336
330
1F
100
AcDbEntity
  8
0
  6
Continuous
 62
     7
370
    25
100
AcDbPolyline
 90
        3
 70
   128
 43
0.0
 10
6105.3540786354
 20
5247.3671299805
 10
6105.3866972251
 20
5247.4179310235
 10
6105.3946429128
 20
5247.4669176639
  0
LWPOLYLINE
  5
337
330
1F
100
AcDbEntity
  8
0
  6
Continuous
 62
     7
370
    25
100
AcDbPolyline
 90
        3
 70
   128
 43
0.0
 10
6105.3946429128
 20
5247.4669176639
 10
6105.3870982398
 20
5247.5141856399
 10
6105.3723491524
 20
5247.5480133164
  0
LWPOLYLINE
  5
338
330
1F
100
AcDbEntity
  8
0
  6
Continuous
 62
     7
370
    25
100
AcDbPolyline
 90
        3
 70
   128
 43
0.0
 10
6105.3723491524
 20
5247.5480133164
 10
6105.3402756947
 20
5247.5810086537
 10
6105.3090420036
 20
5247.5979772948
  0
LWPOLYLINE
  5
339
330
1F
100
AcDbEntity
  8
0
  6
Continuous
 62
     7
370
    25
100
AcDbPolyline
 90
        3
 70
   128
 43
0.0
 10
6105.3090420036
 20
5247.5979772948
 10
6105.2581521857
 20
5247.6115222959
 10
6105.2004150284
 20
5247.6160732748
  0
LINE
  5
33A
330
1F
100
AcDbEntity
  8
0
  6
Continuous
 62
     7
370
    25
100
AcDbLine
 10
6105.2004150284
 20
5247.6160732748
 30
0.0
 11
6105.1779255107
 21
5247.6161275987
 31
0.0
  0
LINE
  5
33B
330
1F
100
AcDbEntity
  8
0
  6
Continuous
 62
     7
370
    25
100
AcDbLine
 10
6105.1779255107
 20
5247.6161275987
 30
0.0
 11
6104.9654162893
 21
5247.6162895192
 31
0.0
  0
LINE
  5
33C
330
1F
100
AcDbEntity
  8
0
  6
Continuous
 62
     7
370
    25
100
AcDbLine
 10
6104.9654162893
 20
5247.6162895192
 30
0.0
 11
6104.9649955728
 21
5247.0784277399
 31
0.0
  0
LINE
  5
33D
330
1F
100
AcDbEntity
  8
0
  6
Continuous
 62
     7
370
    25
100
AcDbLine
 10
6104.9649955728
 20
5247.0784277399
 30
0.0
 11
6105.0370325214
 21
5247.0783415831
 31
0.0
  0
LINE
  5
33E
330
1F
100
AcDbEntity
  8
0
  6
Continuous
 62
     7
370
    25
100
AcDbLine
 10
6105.0370325214
 20
5247.0783415831
 30
0.0
 11
6105.0372488721
 21
5247.313384247
 31
0.0
  0
LINE
  5
33F
330
1F
100
AcDbEntity
  8
0
  6
Continuous
 62
     7
370
    25
100
AcDbLine
 10
6105.0372488721
 20
5247.313384247
 30
0.0
 11
6105.1186857364
 21
5247.3132753844
 31
0.0
  0
LINE
  5
340
330
1F
100
AcDbEntity
  8
0
  6
Continuous
 62
     7
370
    25
100
AcDbLine
 10
6105.1186857364
 20
5247.3132753844
 30
0.0
 11
6105.1547921664
 21
5247.3132760187
 31
0.0
  0
LINE
  5
341
330
1F
100
AcDbEntity
  8
0
  6
Continuous
 62
     7
370
    25
100
AcDbLine
 10
6105.1547921664
 20
5247.3132760187
 30
0.0
 11
6105.1775232701
 21
5247.3041286163
 31
0.0
  0
LINE
  5
342
330
1F
100
AcDbEntity
  8
0
  6
Continuous
 62
     7
370
    25
100
AcDbLine
 10
6105.1775232701
 20
5247.3041286163
 30
0.0
 11
6105.1865605403
 21
5247.2994507265
 31
0.0
  0
LINE
  5
343
330
1F
100
AcDbEntity
  8
0
  6
Continuous
 62
     7
370
    25
100
AcDbLine
 10
6105.1865605403
 20
5247.2994507265
 30
0.0
 11
6105.2225798611
 21
5247.2633890676
 31
0.0
  0
LWPOLYLINE
  5
344
330
1F
100
AcDbEntity
  8
0
  6
Continuous
 62
     7
370
    25
100
AcDbPolyline
 90
        3
 70
   128
 43
0.0
 10
6105.2225798611
 20
5247.2633890676
 10
6105.249851431
 20
5247.2294677303
 10
6105.2767840629
 20
5247.1909135036
  0
LINE
  5
345
330
1F
100
AcDbEntity
  8
0
  6
Continuous
 62
     7
370
    25
100
AcDbLine
 10
6105.2767840629
 20
5247.1909135036
 30
0.0
 11
6105.3490756408
 21
5247.0780270862
 31
0.0
  0
LINE
  5
346
330
1F
100
AcDbEntity
  8
0
  6
Continuous
 62
     7
370
    25
100
AcDbLine
 10
6105.3490756408
 20
5247.0780270862
 30
0.0
 11
6105.434904989
 21
5247.0779076134
 31
0.0
  0
LINE
  5
347
330
1F
100
AcDbEntity
  8
0
  6
Continuous
 62
     7
370
    25
100
AcDbLine
 10
6105.434904989
 20
5247.0779076134
 30
0.0
 11
6105.3446042294
 21
5247.2272075116
 31
0.0
  0
ARC
  5
348
330
1F
100
AcDbEntity
  8
0
  6
Continuous
 62
     7
370
    25
100
AcDbCircle
 10
6105.1652238166
 20
5247.3366767813
 30
0.0
 40
0.5232253344744157
100
AcDbArc
 50
359.8552770287
 51
89.6124524811
  0
LWPOLYLINE
  5
349
330
1F
100
AcDbEntity
  8
0
  6
Continuous
 62
     7
370
    25
100
AcDbPolyline
 90
        3
 70
   128
 43
0.0
 10
6103.8403915827
 20
5243.3184327759
 10
6103.9205753174
 20
5242.9636555509
 10
6103.9392421678
 20
5242.7444444012
  0
ARC
  5
34A
330
1F
100
AcDbEntity
  8
0
  6
Continuous
 62
     7
370
    25
100
AcDbCircle
 10
6103.1767772774
 20
5244.3722029647
 30
0.0
 40
1.797484534034644
100
AcDbArc
 50
260.2534679431
 51
295.0990492191
  0
LWPOLYLINE
  5
34B
330
1F
100
AcDbEntity
  8
0
  6
Continuous
 62
     7
370
    25
100
AcDbPolyline
 90
        3
 70
   128
 43
0.0
 10
6102.8724813888
 20
5242.6006627697
 10
6102.7241401241
 20
5242.6201955696
 10
6102.6105229866
 20
5242.6415309243
  0
LWPOLYLINE
  5
34C
330
1F
100
AcDbEntity
  8
0
  6
Continuous
 62
     7
370
    25
100
AcDbPolyline
 90
        3
 70
   128
 43
0.0
 10
6102.6105229866
 20
5242.6415309243
 10
6102.5674969127
 20
5242.6501562503
 10
6102.5338738249
 20
5242.6597692865
  0
LWPOLYLINE
  5
34D
330
1F
100
AcDbEntity
  8
0
  6
Continuous
 62
     7
370
    25
100
AcDbPolyline
 90
        3
 70
   128
 43
0.0
 10
6102.5338738249
 20
5242.6597692865
 10
6102.4509987685
 20
5242.6811775215
 10
6102.3889316189
 20
5242.700530486
  0
LWPOLYLINE
  5
34E
330
1F
100
AcDbEntity
  8
0
  6
Continuous
 62
     7
370
    25
100
AcDbPolyline
 90
        3
 70
   128
 43
0.0
 10
6102.3889316189
 20
5242.700530486
 10
6102.4119218401
 20
5243.0316327618
 10
6102.4572270357
 20
5243.2608936616
  0
LWPOLYLINE
  5
34F
330
1F
100
AcDbEntity
  8
0
  6
Continuous
 62
     7
370
    25
100
AcDbPolyline
 90
        3
 70
   128
 43
0.0
 10
6102.4572270357
 20
5243.2608936616
 10
6102.5002962282
 20
5243.2500781782
 10
6102.5343932158
 20
5243.2384811664
  0
LWPOLYLINE
  5
350
330
1F
100
AcDbEntity
  8
0
  6
Continuous
 62
     7
370
    25
100
AcDbPolyline
 90
        3
 70
   128
 43
0.0
 10
6102.5343932158
 20
5243.2384811664
 10
6102.576996763
 20
5243.2280672247
 10
6102.6110422714
 20
5243.2201988793
  0
LWPOLYLINE
  5
351
330
1F
100
AcDbEntity
  8
0
  6
Continuous
 62
     7
370
    25
100
AcDbPolyline
 90
        3
 70
   128
 43
0.0
 10
6102.6110422714
 20
5243.2201988793
 10
6102.7545856278
 20
5243.1974119132
 10
6102.8731103803
 20
5243.1883790294
  0
ARC
  5
352
330
1F
100
AcDbEntity
  8
0
  6
Continuous
 62
     7
370
    25
100
AcDbCircle
 10
6103.1367270455
 20
5244.8898448615
 30
0.0
 40
1.721766454475146
100
AcDbArc
 50
261.1929020423
 51
294.1224162232
  0
LWPOLYLINE
  5
353
330
1F
100
AcDbEntity
  8
0
  6
Continuous
 62
     7
370
    25
100
AcDbPolyline
 90
        3
 70
   128
 43
0.0
 10
6101.3348237234
 20
5247.1402580912
 10
6101.1625623324
 20
5247.1015443571
 10
6101.041471891
 20
5247.059222087
  0
LWPOLYLINE
  5
354
330
1F
100
AcDbEntity
  8
0
  6
Continuous
 62
     7
370
    25
100
AcDbPolyline
 90
        3
 70
   128
 43
0.0
 10
6101.041471891
 20
5247.059222087
 10
6100.7397956731
 20
5247.3734131171
 10
6100.4494872111
 20
5247.5840195546
  0
LWPOLYLINE
  5
355
330
1F
100
AcDbEntity
  8
0
  6
Continuous
 62
     7
370
    25
100
AcDbPolyline
 90
        3
 70
   128
 43
0.0
 10
6100.4494872111
 20
5247.5840195546
 10
6100.2597881564
 20
5247.6863222201
 10
6100.1020057758
 20
5247.7518181929
  0
LWPOLYLINE
  5
356
330
1F
100
AcDbEntity
  8
0
  6
Continuous
 62
     7
370
    25
100
AcDbPolyline
 90
        3
 70
   128
 43
0.0
 10
6100.1020057758
 20
5247.7518181929
 10
6100.2801299932
 20
5247.7073987778
 10
6100.4494533695
 20
5247.6427474891
  0
LWPOLYLINE
  5
357
330
1F
100
AcDbEntity
  8
0
  6
Continuous
 62
     7
370
    25
100
AcDbPolyline
 90
        3
 70
   128
 43
0.0
 10
6100.4494533695
 20
5247.6427474891
 10
6100.9232303121
 20
5247.4062716019
 10
6101.3348237234
 20
5247.1402580912
  0
LWPOLYLINE
  5
358
330
1F
100
AcDbEntity
  8
0
  6
Continuous
 62
     7
370
    25
100
AcDbPolyline
 90
        3
 70
   128
 43
0.0
 10
6102.5359065077
 20
5244.9560365989
 10
6102.5803744454
 20
5244.9829244669
 10
6102.6126214548
 20
5245.0014016162
  0
LWPOLYLINE
  5
359
330
1F
100
AcDbEntity
  8
0
  6
Continuous
 62
     7
370
    25
100
AcDbPolyline
 90
        3
 70
   128
 43
0.0
 10
6102.6126214548
 20
5245.0014016162
 10
6102.6496368653
 20
5245.0181934354
 10
6102.6757626704
 20
5245.0282191057
  0
LWPOLYLINE
  5
35A
330
1F
100
AcDbEntity
  8
0
  6
Continuous
 62
     7
370
    25
100
AcDbPolyline
 90
        3
 70
   128
 43
0.0
 10
6102.6757626704
 20
5245.0282191057
 10
6102.641903421
 20
5244.994341608
 10
6102.6126206036
 20
5244.9646802383
  0
LWPOLYLINE
  5
35B
330
1F
100
AcDbEntity
  8
0
  6
Continuous
 62
     7
370
    25
100
AcDbPolyline
 90
        3
 70
   128
 43
0.0
 10
6102.6126206036
 20
5244.9646802383
 10
6102.5694594242
 20
5244.9109864268
 10
6102.5357760005
 20
5244.8656390674
  0
LWPOLYLINE
  5
35C
330
1F
100
AcDbEntity
  8
0
  6
Continuous
 62
     7
370
    25
100
AcDbPolyline
 90
        3
 70
   128
 43
0.0
 10
6102.5357760005
 20
5244.8656390674
 10
6102.4418359187
 20
5244.711277409
 10
6102.3774633273
 20
5244.5719429606
  0
ARC
  5
35D
330
1F
100
AcDbEntity
  8
0
  6
Continuous
 62
     7
370
    25
100
AcDbCircle
 10
6112.9078693272
 20
5241.7970190675
 30
0.0
 40
10.88988765485061
100
AcDbArc
 50
165.2372832644
 51
188.8346518227
  0
LWPOLYLINE
  5
35E
330
1F
100
AcDbEntity
  8
0
  6
Continuous
 62
     7
370
    25
100
AcDbPolyline
 90
        3
 70
   128
 43
0.0
 10
6102.1471828206
 20
5240.1245122537
 10
6101.9868266493
 20
5240.0976266144
 10
6101.8216982735
 20
5240.0883135392
  0
LWPOLYLINE
  5
35F
330
1F
100
AcDbEntity
  8
0
  6
Continuous
 62
     7
370
    25
100
AcDbPolyline
 90
        3
 70
   128
 43
0.0
 10
6101.8216982735
 20
5240.0883135392
 10
6101.7889074233
 20
5241.1165711939
 10
6101.7825468267
 20
5241.9190743196
  0
LINE
  5
360
330
1F
100
AcDbEntity
  8
0
  6
Continuous
 62
     7
370
    25
100
AcDbLine
 10
6101.7825468267
 20
5241.9190743196
 30
0.0
 11
6101.777901932
 21
5241.8873276953
 31
0.0
  0
LWPOLYLINE
  5
361
330
1F
100
AcDbEntity
  8
0
  6
Continuous
 62
     7
370
    25
100
AcDbPolyline
 90
        3
 70
   128
 43
0.0
 10
6101.777901932
 20
5241.8873276953
 10
6101.7203353511
 20
5240.9327793745
 10
6101.7448409454
 20
5240.093111325
  0
LWPOLYLINE
  5
362
330
1F
100
AcDbEntity
  8
0
  6
Continuous
 62
     7
370
    25
100
AcDbPolyline
 90
        3
 70
   128
 43
0.0
 10
6101.7448409454
 20
5240.093111325
 10
6101.5750742873
 20
5240.1051260932
 10
6101.428228478
 20
5240.1293236624
  0
LWPOLYLINE
  5
363
330
1F
100
AcDbEntity
  8
0
  6
Continuous
 62
     7
370
    25
100
AcDbPolyline
 90
        3
 70
   128
 43
0.0
 10
6101.428228478
 20
5240.1293236624
 10
6101.4447817264
 20
5242.4227932012
 10
6101.3500479097
 20
5243.6960106463
  0
ARC
  5
364
330
1F
100
AcDbEntity
  8
0
  6
Continuous
 62
     7
370
    25
100
AcDbCircle
 10
6099.3146623875
 20
5243.7741117474
 30
0.0
 40
2.036883405167471
100
AcDbArc
 50
357.8025444695
 51
38.7156519592
  0
ARC
  5
365
330
1F
100
AcDbEntity
  8
0
  6
Continuous
 62
     7
370
    25
100
AcDbCircle
 10
6100.526386095
 20
5243.8270882468
 30
0.0
 40
1.27805054467992
100
AcDbArc
 50
49.8101007464
 51
72.8166948779
  0
LWPOLYLINE
  5
366
330
1F
100
AcDbEntity
  8
0
  6
Continuous
 62
     7
370
    25
100
AcDbPolyline
 90
        3
 70
   128
 43
0.0
 10
6101.3511415413
 20
5244.8034035896
 10
6101.5953080916
 20
5244.6625207884
 10
6101.7802473152
 20
5244.6040013423
  0
LINE
  5
367
330
1F
100
AcDbEntity
  8
0
  6
Continuous
 62
     7
370
    25
100
AcDbLine
 10
6101.7802473152
 20
5244.6040013423
 30
0.0
 11
6101.8121264566
 21
5244.5996636032
 31
0.0
  0
ARC
  5
368
330
1F
100
AcDbEntity
  8
0
  6
Continuous
 62
     7
370
    25
100
AcDbCircle
 10
6101.679440415
 20
5245.655907424
 30
0.0
 40
1.064545252561233
100
AcDbArc
 50
277.1600275478
 51
310.9897665308
  0
LWPOLYLINE
  5
369
330
1F
100
AcDbEntity
  8
0
  6
Continuous
 62
     7
370
    25
100
AcDbPolyline
 90
        3
 70
   128
 43
0.0
 10
6102.3777014311
 20
5244.8523601957
 10
6102.4679392867
 20
5244.9120566672
 10
6102.5359065077
 20
5244.9560365989
  0
LWPOLYLINE
  5
36A
330
1F
100
AcDbEntity
  8
0
  6
Continuous
 62
     7
370
    25
100
AcDbPolyline
 90
        3
 70
   128
 43
0.0
 10
6102.5483963689
 20
5243.8712322685
 10
6102.5804354367
 20
5244.0397558792
 10
6102.6120176987
 20
5244.1695496142
  0
LWPOLYLINE
  5
36B
330
1F
100
AcDbEntity
  8
0
  6
Continuous
 62
     7
370
    25
100
AcDbPolyline
 90
        3
 70
   128
 43
0.0
 10
6102.6120176987
 20
5244.1695496142
 10
6102.6430912056
 20
5244.2639473353
 10
6102.6706773171
 20
5244.3413307446
  0
LWPOLYLINE
  5
36C
330
1F
100
AcDbEntity
  8
0
  6
Continuous
 62
     7
370
    25
100
AcDbPolyline
 90
        3
 70
   128
 43
0.0
 10
6102.6706773171
 20
5244.3413307446
 10
6102.7860123837
 20
5244.337790448
 10
6102.8740499597
 20
5244.3411030435
  0
LWPOLYLINE
  5
36D
330
1F
100
AcDbEntity
  8
0
  6
Continuous
 62
     7
370
    25
100
AcDbPolyline
 90
        3
 70
   128
 43
0.0
 10
6102.8740499597
 20
5244.3411030435
 10
6103.083114784
 20
5244.3596549611
 10
6103.262631584
 20
5244.3858465144
  0
LWPOLYLINE
  5
36E
330
1F
100
AcDbEntity
  8
0
  6
Continuous
 62
     7
370
    25
100
AcDbPolyline
 90
        3
 70
   128
 43
0.0
 10
6103.262631584
 20
5244.3858465144
 10
6103.4683902141
 20
5244.1265733321
 10
6103.5651931694
 20
5243.9517067512
  0
LWPOLYLINE
  5
36F
330
1F
100
AcDbEntity
  8
0
  6
Continuous
 62
     7
370
    25
100
AcDbPolyline
 90
        3
 70
   128
 43
0.0
 10
6103.5651931694
 20
5243.9517067512
 10
6103.1707887707
 20
5243.8390892477
 10
6102.8736063276
 20
5243.8301234781
  0
LWPOLYLINE
  5
370
330
1F
100
AcDbEntity
  8
0
  6
Continuous
 62
     7
370
    25
100
AcDbPolyline
 90
        3
 70
   128
 43
0.0
 10
6102.8736063276
 20
5243.8301234781
 10
6102.7234143099
 20
5243.8448842394
 10
6102.6117142364
 20
5243.8620746781
  0
LWPOLYLINE
  5
371
330
1F
100
AcDbEntity
  8
0
  6
Continuous
 62
     7
370
    25
100
AcDbPolyline
 90
        3
 70
   128
 43
0.0
 10
6102.6117142364
 20
5243.8620746781
 10
6102.577676636
 20
5243.8670137726
 10
6102.5483963689
 20
5243.8712322685
  0
LWPOLYLINE
  5
372
330
1F
100
AcDbEntity
  8
0
  6
Continuous
 62
     7
370
    25
100
AcDbPolyline
 90
        3
 70
   128
 43
0.0
 10
6099.7900177183
 20
5247.7021897232
 10
6099.8991858964
 20
5246.9396179411
 10
6100.1369668861
 20
5246.3684446331
  0
LINE
  5
373
330
1F
100
AcDbEntity
  8
0
  6
Continuous
 62
     7
370
    25
100
AcDbLine
 10
6100.1369668861
 20
5246.3684446331
 30
0.0
 11
6100.0821386022
 21
5246.2916642298
 31
0.0
  0
LWPOLYLINE
  5
374
330
1F
100
AcDbEntity
  8
0
  6
Continuous
 62
     7
370
    25
100
AcDbPolyline
 90
        3
 70
   128
 43
0.0
 10
6099.6724285976
 20
5247.8288023375
 10
6100.1159477917
 20
5247.7013866658
 10
6100.4495099121
 20
5247.5206795119
  0
LWPOLYLINE
  5
375
330
1F
100
AcDbEntity
  8
0
  6
Continuous
 62
     7
370
    25
100
AcDbPolyline
 90
        3
 70
   128
 43
0.0
 10
6100.9962621956
 20
5247.0365780926
 10
6100.9106990745
 20
5247.0002472566
 10
6100.8469293022
 20
5246.968986687
  0
LWPOLYLINE
  5
376
330
1F
100
AcDbEntity
  8
0
  6
Continuous
 62
     7
370
    25
100
AcDbPolyline
 90
        3
 70
   128
 43
0.0
 10
6100.8469293022
 20
5246.968986687
 10
6100.6261046568
 20
5247.1814480683
 10
6100.4493149964
 20
5247.3308796447
  0
LWPOLYLINE
  5
377
330
1F
100
AcDbEntity
  8
0
  6
Continuous
 62
     7
370
    25
100
AcDbPolyline
 90
        3
 70
   128
 43
0.0
 10
6100.4493149964
 20
5247.3308796447
 10
6100.0990320884
 20
5247.5604792372
 10
6099.7900177183
 20
5247.7021897232
  0
LWPOLYLINE
  5
378
330
1F
100
AcDbEntity
  8
0
  6
Continuous
 62
     7
370
    25
100
AcDbPolyline
 90
        3
 70
   128
 43
0.0
 10
6100.0821386022
 20
5246.2916642298
 10
6099.7304308675
 20
5247.1769271608
 10
6099.6724285976
 20
5247.8288023375
  0
LWPOLYLINE
  5
379
330
1F
100
AcDbEntity
  8
0
  6
Continuous
 62
     7
370
    25
100
AcDbPolyline
 90
        3
 70
   128
 43
0.0
 10
6100.4495099121
 20
5247.5206795119
 10
6100.7625521847
 20
5247.2746689104
 10
6100.9962621956
 20
5247.0365780926
  0
ARC
  5
37A
330
1F
100
AcDbEntity
  8
0
  6
Continuous
 62
     7
370
    25
100
AcDbCircle
 10
6101.3519664116
 20
5245.7481483555
 30
0.0
 40
0.0544473606887742
100
AcDbArc
 50
355.0425037103
 51
184.8662712959
  0
ARC
  5
37B
330
1F
100
AcDbEntity
  8
0
  6
Continuous
 62
     7
370
    25
100
AcDbCircle
 10
6101.3519590544
 20
5245.7389065775
 30
0.0
 40
0.0544403861881215
100
AcDbArc
 50
175.1286705567
 51
4.7801044495
  0
ARC
  5
37C
330
1F
100
AcDbEntity
  8
0
  6
Continuous
 62
     7
370
    25
100
AcDbCircle
 10
6101.352029838
 20
5245.7481755016
 30
0.0
 40
0.1536168638008237
100
AcDbArc
 50
1.5533393824
 51
89.9970591603
  0
ARC
  5
37D
330
1F
100
AcDbEntity
  8
0
  6
Continuous
 62
     7
370
    25
100
AcDbCircle
 10
6101.3518115243
 20
5245.7545464767
 30
0.0
 40
0.1537945602336971
100
AcDbArc
 50
180.6762906091
 51
359.1778355007
  0
ARC
  5
37E
330
1F
100
AcDbEntity
  8
0
  6
Continuous
 62
     7
370
    25
100
AcDbCircle
 10
6101.3523475478
 20
5245.7473800562
 30
0.0
 40
0.1544126199064348
100
AcDbArc
 50
90.1149626271
 51
178.0140246819
  0
LINE
  5
37F
330
1F
100
AcDbEntity
  8
0
  6
Continuous
 62
     7
370
    25
100
AcDbLine
 10
6126.9225690907
 20
5389.6621613258
 30
0.0
 11
6127.4225690907
 21
5390.1621613258
 31
0.0
  0
LINE
  5
380
330
1F
100
AcDbEntity
  8
0
  6
Continuous
 62
     7
370
    25
100
AcDbLine
 10
6127.4225690907
 20
5390.1621613258
 30
0.0
 11
6127.4225690907
 21
5220.1621613258
 31
0.0
  0
ARC
  5
381
330
1F
100
AcDbEntity
  8
0
  6
Continuous
 62
     7
370
    25
100
AcDbCircle
 10
6102.3754792132
 20
5245.7540605747
 30
0.0
 40
0.1512927680263945
100
AcDbArc
 50
90.6904172562
 51
180.8599812863
  0
LINE
  5
382
330
1F
100
AcDbEntity
  8
0
  6
Continuous
 62
     7
370
    25
100
AcDbLine
 10
6102.3736561712
 20
5245.9053423587
 30
0.0
 11
6102.3784881157
 21
5245.9054185372
 31
0.0
  0
ARC
  5
383
330
1F
100
AcDbEntity
  8
0
  6
Continuous
 62
     7
370
    25
100
AcDbCircle
 10
6102.3782111546
 20
5245.7561825779
 30
0.0
 40
0.1492362162680355
100
AcDbArc
 50
358.200695587
 51
89.8936671421
  0
LINE
  5
384
330
1F
100
AcDbEntity
  8
0
  6
Continuous
 62
     7
370
    25
100
AcDbLine
 10
6102.3782729274
 20
5245.5981190882
 30
0.0
 11
6102.3734409829
 21
5245.5980429097
 31
0.0
  0
LWPOLYLINE
  5
385
330
1F
100
AcDbEntity
  8
0
  6
Continuous
 62
     7
370
    25
100
AcDbPolyline
 90
       11
 70
   128
 43
0.0
 10
6102.4277298654
 20
5245.7425130656
 10
6102.4263356203
 20
5245.7601589685
 10
6102.4203828143
 20
5245.7746014197
 10
6102.4107819756
 20
5245.7858394401
 10
6102.3915324369
 20
5245.7966860207
 10
6102.3691965461
 20
5245.8003171236
 10
6102.3468473361
 20
5245.7967294437
 10
6102.3275578399
 20
5245.785919676
 10
6102.3179155638
 20
5245.7746992612
 10
6102.3119094811
 20
5245.7602665814
 10
6102.3104501201
 20
5245.7426206574
  0
LWPOLYLINE
  5
386
330
1F
100
AcDbEntity
  8
0
  6
Continuous
 62
     7
370
    25
100
AcDbPolyline
 90
       11
 70
   128
 43
0.0
 10
6102.3104501201
 20
5245.7426206574
 10
6102.3118847268
 20
5245.7250149217
 10
6102.317870556
 20
5245.7106053346
 10
6102.3274970795
 20
5245.6993928751
 10
6102.3467713856
 20
5245.6885709425
 10
6102.3691155322
 20
5245.6849480557
 10
6102.3914564864
 20
5245.6885275195
 10
6102.4107212152
 20
5245.6993126392
 10
6102.4203378066
 20
5245.7105074931
 10
6102.4263108661
 20
5245.7249073088
 10
6102.4277298654
 20
5245.7425130656
  0
ARC
  5
387
330
1F
100
AcDbEntity
  8
0
  6
Continuous
 62
     7
370
    25
100
AcDbCircle
 10
6102.3760905777
 20
5245.7499184186
 30
0.0
 40
0.1518986193137623
100
AcDbArc
 50
179.294090283
 51
269.0005287901
  0
ARC
  5
388
330
1F
100
AcDbEntity
  8
0
  6
Continuous
 62
     7
370
    25
100
AcDbCircle
 10
6102.3729198862
 20
5245.7524833532
 30
0.0
 40
0.154457053476807
100
AcDbArc
 50
271.9861061617
 51
359.6340233761
  0
LINE
  5
389
330
1F
100
AcDbEntity
  8
0
  6
Continuous
 62
     7
370
    25
100
AcDbLine
 10
5957.4225690907
 20
5390.1621613258
 30
0.0
 11
6127.4225690907
 21
5390.1621613258
 31
0.0
  0
LINE
  5
38A
330
1F
100
AcDbEntity
  8
0
  6
Continuous
 62
     7
370
    25
100
AcDbLine
 10
6105.3176863821
 20
5247.4670157041
 30
0.0
 11
6105.3042123814
 21
5247.417017567
 31
0.0
  0
LINE
  5
38B
330
1F
100
AcDbEntity
  8
0
  6
Continuous
 62
     7
370
    25
100
AcDbLine
 10
6105.3042123814
 20
5247.417017567
 30
0.0
 11
6105.2635489062
 21
5247.3852700963
 31
0.0
  0
LINE
  5
38C
330
1F
100
AcDbEntity
  8
0
  6
Continuous
 62
     7
370
    25
100
AcDbLine
 10
6105.1866586866
 20
5247.376451182
 30
0.0
 11
6105.1776101698
 21
5247.3764730389
 31
0.0
  0
LINE
  5
38D
330
1F
100
AcDbEntity
  8
0
  6
Continuous
 62
     7
370
    25
100
AcDbLine
 10
6105.0373138086
 20
5247.3766362278
 30
0.0
 11
6105.0374763633
 21
5247.553039019
 31
0.0
  0
LINE
  5
38E
330
1F
100
AcDbEntity
  8
0
  6
Continuous
 62
     7
370
    25
100
AcDbLine
 10
6105.0374763633
 20
5247.553039019
 30
0.0
 11
6105.1777727245
 21
5247.5528758301
 31
0.0
  0
LINE
  5
38F
330
1F
100
AcDbEntity
  8
0
  6
Continuous
 62
     7
370
    25
100
AcDbLine
 10
6105.1777727245
 20
5247.5528758301
 30
0.0
 11
6105.2048306377
 21
5247.5528983212
 31
0.0
  0
LWPOLYLINE
  5
390
330
1F
100
AcDbEntity
  8
0
  6
Continuous
 62
     7
370
    25
100
AcDbPolyline
 90
        3
 70
   128
 43
0.0
 10
6105.290692875
 20
5247.5300255696
 10
6105.3125633872
 20
5247.49817588
 10
6105.3176863821
 20
5247.4670157041
  0
LWPOLYLINE
  5
391
330
1F
100
AcDbEntity
  8
0
  6
Continuous
 62
     7
370
    25
100
AcDbPolyline
 90
        3
 70
   128
 43
0.0
 10
6105.2635489062
 20
5247.3852700963
 10
6105.2254346706
 20
5247.3786532301
 10
6105.1866586866
 20
5247.376451182
  0
LINE
  5
392
330
1F
100
AcDbEntity
  8
0
  6
Continuous
 62
     7
370
    25
100
AcDbLine
 10
6105.1776101698
 20
5247.3764730389
 30
0.0
 11
6105.0373138086
 21
5247.3766362278
 31
0.0
  0
LWPOLYLINE
  5
393
330
1F
100
AcDbEntity
  8
0
  6
Continuous
 62
     7
370
    25
100
AcDbPolyline
 90
        3
 70
   128
 43
0.0
 10
6105.2048306377
 20
5247.5528983212
 10
6105.261284306
 20
5247.545009909
 10
6105.290692875
 20
5247.5300255696
  0
LINE
  5
394
330
1F
100
AcDbEntity
  8
0
  6
Continuous
 62
     8
370
    25
100
AcDbLine
 10
5944.4610467218
 20
5403.3621613258
 30
0.0
 11
5945.6367826531
 21
5403.3621613258
 31
0.0
  0
LINE
  5
395
330
1F
100
AcDbEntity
  8
0
  6
Continuous
 62
     8
370
    25
100
AcDbLine
 10
6139.2083555283
 20
5403.3621613257
 30
0.0
 11
6140.3840914596
 21
5403.3621613257
 31
0.0
  0
LINE
  5
396
330
1F
100
AcDbEntity
  8
0
  6
Continuous
 62
     8
370
    25
100
AcDbLine
 10
6140.3840914596
 20
5206.9621613257
 30
0.0
 11
6139.2083555283
 21
5206.9621613257
 31
0.0
  0
LINE
  5
397
330
1F
100
AcDbEntity
  8
0
  6
Continuous
 62
     8
370
    25
100
AcDbLine
 10
5945.636782653
 20
5206.9621613257
 30
0.0
 11
5944.4610467218
 21
5206.9621613257
 31
0.0
  0
LINE
  5
398
330
1F
100
AcDbEntity
  8
0
  6
Continuous
 62
     7
370
    25
100
AcDbLine
 10
6264.6543453841
 20
5189.6621613265
 30
0.0
 11
6264.6543453841
 21
5187.1621613257
 31
0.0
  0
LINE
  5
399
330
1F
100
AcDbEntity
  8
0
  6
Continuous
 62
     7
370
    25
100
AcDbLine
 10
6291.0953453841
 20
5187.1621613257
 30
0.0
 11
6291.0953453841
 21
5189.6621613265
 31
0.0
  0
LINE
  5
39A
330
1F
100
AcDbEntity
  8
0
  6
Continuous
 62
     7
370
    25
100
AcDbLine
 10
6264.6543453841
 20
5187.1621613257
 30
0.0
 11
6265.1293045049
 21
5186.6872022049
 31
0.0
  0
LINE
  5
39B
330
1F
100
AcDbEntity
  8
0
  6
Continuous
 62
     7
370
    25
100
AcDbLine
 10
6290.2360857937
 20
5186.3029017353
 30
0.0
 11
6290.242819675
 21
5186.3096356166
 31
0.0
  0
LINE
  5
39C
330
1F
100
AcDbEntity
  8
0
  6
Continuous
 62
     7
370
    25
100
AcDbLine
 10
6291.0953453841
 20
5419.576137092
 30
0.0
 11
6291.0953453841
 21
5419.9729169863
 31
0.0
  0
LINE
  5
39D
330
1F
100
AcDbEntity
  8
0
  6
Continuous
 62
     7
370
    25
100
AcDbLine
 10
6291.0953453841
 20
5417.988637092
 30
0.0
 11
6291.0953453841
 21
5418.3854169863
 31
0.0
  0
LINE
  5
39E
330
1F
100
AcDbEntity
  8
0
  6
Continuous
 62
     7
370
    25
100
AcDbLine
 10
6291.0953453841
 20
5416.401137092
 30
0.0
 11
6291.0953453841
 21
5416.7979169863
 31
0.0
  0
LINE
  5
39F
330
1F
100
AcDbEntity
  8
0
  6
Continuous
 62
     7
370
    25
100
AcDbLine
 10
6264.6543453841
 20
5416.0041186988
 30
0.0
 11
6264.6543453841
 21
5415.6621613258
 31
0.0
  0
LINE
  5
3A0
330
1F
100
AcDbEntity
  8
0
  6
Continuous
 62
     7
370
    25
100
AcDbLine
 10
6264.6543453841
 20
5417.5916186988
 30
0.0
 11
6264.6543453841
 21
5417.1949630456
 31
0.0
  0
LINE
  5
3A1
330
1F
100
AcDbEntity
  8
0
  6
Continuous
 62
     7
370
    25
100
AcDbLine
 10
6264.6543453841
 20
5419.1791186988
 30
0.0
 11
6264.6543453841
 21
5418.7824630456
 31
0.0
  0
LWPOLYLINE
  5
3A2
330
1F
100
AcDbEntity
  8
0
  6
Continuous
 62
     7
370
    25
100
AcDbPolyline
 90
        3
 70
   128
 43
0.0
 10
6265.0061963585
 20
5420.1621613258
 10
6265.0915672575
 20
5420.1128438125
 10
6265.5136291404
 20
5419.8690152052
  0
LWPOLYLINE
  5
3A3
330
1F
100
AcDbEntity
  8
0
  6
Continuous
 62
     7
370
    25
100
AcDbPolyline
 90
        3
 70
   128
 43
0.0
 10
6264.6616721241
 20
5418.7736879111
 10
6265.0915672575
 20
5418.5253438125
 10
6265.5136291404
 20
5418.2815152052
  0
LWPOLYLINE
  5
3A4
330
1F
100
AcDbEntity
  8
0
  6
Continuous
 62
     7
370
    25
100
AcDbPolyline
 90
        3
 70
   128
 43
0.0
 10
6264.6616721241
 20
5417.1861879111
 10
6265.0915672575
 20
5416.9378438125
 10
6265.5136291404
 20
5416.6940152052
  0
LWPOLYLINE
  5
3A5
330
1F
100
AcDbEntity
  8
0
  6
Continuous
 62
     7
370
    25
100
AcDbPolyline
 90
        3
 70
   128
 43
0.0
 10
6290.2282455622
 20
5419.0707498001
 10
6290.6581235106
 20
5419.3190938125
 10
6291.088018644
 20
5419.5674379111
  0
LWPOLYLINE
  5
3A6
330
1F
100
AcDbEntity
  8
0
  6
Continuous
 62
     7
370
    25
100
AcDbPolyline
 90
        3
 70
   128
 43
0.0
 10
6290.2282455622
 20
5417.4832498001
 10
6290.6581235106
 20
5417.7315938125
 10
6291.088018644
 20
5417.9799379111
  0
LWPOLYLINE
  5
3A7
330
1F
100
AcDbEntity
  8
0
  6
Continuous
 62
     7
370
    25
100
AcDbPolyline
 90
        3
 70
   128
 43
0.0
 10
6290.2282455622
 20
5415.8957498001
 10
6290.6581235106
 20
5416.1440938125
 10
6291.088018644
 20
5416.3924379111
  0
LWPOLYLINE
  5
3A8
330
1F
100
AcDbEntity
  8
0
  6
Continuous
 62
     7
370
    25
100
AcDbPolyline
 90
        3
 70
   128
 43
0.0
 10
6265.5214665372
 20
5419.6843824383
 10
6265.0915853956
 20
5419.4360337888
 10
6264.6616871076
 20
5419.1876851905
  0
LWPOLYLINE
  5
3A9
330
1F
100
AcDbEntity
  8
0
  6
Continuous
 62
     7
370
    25
100
AcDbPolyline
 90
        3
 70
   128
 43
0.0
 10
6265.5214665372
 20
5418.0968824383
 10
6265.0915853956
 20
5417.8485337888
 10
6264.6616871076
 20
5417.6001851905
  0
LWPOLYLINE
  5
3AA
330
1F
100
AcDbEntity
  8
0
  6
Continuous
 62
     7
370
    25
100
AcDbPolyline
 90
        3
 70
   128
 43
0.0
 10
6265.5214665372
 20
5416.5093824383
 10
6265.0915853956
 20
5416.2610337888
 10
6264.6616871076
 20
5416.0126851905
  0
LINE
  5
3AB
330
1F
100
AcDbEntity
  8
0
  6
Continuous
 62
     7
370
    25
100
AcDbLine
 10
6291.0880036606
 20
5419.9814351905
 30
0.0
 11
6290.775161725
 21
5420.1621613258
 31
0.0
  0
LWPOLYLINE
  5
3AC
330
1F
100
AcDbEntity
  8
0
  6
Continuous
 62
     7
370
    25
100
AcDbPolyline
 90
        3
 70
   128
 43
0.0
 10
6291.0880036606
 20
5418.3939351905
 10
6290.6581053725
 20
5418.6422837888
 10
6290.2360616277
 20
5418.886104659
  0
LWPOLYLINE
  5
3AD
330
1F
100
AcDbEntity
  8
0
  6
Continuous
 62
     7
370
    25
100
AcDbPolyline
 90
        3
 70
   128
 43
0.0
 10
6291.0880036606
 20
5416.8064351905
 10
6290.6581053725
 20
5417.0547837888
 10
6290.2360616277
 20
5417.298604659
  0
LINE
  5
3AE
330
1F
100
AcDbEntity
  8
0
  6
Continuous
 62
     7
370
    25
100
AcDbLine
 10
6265.5136291404
 20
5419.8731238736
 30
0.0
 11
6265.5136291404
 21
5419.679854659
 31
0.0
  0
LINE
  5
3AF
330
1F
100
AcDbEntity
  8
0
  6
Continuous
 62
     7
370
    25
100
AcDbLine
 10
6265.5136291404
 20
5418.2856238736
 30
0.0
 11
6265.5136291404
 21
5418.092354659
 31
0.0
  0
LINE
  5
3B0
330
1F
100
AcDbEntity
  8
0
  6
Continuous
 62
     7
370
    25
100
AcDbLine
 10
6265.5136291404
 20
5416.6981238736
 30
0.0
 11
6265.5136291404
 21
5416.504854659
 31
0.0
  0
LINE
  5
3B1
330
1F
100
AcDbEntity
  8
0
  6
Continuous
 62
     7
370
    25
100
AcDbLine
 10
6290.2360616277
 20
5418.8809363736
 30
0.0
 11
6290.2360616277
 21
5419.0752652051
 31
0.0
  0
LINE
  5
3B2
330
1F
100
AcDbEntity
  8
0
  6
Continuous
 62
     7
370
    25
100
AcDbLine
 10
6290.2360616277
 20
5417.2934363736
 30
0.0
 11
6290.2360616277
 21
5417.4877652051
 31
0.0
  0
LINE
  5
3B3
330
1F
100
AcDbEntity
  8
0
  6
Continuous
 62
     7
370
    25
100
AcDbLine
 10
6290.2360616277
 20
5415.7059363736
 30
0.0
 11
6290.2360616277
 21
5415.9002652051
 31
0.0
  0
LINE
  5
3B4
330
1F
100
AcDbEntity
  8
0
  6
Continuous
 62
     7
370
    25
100
AcDbLine
 10
6264.9952624698
 20
5181.8212442407
 30
0.0
 11
6266.154345384
 21
5180.6621613265
 31
0.0
  0
LINE
  5
3B5
330
1F
100
AcDbEntity
  8
0
  6
Continuous
 62
     7
370
    25
100
AcDbLine
 10
6290.7988748993
 20
5181.8656908417
 30
0.0
 11
6291.095345384
 21
5182.1621613265
 31
0.0
  0
LINE
  5
3B6
330
1F
100
AcDbEntity
  8
0
  6
Continuous
 62
     7
370
    25
100
AcDbLine
 10
6289.595345384
 20
5180.6621613265
 30
0.0
 11
6290.2465754916
 21
5181.313391434
 31
0.0
  0
LWPOLYLINE
  5
3B7
330
1F
100
AcDbEntity
  8
0
  6
Continuous
 62
     7
370
    25
100
AcDbPolyline
 90
        3
 70
   128
 43
0.0
 10
6291.0888920885
 20
5182.447818146
 10
6290.6590257152
 20
5182.6961312593
 10
6290.2360857937
 20
5182.940451985
  0
LWPOLYLINE
  5
3B8
330
1F
100
AcDbEntity
  8
0
  6
Continuous
 62
     7
370
    25
100
AcDbPolyline
 90
        3
 70
   128
 43
0.0
 10
6291.0888920885
 20
5184.035318146
 10
6290.6590257153
 20
5184.2836312593
 10
6290.2360857937
 20
5184.527951985
  0
LWPOLYLINE
  5
3B9
330
1F
100
AcDbEntity
  8
0
  6
Continuous
 62
     7
370
    25
100
AcDbPolyline
 90
        3
 70
   128
 43
0.0
 10
6291.0888920885
 20
5185.622818146
 10
6290.6590257153
 20
5185.8711312593
 10
6290.2360857937
 20
5186.115451985
  0
LWPOLYLINE
  5
3BA
330
1F
100
AcDbEntity
  8
0
  6
Continuous
 62
     7
370
    25
100
AcDbPolyline
 90
        3
 70
   128
 43
0.0
 10
6265.5205164192
 20
5183.738194536
 10
6265.0906650528
 20
5183.4898812593
 10
6264.6607986796
 20
5183.241568146
  0
LWPOLYLINE
  5
3BB
330
1F
100
AcDbEntity
  8
0
  6
Continuous
 62
     7
370
    25
100
AcDbPolyline
 90
        3
 70
   128
 43
0.0
 10
6265.5205164192
 20
5185.325694536
 10
6265.0906650528
 20
5185.0773812593
 10
6264.6607986796
 20
5184.829068146
  0
LWPOLYLINE
  5
3BC
330
1F
100
AcDbEntity
  8
0
  6
Continuous
 62
     7
370
    25
100
AcDbPolyline
 90
        3
 70
   128
 43
0.0
 10
6265.1335588699
 20
5186.6896598341
 10
6265.0906650528
 20
5186.6648812593
 10
6264.6607986796
 20
5186.416568146
  0
LWPOLYLINE
  5
3BD
330
1F
100
AcDbEntity
  8
0
  6
Continuous
 62
     7
370
    25
100
AcDbPolyline
 90
        3
 70
   128
 43
0.0
 10
6265.5205164192
 20
5182.150694536
 10
6265.0906650528
 20
5181.9023812593
 10
6264.9841472802
 20
5181.840851069
  0
LINE
  5
3BE
330
1F
100
AcDbEntity
  8
0
  6
Continuous
 62
     7
370
    25
100
AcDbLine
 10
6264.654345384
 20
5183.2340363265
 30
0.0
 11
6264.654345384
 21
5182.8371137888
 31
0.0
  0
LINE
  5
3BF
330
1F
100
AcDbEntity
  8
0
  6
Continuous
 62
     7
370
    25
100
AcDbLine
 10
6264.654345384
 20
5184.8215363265
 30
0.0
 11
6264.654345384
 21
5184.4246137888
 31
0.0
  0
LINE
  5
3C0
330
1F
100
AcDbEntity
  8
0
  6
Continuous
 62
     7
370
    25
100
AcDbLine
 10
6264.654345384
 20
5186.4090363265
 30
0.0
 11
6264.654345384
 21
5186.0121137888
 31
0.0
  0
LINE
  5
3C1
330
1F
100
AcDbEntity
  8
0
  6
Continuous
 62
     7
370
    25
100
AcDbLine
 10
6264.654345384
 20
5187.9965363265
 30
0.0
 11
6264.654345384
 21
5187.5996137888
 31
0.0
  0
LINE
  5
3C2
330
1F
100
AcDbEntity
  8
0
  6
Continuous
 62
     7
370
    25
100
AcDbLine
 10
6264.654345384
 20
5189.6621613265
 30
0.0
 11
6264.654345384
 21
5189.1871137888
 31
0.0
  0
LINE
  5
3C3
330
1F
100
AcDbEntity
  8
0
  6
Continuous
 62
     7
370
    25
100
AcDbLine
 10
6291.095345384
 20
5188.3932457532
 30
0.0
 11
6291.095345384
 21
5188.7901207484
 31
0.0
  0
LINE
  5
3C4
330
1F
100
AcDbEntity
  8
0
  6
Continuous
 62
     7
370
    25
100
AcDbLine
 10
6291.095345384
 20
5186.8057457532
 30
0.0
 11
6291.095345384
 21
5187.2026207484
 31
0.0
  0
LINE
  5
3C5
330
1F
100
AcDbEntity
  8
0
  6
Continuous
 62
     7
370
    25
100
AcDbLine
 10
6291.095345384
 20
5185.2182457532
 30
0.0
 11
6291.095345384
 21
5185.6151207484
 31
0.0
  0
LINE
  5
3C6
330
1F
100
AcDbEntity
  8
0
  6
Continuous
 62
     7
370
    25
100
AcDbLine
 10
6291.095345384
 20
5183.6307457532
 30
0.0
 11
6291.095345384
 21
5184.0276207484
 31
0.0
  0
LINE
  5
3C7
330
1F
100
AcDbEntity
  8
0
  6
Continuous
 62
     7
370
    25
100
AcDbLine
 10
6291.095345384
 20
5182.1621613265
 30
0.0
 11
6291.095345384
 21
5182.4401207484
 31
0.0
  0
LWPOLYLINE
  5
3C8
330
1F
100
AcDbEntity
  8
0
  6
Continuous
 62
     7
370
    25
100
AcDbPolyline
 90
        3
 70
   128
 43
0.0
 10
6290.2291707983
 20
5183.1267510369
 10
6290.6590224371
 20
5183.3750644759
 10
6291.0888890899
 20
5183.6233777513
  0
LWPOLYLINE
  5
3C9
330
1F
100
AcDbEntity
  8
0
  6
Continuous
 62
     7
370
    25
100
AcDbPolyline
 90
        3
 70
   128
 43
0.0
 10
6290.2291707983
 20
5184.7142510369
 10
6290.6590224371
 20
5184.9625644759
 10
6291.0888890899
 20
5185.2108777513
  0
LWPOLYLINE
  5
3CA
330
1F
100
AcDbEntity
  8
0
  6
Continuous
 62
     7
370
    25
100
AcDbPolyline
 90
        3
 70
   128
 43
0.0
 10
6290.2291707983
 20
5186.3017510369
 10
6290.6590224371
 20
5186.5500644759
 10
6291.0888890899
 20
5186.7983777513
  0
LWPOLYLINE
  5
3CB
330
1F
100
AcDbEntity
  8
0
  6
Continuous
 62
     7
370
    25
100
AcDbPolyline
 90
        3
 70
   128
 43
0.0
 10
6264.6608016782
 20
5184.4171277513
 10
6265.090668331
 20
5184.1688144759
 10
6265.5136049744
 20
5183.9244956391
  0
LWPOLYLINE
  5
3CC
330
1F
100
AcDbEntity
  8
0
  6
Continuous
 62
     7
370
    25
100
AcDbPolyline
 90
        3
 70
   128
 43
0.0
 10
6264.6608016782
 20
5186.0046277513
 10
6265.090668331
 20
5185.7563144759
 10
6265.5136049744
 20
5185.5119956391
  0
LWPOLYLINE
  5
3CD
330
1F
100
AcDbEntity
  8
0
  6
Continuous
 62
     7
370
    25
100
AcDbPolyline
 90
        3
 70
   128
 43
0.0
 10
6264.6608016782
 20
5182.8296277513
 10
6265.090668331
 20
5182.5813144759
 10
6265.5136049744
 20
5182.3369956391
  0
LWPOLYLINE
  5
3CE
330
1F
100
AcDbEntity
  8
0
  6
Continuous
 62
     7
370
    25
100
AcDbPolyline
 90
        3
 70
   128
 43
0.0
 10
6290.2291707983
 20
5181.5392510369
 10
6290.6590224371
 20
5181.7875644759
 10
6290.7570459451
 20
5181.8441879385
  0
LINE
  5
3CF
330
1F
100
AcDbEntity
  8
0
  6
Continuous
 62
     7
370
    25
100
AcDbLine
 10
6290.2360857937
 20
5182.9363874336
 30
0.0
 11
6290.2360857937
 21
5183.1307456391
 31
0.0
  0
LINE
  5
3D0
330
1F
100
AcDbEntity
  8
0
  6
Continuous
 62
     7
370
    25
100
AcDbLine
 10
6290.2360857937
 20
5184.5238874336
 30
0.0
 11
6290.2360857937
 21
5184.7182456391
 31
0.0
  0
LINE
  5
3D1
330
1F
100
AcDbEntity
  8
0
  6
Continuous
 62
     7
370
    25
100
AcDbLine
 10
6290.2360857937
 20
5186.1113874336
 30
0.0
 11
6290.2360857937
 21
5186.3029017353
 31
0.0
  0
LINE
  5
3D2
330
1F
100
AcDbEntity
  8
0
  6
Continuous
 62
     7
370
    25
100
AcDbLine
 10
6265.5136049744
 20
5183.9285749336
 30
0.0
 11
6265.5136049744
 21
5183.734201985
 31
0.0
  0
LINE
  5
3D3
330
1F
100
AcDbEntity
  8
0
  6
Continuous
 62
     7
370
    25
100
AcDbLine
 10
6265.5136049744
 20
5185.5160749336
 30
0.0
 11
6265.5136049744
 21
5185.321701985
 31
0.0
  0
LINE
  5
3D4
330
1F
100
AcDbEntity
  8
0
  6
Continuous
 62
     7
370
    25
100
AcDbLine
 10
6265.5136049744
 20
5182.3410749336
 30
0.0
 11
6265.5136049744
 21
5182.146701985
 31
0.0
  0
LINE
  5
3D5
330
1F
100
AcDbEntity
  8
0
  6
Continuous
 62
     7
370
    25
100
AcDbLine
 10
6290.2360857937
 20
5181.3488874336
 30
0.0
 11
6290.2360857937
 21
5181.5432456391
 31
0.0
  0
LINE
  5
3D6
330
1F
100
AcDbEntity
  8
0
  6
Continuous
 62
     7
370
    25
100
AcDbLine
 10
6290.7544282983
 20
5438.5030784116
 30
0.0
 11
6289.5953453841
 21
5439.6621613258
 31
0.0
  0
LINE
  5
3D7
330
1F
100
AcDbEntity
  8
0
  6
Continuous
 62
     7
370
    25
100
AcDbLine
 10
6264.9508158688
 20
5438.4586318105
 30
0.0
 11
6264.6543453841
 21
5438.1621613258
 31
0.0
  0
LINE
  5
3D8
330
1F
100
AcDbEntity
  8
0
  6
Continuous
 62
     7
370
    25
100
AcDbLine
 10
6266.1543453841
 20
5439.6621613258
 30
0.0
 11
6265.5031152765
 21
5439.0109312183
 31
0.0
  0
LWPOLYLINE
  5
3D9
330
1F
100
AcDbEntity
  8
0
  6
Continuous
 62
     7
370
    25
100
AcDbPolyline
 90
        3
 70
   128
 43
0.0
 10
6264.6607986796
 20
5437.8765045063
 10
6265.0906650529
 20
5437.628191393
 10
6265.5136049744
 20
5437.3838706673
  0
LWPOLYLINE
  5
3DA
330
1F
100
AcDbEntity
  8
0
  6
Continuous
 62
     7
370
    25
100
AcDbPolyline
 90
        3
 70
   128
 43
0.0
 10
6264.6607986796
 20
5436.2890045063
 10
6265.0906650529
 20
5436.040691393
 10
6265.5136049744
 20
5435.7963706673
  0
LWPOLYLINE
  5
3DB
330
1F
100
AcDbEntity
  8
0
  6
Continuous
 62
     7
370
    25
100
AcDbPolyline
 90
        3
 70
   128
 43
0.0
 10
6264.6607986796
 20
5434.7015045063
 10
6265.0906650529
 20
5434.453191393
 10
6265.5136049744
 20
5434.2088706673
  0
LWPOLYLINE
  5
3DC
330
1F
100
AcDbEntity
  8
0
  6
Continuous
 62
     7
370
    25
100
AcDbPolyline
 90
        3
 70
   128
 43
0.0
 10
6264.6607986796
 20
5433.1140045063
 10
6265.0906650529
 20
5432.865691393
 10
6265.5136049744
 20
5432.6213706673
  0
LWPOLYLINE
  5
3DD
330
1F
100
AcDbEntity
  8
0
  6
Continuous
 62
     7
370
    25
100
AcDbPolyline
 90
        3
 70
   128
 43
0.0
 10
6264.6607986796
 20
5431.5265045063
 10
6265.0906650529
 20
5431.278191393
 10
6265.5136049744
 20
5431.0338706673
  0
LWPOLYLINE
  5
3DE
330
1F
100
AcDbEntity
  8
0
  6
Continuous
 62
     7
370
    25
100
AcDbPolyline
 90
        3
 70
   128
 43
0.0
 10
6290.2291743489
 20
5436.5861281163
 10
6290.6590257153
 20
5436.834441393
 10
6291.0888920885
 20
5437.0827545063
  0
LWPOLYLINE
  5
3DF
330
1F
100
AcDbEntity
  8
0
  6
Continuous
 62
     7
370
    25
100
AcDbPolyline
 90
        3
 70
   128
 43
0.0
 10
6290.2291743489
 20
5434.9986281163
 10
6290.6590257153
 20
5435.246941393
 10
6291.0888920885
 20
5435.4952545063
  0
LWPOLYLINE
  5
3E0
330
1F
100
AcDbEntity
  8
0
  6
Continuous
 62
     7
370
    25
100
AcDbPolyline
 90
        3
 70
   128
 43
0.0
 10
6290.2291743489
 20
5433.4111281163
 10
6290.6590257153
 20
5433.659441393
 10
6291.0888920885
 20
5433.9077545063
  0
LWPOLYLINE
  5
3E1
330
1F
100
AcDbEntity
  8
0
  6
Continuous
 62
     7
370
    25
100
AcDbPolyline
 90
        3
 70
   128
 43
0.0
 10
6290.2291743489
 20
5431.8236281163
 10
6290.6590257153
 20
5432.071941393
 10
6291.0888920885
 20
5432.3202545063
  0
LINE
  5
3E2
330
1F
100
AcDbEntity
  8
0
  6
Continuous
 62
     7
370
    25
100
AcDbLine
 10
6290.9666849523
 20
5430.6621613258
 30
0.0
 11
6291.0888920885
 21
5430.7327545063
 31
0.0
  0
LWPOLYLINE
  5
3E3
330
1F
100
AcDbEntity
  8
0
  6
Continuous
 62
     7
370
    25
100
AcDbPolyline
 90
        3
 70
   128
 43
0.0
 10
6290.2291743489
 20
5438.1736281163
 10
6290.6590257153
 20
5438.421941393
 10
6290.7655434879
 20
5438.4834715832
  0
LINE
  5
3E4
330
1F
100
AcDbEntity
  8
0
  6
Continuous
 62
     7
370
    25
100
AcDbLine
 10
6291.0953453841
 20
5437.0902863258
 30
0.0
 11
6291.0953453841
 21
5437.4872088635
 31
0.0
  0
LINE
  5
3E5
330
1F
100
AcDbEntity
  8
0
  6
Continuous
 62
     7
370
    25
100
AcDbLine
 10
6291.0953453841
 20
5435.5027863258
 30
0.0
 11
6291.0953453841
 21
5435.8997088635
 31
0.0
  0
LINE
  5
3E6
330
1F
100
AcDbEntity
  8
0
  6
Continuous
 62
     7
370
    25
100
AcDbLine
 10
6291.0953453841
 20
5433.9152863258
 30
0.0
 11
6291.0953453841
 21
5434.3122088635
 31
0.0
  0
LINE
  5
3E7
330
1F
100
AcDbEntity
  8
0
  6
Continuous
 62
     7
370
    25
100
AcDbLine
 10
6291.0953453841
 20
5432.3277863258
 30
0.0
 11
6291.0953453841
 21
5432.7247088635
 31
0.0
  0
LINE
  5
3E8
330
1F
100
AcDbEntity
  8
0
  6
Continuous
 62
     7
370
    25
100
AcDbLine
 10
6291.0953453841
 20
5430.6621613258
 30
0.0
 11
6291.0953453841
 21
5431.1372088635
 31
0.0
  0
LINE
  5
3E9
330
1F
100
AcDbEntity
  8
0
  6
Continuous
 62
     7
370
    25
100
AcDbLine
 10
6264.6543453841
 20
5431.9310768991
 30
0.0
 11
6264.6543453841
 21
5431.5342019039
 31
0.0
  0
LINE
  5
3EA
330
1F
100
AcDbEntity
  8
0
  6
Continuous
 62
     7
370
    25
100
AcDbLine
 10
6264.6543453841
 20
5433.5185768991
 30
0.0
 11
6264.6543453841
 21
5433.1217019039
 31
0.0
  0
LINE
  5
3EB
330
1F
100
AcDbEntity
  8
0
  6
Continuous
 62
     7
370
    25
100
AcDbLine
 10
6264.6543453841
 20
5435.1060768991
 30
0.0
 11
6264.6543453841
 21
5434.7092019039
 31
0.0
  0
LINE
  5
3EC
330
1F
100
AcDbEntity
  8
0
  6
Continuous
 62
     7
370
    25
100
AcDbLine
 10
6264.6543453841
 20
5436.6935768991
 30
0.0
 11
6264.6543453841
 21
5436.2967019039
 31
0.0
  0
LINE
  5
3ED
330
1F
100
AcDbEntity
  8
0
  6
Continuous
 62
     7
370
    25
100
AcDbLine
 10
6264.6543453841
 20
5438.1621613258
 30
0.0
 11
6264.6543453841
 21
5437.8842019039
 31
0.0
  0
LWPOLYLINE
  5
3EE
330
1F
100
AcDbEntity
  8
0
  6
Continuous
 62
     7
370
    25
100
AcDbPolyline
 90
        3
 70
   128
 43
0.0
 10
6265.5205199698
 20
5437.1975716154
 10
6265.0906683311
 20
5436.9492581764
 10
6264.6608016782
 20
5436.700944901
  0
LWPOLYLINE
  5
3EF
330
1F
100
AcDbEntity
  8
0
  6
Continuous
 62
     7
370
    25
100
AcDbPolyline
 90
        3
 70
   128
 43
0.0
 10
6265.5205199698
 20
5435.6100716154
 10
6265.0906683311
 20
5435.3617581764
 10
6264.6608016782
 20
5435.113444901
  0
LWPOLYLINE
  5
3F0
330
1F
100
AcDbEntity
  8
0
  6
Continuous
 62
     7
370
    25
100
AcDbPolyline
 90
        3
 70
   128
 43
0.0
 10
6265.5205199698
 20
5434.0225716154
 10
6265.0906683311
 20
5433.7742581764
 10
6264.6608016782
 20
5433.525944901
  0
LWPOLYLINE
  5
3F1
330
1F
100
AcDbEntity
  8
0
  6
Continuous
 62
     7
370
    25
100
AcDbPolyline
 90
        3
 70
   128
 43
0.0
 10
6265.5205199698
 20
5432.4350716154
 10
6265.0906683311
 20
5432.1867581764
 10
6264.6608016782
 20
5431.938444901
  0
LINE
  5
3F2
330
1F
100
AcDbEntity
  8
0
  6
Continuous
 62
     7
370
    25
100
AcDbLine
 10
6265.5205199698
 20
5430.8475716154
 30
0.0
 11
6265.2306254322
 21
5430.6801075346
 31
0.0
  0
LWPOLYLINE
  5
3F3
330
1F
100
AcDbEntity
  8
0
  6
Continuous
 62
     7
370
    25
100
AcDbPolyline
 90
        3
 70
   128
 43
0.0
 10
6291.0888890899
 20
5435.907194901
 10
6290.6590224371
 20
5436.1555081764
 10
6290.2360857938
 20
5436.3998270132
  0
LWPOLYLINE
  5
3F4
330
1F
100
AcDbEntity
  8
0
  6
Continuous
 62
     7
370
    25
100
AcDbPolyline
 90
        3
 70
   128
 43
0.0
 10
6291.0888890899
 20
5434.319694901
 10
6290.6590224371
 20
5434.5680081764
 10
6290.2360857938
 20
5434.8123270132
  0
LWPOLYLINE
  5
3F5
330
1F
100
AcDbEntity
  8
0
  6
Continuous
 62
     7
370
    25
100
AcDbPolyline
 90
        3
 70
   128
 43
0.0
 10
6291.0888890899
 20
5432.732194901
 10
6290.6590224371
 20
5432.9805081764
 10
6290.2360857938
 20
5433.2248270132
  0
LWPOLYLINE
  5
3F6
330
1F
100
AcDbEntity
  8
0
  6
Continuous
 62
     7
370
    25
100
AcDbPolyline
 90
        3
 70
   128
 43
0.0
 10
6291.0888890899
 20
5431.144694901
 10
6290.6590224371
 20
5431.3930081764
 10
6290.2360857938
 20
5431.6373270132
  0
LWPOLYLINE
  5
3F7
330
1F
100
AcDbEntity
  8
0
  6
Continuous
 62
     7
370
    25
100
AcDbPolyline
 90
        3
 70
   128
 43
0.0
 10
6291.0888890899
 20
5437.494694901
 10
6290.6590224371
 20
5437.7430081764
 10
6290.2360857938
 20
5437.9873270132
  0
LWPOLYLINE
  5
3F8
330
1F
100
AcDbEntity
  8
0
  6
Continuous
 62
     7
370
    25
100
AcDbPolyline
 90
        3
 70
   128
 43
0.0
 10
6265.5205199698
 20
5438.7850716154
 10
6265.0906683311
 20
5438.5367581764
 10
6264.992644823
 20
5438.4801347138
  0
LINE
  5
3F9
330
1F
100
AcDbEntity
  8
0
  6
Continuous
 62
     7
370
    25
100
AcDbLine
 10
6265.5136049744
 20
5437.3879352186
 30
0.0
 11
6265.5136049744
 21
5437.1935770132
 31
0.0
  0
LINE
  5
3FA
330
1F
100
AcDbEntity
  8
0
  6
Continuous
 62
     7
370
    25
100
AcDbLine
 10
6265.5136049744
 20
5435.8004352186
 30
0.0
 11
6265.5136049744
 21
5435.6060770132
 31
0.0
  0
LINE
  5
3FB
330
1F
100
AcDbEntity
  8
0
  6
Continuous
 62
     7
370
    25
100
AcDbLine
 10
6265.5136049744
 20
5434.2129352186
 30
0.0
 11
6265.5136049744
 21
5434.0185770132
 31
0.0
  0
LINE
  5
3FC
330
1F
100
AcDbEntity
  8
0
  6
Continuous
 62
     7
370
    25
100
AcDbLine
 10
6265.5136049744
 20
5432.6254352186
 30
0.0
 11
6265.5136049744
 21
5432.4310770132
 31
0.0
  0
LINE
  5
3FD
330
1F
100
AcDbEntity
  8
0
  6
Continuous
 62
     7
370
    25
100
AcDbLine
 10
6265.5136049744
 20
5431.0379352186
 30
0.0
 11
6265.5136049744
 21
5430.8435770132
 31
0.0
  0
LINE
  5
3FE
330
1F
100
AcDbEntity
  8
0
  6
Continuous
 62
     7
370
    25
100
AcDbLine
 10
6290.2360857938
 20
5436.3957477186
 30
0.0
 11
6290.2360857938
 21
5436.5901206673
 31
0.0
  0
LINE
  5
3FF
330
1F
100
AcDbEntity
  8
0
  6
Continuous
 62
     7
370
    25
100
AcDbLine
 10
6290.2360857938
 20
5434.8082477186
 30
0.0
 11
6290.2360857938
 21
5435.0026206673
 31
0.0
  0
LINE
  5
400
330
1F
100
AcDbEntity
  8
0
  6
Continuous
 62
     7
370
    25
100
AcDbLine
 10
6290.2360857938
 20
5433.2207477186
 30
0.0
 11
6290.2360857938
 21
5433.4151206673
 31
0.0
  0
LINE
  5
401
330
1F
100
AcDbEntity
  8
0
  6
Continuous
 62
     7
370
    25
100
AcDbLine
 10
6290.2360857938
 20
5431.6332477186
 30
0.0
 11
6290.2360857938
 21
5431.8276206673
 31
0.0
  0
LINE
  5
402
330
1F
100
AcDbEntity
  8
0
  6
Continuous
 62
     7
370
    25
100
AcDbLine
 10
6290.2360857938
 20
5437.9832477186
 30
0.0
 11
6290.2360857938
 21
5438.1776206673
 31
0.0
  0
LINE
  5
403
330
1F
100
AcDbEntity
  8
0
  6
Continuous
 62
     7
370
    25
100
AcDbLine
 10
6265.5136049744
 20
5438.9754352186
 30
0.0
 11
6265.5136049744
 21
5438.7810770132
 31
0.0
  0
LINE
  5
404
330
1F
100
AcDbEntity
  8
0
  6
Continuous
 62
     7
370
    25
100
AcDbLine
 10
6287.8748453841
 20
5206.1621613257
 30
0.0
 11
6287.8748453841
 21
5208.0006389569
 31
0.0
  0
LINE
  5
405
330
1F
100
AcDbEntity
  8
0
  6
Continuous
 62
     7
370
    25
100
AcDbLine
 10
6267.8748453841
 20
5208.0006389569
 30
0.0
 11
6267.8748453841
 21
5206.1621613257
 31
0.0
  0
LINE
  5
406
330
1F
100
AcDbEntity
  8
0
  6
Continuous
 62
     7
370
    25
100
AcDbLine
 10
6291.374845384
 20
5379.1621613258
 30
0.0
 11
6291.374845384
 21
5379.9318573328
 31
0.0
  0
LINE
  5
407
330
1F
100
AcDbEntity
  8
0
  6
Continuous
 62
     7
370
    25
100
AcDbLine
 10
6265.874845384
 20
5404.1621613258
 30
0.0
 11
6265.874845384
 21
5404.0986529989
 31
0.0
  0
LINE
  5
408
330
1F
100
AcDbEntity
  8
0
  6
Continuous
 62
     7
370
    25
100
AcDbLine
 10
6289.874845384
 20
5404.0986529989
 30
0.0
 11
6289.874845384
 21
5404.1621613258
 31
0.0
  0
ARC
  5
409
330
1F
100
AcDbEntity
  8
0
  6
Continuous
 62
     7
370
    25
100
AcDbCircle
 10
6290.374845384
 20
5402.1621613258
 30
0.0
 40
1.000000000000529
100
AcDbArc
 50
9.2952710028
 51
75.5141404878
  0
ARC
  5
40A
330
1F
100
AcDbEntity
  8
0
  6
Continuous
 62
     7
370
    25
100
AcDbCircle
 10
6265.374845384
 20
5402.1621613258
 30
0.0
 40
1.000000000000397
100
AcDbArc
 50
104.4861972513
 51
167.023536616
  0
ARC
  5
40B
330
1F
100
AcDbEntity
  8
0
  6
Continuous
 62
     7
370
    25
100
AcDbCircle
 10
6290.874845384
 20
5404.0986529989
 30
0.0
 40
1.000000000000736
100
AcDbArc
 50
179.9751673944
 51
255.5774675073
  0
ARC
  5
40C
330
1F
100
AcDbEntity
  8
0
  6
Continuous
 62
     7
370
    25
100
AcDbCircle
 10
6264.874845384
 20
5404.0986529989
 30
0.0
 40
1.000000000000284
100
AcDbArc
 50
284.4227495636
 51
359.9979785416
  0
LINE
  5
40D
330
1F
100
AcDbEntity
  8
0
  6
Continuous
 62
     7
370
    25
100
AcDbLine
 10
6351.874845384
 20
5185.6474427
 30
0.0
 11
6352.874845384
 21
5185.6474427
 31
0.0
  0
LINE
  5
40E
330
1F
100
AcDbEntity
  8
0
  6
Continuous
 62
     7
370
    25
100
AcDbLine
 10
6352.874845384
 20
5424.6768799515
 30
0.0
 11
6351.874845384
 21
5424.6768799515
 31
0.0
  0
LINE
  5
40F
330
1F
100
AcDbEntity
  8
0
  6
Continuous
 62
     7
370
    25
100
AcDbLine
 10
6362.874845384
 20
5220.2278467507
 30
0.0
 11
6362.874845384
 21
5390.0964759008
 31
0.0
  0
LINE
  5
410
330
1F
100
AcDbEntity
  8
0
  6
Continuous
 62
     7
370
    25
100
AcDbLine
 10
6352.874845384
 20
5220.2278467507
 30
0.0
 11
6362.874845384
 21
5220.2278467507
 31
0.0
  0
LINE
  5
411
330
1F
100
AcDbEntity
  8
0
  6
Continuous
 62
     7
370
    25
100
AcDbLine
 10
6352.874845384
 20
5390.0964759008
 30
0.0
 11
6362.874845384
 21
5390.0964759008
 31
0.0
  0
LINE
  5
412
330
1F
100
AcDbEntity
  8
0
  6
Continuous
 62
     7
370
    25
100
AcDbLine
 10
6362.874845384
 20
5392.1621613258
 30
0.0
 11
6362.874845384
 21
5390.6621613258
 31
0.0
  0
LINE
  5
413
330
1F
100
AcDbEntity
  8
0
  6
Continuous
 62
     7
370
    25
100
AcDbLine
 10
6348.874845384
 20
5392.1621613258
 30
0.0
 11
6351.5853950176
 21
5392.1621613258
 31
0.0
  0
LINE
  5
414
330
1F
100
AcDbEntity
  8
0
  6
Continuous
 62
     7
370
    25
100
AcDbLine
 10
6352.874845384
 20
5392.1621613258
 30
0.0
 11
6362.874845384
 21
5392.1621613258
 31
0.0
  0
LINE
  5
415
330
1F
100
AcDbEntity
  8
0
  6
Continuous
 62
     7
370
    25
100
AcDbLine
 10
6352.874845384
 20
5390.6621613258
 30
0.0
 11
6362.874845384
 21
5390.6621613258
 31
0.0
  0
LINE
  5
416
330
1F
100
AcDbEntity
  8
0
  6
Continuous
 62
     7
370
    25
100
AcDbLine
 10
6362.874845384
 20
5218.1621613258
 30
0.0
 11
6362.874845384
 21
5219.6621613258
 31
0.0
  0
LINE
  5
417
330
1F
100
AcDbEntity
  8
0
  6
Continuous
 62
     7
370
    25
100
AcDbLine
 10
6348.874845384
 20
5218.1621613258
 30
0.0
 11
6351.5853950176
 21
5218.1621613258
 31
0.0
  0
LINE
  5
418
330
1F
100
AcDbEntity
  8
0
  6
Continuous
 62
     7
370
    25
100
AcDbLine
 10
6352.874845384
 20
5218.1621613258
 30
0.0
 11
6362.874845384
 21
5218.1621613258
 31
0.0
  0
LINE
  5
419
330
1F
100
AcDbEntity
  8
0
  6
Continuous
 62
     7
370
    25
100
AcDbLine
 10
6352.874845384
 20
5219.6621613258
 30
0.0
 11
6362.874845384
 21
5219.6621613258
 31
0.0
  0
LINE
  5
41A
330
1F
100
AcDbEntity
  8
0
  6
Continuous
 62
     7
370
    25
100
AcDbLine
 10
6264.6543453841
 20
5187.1621613257
 30
0.0
 11
6291.0953453841
 21
5187.1621613257
 31
0.0
  0
LINE
  5
41B
330
1F
100
AcDbEntity
  8
0
  6
Continuous
 62
     7
370
    25
100
AcDbLine
 10
6290.0953453841
 20
5186.1621613257
 30
0.0
 11
6290.0009868829
 21
5186.1621613257
 31
0.0
  0
LWPOLYLINE
  5
41C
330
1F
100
AcDbEntity
  8
0
  6
Continuous
 62
     7
370
    25
100
AcDbPolyline
 90
        3
 70
   128
 43
0.0
 10
6289.7711425967
 20
5204.1621613257
 10
6287.5190218111
 20
5205.0046689953
 10
6286.8852380491
 20
5205.1621613257
  0
LINE
  5
41D
330
1F
100
AcDbEntity
  8
0
  6
Continuous
 62
     7
370
    25
100
AcDbLine
 10
6289.7711425967
 20
5195.7395115949
 30
0.0
 11
6289.7711425967
 21
5204.1621613257
 31
0.0
  0
LINE
  5
41E
330
1F
100
AcDbEntity
  8
0
  6
Continuous
 62
     7
370
    25
100
AcDbLine
 10
6287.7533782891
 20
5195.3193677054
 30
0.0
 11
6289.7711425967
 21
5195.7395115949
 31
0.0
  0
LINE
  5
41F
330
1F
100
AcDbEntity
  8
0
  6
Continuous
 62
     7
370
    25
100
AcDbLine
 10
6279.4785481715
 20
5195.7395115949
 30
0.0
 11
6281.4985539848
 21
5195.3353918879
 31
0.0
  0
LINE
  5
420
330
1F
100
AcDbEntity
  8
0
  6
Continuous
 62
     7
370
    25
100
AcDbLine
 10
6279.4785481715
 20
5204.1621613257
 30
0.0
 11
6279.4785481715
 21
5195.7395115949
 31
0.0
  0
LINE
  5
421
330
1F
100
AcDbEntity
  8
0
  6
Continuous
 62
     7
370
    25
100
AcDbLine
 10
6282.3644527191
 20
5205.1621613257
 30
0.0
 11
6279.4785481715
 21
5204.1621613257
 31
0.0
  0
LINE
  5
422
330
1F
100
AcDbEntity
  8
0
  6
Continuous
 62
     7
370
    25
100
AcDbLine
 10
6276.2711425967
 20
5204.1621613257
 30
0.0
 11
6273.3852380491
 21
5205.1621613257
 31
0.0
  0
LINE
  5
423
330
1F
100
AcDbEntity
  8
0
  6
Continuous
 62
     7
370
    25
100
AcDbLine
 10
6276.2711425967
 20
5204.1621613257
 30
0.0
 11
6279.4785481715
 21
5204.1621613257
 31
0.0
  0
LWPOLYLINE
  5
424
330
1F
100
AcDbEntity
  8
0
  6
Continuous
 62
     7
370
    25
100
AcDbPolyline
 90
        3
 70
   128
 43
0.0
 10
6274.256439602
 20
5195.3018522894
 10
6274.6665918256
 20
5195.3676172771
 10
6276.2711425967
 20
5195.7395115949
  0
LINE
  5
425
330
1F
100
AcDbEntity
  8
0
  6
Continuous
 62
     7
370
    25
100
AcDbLine
 10
6276.2711425967
 20
5195.7395115949
 30
0.0
 11
6279.4785481715
 21
5195.7395115949
 31
0.0
  0
LINE
  5
426
330
1F
100
AcDbEntity
  8
0
  6
Continuous
 62
     7
370
    25
100
AcDbLine
 10
6275.2647687569
 20
5195.1621613257
 30
0.0
 11
6280.4849220113
 21
5195.1621613257
 31
0.0
  0
LINE
  5
427
330
1F
100
AcDbEntity
  8
0
  6
Continuous
 62
     7
370
    25
100
AcDbLine
 10
6276.2711425967
 20
5195.7395115949
 30
0.0
 11
6276.2711425967
 21
5204.1621613257
 31
0.0
  0
LWPOLYLINE
  5
428
330
1F
100
AcDbEntity
  8
0
  6
Continuous
 62
     7
370
    25
100
AcDbPolyline
 90
        3
 70
   128
 43
0.0
 10
6265.9785481715
 20
5195.7395115949
 10
6266.7473037185
 20
5195.5462648625
 10
6267.9958301667
 20
5195.3197510817
  0
LINE
  5
429
330
1F
100
AcDbEntity
  8
0
  6
Continuous
 62
     7
370
    25
100
AcDbLine
 10
6265.9785481715
 20
5204.1621613257
 30
0.0
 11
6265.9785481715
 21
5195.7395115949
 31
0.0
  0
LWPOLYLINE
  5
42A
330
1F
100
AcDbEntity
  8
0
  6
Continuous
 62
     7
370
    25
100
AcDbPolyline
 90
        3
 70
   128
 43
0.0
 10
6268.8644527191
 20
5205.1621613257
 10
6267.850875953
 20
5204.8928234509
 10
6265.9785481715
 20
5204.1621613257
  0
LINE
  5
42B
330
1F
100
AcDbEntity
  8
0
  6
Continuous
 62
     7
370
    25
100
AcDbLine
 10
6291.3748453841
 20
5205.1621613257
 30
0.0
 11
6291.3748453841
 21
5204.1621613257
 31
0.0
  0
LINE
  5
42C
330
1F
100
AcDbEntity
  8
0
  6
Continuous
 62
     7
370
    25
100
AcDbLine
 10
6289.7711425967
 20
5204.1621613257
 30
0.0
 11
6291.3748453841
 21
5204.1621613257
 31
0.0
  0
LINE
  5
42D
330
1F
100
AcDbEntity
  8
0
  6
Continuous
 62
     7
370
    25
100
AcDbLine
 10
6291.3748453841
 20
5195.7395115949
 30
0.0
 11
6291.3748453841
 21
5195.3353918879
 31
0.0
  0
LINE
  5
42E
330
1F
100
AcDbEntity
  8
0
  6
Continuous
 62
     7
370
    25
100
AcDbLine
 10
6289.7711425967
 20
5195.7395115949
 30
0.0
 11
6291.3748453841
 21
5195.7395115949
 31
0.0
  0
LINE
  5
42F
330
1F
100
AcDbEntity
  8
0
  6
Continuous
 62
     7
370
    25
100
AcDbLine
 10
6288.2611500214
 20
5195.1621613257
 30
0.0
 11
6290.8712266489
 21
5195.1621613257
 31
0.0
  0
LINE
  5
430
330
1F
100
AcDbEntity
  8
0
  6
Continuous
 62
     7
370
    25
100
AcDbLine
 10
6264.3748453841
 20
5204.1621613257
 30
0.0
 11
6265.9785481715
 21
5204.1621613257
 31
0.0
  0
LINE
  5
431
330
1F
100
AcDbEntity
  8
0
  6
Continuous
 62
     7
370
    25
100
AcDbLine
 10
6264.3748453841
 20
5204.1621613257
 30
0.0
 11
6264.3748453841
 21
5205.1621613257
 31
0.0
  0
LINE
  5
432
330
1F
100
AcDbEntity
  8
0
  6
Continuous
 62
     7
370
    25
100
AcDbLine
 10
6264.3748453841
 20
5205.1621613257
 30
0.0
 11
6264.674845384
 21
5205.1621613257
 31
0.0
  0
LINE
  5
433
330
1F
100
AcDbEntity
  8
0
  6
Continuous
 62
     7
370
    25
100
AcDbLine
 10
6264.3748453841
 20
5195.3193677055
 30
0.0
 11
6264.3748453841
 21
5195.7395115949
 31
0.0
  0
LINE
  5
434
330
1F
100
AcDbEntity
  8
0
  6
Continuous
 62
     7
370
    25
100
AcDbLine
 10
6264.3748453841
 20
5195.7395115949
 30
0.0
 11
6265.9785481715
 21
5195.7395115949
 31
0.0
  0
LINE
  5
435
330
1F
100
AcDbEntity
  8
0
  6
Continuous
 62
     7
370
    25
100
AcDbLine
 10
6264.8784641195
 20
5195.1621613257
 30
0.0
 11
6267.4885407464
 21
5195.1621613257
 31
0.0
  0
LINE
  5
436
330
1F
100
AcDbEntity
  8
0
  6
Continuous
 62
     7
370
    25
100
AcDbLine
 10
6291.3748453841
 20
5204.1621613257
 30
0.0
 11
6291.3748453841
 21
5195.7395115949
 31
0.0
  0
LINE
  5
437
330
1F
100
AcDbEntity
  8
0
  6
Continuous
 62
     7
370
    25
100
AcDbLine
 10
6264.3748453841
 20
5195.7395115949
 30
0.0
 11
6264.3748453841
 21
5204.1621613257
 31
0.0
  0
LINE
  5
438
330
1F
100
AcDbEntity
  8
0
  6
Continuous
 62
     7
370
    25
100
AcDbLine
 10
6264.3748453841
 20
5415.6621613258
 30
0.0
 11
6277.8748453841
 21
5415.6621613258
 31
0.0
  0
LINE
  5
439
330
1F
100
AcDbEntity
  8
0
  6
Continuous
 62
     7
370
    25
100
AcDbLine
 10
6277.8748453841
 20
5415.6621613258
 30
0.0
 11
6277.874845384
 21
5405.1621613258
 31
0.0
  0
LINE
  5
43A
330
1F
100
AcDbEntity
  8
0
  6
Continuous
 62
     7
370
    25
100
AcDbLine
 10
6264.374845384
 20
5405.1621613258
 30
0.0
 11
6264.674845384
 21
5405.1621613258
 31
0.0
  0
LINE
  5
43B
330
1F
100
AcDbEntity
  8
0
  6
Continuous
 62
     7
370
    25
100
AcDbLine
 10
6264.3748453841
 20
5415.6621613258
 30
0.0
 11
6264.374845384
 21
5405.1621613258
 31
0.0
  0
LWPOLYLINE
  5
43C
330
1F
100
AcDbEntity
  8
0
  6
Continuous
 62
     7
370
    25
100
AcDbPolyline
 90
       16
 70
   128
 43
0.0
 10
6291.0706425021
 20
5419.9729169863
 10
6291.0653629625
 20
5419.9556254768
 10
6290.5591752577
 20
5419.9017033387
 10
6289.4413140193
 20
5419.8467202208
 10
6287.7347413709
 20
5419.7889423501
 10
6285.5576440917
 20
5419.7325809317
 10
6283.0562298289
 20
5419.6794275922
 10
6280.2497377168
 20
5419.6227026616
 10
6277.3103530296
 20
5419.5650310507
 10
6274.4531281983
 20
5419.510598821
 10
6271.7594885626
 20
5419.4561665912
 10
6269.3154075801
 20
5419.3984949803
 10
6267.3062107455
 20
5419.3417700497
 10
6265.841843202
 20
5419.2886167102
 10
6264.9324016364
 20
5419.2322552918
 10
6264.678653107
 20
5419.1791186988
  0
LWPOLYLINE
  5
43D
330
1F
100
AcDbEntity
  8
0
  6
Continuous
 62
     7
370
    25
100
AcDbPolyline
 90
       16
 70
   128
 43
0.0
 10
6291.0706425021
 20
5418.3854169863
 10
6291.0653629625
 20
5418.3681254768
 10
6290.5591752577
 20
5418.3142033387
 10
6289.4413140193
 20
5418.2592202208
 10
6287.7347413709
 20
5418.2014423501
 10
6285.5576440917
 20
5418.1450809317
 10
6283.0562298289
 20
5418.0919275922
 10
6280.2497377168
 20
5418.0352026616
 10
6277.3103530296
 20
5417.9775310507
 10
6274.4531281983
 20
5417.923098821
 10
6271.7594885626
 20
5417.8686665912
 10
6269.3154075801
 20
5417.8109949803
 10
6267.3062107455
 20
5417.7542700497
 10
6265.841843202
 20
5417.7011167102
 10
6264.9324016364
 20
5417.6447552918
 10
6264.678653107
 20
5417.5916186988
  0
LWPOLYLINE
  5
43E
330
1F
100
AcDbEntity
  8
0
  6
Continuous
 62
     7
370
    25
100
AcDbPolyline
 90
       16
 70
   128
 43
0.0
 10
6291.0706425021
 20
5416.7979169863
 10
6291.0653629625
 20
5416.7806254768
 10
6290.5591752577
 20
5416.7267033387
 10
6289.4413140193
 20
5416.6717202208
 10
6287.7347413709
 20
5416.6139423501
 10
6285.5576440917
 20
5416.5575809317
 10
6283.0562298289
 20
5416.5044275922
 10
6280.2497377168
 20
5416.4477026616
 10
6277.3103530296
 20
5416.3900310507
 10
6274.4531281983
 20
5416.335598821
 10
6271.7594885626
 20
5416.2811665912
 10
6269.3154075801
 20
5416.2234949803
 10
6267.3062107455
 20
5416.1667700497
 10
6265.841843202
 20
5416.1136167102
 10
6264.9324016364
 20
5416.0572552918
 10
6264.678653107
 20
5416.0041186988
  0
LWPOLYLINE
  5
43F
330
1F
100
AcDbEntity
  8
0
  6
Continuous
 62
     7
370
    25
100
AcDbPolyline
 90
       16
 70
   128
 43
0.0
 10
6291.0209887292
 20
5419.5676232686
 10
6290.8585248773
 20
5419.5281459572
 10
6290.0147302031
 20
5419.4748641785
 10
6288.56020977
 20
5419.4178256078
 10
6286.5727176347
 20
5419.3603129816
 10
6284.2087415695
 20
5419.3063908436
 10
6281.5259682665
 20
5419.2514077257
 10
6278.6193222623
 20
5419.193629855
 10
6275.699637882
 20
5419.1372684365
 10
6272.938205045
 20
5419.0841150971
 10
6270.3579120332
 20
5419.0273901664
 10
6268.1359093406
 20
5418.9697185555
 10
6266.4255565333
 20
5418.9152863258
 10
6265.2625704589
 20
5418.860854096
 10
6264.6978862636
 20
5418.8031824851
 10
6264.7298499355
 20
5418.7824630456
  0
LWPOLYLINE
  5
440
330
1F
100
AcDbEntity
  8
0
  6
Continuous
 62
     7
370
    25
100
AcDbPolyline
 90
       16
 70
   128
 43
0.0
 10
6291.0209887292
 20
5417.9801232686
 10
6290.8585248773
 20
5417.9406459572
 10
6290.0147302031
 20
5417.8873641785
 10
6288.56020977
 20
5417.8303256078
 10
6286.5727176347
 20
5417.7728129816
 10
6284.2087415695
 20
5417.7188908436
 10
6281.5259682665
 20
5417.6639077257
 10
6278.6193222623
 20
5417.606129855
 10
6275.699637882
 20
5417.5497684365
 10
6272.938205045
 20
5417.4966150971
 10
6270.3579120332
 20
5417.4398901664
 10
6268.1359093406
 20
5417.3822185555
 10
6266.4255565333
 20
5417.3277863258
 10
6265.2625704589
 20
5417.273354096
 10
6264.6978862636
 20
5417.2156824851
 10
6264.7298499355
 20
5417.1949630456
  0
LWPOLYLINE
  5
441
330
1F
100
AcDbEntity
  8
0
  6
Continuous
 62
     7
370
    25
100
AcDbPolyline
 90
       15
 70
   128
 43
0.0
 10
6291.0209887292
 20
5416.3926232686
 10
6290.8585248773
 20
5416.3531459572
 10
6290.0147302031
 20
5416.2998641785
 10
6288.56020977
 20
5416.2428256078
 10
6286.5727176347
 20
5416.1853129816
 10
6284.2087415695
 20
5416.1313908436
 10
6281.5259682665
 20
5416.0764077257
 10
6278.6193222623
 20
5416.018629855
 10
6275.699637882
 20
5415.9622684365
 10
6272.938205045
 20
5415.9091150971
 10
6270.3579120332
 20
5415.8523901664
 10
6268.1359093406
 20
5415.7947185555
 10
6266.4255565333
 20
5415.7402863258
 10
6265.2625704589
 20
5415.685854096
 10
6264.9512931828
 20
5415.6621613258
  0
ARC
  5
442
330
1F
100
AcDbEntity
  8
0
  6
Continuous
 62
     7
370
    25
100
AcDbCircle
 10
6272.9619420011
 20
5324.7039548981
 30
0.0
 40
95.45860132226315
100
AcDbArc
 50
90.1648051612
 51
94.4629063717
  0
LWPOLYLINE
  5
443
330
1F
100
AcDbEntity
  8
0
  6
Continuous
 62
     7
370
    25
100
AcDbPolyline
 90
       16
 70
   128
 43
0.0
 10
6290.1908557384
 20
5419.070788854
 10
6290.20805207
 20
5419.0626567292
 10
6289.7347637742
 20
5419.0087345911
 10
6288.6895573509
 20
5418.9537514733
 10
6287.0939025124
 20
5418.8959736026
 10
6285.0583045489
 20
5418.8396121841
 10
6282.7194684171
 20
5418.7864588446
 10
6280.0953828135
 20
5418.729733914
 10
6277.3470419193
 20
5418.6720623031
 10
6274.6755209434
 20
5418.6176300734
 10
6272.1569530277
 20
5418.5631978436
 10
6269.8717238292
 20
5418.5055262327
 10
6267.9931137074
 20
5418.4488013021
 10
6266.6239219778
 20
5418.3956479626
 10
6265.773589098
 20
5418.3392865442
 10
6265.533957983
 20
5418.2856180752
  0
LWPOLYLINE
  5
444
330
1F
100
AcDbEntity
  8
0
  6
Continuous
 62
     7
370
    25
100
AcDbPolyline
 90
       16
 70
   128
 43
0.0
 10
6290.1908557384
 20
5417.483288854
 10
6290.20805207
 20
5417.4751567292
 10
6289.7347637742
 20
5417.4212345911
 10
6288.6895573509
 20
5417.3662514733
 10
6287.0939025124
 20
5417.3084736026
 10
6285.0583045489
 20
5417.2521121841
 10
6282.7194684171
 20
5417.1989588446
 10
6280.0953828135
 20
5417.142233914
 10
6277.3470419193
 20
5417.0845623031
 10
6274.6755209434
 20
5417.0301300734
 10
6272.1569530277
 20
5416.9756978436
 10
6269.8717238292
 20
5416.9180262327
 10
6267.9931137074
 20
5416.8613013021
 10
6266.6239219778
 20
5416.8081479626
 10
6265.773589098
 20
5416.7517865442
 10
6265.533957983
 20
5416.6981180752
  0
LWPOLYLINE
  5
445
330
1F
100
AcDbEntity
  8
0
  6
Continuous
 62
     7
370
    25
100
AcDbPolyline
 90
        7
 70
   128
 43
0.0
 10
6290.1908557384
 20
5415.895788854
 10
6290.20805207
 20
5415.8876567292
 10
6289.7347637742
 20
5415.8337345911
 10
6288.6895573509
 20
5415.7787514733
 10
6287.0939025124
 20
5415.7209736026
 10
6285.0583045489
 20
5415.6646121841
 10
6284.9583797023
 20
5415.6621613258
  0
ARC
  5
446
330
1F
100
AcDbEntity
  8
0
  6
Continuous
 62
     7
370
    25
100
AcDbCircle
 10
6285.3060414899
 20
5023.3639402555
 30
0.0
 40
396.8111613091107
100
AcDbArc
 50
90.4627197276
 51
92.8498421459
  0
LWPOLYLINE
  5
447
330
1F
100
AcDbEntity
  8
0
  6
Continuous
 62
     7
370
    25
100
AcDbPolyline
 90
       16
 70
   128
 43
0.0
 10
6290.172457193
 20
5418.8810520042
 10
6290.20805207
 20
5418.8642192292
 10
6289.7347637742
 20
5418.8102970911
 10
6288.6895573509
 20
5418.7553139733
 10
6287.0939025124
 20
5418.6975361026
 10
6285.0583045489
 20
5418.6411746841
 10
6282.7194684171
 20
5418.5880213446
 10
6280.0953828135
 20
5418.531296414
 10
6277.3470419193
 20
5418.4736248031
 10
6274.6755209434
 20
5418.4191925734
 10
6272.1569530277
 20
5418.3647603436
 10
6269.8717238292
 20
5418.3070887327
 10
6267.9931137074
 20
5418.2503638021
 10
6266.6239219778
 20
5418.1972104626
 10
6265.773589098
 20
5418.1408490442
 10
6265.5771372751
 20
5418.0968511328
  0
LWPOLYLINE
  5
448
330
1F
100
AcDbEntity
  8
0
  6
Continuous
 62
     7
370
    25
100
AcDbPolyline
 90
       16
 70
   128
 43
0.0
 10
6290.172457193
 20
5417.2935520042
 10
6290.20805207
 20
5417.2767192292
 10
6289.7347637742
 20
5417.2227970911
 10
6288.6895573509
 20
5417.1678139733
 10
6287.0939025124
 20
5417.1100361026
 10
6285.0583045489
 20
5417.0536746841
 10
6282.7194684171
 20
5417.0005213446
 10
6280.0953828135
 20
5416.943796414
 10
6277.3470419193
 20
5416.8861248031
 10
6274.6755209434
 20
5416.8316925734
 10
6272.1569530277
 20
5416.7772603436
 10
6269.8717238292
 20
5416.7195887327
 10
6267.9931137074
 20
5416.6628638021
 10
6266.6239219778
 20
5416.6097104626
 10
6265.773589098
 20
5416.5533490442
 10
6265.5771372751
 20
5416.5093511328
  0
LINE
  5
449
330
1F
100
AcDbEntity
  8
0
  6
Continuous
 62
     7
370
    25
100
AcDbLine
 10
6291.3748453841
 20
5415.6621613258
 30
0.0
 11
6291.374845384
 21
5405.1621613258
 31
0.0
  0
LINE
  5
44A
330
1F
100
AcDbEntity
  8
0
  6
Continuous
 62
     7
370
    25
100
AcDbLine
 10
6277.8748453841
 20
5415.6621613258
 30
0.0
 11
6291.3748453841
 21
5415.6621613258
 31
0.0
  0
LWPOLYLINE
  5
44B
330
1F
100
AcDbEntity
  8
0
  6
Continuous
 62
     7
370
    25
100
AcDbPolyline
 90
       14
 70
   128
 43
0.0
 10
6283.839844851
 20
5182.1621613265
 10
6281.8724272039
 20
5182.1358438684
 10
6279.8064186506
 20
5182.1098327167
 10
6277.6378146787
 20
5182.0841277571
 10
6275.4593550495
 20
5182.0578343814
 10
6273.2923075617
 20
5182.029724531
 10
6271.3391656198
 20
5182.0024437144
 10
6269.5223268995
 20
5181.9749413182
 10
6267.9945699241
 20
5181.949161782
 10
6266.7138628811
 20
5181.9216109236
 10
6265.7951237466
 20
5181.8943127906
 10
6265.2012941025
 20
5181.8662766252
 10
6264.9825982497
 20
5181.8399419299
 10
6265.0091997961
 20
5181.835181567
  0
LWPOLYLINE
  5
44C
330
1F
100
AcDbEntity
  8
0
  6
Continuous
 62
     7
370
    25
100
AcDbPolyline
 90
        3
 70
   128
 43
0.0
 10
6290.2278553106
 20
5181.332111615
 10
6290.2425832624
 20
5181.3244813875
 10
6290.023147992
 20
5181.302901742
  0
LINE
  5
44D
330
1F
100
AcDbEntity
  8
0
  6
Continuous
 62
     7
370
    25
100
AcDbLine
 10
6283.839844851
 20
5182.1621613265
 30
0.0
 11
6291.095345384
 21
5182.1621613265
 31
0.0
  0
ARC
  5
44E
330
1F
100
AcDbEntity
  8
0
  6
Continuous
 62
     7
370
    25
100
AcDbCircle
 10
6284.8675740257
 20
5211.8746174901
 30
0.0
 40
30.57172103391828
100
AcDbArc
 50
269.9663076483
 51
281.158180292
  0
LINE
  5
44F
330
1F
100
AcDbEntity
  8
0
  6
Continuous
 62
     7
370
    25
100
AcDbLine
 10
6290.023147992
 20
5181.302901742
 30
0.0
 11
6284.8495965564
 21
5181.302901742
 31
0.0
  0
LINE
  5
450
330
1F
100
AcDbEntity
  8
0
  6
Continuous
 62
     7
370
    25
100
AcDbLine
 10
6277.874845384
 20
5180.6621613265
 30
0.0
 11
6266.154345384
 21
5180.6621613265
 31
0.0
  0
LINE
  5
451
330
1F
100
AcDbEntity
  8
0
  6
Continuous
 62
     7
370
    25
100
AcDbLine
 10
6289.595345384
 20
5180.6621613265
 30
0.0
 11
6277.874845384
 21
5180.6621613265
 31
0.0
  0
LINE
  5
452
330
1F
100
AcDbEntity
  8
0
  6
Continuous
 62
     7
370
    25
100
AcDbLine
 10
6270.08061675
 20
5189.6621613265
 30
0.0
 11
6262.2863881159
 21
5189.6621613265
 31
0.0
  0
LINE
  5
453
330
1F
100
AcDbEntity
  8
0
  6
Continuous
 62
     7
370
    25
100
AcDbLine
 10
6262.2863881159
 20
5189.6621613265
 30
0.0
 11
6262.2863881159
 21
5200.1621613265
 31
0.0
  0
LINE
  5
454
330
1F
100
AcDbEntity
  8
0
  6
Continuous
 62
     7
370
    25
100
AcDbLine
 10
6270.08061675
 20
5200.1621613265
 30
0.0
 11
6267.9921594818
 21
5200.1621613265
 31
0.0
  0
LINE
  5
455
330
1F
100
AcDbEntity
  8
0
  6
Continuous
 62
     7
370
    25
100
AcDbLine
 10
6264.3748453841
 20
5200.1621613265
 30
0.0
 11
6262.2863881159
 21
5200.1621613265
 31
0.0
  0
LINE
  5
456
330
1F
100
AcDbEntity
  8
0
  6
Continuous
 62
     7
370
    25
100
AcDbLine
 10
6270.08061675
 20
5189.6621613265
 30
0.0
 11
6270.08061675
 21
5200.1621613265
 31
0.0
  0
LINE
  5
457
330
1F
100
AcDbEntity
  8
0
  6
Continuous
 62
     7
370
    25
100
AcDbLine
 10
6285.6690740181
 20
5189.6621613265
 30
0.0
 11
6270.08061675
 21
5189.6621613265
 31
0.0
  0
LINE
  5
458
330
1F
100
AcDbEntity
  8
0
  6
Continuous
 62
     7
370
    25
100
AcDbLine
 10
6285.6690740181
 20
5189.6621613265
 30
0.0
 11
6285.6690740181
 21
5200.1621613265
 31
0.0
  0
LINE
  5
459
330
1F
100
AcDbEntity
  8
0
  6
Continuous
 62
     7
370
    25
100
AcDbLine
 10
6285.6690740181
 20
5200.1621613265
 30
0.0
 11
6281.4921594819
 21
5200.1621613265
 31
0.0
  0
LINE
  5
45A
330
1F
100
AcDbEntity
  8
0
  6
Continuous
 62
     7
370
    25
100
AcDbLine
 10
6274.2575312863
 20
5200.1621613265
 30
0.0
 11
6270.08061675
 21
5200.1621613265
 31
0.0
  0
LINE
  5
45B
330
1F
100
AcDbEntity
  8
0
  6
Continuous
 62
     7
370
    25
100
AcDbLine
 10
6293.4633026522
 20
5189.6621613265
 30
0.0
 11
6293.4633026522
 21
5200.1621613265
 31
0.0
  0
LINE
  5
45C
330
1F
100
AcDbEntity
  8
0
  6
Continuous
 62
     7
370
    25
100
AcDbLine
 10
6293.4633026522
 20
5189.6621613265
 30
0.0
 11
6285.6690740181
 21
5189.6621613265
 31
0.0
  0
LINE
  5
45D
330
1F
100
AcDbEntity
  8
0
  6
Continuous
 62
     7
370
    25
100
AcDbLine
 10
6293.4633026522
 20
5200.1621613265
 30
0.0
 11
6291.3748453841
 21
5200.1621613265
 31
0.0
  0
LINE
  5
45E
330
1F
100
AcDbEntity
  8
0
  6
Continuous
 62
     7
370
    25
100
AcDbLine
 10
6287.7575312862
 20
5200.1621613265
 30
0.0
 11
6285.6690740181
 21
5200.1621613265
 31
0.0
  0
ARC
  5
45F
330
1F
100
AcDbEntity
  8
0
  6
Continuous
 62
     7
370
    25
100
AcDbCircle
 10
6283.5329472643
 20
5283.5481249001
 30
0.0
 40
101.3864280655538
100
AcDbArc
 50
270.1734350805
 51
274.2471776114
  0
LWPOLYLINE
  5
460
330
1F
100
AcDbEntity
  8
0
  6
Continuous
 62
     7
370
    25
100
AcDbPolyline
 90
       16
 70
   128
 43
0.0
 10
6264.6996946783
 20
5183.2418473669
 10
6264.9703677146
 20
5183.2884685562
 10
6265.9272209952
 20
5183.3461401671
 10
6267.4674771946
 20
5183.4028650977
 10
6269.4708976131
 20
5183.4560184372
 10
6271.9198203982
 20
5183.5123798557
 10
6274.6836435874
 20
5183.5701577264
 10
6277.5579328099
 20
5183.6251408442
 10
6280.4292554102
 20
5183.6790629823
 10
6283.839844851
 20
5183.7496613265
 10
6284.4077866569
 20
5183.762238654
 10
6286.7633003059
 20
5183.8177278874
 10
6288.6688123371
 20
5183.8712661768
 10
6290.0889947436
 20
5183.9285675765
 10
6290.9051051932
 20
5183.9858689761
 10
6291.041561806
 20
5184.0276207484
  0
LWPOLYLINE
  5
461
330
1F
100
AcDbEntity
  8
0
  6
Continuous
 62
     7
370
    25
100
AcDbPolyline
 90
       16
 70
   128
 43
0.0
 10
6264.6996946783
 20
5184.8293473669
 10
6264.9703677146
 20
5184.8759685562
 10
6265.9272209952
 20
5184.9336401671
 10
6267.4674771946
 20
5184.9903650977
 10
6269.4708976131
 20
5185.0435184372
 10
6271.9198203982
 20
5185.0998798557
 10
6274.6836435874
 20
5185.1576577264
 10
6277.5579328099
 20
5185.2126408442
 10
6280.4292554102
 20
5185.2665629823
 10
6283.839844851
 20
5185.3371613265
 10
6284.4077866569
 20
5185.349738654
 10
6286.7633003059
 20
5185.4052278874
 10
6288.6688123371
 20
5185.4587661768
 10
6290.0889947436
 20
5185.5160675765
 10
6290.9051051932
 20
5185.5733689761
 10
6291.041561806
 20
5185.6151207484
  0
LWPOLYLINE
  5
462
330
1F
100
AcDbEntity
  8
0
  6
Continuous
 62
     7
370
    25
100
AcDbPolyline
 90
       16
 70
   128
 43
0.0
 10
6264.6996946783
 20
5186.4168473669
 10
6264.9703677146
 20
5186.4634685562
 10
6265.9272209952
 20
5186.5211401671
 10
6267.4674771946
 20
5186.5778650977
 10
6269.4708976131
 20
5186.6310184372
 10
6271.9198203982
 20
5186.6873798557
 10
6274.6836435874
 20
5186.7451577264
 10
6277.5579328099
 20
5186.8001408442
 10
6280.4292554102
 20
5186.8540629823
 10
6283.839844851
 20
5186.9246613265
 10
6284.4077866569
 20
5186.937238654
 10
6286.7633003059
 20
5186.9927278874
 10
6288.6688123371
 20
5187.0462661768
 10
6290.0889947436
 20
5187.1035675765
 10
6290.9051051932
 20
5187.1608689761
 10
6291.041561806
 20
5187.2026207484
  0
LWPOLYLINE
  5
463
330
1F
100
AcDbEntity
  8
0
  6
Continuous
 62
     7
370
    25
100
AcDbPolyline
 90
       16
 70
   128
 43
0.0
 10
6264.654345384
 20
5187.9965363265
 10
6264.9703677146
 20
5188.0509685562
 10
6265.9272209952
 20
5188.1086401671
 10
6267.4674771946
 20
5188.1653650977
 10
6269.4708976131
 20
5188.2185184372
 10
6271.9198203982
 20
5188.2748798557
 10
6274.6836435874
 20
5188.3326577264
 10
6277.5579328099
 20
5188.3876408442
 10
6280.4292554102
 20
5188.4415629823
 10
6283.839844851
 20
5188.5121613265
 10
6284.4077866569
 20
5188.524738654
 10
6286.7633003059
 20
5188.5802278874
 10
6288.6688123371
 20
5188.6337661768
 10
6290.0889947436
 20
5188.6910675765
 10
6290.9051051932
 20
5188.7483689761
 10
6291.041561806
 20
5188.7901207484
  0
LWPOLYLINE
  5
464
330
1F
100
AcDbEntity
  8
0
  6
Continuous
 62
     7
370
    25
100
AcDbPolyline
 90
       17
 70
   128
 43
0.0
 10
6265.5806014608
 20
5182.150772315
 10
6265.5711335773
 20
5182.1661746896
 10
6266.1339117896
 20
5182.2225361081
 10
6267.282732679
 20
5182.2803139788
 10
6268.9271137835
 20
5182.3352970967
 10
6270.9876810869
 20
5182.3892192347
 10
6273.4297763859
 20
5182.4467318609
 10
6276.084729969
 20
5182.5037704316
 10
6278.767013427
 20
5182.5570522103
 10
6281.4489320083
 20
5182.6130013246
 10
6283.9831815056
 20
5182.6708324064
 10
6286.1855997588
 20
5182.7263216398
 10
6287.9672640175
 20
5182.7798599292
 10
6289.2951424004
 20
5182.8371613289
 10
6290.023147992
 20
5182.890401742
 10
6290.2038478089
 20
5182.9188329475
 10
6290.1713015575
 20
5182.9365157614
  0
LWPOLYLINE
  5
465
330
1F
100
AcDbEntity
  8
0
  6
Continuous
 62
     7
370
    25
100
AcDbPolyline
 90
       17
 70
   128
 43
0.0
 10
6265.5806014608
 20
5183.738272315
 10
6265.5711335773
 20
5183.7536746896
 10
6266.1339117896
 20
5183.8100361081
 10
6267.282732679
 20
5183.8678139788
 10
6268.9271137835
 20
5183.9227970967
 10
6270.9876810869
 20
5183.9767192347
 10
6273.4297763859
 20
5184.0342318609
 10
6276.084729969
 20
5184.0912704316
 10
6278.767013427
 20
5184.1445522103
 10
6281.4489320083
 20
5184.2005013246
 10
6283.9831815056
 20
5184.2583324064
 10
6286.1855997588
 20
5184.3138216398
 10
6287.9672640175
 20
5184.3673599292
 10
6289.2951424004
 20
5184.4246613289
 10
6290.023147992
 20
5184.477901742
 10
6290.2038478089
 20
5184.5063329475
 10
6290.1713015575
 20
5184.5240157614
  0
LWPOLYLINE
  5
466
330
1F
100
AcDbEntity
  8
0
  6
Continuous
 62
     7
370
    25
100
AcDbPolyline
 90
       17
 70
   128
 43
0.0
 10
6265.5806014608
 20
5185.325772315
 10
6265.5711335773
 20
5185.3411746896
 10
6266.1339117896
 20
5185.3975361081
 10
6267.282732679
 20
5185.4553139788
 10
6268.9271137835
 20
5185.5102970967
 10
6270.9876810869
 20
5185.5642192347
 10
6273.4297763859
 20
5185.6217318609
 10
6276.084729969
 20
5185.6787704316
 10
6278.767013427
 20
5185.7320522103
 10
6281.4489320083
 20
5185.7880013246
 10
6283.9831815056
 20
5185.8458324064
 10
6286.1855997588
 20
5185.9013216398
 10
6287.9672640175
 20
5185.9548599292
 10
6289.2951424004
 20
5186.0121613289
 10
6290.023147992
 20
5186.065401742
 10
6290.2038478089
 20
5186.0938329475
 10
6290.1713015575
 20
5186.1115157614
  0
LWPOLYLINE
  5
467
330
1F
100
AcDbEntity
  8
0
  6
Continuous
 62
     7
370
    25
100
AcDbPolyline
 90
       16
 70
   128
 43
0.0
 10
6264.731383189
 20
5182.8371137888
 10
6264.7158729449
 20
5182.860705942
 10
6265.3177712258
 20
5182.9170673605
 10
6266.5464494213
 20
5182.9748452312
 10
6268.3051354158
 20
5183.0298283491
 10
6270.5089377138
 20
5183.0837504871
 10
6273.1207889371
 20
5183.1412631134
 10
6275.9602947363
 20
5183.198301684
 10
6278.8290301758
 20
5183.2515834627
 10
6281.6973753752
 20
5183.3075325771
 10
6284.4077866569
 20
5183.3653636588
 10
6286.7633003059
 20
5183.4208528922
 10
6288.6688123371
 20
5183.4743911816
 10
6290.0889947436
 20
5183.5316925813
 10
6290.9051051932
 20
5183.588993981
 10
6291.041561806
 20
5183.6307457532
  0
LWPOLYLINE
  5
468
330
1F
100
AcDbEntity
  8
0
  6
Continuous
 62
     7
370
    25
100
AcDbPolyline
 90
       16
 70
   128
 43
0.0
 10
6264.731383189
 20
5184.4246137888
 10
6264.7158729449
 20
5184.448205942
 10
6265.3177712258
 20
5184.5045673605
 10
6266.5464494213
 20
5184.5623452312
 10
6268.3051354158
 20
5184.6173283491
 10
6270.5089377138
 20
5184.6712504871
 10
6273.1207889371
 20
5184.7287631134
 10
6275.9602947363
 20
5184.785801684
 10
6278.8290301758
 20
5184.8390834627
 10
6281.6973753752
 20
5184.8950325771
 10
6284.4077866569
 20
5184.9528636588
 10
6286.7633003059
 20
5185.0083528922
 10
6288.6688123371
 20
5185.0618911816
 10
6290.0889947436
 20
5185.1191925813
 10
6290.9051051932
 20
5185.176493981
 10
6291.041561806
 20
5185.2182457532
  0
LWPOLYLINE
  5
469
330
1F
100
AcDbEntity
  8
0
  6
Continuous
 62
     7
370
    25
100
AcDbPolyline
 90
       16
 70
   128
 43
0.0
 10
6264.731383189
 20
5186.0121137888
 10
6264.7158729449
 20
5186.035705942
 10
6265.3177712258
 20
5186.0920673605
 10
6266.5464494213
 20
5186.1498452312
 10
6268.3051354158
 20
5186.2048283491
 10
6270.5089377138
 20
5186.2587504871
 10
6273.1207889371
 20
5186.3162631134
 10
6275.9602947363
 20
5186.373301684
 10
6278.8290301758
 20
5186.4265834627
 10
6281.6973753752
 20
5186.4825325771
 10
6284.4077866569
 20
5186.5403636588
 10
6286.7633003059
 20
5186.5958528922
 10
6288.6688123371
 20
5186.6493911816
 10
6290.0889947436
 20
5186.7066925813
 10
6290.9051051932
 20
5186.763993981
 10
6291.041561806
 20
5186.8057457532
  0
LWPOLYLINE
  5
46A
330
1F
100
AcDbEntity
  8
0
  6
Continuous
 62
     7
370
    25
100
AcDbPolyline
 90
       16
 70
   128
 43
0.0
 10
6264.731383189
 20
5187.5996137888
 10
6264.7158729449
 20
5187.623205942
 10
6265.3177712258
 20
5187.6795673605
 10
6266.5464494213
 20
5187.7373452312
 10
6268.3051354158
 20
5187.7923283491
 10
6270.5089377138
 20
5187.8462504871
 10
6273.1207889371
 20
5187.9037631134
 10
6275.9602947363
 20
5187.960801684
 10
6278.8290301758
 20
5188.0140834627
 10
6281.6973753752
 20
5188.0700325771
 10
6284.4077866569
 20
5188.1278636588
 10
6286.7633003059
 20
5188.1833528922
 10
6288.6688123371
 20
5188.2368911816
 10
6290.0889947436
 20
5188.2941925813
 10
6290.9051051932
 20
5188.351493981
 10
6291.041561806
 20
5188.3932457532
  0
LWPOLYLINE
  5
46B
330
1F
100
AcDbEntity
  8
0
  6
Continuous
 62
     7
370
    25
100
AcDbPolyline
 90
       11
 70
   128
 43
0.0
 10
6264.731383189
 20
5189.1871137888
 10
6264.7158729449
 20
5189.210705942
 10
6265.3177712258
 20
5189.2670673605
 10
6266.5464494213
 20
5189.3248452312
 10
6268.3051354158
 20
5189.3798283491
 10
6270.5089377138
 20
5189.4337504871
 10
6273.1207889371
 20
5189.4912631134
 10
6275.9602947363
 20
5189.548301684
 10
6278.8290301758
 20
5189.6015834627
 10
6281.6973753752
 20
5189.6575325771
 10
6281.9236222722
 20
5189.6621613265
  0
LWPOLYLINE
  5
46C
330
1F
100
AcDbEntity
  8
0
  6
Continuous
 62
     7
370
    25
100
AcDbPolyline
 90
        6
 70
   128
 43
0.0
 10
6284.8495965564
 20
5181.302901742
 10
6287.0253440771
 20
5181.360501018
 10
6288.6214027135
 20
5181.4159902513
 10
6289.7081107581
 20
5181.4738213331
 10
6290.2038478089
 20
5181.5297704475
 10
6290.1864383364
 20
5181.5392292469
  0
LWPOLYLINE
  5
46D
330
1F
100
AcDbEntity
  8
0
  6
Continuous
 62
     7
370
    25
100
AcDbPolyline
 90
       17
 70
   128
 43
0.0
 10
6265.5856311177
 20
5182.3410275578
 10
6265.5711335773
 20
5182.3646121896
 10
6266.1339117896
 20
5182.4209736081
 10
6267.282732679
 20
5182.4787514788
 10
6268.9271137835
 20
5182.5337345967
 10
6270.9876810869
 20
5182.5876567347
 10
6273.4297763859
 20
5182.6451693609
 10
6276.084729969
 20
5182.7022079316
 10
6278.767013427
 20
5182.7554897103
 10
6281.4489320083
 20
5182.8114388246
 10
6283.9831815056
 20
5182.8692699064
 10
6284.8495965564
 20
5182.890401742
 10
6287.0253440771
 20
5182.948001018
 10
6288.6214027135
 20
5183.0034902513
 10
6289.7081107581
 20
5183.0613213331
 10
6290.2038478089
 20
5183.1172704475
 10
6290.1864383364
 20
5183.1267292469
  0
LWPOLYLINE
  5
46E
330
1F
100
AcDbEntity
  8
0
  6
Continuous
 62
     7
370
    25
100
AcDbPolyline
 90
       17
 70
   128
 43
0.0
 10
6265.5856311177
 20
5183.9285275578
 10
6265.5711335773
 20
5183.9521121896
 10
6266.1339117896
 20
5184.0084736081
 10
6267.282732679
 20
5184.0662514788
 10
6268.9271137835
 20
5184.1212345967
 10
6270.9876810869
 20
5184.1751567347
 10
6273.4297763859
 20
5184.2326693609
 10
6276.084729969
 20
5184.2897079316
 10
6278.767013427
 20
5184.3429897103
 10
6281.4489320083
 20
5184.3989388246
 10
6283.9831815056
 20
5184.4567699064
 10
6284.8495965564
 20
5184.477901742
 10
6287.0253440771
 20
5184.535501018
 10
6288.6214027135
 20
5184.5909902513
 10
6289.7081107581
 20
5184.6488213331
 10
6290.2038478089
 20
5184.7047704475
 10
6290.1864383364
 20
5184.7142292469
  0
LWPOLYLINE
  5
46F
330
1F
100
AcDbEntity
  8
0
  6
Continuous
 62
     7
370
    25
100
AcDbPolyline
 90
       17
 70
   128
 43
0.0
 10
6265.5856311177
 20
5185.5160275578
 10
6265.5711335773
 20
5185.5396121896
 10
6266.1339117896
 20
5185.5959736081
 10
6267.282732679
 20
5185.6537514788
 10
6268.9271137835
 20
5185.7087345967
 10
6270.9876810869
 20
5185.7626567347
 10
6273.4297763859
 20
5185.8201693609
 10
6276.084729969
 20
5185.8772079316
 10
6278.767013427
 20
5185.9304897103
 10
6281.4489320083
 20
5185.9864388246
 10
6283.9831815056
 20
5186.0442699064
 10
6284.8495965564
 20
5186.065401742
 10
6287.0253440771
 20
5186.123001018
 10
6288.6214027135
 20
5186.1784902513
 10
6289.7081107581
 20
5186.2363213331
 10
6290.2038478089
 20
5186.2922704475
 10
6290.1864383364
 20
5186.3017292469
  0
LWPOLYLINE
  5
470
330
1F
100
AcDbEntity
  8
0
  6
Continuous
 62
     7
370
    25
100
AcDbPolyline
 90
       14
 70
   128
 43
0.0
 10
6271.9098459171
 20
5438.1621613258
 10
6273.8772635642
 20
5438.1884787839
 10
6275.9432721176
 20
5438.2144899356
 10
6278.1118760894
 20
5438.2401948952
 10
6280.2903357186
 20
5438.2664882708
 10
6282.4573832064
 20
5438.2945981213
 10
6284.4105251483
 20
5438.3218789379
 10
6286.2273638686
 20
5438.3493813341
 10
6287.755120844
 20
5438.3751608703
 10
6289.0358278871
 20
5438.4027117286
 10
6289.9545670215
 20
5438.4300098617
 10
6290.5483966656
 20
5438.4580460271
 10
6290.7670925184
 20
5438.4843807224
 10
6290.740490972
 20
5438.4891410853
  0
LWPOLYLINE
  5
471
330
1F
100
AcDbEntity
  8
0
  6
Continuous
 62
     7
370
    25
100
AcDbPolyline
 90
        3
 70
   128
 43
0.0
 10
6265.5218354575
 20
5438.9922110373
 10
6265.5071075057
 20
5438.9998412648
 10
6265.7265427761
 20
5439.0214209103
  0
LINE
  5
472
330
1F
100
AcDbEntity
  8
0
  6
Continuous
 62
     7
370
    25
100
AcDbLine
 10
6271.9098459171
 20
5438.1621613258
 30
0.0
 11
6264.6543453841
 21
5438.1621613258
 31
0.0
  0
ARC
  5
473
330
1F
100
AcDbEntity
  8
0
  6
Continuous
 62
     7
370
    25
100
AcDbCircle
 10
6270.8821167424
 20
5408.4497051622
 30
0.0
 40
30.57172103383919
100
AcDbArc
 50
89.9663076482
 51
101.158180292
  0
LINE
  5
474
330
1F
100
AcDbEntity
  8
0
  6
Continuous
 62
     7
370
    25
100
AcDbLine
 10
6265.7265427761
 20
5439.0214209103
 30
0.0
 11
6270.9000942117
 21
5439.0214209103
 31
0.0
  0
LINE
  5
475
330
1F
100
AcDbEntity
  8
0
  6
Continuous
 62
     7
370
    25
100
AcDbLine
 10
6277.8748453841
 20
5439.6621613258
 30
0.0
 11
6289.5953453841
 21
5439.6621613258
 31
0.0
  0
LINE
  5
476
330
1F
100
AcDbEntity
  8
0
  6
Continuous
 62
     7
370
    25
100
AcDbLine
 10
6266.1543453841
 20
5439.6621613258
 30
0.0
 11
6277.8748453841
 21
5439.6621613258
 31
0.0
  0
LINE
  5
477
330
1F
100
AcDbEntity
  8
0
  6
Continuous
 62
     7
370
    25
100
AcDbLine
 10
6270.08061675
 20
5430.6621613258
 30
0.0
 11
6285.6690740181
 21
5430.6621613258
 31
0.0
  0
LINE
  5
478
330
1F
100
AcDbEntity
  8
0
  6
Continuous
 62
     7
370
    25
100
AcDbLine
 10
6285.6690740181
 20
5430.6621613258
 30
0.0
 11
6285.6690740181
 21
5420.1621613258
 31
0.0
  0
LINE
  5
479
330
1F
100
AcDbEntity
  8
0
  6
Continuous
 62
     7
370
    25
100
AcDbLine
 10
6270.08061675
 20
5430.6621613258
 30
0.0
 11
6270.08061675
 21
5420.1621613258
 31
0.0
  0
LINE
  5
47A
330
1F
100
AcDbEntity
  8
0
  6
Continuous
 62
     7
370
    25
100
AcDbLine
 10
6270.08061675
 20
5420.1621613258
 30
0.0
 11
6285.6690740181
 21
5420.1621613258
 31
0.0
  0
LINE
  5
47B
330
1F
100
AcDbEntity
  8
0
  6
Continuous
 62
     7
370
    25
100
AcDbLine
 10
6293.4633026522
 20
5430.6621613258
 30
0.0
 11
6293.4633026522
 21
5420.1621613258
 31
0.0
  0
LINE
  5
47C
330
1F
100
AcDbEntity
  8
0
  6
Continuous
 62
     7
370
    25
100
AcDbLine
 10
6285.6690740181
 20
5430.6621613258
 30
0.0
 11
6293.4633026522
 21
5430.6621613258
 31
0.0
  0
LINE
  5
47D
330
1F
100
AcDbEntity
  8
0
  6
Continuous
 62
     7
370
    25
100
AcDbLine
 10
6285.6690740181
 20
5420.1621613258
 30
0.0
 11
6293.4633026522
 21
5420.1621613258
 31
0.0
  0
LINE
  5
47E
330
1F
100
AcDbEntity
  8
0
  6
Continuous
 62
     7
370
    25
100
AcDbLine
 10
6262.286388116
 20
5430.6621613258
 30
0.0
 11
6262.286388116
 21
5420.1621613258
 31
0.0
  0
LINE
  5
47F
330
1F
100
AcDbEntity
  8
0
  6
Continuous
 62
     7
370
    25
100
AcDbLine
 10
6262.286388116
 20
5430.6621613258
 30
0.0
 11
6270.08061675
 21
5430.6621613258
 31
0.0
  0
LINE
  5
480
330
1F
100
AcDbEntity
  8
0
  6
Continuous
 62
     7
370
    25
100
AcDbLine
 10
6262.286388116
 20
5420.1621613258
 30
0.0
 11
6270.08061675
 21
5420.1621613258
 31
0.0
  0
ARC
  5
481
330
1F
100
AcDbEntity
  8
0
  6
Continuous
 62
     7
370
    25
100
AcDbCircle
 10
6272.2167435038
 20
5336.7761977517
 30
0.0
 40
101.386428065954
100
AcDbArc
 50
90.1734350805
 51
94.2471776114
  0
LWPOLYLINE
  5
482
330
1F
100
AcDbEntity
  8
0
  6
Continuous
 62
     7
370
    25
100
AcDbPolyline
 90
       16
 70
   128
 43
0.0
 10
6291.0499960899
 20
5437.0824752854
 10
6290.7793230535
 20
5437.035854096
 10
6289.8224697729
 20
5436.9781824851
 10
6288.2822135735
 20
5436.9214575545
 10
6286.2787931551
 20
5436.868304215
 10
6283.82987037
 20
5436.8119427966
 10
6281.0660471807
 20
5436.7541649259
 10
6278.1917579583
 20
5436.699181808
 10
6275.3204353579
 20
5436.64525967
 10
6271.9098459171
 20
5436.5746613258
 10
6271.3419041112
 20
5436.5620839983
 10
6268.9863904622
 20
5436.5065947649
 10
6267.080878431
 20
5436.4530564755
 10
6265.6606960245
 20
5436.3957550758
 10
6264.844585575
 20
5436.3384536761
 10
6264.7081289621
 20
5436.2967019039
  0
LWPOLYLINE
  5
483
330
1F
100
AcDbEntity
  8
0
  6
Continuous
 62
     7
370
    25
100
AcDbPolyline
 90
       16
 70
   128
 43
0.0
 10
6291.0499960899
 20
5435.4949752854
 10
6290.7793230535
 20
5435.448354096
 10
6289.8224697729
 20
5435.3906824851
 10
6288.2822135735
 20
5435.3339575545
 10
6286.2787931551
 20
5435.280804215
 10
6283.82987037
 20
5435.2244427966
 10
6281.0660471807
 20
5435.1666649259
 10
6278.1917579583
 20
5435.111681808
 10
6275.3204353579
 20
5435.05775967
 10
6271.9098459171
 20
5434.9871613258
 10
6271.3419041112
 20
5434.9745839983
 10
6268.9863904622
 20
5434.9190947649
 10
6267.080878431
 20
5434.8655564755
 10
6265.6606960245
 20
5434.8082550758
 10
6264.844585575
 20
5434.7509536761
 10
6264.7081289621
 20
5434.7092019039
  0
LWPOLYLINE
  5
484
330
1F
100
AcDbEntity
  8
0
  6
Continuous
 62
     7
370
    25
100
AcDbPolyline
 90
       16
 70
   128
 43
0.0
 10
6291.0499960899
 20
5433.9074752854
 10
6290.7793230535
 20
5433.860854096
 10
6289.8224697729
 20
5433.8031824851
 10
6288.2822135735
 20
5433.7464575545
 10
6286.2787931551
 20
5433.693304215
 10
6283.82987037
 20
5433.6369427966
 10
6281.0660471807
 20
5433.5791649259
 10
6278.1917579583
 20
5433.524181808
 10
6275.3204353579
 20
5433.47025967
 10
6271.9098459171
 20
5433.3996613258
 10
6271.3419041112
 20
5433.3870839983
 10
6268.9863904622
 20
5433.3315947649
 10
6267.080878431
 20
5433.2780564755
 10
6265.6606960245
 20
5433.2207550758
 10
6264.844585575
 20
5433.1634536761
 10
6264.7081289621
 20
5433.1217019039
  0
LWPOLYLINE
  5
485
330
1F
100
AcDbEntity
  8
0
  6
Continuous
 62
     7
370
    25
100
AcDbPolyline
 90
       16
 70
   128
 43
0.0
 10
6291.0953453841
 20
5432.3277863258
 10
6290.7793230535
 20
5432.273354096
 10
6289.8224697729
 20
5432.2156824851
 10
6288.2822135735
 20
5432.1589575545
 10
6286.2787931551
 20
5432.105804215
 10
6283.82987037
 20
5432.0494427966
 10
6281.0660471807
 20
5431.9916649259
 10
6278.1917579583
 20
5431.936681808
 10
6275.3204353579
 20
5431.88275967
 10
6271.9098459171
 20
5431.8121613258
 10
6271.3419041112
 20
5431.7995839983
 10
6268.9863904622
 20
5431.7440947649
 10
6267.080878431
 20
5431.6905564755
 10
6265.6606960245
 20
5431.6332550758
 10
6264.844585575
 20
5431.5759536761
 10
6264.7081289621
 20
5431.5342019039
  0
LWPOLYLINE
  5
486
330
1F
100
AcDbEntity
  8
0
  6
Continuous
 62
     7
370
    25
100
AcDbPolyline
 90
       17
 70
   128
 43
0.0
 10
6290.1690893073
 20
5438.1735503373
 10
6290.1785571909
 20
5438.1581479626
 10
6289.6157789785
 20
5438.1017865442
 10
6288.4669580891
 20
5438.0440086735
 10
6286.8225769846
 20
5437.9890255556
 10
6284.7620096812
 20
5437.9351034175
 10
6282.3199143822
 20
5437.8775907913
 10
6279.6649607991
 20
5437.8205522207
 10
6276.9826773412
 20
5437.767270442
 10
6274.3007587599
 20
5437.7113213276
 10
6271.7665092626
 20
5437.6534902458
 10
6269.5640910093
 20
5437.5980010125
 10
6267.7824267506
 20
5437.5444627231
 10
6266.4545483678
 20
5437.4871613234
 10
6265.7265427761
 20
5437.4339209103
 10
6265.5458429592
 20
5437.4054897048
 10
6265.5783892106
 20
5437.3878068909
  0
LWPOLYLINE
  5
487
330
1F
100
AcDbEntity
  8
0
  6
Continuous
 62
     7
370
    25
100
AcDbPolyline
 90
       17
 70
   128
 43
0.0
 10
6290.1690893073
 20
5436.5860503373
 10
6290.1785571909
 20
5436.5706479626
 10
6289.6157789785
 20
5436.5142865442
 10
6288.4669580891
 20
5436.4565086735
 10
6286.8225769846
 20
5436.4015255556
 10
6284.7620096812
 20
5436.3476034175
 10
6282.3199143822
 20
5436.2900907913
 10
6279.6649607991
 20
5436.2330522207
 10
6276.9826773412
 20
5436.179770442
 10
6274.3007587599
 20
5436.1238213276
 10
6271.7665092626
 20
5436.0659902458
 10
6269.5640910093
 20
5436.0105010125
 10
6267.7824267506
 20
5435.9569627231
 10
6266.4545483678
 20
5435.8996613234
 10
6265.7265427761
 20
5435.8464209103
 10
6265.5458429592
 20
5435.8179897048
 10
6265.5783892106
 20
5435.8003068909
  0
LWPOLYLINE
  5
488
330
1F
100
AcDbEntity
  8
0
  6
Continuous
 62
     7
370
    25
100
AcDbPolyline
 90
       17
 70
   128
 43
0.0
 10
6290.1690893073
 20
5434.9985503373
 10
6290.1785571909
 20
5434.9831479626
 10
6289.6157789785
 20
5434.9267865442
 10
6288.4669580891
 20
5434.8690086735
 10
6286.8225769846
 20
5434.8140255556
 10
6284.7620096812
 20
5434.7601034175
 10
6282.3199143822
 20
5434.7025907913
 10
6279.6649607991
 20
5434.6455522207
 10
6276.9826773412
 20
5434.592270442
 10
6274.3007587599
 20
5434.5363213276
 10
6271.7665092626
 20
5434.4784902458
 10
6269.5640910093
 20
5434.4230010125
 10
6267.7824267506
 20
5434.3694627231
 10
6266.4545483678
 20
5434.3121613234
 10
6265.7265427761
 20
5434.2589209103
 10
6265.5458429592
 20
5434.2304897048
 10
6265.5783892106
 20
5434.2128068909
  0
LWPOLYLINE
  5
489
330
1F
100
AcDbEntity
  8
0
  6
Continuous
 62
     7
370
    25
100
AcDbPolyline
 90
       17
 70
   128
 43
0.0
 10
6290.1690893073
 20
5433.4110503373
 10
6290.1785571909
 20
5433.3956479626
 10
6289.6157789785
 20
5433.3392865442
 10
6288.4669580891
 20
5433.2815086735
 10
6286.8225769846
 20
5433.2265255556
 10
6284.7620096812
 20
5433.1726034175
 10
6282.3199143822
 20
5433.1150907913
 10
6279.6649607991
 20
5433.0580522207
 10
6276.9826773412
 20
5433.004770442
 10
6274.3007587599
 20
5432.9488213276
 10
6271.7665092626
 20
5432.8909902458
 10
6269.5640910093
 20
5432.8355010125
 10
6267.7824267506
 20
5432.7819627231
 10
6266.4545483678
 20
5432.7246613234
 10
6265.7265427761
 20
5432.6714209103
 10
6265.5458429592
 20
5432.6429897048
 10
6265.5783892106
 20
5432.6253068909
  0
LWPOLYLINE
  5
48A
330
1F
100
AcDbEntity
  8
0
  6
Continuous
 62
     7
370
    25
100
AcDbPolyline
 90
       17
 70
   128
 43
0.0
 10
6290.1690893073
 20
5431.8235503373
 10
6290.1785571909
 20
5431.8081479626
 10
6289.6157789785
 20
5431.7517865442
 10
6288.4669580891
 20
5431.6940086735
 10
6286.8225769846
 20
5431.6390255556
 10
6284.7620096812
 20
5431.5851034175
 10
6282.3199143822
 20
5431.5275907913
 10
6279.6649607991
 20
5431.4705522207
 10
6276.9826773412
 20
5431.417270442
 10
6274.3007587599
 20
5431.3613213276
 10
6271.7665092626
 20
5431.3034902458
 10
6269.5640910093
 20
5431.2480010125
 10
6267.7824267506
 20
5431.1944627231
 10
6266.4545483678
 20
5431.1371613234
 10
6265.7265427761
 20
5431.0839209103
 10
6265.5458429592
 20
5431.0554897048
 10
6265.5783892106
 20
5431.0378068909
  0
LWPOLYLINE
  5
48B
330
1F
100
AcDbEntity
  8
0
  6
Continuous
 62
     7
370
    25
100
AcDbPolyline
 90
       16
 70
   128
 43
0.0
 10
6291.0183075791
 20
5437.4872088635
 10
6291.0338178233
 20
5437.4636167102
 10
6290.4319195423
 20
5437.4072552918
 10
6289.2032413468
 20
5437.3494774211
 10
6287.4445553524
 20
5437.2944943032
 10
6285.2407530543
 20
5437.2405721651
 10
6282.6289018311
 20
5437.1830595389
 10
6279.7893960318
 20
5437.1260209683
 10
6276.9206605923
 20
5437.0727391896
 10
6274.052315393
 20
5437.0167900752
 10
6271.3419041112
 20
5436.9589589934
 10
6268.9863904622
 20
5436.9034697601
 10
6267.080878431
 20
5436.8499314706
 10
6265.6606960245
 20
5436.792630071
 10
6264.844585575
 20
5436.7353286713
 10
6264.7081289621
 20
5436.6935768991
  0
LWPOLYLINE
  5
48C
330
1F
100
AcDbEntity
  8
0
  6
Continuous
 62
     7
370
    25
100
AcDbPolyline
 90
       16
 70
   128
 43
0.0
 10
6291.0183075791
 20
5435.8997088635
 10
6291.0338178233
 20
5435.8761167102
 10
6290.4319195423
 20
5435.8197552918
 10
6289.2032413468
 20
5435.7619774211
 10
6287.4445553524
 20
5435.7069943032
 10
6285.2407530543
 20
5435.6530721651
 10
6282.6289018311
 20
5435.5955595389
 10
6279.7893960318
 20
5435.5385209683
 10
6276.9206605923
 20
5435.4852391896
 10
6274.052315393
 20
5435.4292900752
 10
6271.3419041112
 20
5435.3714589934
 10
6268.9863904622
 20
5435.3159697601
 10
6267.080878431
 20
5435.2624314706
 10
6265.6606960245
 20
5435.205130071
 10
6264.844585575
 20
5435.1478286713
 10
6264.7081289621
 20
5435.1060768991
  0
LWPOLYLINE
  5
48D
330
1F
100
AcDbEntity
  8
0
  6
Continuous
 62
     7
370
    25
100
AcDbPolyline
 90
       16
 70
   128
 43
0.0
 10
6291.0183075791
 20
5434.3122088635
 10
6291.0338178233
 20
5434.2886167102
 10
6290.4319195423
 20
5434.2322552918
 10
6289.2032413468
 20
5434.1744774211
 10
6287.4445553524
 20
5434.1194943032
 10
6285.2407530543
 20
5434.0655721651
 10
6282.6289018311
 20
5434.0080595389
 10
6279.7893960318
 20
5433.9510209683
 10
6276.9206605923
 20
5433.8977391896
 10
6274.052315393
 20
5433.8417900752
 10
6271.3419041112
 20
5433.7839589934
 10
6268.9863904622
 20
5433.7284697601
 10
6267.080878431
 20
5433.6749314706
 10
6265.6606960245
 20
5433.617630071
 10
6264.844585575
 20
5433.5603286713
 10
6264.7081289621
 20
5433.5185768991
  0
LWPOLYLINE
  5
48E
330
1F
100
AcDbEntity
  8
0
  6
Continuous
 62
     7
370
    25
100
AcDbPolyline
 90
       16
 70
   128
 43
0.0
 10
6291.0183075791
 20
5432.7247088635
 10
6291.0338178233
 20
5432.7011167102
 10
6290.4319195423
 20
5432.6447552918
 10
6289.2032413468
 20
5432.5869774211
 10
6287.4445553524
 20
5432.5319943032
 10
6285.2407530543
 20
5432.4780721651
 10
6282.6289018311
 20
5432.4205595389
 10
6279.7893960318
 20
5432.3635209683
 10
6276.9206605923
 20
5432.3102391896
 10
6274.052315393
 20
5432.2542900752
 10
6271.3419041112
 20
5432.1964589934
 10
6268.9863904622
 20
5432.1409697601
 10
6267.080878431
 20
5432.0874314706
 10
6265.6606960245
 20
5432.030130071
 10
6264.844585575
 20
5431.9728286713
 10
6264.7081289621
 20
5431.9310768991
  0
LWPOLYLINE
  5
48F
330
1F
100
AcDbEntity
  8
0
  6
Continuous
 62
     7
370
    25
100
AcDbPolyline
 90
       11
 70
   128
 43
0.0
 10
6291.0183075791
 20
5431.1372088635
 10
6291.0338178233
 20
5431.1136167102
 10
6290.4319195423
 20
5431.0572552918
 10
6289.2032413468
 20
5430.9994774211
 10
6287.4445553524
 20
5430.9444943032
 10
6285.2407530543
 20
5430.8905721651
 10
6282.6289018311
 20
5430.8330595389
 10
6279.7893960318
 20
5430.7760209683
 10
6276.9206605923
 20
5430.7227391896
 10
6274.052315393
 20
5430.6667900752
 10
6273.826068496
 20
5430.6621613258
  0
LWPOLYLINE
  5
490
330
1F
100
AcDbEntity
  8
0
  6
Continuous
 62
     7
370
    25
100
AcDbPolyline
 90
        6
 70
   128
 43
0.0
 10
6270.9000942117
 20
5439.0214209103
 10
6268.724346691
 20
5438.9638216343
 10
6267.1282880546
 20
5438.9083324009
 10
6266.04158001
 20
5438.8505013191
 10
6265.5458429592
 20
5438.7945522048
 10
6265.5632524318
 20
5438.7850934054
  0
LWPOLYLINE
  5
491
330
1F
100
AcDbEntity
  8
0
  6
Continuous
 62
     7
370
    25
100
AcDbPolyline
 90
       17
 70
   128
 43
0.0
 10
6290.1640596505
 20
5437.9832950945
 10
6290.1785571909
 20
5437.9597104626
 10
6289.6157789785
 20
5437.9033490442
 10
6288.4669580891
 20
5437.8455711735
 10
6286.8225769846
 20
5437.7905880556
 10
6284.7620096812
 20
5437.7366659175
 10
6282.3199143822
 20
5437.6791532913
 10
6279.6649607991
 20
5437.6221147207
 10
6276.9826773412
 20
5437.568832942
 10
6274.3007587599
 20
5437.5128838276
 10
6271.7665092626
 20
5437.4550527458
 10
6270.9000942117
 20
5437.4339209103
 10
6268.724346691
 20
5437.3763216343
 10
6267.1282880546
 20
5437.3208324009
 10
6266.04158001
 20
5437.2630013191
 10
6265.5458429592
 20
5437.2070522048
 10
6265.5632524318
 20
5437.1975934054
  0
LWPOLYLINE
  5
492
330
1F
100
AcDbEntity
  8
0
  6
Continuous
 62
     7
370
    25
100
AcDbPolyline
 90
       17
 70
   128
 43
0.0
 10
6290.1640596505
 20
5436.3957950945
 10
6290.1785571909
 20
5436.3722104626
 10
6289.6157789785
 20
5436.3158490442
 10
6288.4669580891
 20
5436.2580711735
 10
6286.8225769846
 20
5436.2030880556
 10
6284.7620096812
 20
5436.1491659175
 10
6282.3199143822
 20
5436.0916532913
 10
6279.6649607991
 20
5436.0346147207
 10
6276.9826773412
 20
5435.981332942
 10
6274.3007587599
 20
5435.9253838276
 10
6271.7665092626
 20
5435.8675527458
 10
6270.9000942117
 20
5435.8464209103
 10
6268.724346691
 20
5435.7888216343
 10
6267.1282880546
 20
5435.7333324009
 10
6266.04158001
 20
5435.6755013191
 10
6265.5458429592
 20
5435.6195522048
 10
6265.5632524318
 20
5435.6100934054
  0
LWPOLYLINE
  5
493
330
1F
100
AcDbEntity
  8
0
  6
Continuous
 62
     7
370
    25
100
AcDbPolyline
 90
       17
 70
   128
 43
0.0
 10
6290.1640596505
 20
5434.8082950945
 10
6290.1785571909
 20
5434.7847104626
 10
6289.6157789785
 20
5434.7283490442
 10
6288.4669580891
 20
5434.6705711735
 10
6286.8225769846
 20
5434.6155880556
 10
6284.7620096812
 20
5434.5616659175
 10
6282.3199143822
 20
5434.5041532913
 10
6279.6649607991
 20
5434.4471147207
 10
6276.9826773412
 20
5434.393832942
 10
6274.3007587599
 20
5434.3378838276
 10
6271.7665092626
 20
5434.2800527458
 10
6270.9000942117
 20
5434.2589209103
 10
6268.724346691
 20
5434.2013216343
 10
6267.1282880546
 20
5434.1458324009
 10
6266.04158001
 20
5434.0880013191
 10
6265.5458429592
 20
5434.0320522048
 10
6265.5632524318
 20
5434.0225934054
  0
LWPOLYLINE
  5
494
330
1F
100
AcDbEntity
  8
0
  6
Continuous
 62
     7
370
    25
100
AcDbPolyline
 90
       17
 70
   128
 43
0.0
 10
6290.1640596505
 20
5433.2207950945
 10
6290.1785571909
 20
5433.1972104626
 10
6289.6157789785
 20
5433.1408490442
 10
6288.4669580891
 20
5433.0830711735
 10
6286.8225769846
 20
5433.0280880556
 10
6284.7620096812
 20
5432.9741659175
 10
6282.3199143822
 20
5432.9166532913
 10
6279.6649607991
 20
5432.8596147207
 10
6276.9826773412
 20
5432.806332942
 10
6274.3007587599
 20
5432.7503838276
 10
6271.7665092626
 20
5432.6925527458
 10
6270.9000942117
 20
5432.6714209103
 10
6268.724346691
 20
5432.6138216343
 10
6267.1282880546
 20
5432.5583324009
 10
6266.04158001
 20
5432.5005013191
 10
6265.5458429592
 20
5432.4445522048
 10
6265.5632524318
 20
5432.4350934054
  0
LWPOLYLINE
  5
495
330
1F
100
AcDbEntity
  8
0
  6
Continuous
 62
     7
370
    25
100
AcDbPolyline
 90
       17
 70
   128
 43
0.0
 10
6290.1640596505
 20
5431.6332950945
 10
6290.1785571909
 20
5431.6097104626
 10
6289.6157789785
 20
5431.5533490442
 10
6288.4669580891
 20
5431.4955711735
 10
6286.8225769846
 20
5431.4405880556
 10
6284.7620096812
 20
5431.3866659175
 10
6282.3199143822
 20
5431.3291532913
 10
6279.6649607991
 20
5431.2721147207
 10
6276.9826773412
 20
5431.218832942
 10
6274.3007587599
 20
5431.1628838276
 10
6271.7665092626
 20
5431.1050527458
 10
6270.9000942117
 20
5431.0839209103
 10
6268.724346691
 20
5431.0263216343
 10
6267.1282880546
 20
5430.9708324009
 10
6266.04158001
 20
5430.9130013191
 10
6265.5458429592
 20
5430.8570522048
 10
6265.5632524318
 20
5430.8475934054
  0
CIRCLE
  5
496
330
1F
100
AcDbEntity
  8
0
  6
Continuous
 62
     7
370
    25
100
AcDbCircle
 10
6292.874845384
 20
5235.1621613257
 30
0.0
 40
5.800000000000407
  0
CIRCLE
  5
497
330
1F
100
AcDbEntity
  8
0
  6
Continuous
 62
     7
370
    25
100
AcDbCircle
 10
6292.874845384
 20
5235.1621613257
 30
0.0
 40
6.599999999999847
  0
CIRCLE
  5
498
330
1F
100
AcDbEntity
  8
0
  6
Continuous
 62
     7
370
    25
100
AcDbCircle
 10
6292.874845384
 20
5235.1621613257
 30
0.0
 40
4.000000000000476
  0
LINE
  5
499
330
1F
100
AcDbEntity
  8
0
  6
Continuous
 62
     7
370
    25
100
AcDbLine
 10
6289.7645038897
 20
5379.0769762369
 30
0.0
 11
6289.7645038897
 21
5373.1621613258
 31
0.0
  0
LINE
  5
49A
330
1F
100
AcDbEntity
  8
0
  6
Continuous
 62
     7
370
    25
100
AcDbLine
 10
6289.7645038897
 20
5373.1621613258
 30
0.0
 11
6288.2922696891
 21
5373.1621613258
 31
0.0
  0
LINE
  5
49B
330
1F
100
AcDbEntity
  8
0
  6
Continuous
 62
     7
370
    25
100
AcDbLine
 10
6289.9822240658
 20
5379.1621613258
 30
0.0
 11
6289.9822240658
 21
5373.1621613258
 31
0.0
  0
LINE
  5
49C
330
1F
100
AcDbEntity
  8
0
  6
Continuous
 62
     7
370
    25
100
AcDbLine
 10
6289.9822240658
 20
5373.1621613258
 30
0.0
 11
6289.7645038897
 21
5373.1621613258
 31
0.0
  0
LINE
  5
49D
330
1F
100
AcDbEntity
  8
0
  6
Continuous
 62
     7
370
    25
100
AcDbLine
 10
6289.8748453841
 20
5379.1621613258
 30
0.0
 11
6291.374845384
 21
5379.1621613258
 31
0.0
  0
LWPOLYLINE
  5
49E
330
1F
100
AcDbEntity
  8
0
  6
Continuous
 62
     7
370
    25
100
AcDbPolyline
 90
        3
 70
   128
 43
0.0
 10
6289.8422366884
 20
5404.0162109476
 10
6289.8563838284
 20
5404.0548882894
 10
6289.874845384
 20
5404.0986529989
  0
ARC
  5
49F
330
1F
100
AcDbEntity
  8
0
  6
Continuous
 62
     7
370
    25
100
AcDbCircle
 10
6264.9074174992
 20
5404.038030526
 30
0.0
 40
1.000274590501045
100
AcDbArc
 50
288.4529466767
 51
358.7500742949
  0
ARC
  5
4A0
330
1F
100
AcDbEntity
  8
0
  6
Continuous
 62
     7
370
    25
100
AcDbCircle
 10
6290.8422732689
 20
5404.038030526
 30
0.0
 40
1.00027459049788
100
AcDbArc
 50
181.249925705
 51
251.5470533235
  0
LINE
  5
4A1
330
1F
100
AcDbEntity
  8
0
  6
Continuous
 62
     7
370
    25
100
AcDbLine
 10
6264.674845384
 20
5402.3236836947
 30
0.0
 11
6348.874845384
 21
5402.3236836947
 31
0.0
  0
LINE
  5
4A2
330
1F
100
AcDbEntity
  8
0
  6
Continuous
 62
     7
370
    25
100
AcDbLine
 10
6348.874845384
 20
5208.0006389569
 30
0.0
 11
6348.874845384
 21
5402.3236836947
 31
0.0
  0
LINE
  5
4A3
330
1F
100
AcDbEntity
  8
0
  6
Continuous
 62
     7
370
    25
100
AcDbLine
 10
6348.874845384
 20
5208.0006389569
 30
0.0
 11
6264.674845384
 21
5208.0006389569
 31
0.0
  0
LINE
  5
4A4
330
1F
100
AcDbEntity
  8
0
  6
Continuous
 62
     7
370
    25
100
AcDbLine
 10
6264.674845384
 20
5208.0006389569
 30
0.0
 11
6264.674845384
 21
5402.3236836947
 31
0.0
  0
CIRCLE
  5
4A5
330
1F
100
AcDbEntity
  8
0
  6
Continuous
 62
     7
370
    25
100
AcDbCircle
 10
6292.874845384
 20
5375.1621613258
 30
0.0
 40
5.0
  0
CIRCLE
  5
4A6
330
1F
100
AcDbEntity
  8
0
  6
Continuous
 62
     7
370
    25
100
AcDbCircle
 10
6341.374845384
 20
5215.1621613257
 30
0.0
 40
1.600000000001273
  0
CIRCLE
  5
4A7
330
1F
100
AcDbEntity
  8
0
  6
Continuous
 62
     7
370
    25
100
AcDbCircle
 10
6341.374845384
 20
5395.1621613258
 30
0.0
 40
1.600000000001273
  0
ELLIPSE
  5
4A8
330
1F
100
AcDbEntity
  8
0
  6
Continuous
 62
     7
370
    25
100
AcDbEllipse
 10
6264.674845384
 20
5403.3621613258
 30
0.0
 11
1.800000000000182
 21
0.0
 31
0.0
210
0.0
220
0.0
230
1.0
 40
0.5769320173
 41
3.141592653570525
 42
4.712388980385203
  0
ELLIPSE
  5
4A9
330
1F
100
AcDbEntity
  8
0
  6
Continuous
 62
     7
370
    25
100
AcDbEllipse
 10
6264.674845384
 20
5206.9621613257
 30
0.0
 11
1.800000000000182
 21
0.0
 31
0.0
210
0.0
220
0.0
230
1.0
 40
0.5769320173
 41
1.570796326794391
 42
3.141592653589793
  0
LINE
  5
4AA
330
1F
100
AcDbEntity
  8
0
  6
Continuous
 62
     7
370
    25
100
AcDbLine
 10
6262.874845384
 20
5206.9621613257
 30
0.0
 11
6262.874845384
 21
5403.3621613258
 31
0.0
  0
LINE
  5
4AB
330
1F
100
AcDbEntity
  8
0
  6
Continuous
 62
     7
370
    25
100
AcDbLine
 10
6262.874845384
 20
5403.3621613258
 30
0.0
 11
6263.874845384
 21
5403.3621613258
 31
0.0
  0
ELLIPSE
  5
4AC
330
1F
100
AcDbEntity
  8
0
  6
Continuous
 62
     7
370
    25
100
AcDbEllipse
 10
6264.674845384
 20
5403.3621613258
 30
0.0
 11
0.0
 21
1.038477631067508
 31
0.0
210
0.0
220
0.0
230
1.0
 40
0.7703584324
 41
1.570796326763368
 42
3.141592653589793
  0
ELLIPSE
  5
4AD
330
1F
100
AcDbEntity
  8
0
  6
Continuous
 62
     7
370
    25
100
AcDbEllipse
 10
6264.674845384
 20
5206.9621613257
 30
0.0
 11
0.0
 21
1.038477631133901
 31
0.0
210
0.0
220
0.0
230
1.0
 40
0.7703584324
 41
0.0
 42
1.570796326780008
  0
LINE
  5
4AE
330
1F
100
AcDbEntity
  8
0
  6
Continuous
 62
     7
370
    25
100
AcDbLine
 10
6262.874845384
 20
5206.9621613257
 30
0.0
 11
6263.874845384
 21
5206.9621613257
 31
0.0
  0
LINE
  5
4AF
330
1F
100
AcDbEntity
  8
0
  6
Continuous
 62
     7
370
    25
100
AcDbLine
 10
6348.874845384
 20
5208.0006389568
 30
0.0
 11
6348.874845384
 21
5206.9621613257
 31
0.0
  0
LINE
  5
4B0
330
1F
100
AcDbEntity
  8
0
  6
Continuous
 62
     7
370
    25
100
AcDbLine
 10
6333.874845384
 20
5206.9621613257
 30
0.0
 11
6348.874845384
 21
5206.9621613257
 31
0.0
  0
LINE
  5
4B1
330
1F
100
AcDbEntity
  8
0
  6
Continuous
 62
     7
370
    25
100
AcDbLine
 10
6333.874845384
 20
5206.9621613257
 30
0.0
 11
6333.874845384
 21
5208.0006389569
 31
0.0
  0
LINE
  5
4B2
330
1F
100
AcDbEntity
  8
0
  6
Continuous
 62
     7
370
    25
100
AcDbLine
 10
6348.874845384
 20
5403.3621613258
 30
0.0
 11
6333.874845384
 21
5403.3621613258
 31
0.0
  0
LINE
  5
4B3
330
1F
100
AcDbEntity
  8
0
  6
Continuous
 62
     7
370
    25
100
AcDbLine
 10
6348.874845384
 20
5402.3236836947
 30
0.0
 11
6348.874845384
 21
5403.3621613258
 31
0.0
  0
LINE
  5
4B4
330
1F
100
AcDbEntity
  8
0
  6
Continuous
 62
     7
370
    25
100
AcDbLine
 10
6333.874845384
 20
5403.3621613258
 30
0.0
 11
6333.874845384
 21
5402.3236836947
 31
0.0
  0
LINE
  5
4B5
330
1F
100
AcDbEntity
  8
0
  6
Continuous
 62
     7
370
    25
100
AcDbLine
 10
6348.874845384
 20
5206.9621613257
 30
0.0
 11
6348.874845384
 21
5205.1621613257
 31
0.0
  0
LINE
  5
4B6
330
1F
100
AcDbEntity
  8
0
  6
Continuous
 62
     7
370
    25
100
AcDbLine
 10
6348.874845384
 20
5205.1621613257
 30
0.0
 11
6333.874845384
 21
5205.1621613257
 31
0.0
  0
LINE
  5
4B7
330
1F
100
AcDbEntity
  8
0
  6
Continuous
 62
     7
370
    25
100
AcDbLine
 10
6333.874845384
 20
5205.1621613257
 30
0.0
 11
6333.874845384
 21
5206.9621613257
 31
0.0
  0
LINE
  5
4B8
330
1F
100
AcDbEntity
  8
0
  6
Continuous
 62
     7
370
    25
100
AcDbLine
 10
6348.874845384
 20
5405.1621613258
 30
0.0
 11
6348.874845384
 21
5403.3621613258
 31
0.0
  0
LINE
  5
4B9
330
1F
100
AcDbEntity
  8
0
  6
Continuous
 62
     7
370
    25
100
AcDbLine
 10
6333.874845384
 20
5403.3621613258
 30
0.0
 11
6333.874845384
 21
5405.1621613258
 31
0.0
  0
LINE
  5
4BA
330
1F
100
AcDbEntity
  8
0
  6
Continuous
 62
     7
370
    25
100
AcDbLine
 10
6348.874845384
 20
5405.1621613258
 30
0.0
 11
6333.874845384
 21
5405.1621613258
 31
0.0
  0
ARC
  5
4BB
330
1F
100
AcDbEntity
  8
0
  6
Continuous
 62
     7
370
    25
100
AcDbCircle
 10
6264.674845384
 20
5403.3621613258
 30
0.0
 40
1.800000000000182
100
AcDbArc
 50
90.0
 51
180.0000000004
  0
LINE
  5
4BC
330
1F
100
AcDbEntity
  8
0
  6
Continuous
 62
     7
370
    25
100
AcDbLine
 10
6264.674845384
 20
5405.1621613258
 30
0.0
 11
6264.674845384
 21
5404.1621613258
 31
0.0
  0
ARC
  5
4BD
330
1F
100
AcDbEntity
  8
0
  6
Continuous
 62
     7
370
    25
100
AcDbCircle
 10
6264.674845384
 20
5403.3621613258
 30
0.0
 40
0.8000000000001819
100
AcDbArc
 50
90.0
 51
180.0
  0
ARC
  5
4BE
330
1F
100
AcDbEntity
  8
0
  6
Continuous
 62
     7
370
    25
100
AcDbCircle
 10
6264.674845384
 20
5206.9621613257
 30
0.0
 40
0.8000000000001819
100
AcDbArc
 50
179.9999999967
 51
270.0
  0
LINE
  5
4BF
330
1F
100
AcDbEntity
  8
0
  6
Continuous
 62
     7
370
    25
100
AcDbLine
 10
6264.674845384
 20
5205.1621613257
 30
0.0
 11
6264.674845384
 21
5206.1621613257
 31
0.0
  0
ARC
  5
4C0
330
1F
100
AcDbEntity
  8
0
  6
Continuous
 62
     7
370
    25
100
AcDbCircle
 10
6264.674845384
 20
5206.9621613257
 30
0.0
 40
1.800000000000182
100
AcDbArc
 50
179.999999999
 51
270.0
  0
LINE
  5
4C1
330
1F
100
AcDbEntity
  8
0
  6
Continuous
 62
     7
370
    25
100
AcDbLine
 10
6333.874845384
 20
5405.1621613258
 30
0.0
 11
6264.674845384
 21
5405.1621613258
 31
0.0
  0
LINE
  5
4C2
330
1F
100
AcDbEntity
  8
0
  6
Continuous
 62
     7
370
    25
100
AcDbLine
 10
6333.874845384
 20
5404.1621613258
 30
0.0
 11
6264.674845384
 21
5404.1621613258
 31
0.0
  0
LINE
  5
4C3
330
1F
100
AcDbEntity
  8
0
  6
Continuous
 62
     7
370
    25
100
AcDbLine
 10
6264.674845384
 20
5205.1621613257
 30
0.0
 11
6333.874845384
 21
5205.1621613257
 31
0.0
  0
LINE
  5
4C4
330
1F
100
AcDbEntity
  8
0
  6
Continuous
 62
     7
370
    25
100
AcDbLine
 10
6264.674845384
 20
5206.1621613257
 30
0.0
 11
6333.874845384
 21
5206.1621613257
 31
0.0
  0
LINE
  5
4C5
330
1F
100
AcDbEntity
  8
0
  6
Continuous
 62
     7
370
    25
100
AcDbLine
 10
6351.874845384
 20
5190.6474427
 30
0.0
 11
6352.874845384
 21
5190.6474427
 31
0.0
  0
LINE
  5
4C6
330
1F
100
AcDbEntity
  8
0
  6
Continuous
 62
     7
370
    25
100
AcDbLine
 10
6351.874845384
 20
5185.6474427
 30
0.0
 11
6351.874845384
 21
5190.6474427
 31
0.0
  0
LINE
  5
4C7
330
1F
100
AcDbEntity
  8
0
  6
Continuous
 62
     7
370
    25
100
AcDbLine
 10
6352.874845384
 20
5190.6474427
 30
0.0
 11
6352.874845384
 21
5185.6474427
 31
0.0
  0
LINE
  5
4C8
330
1F
100
AcDbEntity
  8
0
  6
Continuous
 62
     7
370
    25
100
AcDbLine
 10
6352.874845384
 20
5419.6768799515
 30
0.0
 11
6351.874845384
 21
5419.6768799515
 31
0.0
  0
LINE
  5
4C9
330
1F
100
AcDbEntity
  8
0
  6
Continuous
 62
     7
370
    25
100
AcDbLine
 10
6351.874845384
 20
5419.6768799515
 30
0.0
 11
6351.874845384
 21
5190.6474427
 31
0.0
  0
LINE
  5
4CA
330
1F
100
AcDbEntity
  8
0
  6
Continuous
 62
     7
370
    25
100
AcDbLine
 10
6352.874845384
 20
5419.6768799515
 30
0.0
 11
6352.874845384
 21
5190.6474427
 31
0.0
  0
LINE
  5
4CB
330
1F
100
AcDbEntity
  8
0
  6
Continuous
 62
     7
370
    25
100
AcDbLine
 10
6351.874845384
 20
5419.6768799515
 30
0.0
 11
6351.874845384
 21
5424.6768799515
 31
0.0
  0
LINE
  5
4CC
330
1F
100
AcDbEntity
  8
0
  6
Continuous
 62
     7
370
    25
100
AcDbLine
 10
6352.874845384
 20
5424.6768799515
 30
0.0
 11
6352.874845384
 21
5419.6768799515
 31
0.0
  0
LINE
  5
4CD
330
1F
100
AcDbEntity
  8
0
  6
Continuous
 62
     7
370
    25
100
AcDbLine
 10
6352.874845384
 20
5177.1621613258
 30
0.0
 11
6351.874845384
 21
5177.1621613258
 31
0.0
  0
LINE
  5
4CE
330
1F
100
AcDbEntity
  8
0
  6
Continuous
 62
     7
370
    25
100
AcDbLine
 10
6352.874845384
 20
5185.6976952317
 30
0.0
 11
6352.874845384
 21
5177.1621613258
 31
0.0
  0
LINE
  5
4CF
330
1F
100
AcDbEntity
  8
0
  6
Continuous
 62
     7
370
    25
100
AcDbLine
 10
6351.874845384
 20
5177.1621613258
 30
0.0
 11
6351.874845384
 21
5185.6976952317
 31
0.0
  0
LINE
  5
4D0
330
1F
100
AcDbEntity
  8
0
  6
Continuous
 62
     7
370
    25
100
AcDbLine
 10
6351.874845384
 20
5433.1621613258
 30
0.0
 11
6352.874845384
 21
5433.1621613258
 31
0.0
  0
LINE
  5
4D1
330
1F
100
AcDbEntity
  8
0
  6
Continuous
 62
     7
370
    25
100
AcDbLine
 10
6352.874845384
 20
5433.1621613258
 30
0.0
 11
6352.874845384
 21
5424.6266274198
 31
0.0
  0
LINE
  5
4D2
330
1F
100
AcDbEntity
  8
0
  6
Continuous
 62
     7
370
    25
100
AcDbLine
 10
6351.874845384
 20
5424.6266274198
 30
0.0
 11
6351.874845384
 21
5433.1621613258
 31
0.0
  0
ELLIPSE
  5
4D3
330
1F
100
AcDbEntity
  8
0
  6
Continuous
 62
     7
370
    25
100
AcDbEllipse
 10
6351.074845384
 20
5393.5479477633
 30
0.0
 11
0.0
 21
1.800000000000182
 31
0.0
210
0.0
220
0.0
230
1.0
 40
0.4444444444
 41
3.141592653589793
 42
4.712388980394802
  0
ELLIPSE
  5
4D4
330
1F
100
AcDbEntity
  8
0
  6
Continuous
 62
     7
370
    25
100
AcDbEllipse
 10
6351.074845384
 20
5216.7763748882
 30
0.0
 11
0.0
 21
1.800000000000182
 31
0.0
210
0.0
220
0.0
230
1.0
 40
0.4444444444
 41
4.71238898037459
 42
6.283185307179586
  0
LINE
  5
4D5
330
1F
100
AcDbEntity
  8
0
  6
Continuous
 62
     7
370
    25
100
AcDbLine
 10
6351.074845384
 20
5391.7479477633
 30
0.0
 11
6351.074845384
 21
5218.5763748882
 31
0.0
  0
LINE
  5
4D6
330
1F
100
AcDbEntity
  8
0
  6
Continuous
 62
     7
370
    25
100
AcDbLine
 10
6351.074845384
 20
5391.7479477633
 30
0.0
 11
6348.874845384
 21
5391.7479477633
 31
0.0
  0
LINE
  5
4D7
330
1F
100
AcDbEntity
  8
0
  6
Continuous
 62
     7
370
    25
100
AcDbLine
 10
6348.874845384
 20
5218.5763748882
 30
0.0
 11
6351.074845384
 21
5218.5763748882
 31
0.0
  0
ARC
  5
4D8
330
1F
100
AcDbEntity
  8
0
  6
Continuous
 62
     7
370
    25
100
AcDbCircle
 10
6351.074845384
 20
5215.3621613258
 30
0.0
 40
1.800000000000777
100
AcDbArc
 50
63.7893269359
 51
90.0
  0
LINE
  5
4D9
330
1F
100
AcDbEntity
  8
0
  6
Continuous
 62
     7
370
    25
100
AcDbLine
 10
6351.074845384
 20
5217.1621613258
 30
0.0
 11
6351.074845384
 21
5216.1621613258
 31
0.0
  0
ARC
  5
4DA
330
1F
100
AcDbEntity
  8
0
  6
Continuous
 62
     7
370
    25
100
AcDbCircle
 10
6351.074845384
 20
5215.3621613258
 30
0.0
 40
0.8000000000001819
100
AcDbArc
 50
0.0
 51
90.0
  0
LINE
  5
4DB
330
1F
100
AcDbEntity
  8
0
  6
Continuous
 62
     7
370
    25
100
AcDbLine
 10
6351.074845384
 20
5393.1621613258
 30
0.0
 11
6351.074845384
 21
5394.1621613258
 31
0.0
  0
ARC
  5
4DC
330
1F
100
AcDbEntity
  8
0
  6
Continuous
 62
     7
370
    25
100
AcDbCircle
 10
6351.074845384
 20
5394.9621613258
 30
0.0
 40
0.8000000000001819
100
AcDbArc
 50
270.0
 51
0.0
  0
ARC
  5
4DD
330
1F
100
AcDbEntity
  8
0
  6
Continuous
 62
     7
370
    25
100
AcDbCircle
 10
6351.074845384
 20
5394.9621613258
 30
0.0
 40
1.800000000000182
100
AcDbArc
 50
270.0
 51
296.210673064
  0
LINE
  5
4DE
330
1F
100
AcDbEntity
  8
0
  6
Continuous
 62
     7
370
    25
100
AcDbLine
 10
6351.074845384
 20
5217.1621613258
 30
0.0
 11
6348.874845384
 21
5217.1621613258
 31
0.0
  0
LINE
  5
4DF
330
1F
100
AcDbEntity
  8
0
  6
Continuous
 62
     7
370
    25
100
AcDbLine
 10
6351.074845384
 20
5216.1621613258
 30
0.0
 11
6348.874845384
 21
5216.1621613258
 31
0.0
  0
LINE
  5
4E0
330
1F
100
AcDbEntity
  8
0
  6
Continuous
 62
     7
370
    25
100
AcDbLine
 10
6342.6238449837
 20
5216.1621613258
 30
0.0
 11
6340.1258457844
 21
5216.1621613258
 31
0.0
  0
LINE
  5
4E1
330
1F
100
AcDbEntity
  8
0
  6
Continuous
 62
     7
370
    25
100
AcDbLine
 10
6340.1258457844
 20
5394.1621613258
 30
0.0
 11
6342.6238449837
 21
5394.1621613258
 31
0.0
  0
LINE
  5
4E2
330
1F
100
AcDbEntity
  8
0
  6
Continuous
 62
     7
370
    25
100
AcDbLine
 10
6348.874845384
 20
5394.1621613258
 30
0.0
 11
6351.074845384
 21
5394.1621613258
 31
0.0
  0
LINE
  5
4E3
330
1F
100
AcDbEntity
  8
0
  6
Continuous
 62
     7
370
    25
100
AcDbLine
 10
6348.874845384
 20
5393.1621613258
 30
0.0
 11
6351.074845384
 21
5393.1621613258
 31
0.0
  0
LINE
  5
4E4
330
1F
100
AcDbEntity
  8
0
  6
Continuous
 62
     7
370
    25
100
AcDbLine
 10
6362.374845384
 20
5220.1621613258
 30
0.0
 11
6362.374845384
 21
5220.2278467507
 31
0.0
  0
LINE
  5
4E5
330
1F
100
AcDbEntity
  8
0
  6
Continuous
 62
     7
370
    25
100
AcDbLine
 10
6362.374845384
 20
5390.0964759008
 30
0.0
 11
6362.374845384
 21
5390.1621613258
 31
0.0
  0
LINE
  5
4E6
330
1F
100
AcDbEntity
  8
0
  6
Continuous
 62
     7
370
    25
100
AcDbLine
 10
6362.374845384
 20
5220.1621613258
 30
0.0
 11
6359.374845384
 21
5220.1621613258
 31
0.0
  0
LINE
  5
4E7
330
1F
100
AcDbEntity
  8
0
  6
Continuous
 62
     7
370
    25
100
AcDbLine
 10
6359.374845384
 20
5390.1621613258
 30
0.0
 11
6359.374845384
 21
5390.0964759008
 31
0.0
  0
LINE
  5
4E8
330
1F
100
AcDbEntity
  8
0
  6
Continuous
 62
     7
370
    25
100
AcDbLine
 10
6359.374845384
 20
5220.2278467507
 30
0.0
 11
6359.374845384
 21
5220.1621613258
 31
0.0
  0
LINE
  5
4E9
330
1F
100
AcDbEntity
  8
0
  6
Continuous
 62
     7
370
    25
100
AcDbLine
 10
6362.374845384
 20
5390.1621613258
 30
0.0
 11
6359.374845384
 21
5390.1621613258
 31
0.0
  0
LINE
  5
4EA
330
1F
100
AcDbEntity
  8
0
  6
Continuous
 62
     7
370
    25
100
AcDbLine
 10
6359.374845384
 20
5390.1621613258
 30
0.0
 11
6359.3091599591
 21
5390.0964759008
 31
0.0
  0
LINE
  5
4EB
330
1F
100
AcDbEntity
  8
0
  6
Continuous
 62
     7
370
    25
100
AcDbLine
 10
6359.374845384
 20
5220.1621613258
 30
0.0
 11
6359.3091599591
 21
5220.2278467507
 31
0.0
  0
LINE
  5
4EC
330
1F
100
AcDbEntity
  8
0
  6
Continuous
 62
     7
370
    25
100
AcDbLine
 10
6362.374845384
 20
5390.1621613258
 30
0.0
 11
6362.440530809
 21
5390.0964759008
 31
0.0
  0
LINE
  5
4ED
330
1F
100
AcDbEntity
  8
0
  6
Continuous
 62
     7
370
    25
100
AcDbLine
 10
6362.374845384
 20
5220.1621613258
 30
0.0
 11
6362.440530809
 21
5220.2278467507
 31
0.0
  0
LINE
  5
4EE
330
1F
100
AcDbEntity
  8
0
  6
Continuous
 62
     7
370
    25
100
AcDbLine
 10
6362.974845384
 20
5297.6621613258
 30
0.0
 11
6362.874845384
 21
5297.6621613258
 31
0.0
  0
LINE
  5
4EF
330
1F
100
AcDbEntity
  8
0
  6
Continuous
 62
     7
370
    25
100
AcDbLine
 10
6362.974845384
 20
5297.6621613258
 30
0.0
 11
6362.974845384
 21
5289.1621613258
 31
0.0
  0
LINE
  5
4F0
330
1F
100
AcDbEntity
  8
0
  6
Continuous
 62
     7
370
    25
100
AcDbLine
 10
6362.974845384
 20
5289.1621613258
 30
0.0
 11
6362.874845384
 21
5289.1621613258
 31
0.0
  0
LINE
  5
4F1
330
1F
100
AcDbEntity
  8
0
  6
Continuous
 62
     7
370
    25
100
AcDbLine
 10
6362.974845384
 20
5321.1621613258
 30
0.0
 11
6362.874845384
 21
5321.1621613258
 31
0.0
  0
LINE
  5
4F2
330
1F
100
AcDbEntity
  8
0
  6
Continuous
 62
     7
370
    25
100
AcDbLine
 10
6362.974845384
 20
5321.1621613258
 30
0.0
 11
6362.974845384
 21
5312.6621613258
 31
0.0
  0
LINE
  5
4F3
330
1F
100
AcDbEntity
  8
0
  6
Continuous
 62
     7
370
    25
100
AcDbLine
 10
6362.974845384
 20
5312.6621613258
 30
0.0
 11
6362.874845384
 21
5312.6621613258
 31
0.0
  0
LINE
  5
4F4
330
1F
100
AcDbEntity
  8
0
  6
Continuous
 62
     7
370
    25
100
AcDbLine
 10
6362.974845384
 20
5312.6621613258
 30
0.0
 11
6362.974845384
 21
5297.6621613258
 31
0.0
  0
ARC
  5
4F5
330
1F
100
AcDbEntity
  8
0
  6
Continuous
 62
     8
370
    25
100
AcDbCircle
 10
6260.3260570424
 20
5402.3861148443
 30
0.0
 40
5.814568444380639
100
AcDbArc
 50
359.3848021313
 51
16.2809084836
  0
LINE
  5
4F6
330
1F
100
AcDbEntity
  8
0
  6
Continuous
 62
     8
370
    25
100
AcDbLine
 10
6265.874845384
 20
5404.0986529989
 30
0.0
 11
6265.9074540797
 21
5404.0162109476
 31
0.0
  0
ARC
  5
4F7
330
1F
100
AcDbEntity
  8
0
  6
Continuous
 62
     8
370
    25
100
AcDbCircle
 10
6295.2338488159
 20
5402.4122230229
 30
0.0
 40
5.625145206640901
100
AcDbArc
 50
163.4324212321
 51
180.9018681529
  0
ARC
  5
4F8
330
1F
100
AcDbEntity
  8
0
  6
Continuous
 62
     8
370
    25
100
AcDbCircle
 10
6264.6704234622
 20
5402.3904371748
 30
0.0
 40
0.8914765812904016
100
AcDbArc
 50
355.7056910309
 51
51.6108241079
  0
ARC
  5
4F9
330
1F
100
AcDbEntity
  8
0
  6
Continuous
 62
     8
370
    25
100
AcDbCircle
 10
6291.1263736073
 20
5402.3697998731
 30
0.0
 40
0.93721540307516
100
AcDbArc
 50
129.8630768985
 51
182.8204079622
  0
LWPOLYLINE
  5
4FA
330
1F
100
AcDbEntity
  8
0
  6
Continuous
 62
     8
370
    25
100
AcDbPolyline
 90
        4
 70
   128
 43
0.0
 10
6290.6246757376
 20
5403.1303235373
 10
6290.624845384
 20
5403.1304071624
 10
6290.5643633206
 20
5403.1085248076
 10
6290.5256606014
 20
5403.0891861367
  0
LINE
  5
4FB
330
1F
100
AcDbEntity
  8
0
  6
Continuous
 62
     8
370
    25
100
AcDbLine
 10
6265.2240301667
 20
5403.0891861367
 30
0.0
 11
6265.1250403745
 21
5403.1303261247
 31
0.0
  0
CIRCLE
  5
4FC
330
1F
100
AcDbEntity
  8
0
  6
Continuous
 62
     7
100
AcDbCircle
 10
6020.9225690907
 20
5045.6612721185
 30
0.0
 40
14.75000000000025
  0
LINE
  5
4FD
330
1F
100
AcDbEntity
  8
0
  6
Continuous
 62
     7
370
    25
100
AcDbLine
 10
5942.4225690907
 20
5037.2612721186
 30
0.0
 11
5941.5225690907
 21
5037.2612721186
 31
0.0
  0
LINE
  5
4FE
330
1F
100
AcDbEntity
  8
0
  6
Continuous
 62
     7
370
    25
100
AcDbLine
 10
5941.5225690907
 20
5024.0612721186
 30
0.0
 11
5942.4225690907
 21
5024.0612721186
 31
0.0
  0
ARC
  5
4FF
330
1F
100
AcDbEntity
  8
0
  6
Continuous
 62
     7
370
    25
100
AcDbCircle
 10
5941.5225690907
 20
5036.4612721186
 30
0.0
 40
0.8000000000010914
100
AcDbArc
 50
90.0
 51
180.0
  0
ARC
  5
500
330
1F
100
AcDbEntity
  8
0
  6
Continuous
 62
     7
370
    25
100
AcDbCircle
 10
5941.5225690907
 20
5024.8612721186
 30
0.0
 40
0.7999999999992724
100
AcDbArc
 50
180.0
 51
270.0000000001
  0
LINE
  5
501
330
1F
100
AcDbEntity
  8
0
  6
Continuous
 62
     7
370
    25
100
AcDbLine
 10
5945.2610467217
 20
5035.4112721186
 30
0.0
 11
5943.4225690907
 21
5035.4112721186
 31
0.0
  0
LINE
  5
502
330
1F
100
AcDbEntity
  8
0
  6
Continuous
 62
     7
370
    25
100
AcDbLine
 10
5943.4225690907
 20
5025.9112721186
 30
0.0
 11
5945.2610467217
 21
5025.9112721186
 31
0.0
  0
LINE
  5
503
330
1F
100
AcDbEntity
  8
0
  6
Continuous
 62
     7
370
    25
100
AcDbLine
 10
6161.9372877164
 20
4970.6612721186
 30
0.0
 11
6161.9372877164
 21
4971.6612721186
 31
0.0
  0
LINE
  5
504
330
1F
100
AcDbEntity
  8
0
  6
Continuous
 62
     7
370
    25
100
AcDbLine
 10
5922.907850465
 20
4971.6612721186
 30
0.0
 11
5922.907850465
 21
4970.6612721186
 31
0.0
  0
LINE
  5
505
330
1F
100
AcDbEntity
  8
0
  6
Continuous
 62
     7
370
    25
100
AcDbLine
 10
5957.4882545156
 20
4960.6612721186
 30
0.0
 11
6127.3568836657
 21
4960.6612721186
 31
0.0
  0
LINE
  5
506
330
1F
100
AcDbEntity
  8
0
  6
Continuous
 62
     7
370
    25
100
AcDbLine
 10
5957.4882545156
 20
4970.6612721186
 30
0.0
 11
5957.4882545156
 21
4960.6612721186
 31
0.0
  0
LINE
  5
507
330
1F
100
AcDbEntity
  8
0
  6
Continuous
 62
     7
370
    25
100
AcDbLine
 10
6127.3568836657
 20
4970.6612721186
 30
0.0
 11
6127.3568836657
 21
4960.6612721186
 31
0.0
  0
LINE
  5
508
330
1F
100
AcDbEntity
  8
0
  6
Continuous
 62
     7
370
    25
100
AcDbLine
 10
6129.4225690907
 20
4960.6612721186
 30
0.0
 11
6127.9225690907
 21
4960.6612721186
 31
0.0
  0
LINE
  5
509
330
1F
100
AcDbEntity
  8
0
  6
Continuous
 62
     7
370
    25
100
AcDbLine
 10
6127.9225690907
 20
4970.6612721186
 30
0.0
 11
6127.9225690907
 21
4960.6612721186
 31
0.0
  0
LINE
  5
50A
330
1F
100
AcDbEntity
  8
0
  6
Continuous
 62
     7
370
    25
100
AcDbLine
 10
6129.4225690907
 20
4974.6612721186
 30
0.0
 11
6129.4225690907
 21
4971.9507224851
 31
0.0
  0
LINE
  5
50B
330
1F
100
AcDbEntity
  8
0
  6
Continuous
 62
     7
370
    25
100
AcDbLine
 10
6129.4225690907
 20
4970.6612721186
 30
0.0
 11
6129.4225690907
 21
4960.6612721186
 31
0.0
  0
LINE
  5
50C
330
1F
100
AcDbEntity
  8
0
  6
Continuous
 62
     7
370
    25
100
AcDbLine
 10
5955.4225690907
 20
4960.6612721186
 30
0.0
 11
5956.9225690907
 21
4960.6612721186
 31
0.0
  0
LINE
  5
50D
330
1F
100
AcDbEntity
  8
0
  6
Continuous
 62
     7
370
    25
100
AcDbLine
 10
5956.9225690907
 20
4970.6612721186
 30
0.0
 11
5956.9225690907
 21
4960.6612721186
 31
0.0
  0
LINE
  5
50E
330
1F
100
AcDbEntity
  8
0
  6
Continuous
 62
     7
370
    25
100
AcDbLine
 10
5955.4225690907
 20
4974.6612721186
 30
0.0
 11
5955.4225690907
 21
4971.9507224851
 31
0.0
  0
LINE
  5
50F
330
1F
100
AcDbEntity
  8
0
  6
Continuous
 62
     7
370
    25
100
AcDbLine
 10
5955.4225690907
 20
4970.6612721186
 30
0.0
 11
5955.4225690907
 21
4960.6612721186
 31
0.0
  0
LINE
  5
510
330
1F
100
AcDbEntity
  8
0
  6
Continuous
 62
     7
370
    25
100
AcDbLine
 10
6013.1283404566
 20
5032.1612721186
 30
0.0
 11
6017.3052549928
 21
5032.1612721186
 31
0.0
  0
LINE
  5
511
330
1F
100
AcDbEntity
  8
0
  6
Continuous
 62
     7
370
    25
100
AcDbLine
 10
6024.5398831886
 20
5032.1612721186
 30
0.0
 11
6028.7167977247
 21
5032.1612721186
 31
0.0
  0
LINE
  5
512
330
1F
100
AcDbEntity
  8
0
  6
Continuous
 62
     7
370
    25
100
AcDbLine
 10
6005.3341118226
 20
5045.6612721186
 30
0.0
 11
6007.4225690907
 21
5042.0439580208
 31
0.0
  0
LINE
  5
513
330
1F
100
AcDbEntity
  8
0
  6
Continuous
 62
     7
370
    25
100
AcDbLine
 10
6011.0398831885
 20
5035.7785862164
 30
0.0
 11
6013.1283404566
 21
5032.1612721186
 31
0.0
  0
LINE
  5
514
330
1F
100
AcDbEntity
  8
0
  6
Continuous
 62
     7
370
    25
100
AcDbLine
 10
6013.1283404566
 20
5059.1612721186
 30
0.0
 11
6011.0398831885
 21
5055.5439580207
 31
0.0
  0
LINE
  5
515
330
1F
100
AcDbEntity
  8
0
  6
Continuous
 62
     7
370
    25
100
AcDbLine
 10
6007.4225690907
 20
5049.2785862164
 30
0.0
 11
6005.3341118226
 21
5045.6612721186
 31
0.0
  0
LINE
  5
516
330
1F
100
AcDbEntity
  8
0
  6
Continuous
 62
     7
370
    25
100
AcDbLine
 10
6028.7167977247
 20
5059.1612721186
 30
0.0
 11
6024.5398831885
 21
5059.1612721186
 31
0.0
  0
LINE
  5
517
330
1F
100
AcDbEntity
  8
0
  6
Continuous
 62
     7
370
    25
100
AcDbLine
 10
6017.3052549929
 20
5059.1612721186
 30
0.0
 11
6013.1283404566
 21
5059.1612721186
 31
0.0
  0
LINE
  5
518
330
1F
100
AcDbEntity
  8
0
  6
Continuous
 62
     7
370
    25
100
AcDbLine
 10
6036.5110263588
 20
5045.6612721186
 30
0.0
 11
6034.4225690907
 21
5049.2785862164
 31
0.0
  0
LINE
  5
519
330
1F
100
AcDbEntity
  8
0
  6
Continuous
 62
     7
370
    25
100
AcDbLine
 10
6030.8052549929
 20
5055.5439580207
 30
0.0
 11
6028.7167977247
 21
5059.1612721186
 31
0.0
  0
LINE
  5
51A
330
1F
100
AcDbEntity
  8
0
  6
Continuous
 62
     7
370
    25
100
AcDbLine
 10
6028.7167977247
 20
5032.1612721186
 30
0.0
 11
6030.8052549928
 21
5035.7785862164
 31
0.0
  0
LINE
  5
51B
330
1F
100
AcDbEntity
  8
0
  6
Continuous
 62
     7
370
    25
100
AcDbLine
 10
6034.4225690907
 20
5042.0439580208
 30
0.0
 11
6036.5110263588
 21
5045.6612721186
 31
0.0
  0
LWPOLYLINE
  5
51C
330
1F
100
AcDbEntity
  8
0
  6
Continuous
 62
     7
370
    25
100
AcDbPolyline
 90
       33
 70
   128
 43
0.0
 10
6009.1242471079
 20
5051.6262715855
 10
6008.3485565035
 20
5049.6588539384
 10
6007.8940794155
 20
5047.5644499138
 10
6007.7822403153
 20
5045.4242414132
 10
6008.0384968383
 20
5043.2141670628
 10
6008.6629709916
 20
5041.0787342962
 10
6009.6319797584
 20
5039.099114818
 10
6010.9174792706
 20
5037.308753634
 10
6012.4880388836
 20
5035.7616359121
 10
6014.295989195
 20
5034.5002896156
 10
6016.2780638884
 20
5033.5718054526
 10
6018.3874599145
 20
5032.9877208371
 10
6020.5596680011
 20
5032.7696703542
 10
6022.7375802795
 20
5032.9183166542
 10
6024.8502289775
 20
5033.4337749176
 10
6026.8465093165
 20
5034.2962262003
 10
6028.6568932568
 20
5035.477560434
 10
6030.2447128
 20
5036.9444209201
 10
6031.5590952699
 20
5038.6589356028
 10
6032.5662891326
 20
5040.5701318374
 10
6033.2280564166
 20
5042.6057371603
 10
6033.5411778025
 20
5044.7231919168
 10
6033.4909008576
 20
5046.8636550429
 10
6033.081681555
 20
5048.9651233204
 10
6032.326650046
 20
5050.9505630822
 10
6031.2504649715
 20
5052.7819223456
 10
6029.882788779
 20
5054.4012012806
 10
6028.2633187777
 20
5055.7684179208
 10
6026.4427027884
 20
5056.8349637329
 10
6024.4690505816
 20
5057.5811802673
 10
6022.4091138104
 20
5057.9798647195
 10
6020.3115924667
 20
5058.0290099969
 10
6018.6380541849
 20
5057.8095747265
  0
ARC
  5
51D
330
1F
100
AcDbEntity
  8
0
  6
Continuous
 62
     7
370
    25
100
AcDbCircle
 10
6020.9225690907
 20
5045.6612721186
 30
0.0
 40
13.22050000000109
100
AcDbArc
 50
63.1797379771
 51
153.1797369068
  0
ARC
  5
51E
330
1F
100
AcDbEntity
  8
0
  6
Continuous
 62
     7
370
    25
100
AcDbCircle
 10
6021.5477632455
 20
5045.8439063653
 30
0.0
 40
12.78427638103464
100
AcDbArc
 50
65.3114593509
 51
147.907561907
  0
ARC
  5
51F
330
1F
100
AcDbEntity
  8
0
  6
Continuous
 62
     7
370
    25
100
AcDbCircle
 10
6020.9256347803
 20
5045.6565783576
 30
0.0
 40
12.36642008516653
100
AcDbArc
 50
100.660155919
 51
145.6402757804
  0
CIRCLE
  5
520
330
1F
100
AcDbEntity
  8
0
  6
Continuous
 62
     7
370
    25
100
AcDbCircle
 10
6020.9225690907
 20
5045.6612721186
 30
0.0
 40
11.72050000000036
  0
CIRCLE
  5
521
330
1F
100
AcDbEntity
  8
0
  6
Continuous
 62
     7
370
    25
100
AcDbCircle
 10
6020.9225690907
 20
5045.6612721186
 30
0.0
 40
9.74999999999909
  0
ARC
  5
522
330
1F
100
AcDbEntity
  8
0
  6
Continuous
 62
     7
370
    25
100
AcDbCircle
 10
6020.9759373416
 20
5045.650415986
 30
0.0
 40
13.20621336420837
100
AcDbArc
 50
171.965562716
 51
63.4076226953
  0
LINE
  5
523
330
1F
100
AcDbEntity
  8
0
  6
Continuous
 62
     7
370
    25
100
AcDbLine
 10
6034.4225690907
 20
5037.8670434845
 30
0.0
 11
6034.4225690907
 21
5053.4555007526
 31
0.0
  0
LINE
  5
524
330
1F
100
AcDbEntity
  8
0
  6
Continuous
 62
     7
370
    25
100
AcDbLine
 10
6020.9225690907
 20
5030.0728148504
 30
0.0
 11
6034.4225690907
 21
5037.8670434845
 31
0.0
  0
LINE
  5
525
330
1F
100
AcDbEntity
  8
0
  6
Continuous
 62
     7
370
    25
100
AcDbLine
 10
6007.4225690907
 20
5037.8670434845
 30
0.0
 11
6020.9225690907
 21
5030.0728148504
 31
0.0
  0
LINE
  5
526
330
1F
100
AcDbEntity
  8
0
  6
Continuous
 62
     7
370
    25
100
AcDbLine
 10
6007.4225690907
 20
5053.4555007526
 30
0.0
 11
6007.4225690907
 21
5037.8670434845
 31
0.0
  0
LINE
  5
527
330
1F
100
AcDbEntity
  8
0
  6
Continuous
 62
     7
370
    25
100
AcDbLine
 10
6034.4225690907
 20
5053.4555007526
 30
0.0
 11
6020.9225690907
 21
5061.2497293867
 31
0.0
  0
LINE
  5
528
330
1F
100
AcDbEntity
  8
0
  6
Continuous
 62
     7
370
    25
100
AcDbLine
 10
6020.9225690907
 20
5061.2497293867
 30
0.0
 11
6007.4225690907
 21
5053.4555007526
 31
0.0
  0
LINE
  5
529
330
1F
100
AcDbEntity
  8
0
  6
Continuous
 62
     7
370
    25
100
AcDbLine
 10
5940.7225690907
 20
5025.8056913135
 30
0.0
 11
5940.7225690907
 21
5024.8612721186
 31
0.0
  0
LINE
  5
52A
330
1F
100
AcDbEntity
  8
0
  6
Continuous
 62
     7
370
    25
100
AcDbLine
 10
5940.7225690907
 20
5036.4612721186
 30
0.0
 11
5940.7225690907
 21
5025.8056913135
 31
0.0
  0
LINE
  5
52B
330
1F
100
AcDbEntity
  8
0
  6
Continuous
 62
     7
370
    25
100
AcDbLine
 10
5945.2610467217
 20
5030.9688163392
 30
0.0
 11
5943.4225690907
 21
5030.9688163392
 31
0.0
  0
LINE
  5
52C
330
1F
100
AcDbEntity
  8
0
  6
Continuous
 62
     7
370
    25
100
AcDbLine
 10
5945.2610467217
 20
5030.3537278979
 30
0.0
 11
5943.4225690907
 21
5030.3537278979
 31
0.0
  0
LINE
  5
52D
330
1F
100
AcDbEntity
  8
0
  6
Continuous
 62
     7
370
    25
100
AcDbLine
 10
5943.4225690907
 20
5035.1255917926
 30
0.0
 11
5944.2725690907
 21
5035.1255917926
 31
0.0
  0
LINE
  5
52E
330
1F
100
AcDbEntity
  8
0
  6
Continuous
 62
     7
370
    25
100
AcDbLine
 10
5945.2610467217
 20
5031.0522341519
 30
0.0
 11
5943.4225690907
 21
5031.0522341519
 31
0.0
  0
LINE
  5
52F
330
1F
100
AcDbEntity
  8
0
  6
Continuous
 62
     7
370
    25
100
AcDbLine
 10
5943.4225690907
 20
5031.6531516378
 30
0.0
 11
5945.0225690907
 21
5031.6531516378
 31
0.0
  0
LINE
  5
530
330
1F
100
AcDbEntity
  8
0
  6
Continuous
 62
     7
370
    25
100
AcDbLine
 10
5945.0225690907
 20
5031.6531516378
 30
0.0
 11
5945.0225690907
 21
5031.9454212119
 31
0.0
  0
LINE
  5
531
330
1F
100
AcDbEntity
  8
0
  6
Continuous
 62
     7
370
    25
100
AcDbLine
 10
5945.0225690907
 20
5031.9454212119
 30
0.0
 11
5945.2610467217
 21
5031.9454212119
 31
0.0
  0
LINE
  5
532
330
1F
100
AcDbEntity
  8
0
  6
Continuous
 62
     7
370
    25
100
AcDbLine
 10
5945.2610467217
 20
5033.1492098529
 30
0.0
 11
5945.0225690907
 21
5033.1492098529
 31
0.0
  0
LINE
  5
533
330
1F
100
AcDbEntity
  8
0
  6
Continuous
 62
     7
370
    25
100
AcDbLine
 10
5945.0225690907
 20
5031.9454212119
 30
0.0
 11
5945.0225690907
 21
5033.1492098529
 31
0.0
  0
LINE
  5
534
330
1F
100
AcDbEntity
  8
0
  6
Continuous
 62
     7
370
    25
100
AcDbLine
 10
5945.2610467217
 20
5033.3265976244
 30
0.0
 11
5943.4225690907
 21
5033.3265976244
 31
0.0
  0
LINE
  5
535
330
1F
100
AcDbEntity
  8
0
  6
Continuous
 62
     7
370
    25
100
AcDbLine
 10
5945.0225690907
 20
5032.8739299611
 30
0.0
 11
5943.4225690907
 21
5032.8739299611
 31
0.0
  0
LINE
  5
536
330
1F
100
AcDbEntity
  8
0
  6
Continuous
 62
     7
370
    25
100
AcDbLine
 10
5943.4225690907
 20
5033.8785328863
 30
0.0
 11
5944.2725690907
 21
5033.8785328863
 31
0.0
  0
LINE
  5
537
330
1F
100
AcDbEntity
  8
0
  6
Continuous
 62
     7
370
    25
100
AcDbLine
 10
5944.2725690907
 20
5033.8785328863
 30
0.0
 11
5944.2725690907
 21
5034.3188297997
 31
0.0
  0
LINE
  5
538
330
1F
100
AcDbEntity
  8
0
  6
Continuous
 62
     7
370
    25
100
AcDbLine
 10
5944.2725690907
 20
5034.3188297997
 30
0.0
 11
5945.2610467217
 21
5034.3188297997
 31
0.0
  0
LINE
  5
539
330
1F
100
AcDbEntity
  8
0
  6
Continuous
 62
     7
370
    25
100
AcDbLine
 10
5945.2610467217
 20
5035.2166113183
 30
0.0
 11
5944.2725690907
 21
5035.2166113183
 31
0.0
  0
LINE
  5
53A
330
1F
100
AcDbEntity
  8
0
  6
Continuous
 62
     7
370
    25
100
AcDbLine
 10
5944.2725690907
 20
5035.2166113183
 30
0.0
 11
5944.2725690907
 21
5034.3188297997
 31
0.0
  0
LINE
  5
53B
330
1F
100
AcDbEntity
  8
0
  6
Continuous
 62
     7
370
    25
100
AcDbLine
 10
5944.2725690907
 20
5034.7506773238
 30
0.0
 11
5943.4225690907
 21
5034.7506773238
 31
0.0
  0
CIRCLE
  5
53C
330
1F
100
AcDbEntity
  8
0
  6
Continuous
 62
     7
370
    25
100
AcDbCircle
 10
6020.9225690907
 20
5045.6612721186
 30
0.0
 40
4.000000000001169
  0
CIRCLE
  5
53D
330
1F
100
AcDbEntity
  8
0
  6
Continuous
 62
     7
370
    25
100
AcDbCircle
 10
6020.9225690907
 20
5045.6612721186
 30
0.0
 40
3.649999999999927
  0
CIRCLE
  5
53E
330
1F
100
AcDbEntity
  8
0
  6
Continuous
 62
     7
370
    25
100
AcDbCircle
 10
6020.9225690907
 20
5045.6612721186
 30
0.0
 40
9.300000000000182
  0
CIRCLE
  5
53F
330
1F
100
AcDbEntity
  8
0
  6
Continuous
 62
     7
370
    25
100
AcDbCircle
 10
6020.9225690907
 20
5045.6612721186
 30
0.0
 40
7.5
  0
LINE
  5
540
330
1F
100
AcDbEntity
  8
0
  6
Continuous
 62
     7
370
    25
100
AcDbLine
 10
6024.3866707058
 20
5039.6612721186
 30
0.0
 11
6027.850772321
 21
5045.6612721186
 31
0.0
  0
LINE
  5
541
330
1F
100
AcDbEntity
  8
0
  6
Continuous
 62
     7
370
    25
100
AcDbLine
 10
6027.850772321
 20
5045.6612721186
 30
0.0
 11
6024.3866707058
 21
5051.6612721186
 31
0.0
  0
LINE
  5
542
330
1F
100
AcDbEntity
  8
0
  6
Continuous
 62
     7
370
    25
100
AcDbLine
 10
6024.3866707058
 20
5051.6612721186
 30
0.0
 11
6017.4584674756
 21
5051.6612721186
 31
0.0
  0
LINE
  5
543
330
1F
100
AcDbEntity
  8
0
  6
Continuous
 62
     7
370
    25
100
AcDbLine
 10
6017.4584674756
 20
5051.6612721186
 30
0.0
 11
6013.9943658604
 21
5045.6612721186
 31
0.0
  0
LINE
  5
544
330
1F
100
AcDbEntity
  8
0
  6
Continuous
 62
     7
370
    25
100
AcDbLine
 10
6013.9943658604
 20
5045.6612721186
 30
0.0
 11
6017.4584674756
 21
5039.6612721186
 31
0.0
  0
LINE
  5
545
330
1F
100
AcDbEntity
  8
0
  6
Continuous
 62
     7
370
    25
100
AcDbLine
 10
6017.4584674756
 20
5039.6612721186
 30
0.0
 11
6024.3866707058
 21
5039.6612721186
 31
0.0
  0
LINE
  5
546
330
1F
100
AcDbEntity
  8
0
  6
Continuous
 62
     7
370
    25
100
AcDbLine
 10
6140.6225690907
 20
5060.6612721186
 30
0.0
 11
6140.6225690907
 21
5059.6612721186
 31
0.0
  0
ELLIPSE
  5
547
330
1F
100
AcDbEntity
  8
0
  6
Continuous
 62
     7
370
    25
100
AcDbEllipse
 10
6140.6225690907
 20
5058.8612721186
 30
0.0
 11
1.038477631083879
 21
0.0
 31
0.0
210
0.0
220
0.0
230
1.0
 40
0.7703584324
 41
1.570796326751983
 42
3.141592653589793
  0
LWPOLYLINE
  5
548
330
1F
100
AcDbEntity
  8
0
  6
Continuous
 62
     7
370
    25
100
AcDbPolyline
 90
       10
 70
   128
 43
0.0
 10
6140.6225690907
 20
5060.6612721186
 10
6140.4422393425
 20
5060.633926074
 10
6140.2673888225
 20
5060.552718836
 10
6140.1033302752
 20
5060.4201178454
 10
6139.9550485365
 20
5060.2401521162
 10
6139.8270490721
 20
5060.018289816
 10
6139.7232210809
 20
5059.7612721186
 10
6139.6467193239
 20
5059.4769083766
 10
6139.5998682683
 20
5059.1738388384
 10
6139.5840914596
 20
5058.8612721186
  0
ELLIPSE
  5
549
330
1F
100
AcDbEntity
  8
0
  6
Continuous
 62
     7
370
    25
100
AcDbEllipse
 10
5944.2225690907
 20
5058.8612721186
 30
0.0
 11
0.0
 21
1.800000000000182
 31
0.0
210
0.0
220
0.0
230
1.0
 40
0.5769320173
 41
4.712388980384192
 42
6.283185307179586
  0
LINE
  5
54A
330
1F
100
AcDbEntity
  8
0
  6
Continuous
 62
     7
370
    25
100
AcDbLine
 10
5944.2225690907
 20
5060.6612721186
 30
0.0
 11
6019.9033312043
 21
5060.6612721186
 31
0.0
  0
LINE
  5
54B
330
1F
100
AcDbEntity
  8
0
  6
Continuous
 62
     7
370
    25
100
AcDbLine
 10
6021.9418069771
 20
5060.6612721186
 30
0.0
 11
6140.6225690907
 21
5060.6612721186
 31
0.0
  0
LINE
  5
54C
330
1F
100
AcDbEntity
  8
0
  6
Continuous
 62
     7
370
    25
100
AcDbLine
 10
6139.5840914596
 20
5058.8612721186
 30
0.0
 11
6139.5840914596
 21
4989.6612721186
 31
0.0
  0
LINE
  5
54D
330
1F
100
AcDbEntity
  8
0
  6
Continuous
 62
     7
370
    25
100
AcDbLine
 10
6139.5840914596
 20
4974.6612721186
 30
0.0
 11
6139.5840914596
 21
4989.6612721186
 31
0.0
  0
LINE
  5
54E
330
1F
100
AcDbEntity
  8
0
  6
Continuous
 62
     7
370
    25
100
AcDbLine
 10
5945.2610467218
 20
4974.6612721186
 30
0.0
 11
6139.5840914596
 21
4974.6612721186
 31
0.0
  0
LINE
  5
54F
330
1F
100
AcDbEntity
  8
0
  6
Continuous
 62
     7
370
    25
100
AcDbLine
 10
5945.2610467218
 20
4974.6612721186
 30
0.0
 11
5945.2610467217
 21
4989.6612721186
 31
0.0
  0
LINE
  5
550
330
1F
100
AcDbEntity
  8
0
  6
Continuous
 62
     7
370
    25
100
AcDbLine
 10
5945.2610467217
 20
4989.6612721186
 30
0.0
 11
5945.2610467217
 21
5058.8612721186
 31
0.0
  0
CIRCLE
  5
551
330
1F
100
AcDbEntity
  8
0
  6
Continuous
 62
     7
370
    25
100
AcDbCircle
 10
6106.9225690907
 20
5045.6612721186
 30
0.0
 40
10.75
  0
CIRCLE
  5
552
330
1F
100
AcDbEntity
  8
0
  6
Continuous
 62
     7
370
    25
100
AcDbCircle
 10
6063.9225690907
 20
5045.6612721186
 30
0.0
 40
10.75
  0
CIRCLE
  5
553
330
1F
100
AcDbEntity
  8
0
  6
Continuous
 62
     7
370
    25
100
AcDbCircle
 10
5977.9225690907
 20
5045.6612721186
 30
0.0
 40
10.75
  0
ELLIPSE
  5
554
330
1F
100
AcDbEntity
  8
0
  6
Continuous
 62
     7
370
    25
100
AcDbEllipse
 10
5944.2225690907
 20
5058.8612721186
 30
0.0
 11
1.038477631070236
 21
0.0
 31
0.0
210
0.0
220
0.0
230
1.0
 40
0.7703584324
 41
0.0
 42
1.570796326794897
  0
LINE
  5
555
330
1F
100
AcDbEntity
  8
0
  6
Continuous
 62
     7
370
    25
100
AcDbLine
 10
5944.2225690907
 20
5060.6612721186
 30
0.0
 11
5944.2225690907
 21
5059.6612721186
 31
0.0
  0
LINE
  5
556
330
1F
100
AcDbEntity
  8
0
  6
Continuous
 62
     7
370
    25
100
AcDbLine
 10
5945.2610467218
 20
4974.6612721186
 30
0.0
 11
5943.4610467218
 21
4974.6612721186
 31
0.0
  0
LINE
  5
557
330
1F
100
AcDbEntity
  8
0
  6
Continuous
 62
     7
370
    25
100
AcDbLine
 10
5943.4610467218
 20
4974.6612721186
 30
0.0
 11
5943.4610467218
 21
4989.6612721186
 31
0.0
  0
LINE
  5
558
330
1F
100
AcDbEntity
  8
0
  6
Continuous
 62
     7
370
    25
100
AcDbLine
 10
5943.4610467218
 20
4989.6612721186
 30
0.0
 11
5945.2610467217
 21
4989.6612721186
 31
0.0
  0
LINE
  5
559
330
1F
100
AcDbEntity
  8
0
  6
Continuous
 62
     7
370
    25
100
AcDbLine
 10
6139.5840914596
 20
4989.6612721186
 30
0.0
 11
6141.3840914596
 21
4989.6612721186
 31
0.0
  0
LINE
  5
55A
330
1F
100
AcDbEntity
  8
0
  6
Continuous
 62
     7
370
    25
100
AcDbLine
 10
6141.3840914596
 20
4989.6612721186
 30
0.0
 11
6141.3840914596
 21
4974.6612721186
 31
0.0
  0
LINE
  5
55B
330
1F
100
AcDbEntity
  8
0
  6
Continuous
 62
     7
370
    25
100
AcDbLine
 10
6141.3840914596
 20
4974.6612721186
 30
0.0
 11
6139.5840914596
 21
4974.6612721186
 31
0.0
  0
LINE
  5
55C
330
1F
100
AcDbEntity
  8
0
  6
Continuous
 62
     7
370
    25
100
AcDbLine
 10
5942.4225690907
 20
5058.8612721186
 30
0.0
 11
5943.4225690907
 21
5058.8612721186
 31
0.0
  0
ARC
  5
55D
330
1F
100
AcDbEntity
  8
0
  6
Continuous
 62
     7
370
    25
100
AcDbCircle
 10
5944.2225690907
 20
5058.8612721186
 30
0.0
 40
1.800000000000182
100
AcDbArc
 50
90.0
 51
180.0
  0
ARC
  5
55E
330
1F
100
AcDbEntity
  8
0
  6
Continuous
 62
     7
370
    25
100
AcDbCircle
 10
5944.2225690907
 20
5058.8612721186
 30
0.0
 40
0.8000000000001819
100
AcDbArc
 50
90.0000000008
 51
180.0
  0
ARC
  5
55F
330
1F
100
AcDbEntity
  8
0
  6
Continuous
 62
     7
370
    25
100
AcDbCircle
 10
6140.6225690907
 20
5058.8612721186
 30
0.0
 40
0.8000000000001819
100
AcDbArc
 50
0.0
 51
90.0
  0
ARC
  5
560
330
1F
100
AcDbEntity
  8
0
  6
Continuous
 62
     7
370
    25
100
AcDbCircle
 10
6140.6225690907
 20
5058.8612721186
 30
0.0
 40
1.800000000000182
100
AcDbArc
 50
360.0
 51
90.0000000008
  0
LINE
  5
561
330
1F
100
AcDbEntity
  8
0
  6
Continuous
 62
     7
370
    25
100
AcDbLine
 10
6142.4225690907
 20
5058.8612721186
 30
0.0
 11
6141.4225690907
 21
5058.8612721186
 31
0.0
  0
LINE
  5
562
330
1F
100
AcDbEntity
  8
0
  6
Continuous
 62
     7
370
    25
100
AcDbLine
 10
5943.4225690907
 20
5058.8612721186
 30
0.0
 11
5943.4225690907
 21
4974.6612721186
 31
0.0
  0
LINE
  5
563
330
1F
100
AcDbEntity
  8
0
  6
Continuous
 62
     7
370
    25
100
AcDbLine
 10
5942.4225690907
 20
4974.6612721186
 30
0.0
 11
5943.4225690907
 21
4974.6612721186
 31
0.0
  0
LINE
  5
564
330
1F
100
AcDbEntity
  8
0
  6
Continuous
 62
     7
370
    25
100
AcDbLine
 10
5942.4225690907
 20
5058.8612721186
 30
0.0
 11
5942.4225690907
 21
4974.6612721186
 31
0.0
  0
LINE
  5
565
330
1F
100
AcDbEntity
  8
0
  6
Continuous
 62
     7
370
    25
100
AcDbLine
 10
6142.4225690907
 20
4974.6612721186
 30
0.0
 11
6142.4225690907
 21
5058.8612721186
 31
0.0
  0
LINE
  5
566
330
1F
100
AcDbEntity
  8
0
  6
Continuous
 62
     7
370
    25
100
AcDbLine
 10
6142.4225690907
 20
4974.6612721186
 30
0.0
 11
6141.4225690907
 21
4974.6612721186
 31
0.0
  0
LINE
  5
567
330
1F
100
AcDbEntity
  8
0
  6
Continuous
 62
     7
370
    25
100
AcDbLine
 10
6141.4225690907
 20
4974.6612721186
 30
0.0
 11
6141.4225690907
 21
5058.8612721186
 31
0.0
  0
CIRCLE
  5
568
330
1F
100
AcDbEntity
  8
0
  6
Continuous
 62
     7
370
    25
100
AcDbCircle
 10
6106.9225690907
 20
5045.6612721185
 30
0.0
 40
8.5
  0
CIRCLE
  5
569
330
1F
100
AcDbEntity
  8
0
  6
Continuous
 62
     7
370
    25
100
AcDbCircle
 10
6063.9225690907
 20
5045.6612721185
 30
0.0
 40
8.5
  0
CIRCLE
  5
56A
330
1F
100
AcDbEntity
  8
0
  6
Continuous
 62
     7
370
    25
100
AcDbCircle
 10
5977.9225690907
 20
5045.6612721185
 30
0.0
 40
8.5
  0
LINE
  5
56B
330
1F
100
AcDbEntity
  8
0
  6
Continuous
 62
     7
370
    25
100
AcDbLine
 10
6156.9372877164
 20
4970.6612721186
 30
0.0
 11
6156.9372877164
 21
4971.6612721186
 31
0.0
  0
LINE
  5
56C
330
1F
100
AcDbEntity
  8
0
  6
Continuous
 62
     7
370
    25
100
AcDbLine
 10
5927.907850465
 20
4971.6612721186
 30
0.0
 11
5927.907850465
 21
4970.6612721186
 31
0.0
  0
LINE
  5
56D
330
1F
100
AcDbEntity
  8
0
  6
Continuous
 62
     7
370
    25
100
AcDbLine
 10
6156.9372877164
 20
4970.6612721186
 30
0.0
 11
5927.907850465
 21
4970.6612721186
 31
0.0
  0
LINE
  5
56E
330
1F
100
AcDbEntity
  8
0
  6
Continuous
 62
     7
370
    25
100
AcDbLine
 10
6156.9372877164
 20
4971.6612721186
 30
0.0
 11
5927.907850465
 21
4971.6612721186
 31
0.0
  0
LINE
  5
56F
330
1F
100
AcDbEntity
  8
0
  6
Continuous
 62
     7
370
    25
100
AcDbLine
 10
6161.9372877164
 20
4970.6612721186
 30
0.0
 11
6156.9372877164
 21
4970.6612721186
 31
0.0
  0
LINE
  5
570
330
1F
100
AcDbEntity
  8
0
  6
Continuous
 62
     7
370
    25
100
AcDbLine
 10
6156.9372877164
 20
4971.6612721186
 30
0.0
 11
6161.9372877164
 21
4971.6612721186
 31
0.0
  0
LINE
  5
571
330
1F
100
AcDbEntity
  8
0
  6
Continuous
 62
     7
370
    25
100
AcDbLine
 10
5927.907850465
 20
4970.6612721186
 30
0.0
 11
5922.907850465
 21
4970.6612721186
 31
0.0
  0
LINE
  5
572
330
1F
100
AcDbEntity
  8
0
  6
Continuous
 62
     7
370
    25
100
AcDbLine
 10
5922.907850465
 20
4971.6612721186
 30
0.0
 11
5927.907850465
 21
4971.6612721186
 31
0.0
  0
LINE
  5
573
330
1F
100
AcDbEntity
  8
0
  6
Continuous
 62
     7
370
    25
100
AcDbLine
 10
6161.8870351848
 20
4971.6612721186
 30
0.0
 11
6170.4225690907
 21
4971.6612721186
 31
0.0
  0
LINE
  5
574
330
1F
100
AcDbEntity
  8
0
  6
Continuous
 62
     7
370
    25
100
AcDbLine
 10
6170.4225690907
 20
4971.6612721186
 30
0.0
 11
6170.4225690907
 21
4970.6612721186
 31
0.0
  0
LINE
  5
575
330
1F
100
AcDbEntity
  8
0
  6
Continuous
 62
     7
370
    25
100
AcDbLine
 10
6170.4225690907
 20
4970.6612721186
 30
0.0
 11
6161.8870351848
 21
4970.6612721186
 31
0.0
  0
LINE
  5
576
330
1F
100
AcDbEntity
  8
0
  6
Continuous
 62
     7
370
    25
100
AcDbLine
 10
5914.4225690907
 20
4970.6612721186
 30
0.0
 11
5914.4225690907
 21
4971.6612721186
 31
0.0
  0
LINE
  5
577
330
1F
100
AcDbEntity
  8
0
  6
Continuous
 62
     7
370
    25
100
AcDbLine
 10
5914.4225690907
 20
4971.6612721186
 30
0.0
 11
5922.9581029966
 21
4971.6612721186
 31
0.0
  0
LINE
  5
578
330
1F
100
AcDbEntity
  8
0
  6
Continuous
 62
     7
370
    25
100
AcDbLine
 10
5922.9581029966
 20
4970.6612721186
 30
0.0
 11
5914.4225690907
 21
4970.6612721186
 31
0.0
  0
ELLIPSE
  5
579
330
1F
100
AcDbEntity
  8
0
  6
Continuous
 62
     7
370
    25
100
AcDbEllipse
 10
6130.8083555283
 20
4972.4612721186
 30
0.0
 11
1.800000000000182
 21
0.0
 31
0.0
210
0.0
220
0.0
230
1.0
 40
0.4444444444
 41
3.141592653589793
 42
4.712388980372064
  0
LINE
  5
57A
330
1F
100
AcDbEntity
  8
0
  6
Continuous
 62
     7
370
    25
100
AcDbLine
 10
6129.0083555283
 20
4972.4612721186
 30
0.0
 11
5955.8367826531
 21
4972.4612721186
 31
0.0
  0
ELLIPSE
  5
57B
330
1F
100
AcDbEntity
  8
0
  6
Continuous
 62
     7
370
    25
100
AcDbEllipse
 10
5954.0367826531
 20
4972.4612721186
 30
0.0
 11
1.800000000000182
 21
0.0
 31
0.0
210
0.0
220
0.0
230
1.0
 40
0.4444444444
 41
4.712388980397328
 42
6.283185307179586
  0
LINE
  5
57C
330
1F
100
AcDbEntity
  8
0
  6
Continuous
 62
     7
370
    25
100
AcDbLine
 10
6129.0083555283
 20
4972.4612721186
 30
0.0
 11
6129.0083555283
 21
4974.6612721186
 31
0.0
  0
LINE
  5
57D
330
1F
100
AcDbEntity
  8
0
  6
Continuous
 62
     7
370
    25
100
AcDbLine
 10
5955.8367826531
 20
4974.6612721186
 30
0.0
 11
5955.8367826531
 21
4972.4612721186
 31
0.0
  0
LINE
  5
57E
330
1F
100
AcDbEntity
  8
0
  6
Continuous
 62
     7
370
    25
100
AcDbLine
 10
6130.4225690907
 20
4972.4612721186
 30
0.0
 11
6131.4225690907
 21
4972.4612721186
 31
0.0
  0
ARC
  5
57F
330
1F
100
AcDbEntity
  8
0
  6
Continuous
 62
     7
370
    25
100
AcDbCircle
 10
6132.2225690907
 20
4972.4612721186
 30
0.0
 40
0.8000000000001819
100
AcDbArc
 50
180.0
 51
270.0
  0
ARC
  5
580
330
1F
100
AcDbEntity
  8
0
  6
Continuous
 62
     7
370
    25
100
AcDbCircle
 10
6132.2225690907
 20
4972.4612721186
 30
0.0
 40
1.800000000000376
100
AcDbArc
 50
180.0
 51
206.210673064
  0
LINE
  5
581
330
1F
100
AcDbEntity
  8
0
  6
Continuous
 62
     7
370
    25
100
AcDbLine
 10
5954.4225690907
 20
4972.4612721186
 30
0.0
 11
5953.4225690907
 21
4972.4612721186
 31
0.0
  0
ARC
  5
582
330
1F
100
AcDbEntity
  8
0
  6
Continuous
 62
     7
370
    25
100
AcDbCircle
 10
5952.6225690907
 20
4972.4612721186
 30
0.0
 40
1.800000000000182
100
AcDbArc
 50
333.7893269361
 51
0.0
  0
ARC
  5
583
330
1F
100
AcDbEntity
  8
0
  6
Continuous
 62
     7
370
    25
100
AcDbCircle
 10
5952.6225690907
 20
4972.4612721186
 30
0.0
 40
0.7999999999992724
100
AcDbArc
 50
270.0
 51
0.0
  0
LINE
  5
584
330
1F
100
AcDbEntity
  8
0
  6
Continuous
 62
     7
370
    25
100
AcDbLine
 10
6130.4225690907
 20
4974.6612721186
 30
0.0
 11
6130.4225690907
 21
4972.4612721186
 31
0.0
  0
LINE
  5
585
330
1F
100
AcDbEntity
  8
0
  6
Continuous
 62
     7
370
    25
100
AcDbLine
 10
6131.4225690907
 20
4974.6612721186
 30
0.0
 11
6131.4225690907
 21
4972.4612721186
 31
0.0
  0
LINE
  5
586
330
1F
100
AcDbEntity
  8
0
  6
Continuous
 62
     7
370
    25
100
AcDbLine
 10
5954.4225690907
 20
4972.4612721186
 30
0.0
 11
5954.4225690907
 21
4974.6612721186
 31
0.0
  0
LINE
  5
587
330
1F
100
AcDbEntity
  8
0
  6
Continuous
 62
     7
370
    25
100
AcDbLine
 10
5953.4225690907
 20
4972.4612721186
 30
0.0
 11
5953.4225690907
 21
4974.6612721186
 31
0.0
  0
LINE
  5
588
330
1F
100
AcDbEntity
  8
0
  6
Continuous
 62
     7
370
    25
100
AcDbLine
 10
5957.4225690907
 20
4961.1612721186
 30
0.0
 11
5957.4882545156
 21
4961.1612721186
 31
0.0
  0
LINE
  5
589
330
1F
100
AcDbEntity
  8
0
  6
Continuous
 62
     7
370
    25
100
AcDbLine
 10
6127.3568836657
 20
4961.1612721186
 30
0.0
 11
6127.4225690907
 21
4961.1612721186
 31
0.0
  0
LINE
  5
58A
330
1F
100
AcDbEntity
  8
0
  6
Continuous
 62
     7
370
    25
100
AcDbLine
 10
5957.4225690907
 20
4961.1612721186
 30
0.0
 11
5957.4225690907
 21
4964.1612721186
 31
0.0
  0
LINE
  5
58B
330
1F
100
AcDbEntity
  8
0
  6
Continuous
 62
     7
370
    25
100
AcDbLine
 10
6127.4225690907
 20
4964.1612721186
 30
0.0
 11
6127.3568836657
 21
4964.1612721186
 31
0.0
  0
LINE
  5
58C
330
1F
100
AcDbEntity
  8
0
  6
Continuous
 62
     7
370
    25
100
AcDbLine
 10
5957.4882545156
 20
4964.1612721186
 30
0.0
 11
5957.4225690907
 21
4964.1612721186
 31
0.0
  0
LINE
  5
58D
330
1F
100
AcDbEntity
  8
0
  6
Continuous
 62
     7
370
    25
100
AcDbLine
 10
6127.4225690907
 20
4961.1612721186
 30
0.0
 11
6127.4225690907
 21
4964.1612721186
 31
0.0
  0
LINE
  5
58E
330
1F
100
AcDbEntity
  8
0
  6
Continuous
 62
     7
370
    25
100
AcDbLine
 10
5957.4225690907
 20
4964.1612721186
 30
0.0
 11
5957.4882545156
 21
4964.2269575435
 31
0.0
  0
LINE
  5
58F
330
1F
100
AcDbEntity
  8
0
  6
Continuous
 62
     7
370
    25
100
AcDbLine
 10
6127.3568836657
 20
4964.2269575435
 30
0.0
 11
6127.4225690907
 21
4964.1612721186
 31
0.0
  0
LINE
  5
590
330
1F
100
AcDbEntity
  8
0
  6
Continuous
 62
     7
370
    25
100
AcDbLine
 10
5957.4225690907
 20
4961.1612721186
 30
0.0
 11
5957.4882545156
 21
4961.0955866936
 31
0.0
  0
LINE
  5
591
330
1F
100
AcDbEntity
  8
0
  6
Continuous
 62
     7
370
    25
100
AcDbLine
 10
6127.3568836657
 20
4961.0955866936
 30
0.0
 11
6127.4225690907
 21
4961.1612721186
 31
0.0
  0
LINE
  5
592
330
1F
100
AcDbEntity
  8
0
  6
Continuous
 62
     7
370
    25
100
AcDbLine
 10
6049.9225690907
 20
4960.5612721186
 30
0.0
 11
6049.9225690907
 21
4960.6612721186
 31
0.0
  0
LINE
  5
593
330
1F
100
AcDbEntity
  8
0
  6
Continuous
 62
     7
370
    25
100
AcDbLine
 10
6049.9225690907
 20
4960.5612721186
 30
0.0
 11
6034.9225690907
 21
4960.5612721186
 31
0.0
  0
LINE
  5
594
330
1F
100
AcDbEntity
  8
0
  6
Continuous
 62
     7
370
    25
100
AcDbLine
 10
6034.9225690907
 20
4960.5612721186
 30
0.0
 11
6034.9225690907
 21
4960.6612721186
 31
0.0
  0
LINE
  5
595
330
1F
100
AcDbEntity
  8
0
  6
Continuous
 62
     7
370
    25
100
AcDbLine
 10
6058.4225690907
 20
4960.5612721186
 30
0.0
 11
6058.4225690907
 21
4960.6612721186
 31
0.0
  0
LINE
  5
596
330
1F
100
AcDbEntity
  8
0
  6
Continuous
 62
     7
370
    25
100
AcDbLine
 10
6058.4225690907
 20
4960.5612721186
 30
0.0
 11
6049.9225690907
 21
4960.5612721186
 31
0.0
  0
LINE
  5
597
330
1F
100
AcDbEntity
  8
0
  6
Continuous
 62
     7
370
    25
100
AcDbLine
 10
6026.4225690907
 20
4960.5612721186
 30
0.0
 11
6026.4225690907
 21
4960.6612721186
 31
0.0
  0
LINE
  5
598
330
1F
100
AcDbEntity
  8
0
  6
Continuous
 62
     7
370
    25
100
AcDbLine
 10
6034.9225690907
 20
4960.5612721186
 30
0.0
 11
6026.4225690907
 21
4960.5612721186
 31
0.0
  0
LINE
  5
599
330
1F
100
AcDbEntity
  8
0
  6
Continuous
 62
     8
370
    25
100
AcDbLine
 10
5941.5225690907
 20
5025.13595603
 30
0.0
 11
5941.5225690907
 21
5024.0612721186
 31
0.0
  0
LINE
  5
59A
330
1F
100
AcDbEntity
  8
0
  6
Continuous
 62
     8
370
    25
100
AcDbLine
 10
5941.5225690907
 20
5037.2612721186
 30
0.0
 11
5941.5225690907
 21
5025.13595603
 31
0.0
  0
LINE
  5
59B
330
1F
100
AcDbEntity
  8
0
  6
Continuous
 62
     8
370
    25
100
AcDbLine
 10
5945.2610467217
 20
5058.8612721186
 30
0.0
 11
6012.9551353759
 21
5058.8612721186
 31
0.0
  0
LINE
  5
59C
330
1F
100
AcDbEntity
  8
0
  6
Continuous
 62
     8
370
    25
100
AcDbLine
 10
6028.8900028055
 20
5058.8612721186
 30
0.0
 11
6139.5840914596
 21
5058.8612721186
 31
0.0
  0
ENDSEC
  0
SECTION
  2
OBJECTS
  0
DICTIONARY
  5
C
330
0
100
AcDbDictionary
281
     1
  3
ACAD_GROUP
350
D
  3
ACAD_LAYOUT
350
1A
  3
ACAD_MLINESTYLE
350
17
  3
ACAD_PLOTSETTINGS
350
19
  3
ACAD_PLOTSTYLENAME
350
E
  3
ACAD_SCALELIST
350
47
  3
DWGPROPS
350
59D
  0
DICTIONARY
  5
D
102
{ACAD_REACTORS
330
C
102
}
330
C
100
AcDbDictionary
281
     1
  0
DICTIONARY
  5
1A
102
{ACAD_REACTORS
330
C
102
}
330
C
100
AcDbDictionary
281
     1
  3
Layout1
350
1E
  3
Layout2
350
26
  3
Model
350
22
  0
DICTIONARY
  5
17
102
{ACAD_REACTORS
330
C
102
}
330
C
100
AcDbDictionary
281
     1
  3
Standard
350
18
  0
DICTIONARY
  5
19
102
{ACAD_REACTORS
330
C
102
}
330
C
100
AcDbDictionary
281
     1
  0
ACDBDICTIONARYWDFLT
  5
E
102
{ACAD_REACTORS
330
C
102
}
330
C
100
AcDbDictionary
281
     1
  3
Normal
350
F
100
AcDbDictionaryWithDefault
340
F
  0
DICTIONARY
  5
47
102
{ACAD_REACTORS
330
C
102
}
330
C
100
AcDbDictionary
281
     1
  3
A0
350
48
  3
A1
350
49
  3
A2
350
4A
  3
A3
350
4B
  3
A4
350
4C
  3
A5
350
4D
  3
A6
350
4E
  3
A7
350
4F
  3
A8
350
50
  3
A9
350
51
  3
B0
350
52
  3
B1
350
53
  3
B2
350
54
  3
B3
350
55
  3
B4
350
56
  3
B5
350
57
  3
B6
350
58
  3
B7
350
59
  3
B8
350
5A
  3
B9
350
5B
  3
C0
350
5C
  3
C1
350
5D
  3
C2
350
5E
  3
C3
350
5F
  3
C4
350
60
  3
C5
350
61
  3
C6
350
62
  3
C7
350
63
  3
C8
350
64
  3
C9
350
65
  3
D0
350
66
  3
D1
350
67
  3
D2
350
68
  0
XRECORD
  5
59D
102
{ACAD_REACTORS
330
C
102
}
330
C
100
AcDbXrecord
280
     1
  1
DWGPROPS COOKIE
  2

  3

  4

  6

  7

  8
radek.stransky
  9

300
=
301
=
302
=
303
=
304
=
305
=
306
=
307
=
308
=
309
=
 40
0.0
 41
2459129.48387353
 42
2459129.483873993
  1

 90
        0
  0
LAYOUT
  5
1E
102
{ACAD_REACTORS
330
1A
102
}
330
1A
100
AcDbPlotSettings
  1

  2
none_device
  4

  6

 40
0.0
 41
0.0
 42
0.0
 43
0.0
 44
0.0
 45
0.0
 46
0.0
 47
0.0
 48
0.0
 49
0.0
140
0.0
141
0.0
142
1.0
143
1.0
 70
   688
 72
     1
 73
     0
 74
     5
  7

 75
    16
147
1.0
148
0.0
149
0.0
100
AcDbLayout
  1
Layout1
 70
     1
 71
     1
 10
0.0
 20
0.0
 11
420.0
 21
297.0
 12
0.0
 22
0.0
 32
0.0
 14
1.0000000000E+20
 24
1.0000000000E+20
 34
1.0000000000E+20
 15
-1.0000000000E+20
 25
-1.0000000000E+20
 35
-1.0000000000E+20
146
0.0
 13
0.0
 23
0.0
 33
0.0
 16
1.0
 26
0.0
 36
0.0
 17
0.0
 27
1.0
 37
0.0
 76
     0
330
1B
  0
LAYOUT
  5
26
102
{ACAD_REACTORS
330
1A
102
}
330
1A
100
AcDbPlotSettings
  1

  2
none_device
  4

  6

 40
0.0
 41
0.0
 42
0.0
 43
0.0
 44
0.0
 45
0.0
 46
0.0
 47
0.0
 48
0.0
 49
0.0
140
0.0
141
0.0
142
1.0
143
1.0
 70
   688
 72
     1
 73
     0
 74
     5
  7

 75
    16
147
1.0
148
0.0
149
0.0
100
AcDbLayout
  1
Layout2
 70
     1
 71
     2
 10
0.0
 20
0.0
 11
0.0
 21
0.0
 12
0.0
 22
0.0
 32
0.0
 14
0.0
 24
0.0
 34
0.0
 15
0.0
 25
0.0
 35
0.0
146
0.0
 13
0.0
 23
0.0
 33
0.0
 16
1.0
 26
0.0
 36
0.0
 17
0.0
 27
1.0
 37
0.0
 76
     0
330
23
  0
LAYOUT
  5
22
102
{ACAD_REACTORS
330
1A
102
}
330
1A
100
AcDbPlotSettings
  1

  2
none_device
  4
Letter_(8.50_x_11.00_Inches)
  6

 40
6.35
 41
6.35
 42
6.35000508
 43
6.35000508
 44
215.9
 45
279.4
 46
0.0
 47
0.0
 48
0.0
 49
0.0
140
0.0
141
0.0
142
1.0
143
1.0
 70
  1712
 72
     1
 73
     0
 74
     0
  7

 75
     0
147
1.0
148
0.0
149
0.0
100
AcDbLayout
  1
Model
 70
     1
 71
     0
 10
0.0
 20
0.0
 11
20000.0
 21
10000.0
 12
0.0
 22
0.0
 32
0.0
 14
0.0
 24
0.0
 34
0.0
 15
20000.0
 25
10000.0
 35
0.0
146
0.0
 13
0.0
 23
0.0
 33
0.0
 16
1.0
 26
0.0
 36
0.0
 17
0.0
 27
1.0
 37
0.0
 76
     0
330
1F
331
29
  0
MLINESTYLE
  5
18
102
{ACAD_REACTORS
330
17
102
}
330
17
100
AcDbMlineStyle
  2
Standard
 70
     0
  3

 62
   256
 51
90.0
 52
90.0
 71
     2
 49
0.5
 62
   256
  6
BYLAYER
 49
-0.5
 62
   256
  6
BYLAYER
  0
ACDBPLACEHOLDER
  5
F
102
{ACAD_REACTORS
330
E
102
}
330
E
  0
SCALE
  5
48
102
{ACAD_REACTORS
330
47
102
}
330
47
100
AcDbScale
 70
     0
300
1:1
140
1.0
141
1.0
290
     1
  0
SCALE
  5
49
102
{ACAD_REACTORS
330
47
102
}
330
47
100
AcDbScale
 70
     0
300
1:2
140
1.0
141
2.0
290
     0
  0
SCALE
  5
4A
102
{ACAD_REACTORS
330
47
102
}
330
47
100
AcDbScale
 70
     0
300
1:4
140
1.0
141
4.0
290
     0
  0
SCALE
  5
4B
102
{ACAD_REACTORS
330
47
102
}
330
47
100
AcDbScale
 70
     0
300
1:5
140
1.0
141
5.0
290
     0
  0
SCALE
  5
4C
102
{ACAD_REACTORS
330
47
102
}
330
47
100
AcDbScale
 70
     0
300
1:8
140
1.0
141
8.0
290
     0
  0
SCALE
  5
4D
102
{ACAD_REACTORS
330
47
102
}
330
47
100
AcDbScale
 70
     0
300
1:10
140
1.0
141
10.0
290
     0
  0
SCALE
  5
4E
102
{ACAD_REACTORS
330
47
102
}
330
47
100
AcDbScale
 70
     0
300
1:16
140
1.0
141
16.0
290
     0
  0
SCALE
  5
4F
102
{ACAD_REACTORS
330
47
102
}
330
47
100
AcDbScale
 70
     0
300
1:20
140
1.0
141
20.0
290
     0
  0
SCALE
  5
50
102
{ACAD_REACTORS
330
47
102
}
330
47
100
AcDbScale
 70
     0
300
1:30
140
1.0
141
30.0
290
     0
  0
SCALE
  5
51
102
{ACAD_REACTORS
330
47
102
}
330
47
100
AcDbScale
 70
     0
300
1:40
140
1.0
141
40.0
290
     0
  0
SCALE
  5
52
102
{ACAD_REACTORS
330
47
102
}
330
47
100
AcDbScale
 70
     0
300
1:50
140
1.0
141
50.0
290
     0
  0
SCALE
  5
53
102
{ACAD_REACTORS
330
47
102
}
330
47
100
AcDbScale
 70
     0
300
1:100
140
1.0
141
100.0
290
     0
  0
SCALE
  5
54
102
{ACAD_REACTORS
330
47
102
}
330
47
100
AcDbScale
 70
     0
300
2:1
140
2.0
141
1.0
290
     0
  0
SCALE
  5
55
102
{ACAD_REACTORS
330
47
102
}
330
47
100
AcDbScale
 70
     0
300
4:1
140
4.0
141
1.0
290
     0
  0
SCALE
  5
56
102
{ACAD_REACTORS
330
47
102
}
330
47
100
AcDbScale
 70
     0
300
8:1
140
8.0
141
1.0
290
     0
  0
SCALE
  5
57
102
{ACAD_REACTORS
330
47
102
}
330
47
100
AcDbScale
 70
     0
300
10:1
140
10.0
141
1.0
290
     0
  0
SCALE
  5
58
102
{ACAD_REACTORS
330
47
102
}
330
47
100
AcDbScale
 70
     0
300
100:1
140
100.0
141
1.0
290
     0
  0
SCALE
  5
59
102
{ACAD_REACTORS
330
47
102
}
330
47
100
AcDbScale
 70
     0
300
1/128" = 1'-0"
140
0.0078125
141
12.0
290
     0
  0
SCALE
  5
5A
102
{ACAD_REACTORS
330
47
102
}
330
47
100
AcDbScale
 70
     0
300
1/64" = 1'-0"
140
0.015625
141
12.0
290
     0
  0
SCALE
  5
5B
102
{ACAD_REACTORS
330
47
102
}
330
47
100
AcDbScale
 70
     0
300
1/32" = 1'-0"
140
0.03125
141
12.0
290
     0
  0
SCALE
  5
5C
102
{ACAD_REACTORS
330
47
102
}
330
47
100
AcDbScale
 70
     0
300
1/16" = 1'-0"
140
0.0625
141
12.0
290
     0
  0
SCALE
  5
5D
102
{ACAD_REACTORS
330
47
102
}
330
47
100
AcDbScale
 70
     0
300
3/32" = 1'-0"
140
0.09375
141
12.0
290
     0
  0
SCALE
  5
5E
102
{ACAD_REACTORS
330
47
102
}
330
47
100
AcDbScale
 70
     0
300
1/8" = 1'-0"
140
0.125
141
12.0
290
     0
  0
SCALE
  5
5F
102
{ACAD_REACTORS
330
47
102
}
330
47
100
AcDbScale
 70
     0
300
3/16" = 1'-0"
140
0.1875
141
12.0
290
     0
  0
SCALE
  5
60
102
{ACAD_REACTORS
330
47
102
}
330
47
100
AcDbScale
 70
     0
300
1/4" = 1'-0"
140
0.25
141
12.0
290
     0
  0
SCALE
  5
61
102
{ACAD_REACTORS
330
47
102
}
330
47
100
AcDbScale
 70
     0
300
3/8" = 1'-0"
140
0.375
141
12.0
290
     0
  0
SCALE
  5
62
102
{ACAD_REACTORS
330
47
102
}
330
47
100
AcDbScale
 70
     0
300
1/2" = 1'-0"
140
0.5
141
12.0
290
     0
  0
SCALE
  5
63
102
{ACAD_REACTORS
330
47
102
}
330
47
100
AcDbScale
 70
     0
300
3/4" = 1'-0"
140
0.75
141
12.0
290
     0
  0
SCALE
  5
64
102
{ACAD_REACTORS
330
47
102
}
330
47
100
AcDbScale
 70
     0
300
1" = 1'-0"
140
1.0
141
12.0
290
     0
  0
SCALE
  5
65
102
{ACAD_REACTORS
330
47
102
}
330
47
100
AcDbScale
 70
     0
300
1-1/2" = 1'-0"
140
1.5
141
12.0
290
     0
  0
SCALE
  5
66
102
{ACAD_REACTORS
330
47
102
}
330
47
100
AcDbScale
 70
     0
300
3" = 1'-0"
140
3.0
141
12.0
290
     0
  0
SCALE
  5
67
102
{ACAD_REACTORS
330
47
102
}
330
47
100
AcDbScale
 70
     0
300
6" = 1'-0"
140
6.0
141
12.0
290
     0
  0
SCALE
  5
68
102
{ACAD_REACTORS
330
47
102
}
330
47
100
AcDbScale
 70
     0
300
1'-0" = 1'-0"
140
12.0
141
12.0
290
     0
  0
ENDSEC
  0
EOF
