  0
SECTION
  2
HEADER
  9
$ACADVER
  1
AC1015
  9
$ACADMAINTVER
 70
     6
  9
$DWGCODEPAGE
  3
ANSI_1250
  9
$INSBASE
 10
0.0
 20
0.0
 30
0.0
  9
$EXTMIN
 10
0.0
 20
0.0
 30
0.0
  9
$EXTMAX
 10
20000.0
 20
10000.0
 30
0.0
  9
$LIMMIN
 10
0.0
 20
0.0
  9
$LIMMAX
 10
20000.0
 20
10000.0
  9
$ORTHOMODE
 70
     0
  9
$REGENMODE
 70
     1
  9
$FILLMODE
 70
     1
  9
$QTEXTMODE
 70
     0
  9
$MIRRTEXT
 70
     1
  9
$LTSCALE
 40
1.0
  9
$ATTMODE
 70
     1
  9
$TEXTSIZE
 40
2.0
  9
$TRACEWID
 40
1.0
  9
$TEXTSTYLE
  7
Standard
  9
$CLAYER
  8
0
  9
$CELTYPE
  6
ByLayer
  9
$CECOLOR
 62
   256
  9
$CELTSCALE
 40
1.0
  9
$DISPSILH
 70
     0
  9
$DIMSCALE
 40
1.0
  9
$DIMASZ
 40
2.0
  9
$DIMEXO
 40
1.0
  9
$DIMDLI
 40
3.75
  9
$DIMRND
 40
0.0
  9
$DIMDLE
 40
0.0
  9
$DIMEXE
 40
1.0
  9
$DIMTP
 40
0.0
  9
$DIMTM
 40
0.0
  9
$DIMTXT
 40
2.0
  9
$DIMCEN
 40
2.5
  9
$DIMTSZ
 40
0.0
  9
$DIMTOL
 70
     0
  9
$DIMLIM
 70
     0
  9
$DIMTIH
 70
     1
  9
$DIMTOH
 70
     1
  9
$DIMSE1
 70
     0
  9
$DIMSE2
 70
     0
  9
$DIMTAD
 70
     1
  9
$DIMZIN
 70
     0
  9
$DIMBLK
  1

  9
$DIMASO
 70
     1
  9
$DIMSHO
 70
     1
  9
$DIMPOST
  1

  9
$DIMAPOST
  1

  9
$DIMALT
 70
     0
  9
$DIMALTD
 70
     3
  9
$DIMALTF
 40
0.0393700787
  9
$DIMLFAC
 40
1.0
  9
$DIMTOFL
 70
     1
  9
$DIMTVP
 40
0.0
  9
$DIMTIX
 70
     0
  9
$DIMSOXD
 70
     0
  9
$DIMSAH
 70
     0
  9
$DIMBLK1
  1

  9
$DIMBLK2
  1

  9
$DIMSTYLE
  2
ISO-25
  9
$DIMCLRD
 70
     0
  9
$DIMCLRE
 70
     0
  9
$DIMCLRT
 70
     0
  9
$DIMTFAC
 40
1.0
  9
$DIMGAP
 40
1.524
  9
$DIMJUST
 70
     0
  9
$DIMSD1
 70
     0
  9
$DIMSD2
 70
     0
  9
$DIMTOLJ
 70
     0
  9
$DIMTZIN
 70
     0
  9
$DIMALTZ
 70
     0
  9
$DIMALTTZ
 70
     0
  9
$DIMUPT
 70
     0
  9
$DIMDEC
 70
     2
  9
$DIMTDEC
 70
     0
  9
$DIMALTU
 70
     2
  9
$DIMALTTD
 70
     3
  9
$DIMTXSTY
  7
Standard
  9
$DIMAUNIT
 70
     0
  9
$DIMADEC
 70
     2
  9
$DIMALTRND
 40
0.0
  9
$DIMAZIN
 70
     0
  9
$DIMDSEP
 70
    44
  9
$DIMATFIT
 70
     3
  9
$DIMFRAC
 70
     0
  9
$DIMLDRBLK
  1

  9
$DIMLUNIT
 70
     2
  9
$DIMLWD
 70
    -2
  9
$DIMLWE
 70
    -2
  9
$DIMTMOVE
 70
     0
  9
$LUNITS
 70
     2
  9
$LUPREC
 70
     3
  9
$SKETCHINC
 40
1.0
  9
$FILLETRAD
 40
10.0
  9
$AUNITS
 70
     0
  9
$AUPREC
 70
     2
  9
$MENU
  1
.
  9
$ELEVATION
 40
0.0
  9
$PELEVATION
 40
0.0
  9
$THICKNESS
 40
0.0
  9
$LIMCHECK
 70
     0
  9
$CHAMFERA
 40
0.0
  9
$CHAMFERB
 40
0.0
  9
$CHAMFERC
 40
0.0
  9
$CHAMFERD
 40
0.0
  9
$SKPOLY
 70
     0
  9
$TDCREATE
 40
2459116.586696979
  9
$TDUCREATE
 40
2459116.503363646
  9
$TDUPDATE
 40
2459116.586697118
  9
$TDUUPDATE
 40
2459116.503363785
  9
$TDINDWG
 40
0.0000000116
  9
$TDUSRTIMER
 40
0.0000000116
  9
$USRTIMER
 70
     1
  9
$ANGBASE
 50
0.0
  9
$ANGDIR
 70
     0
  9
$PDMODE
 70
     0
  9
$PDSIZE
 40
-1.0
  9
$PLINEWID
 40
0.0
  9
$SPLFRAME
 70
     0
  9
$SPLINETYPE
 70
     6
  9
$SPLINESEGS
 70
     8
  9
$HANDSEED
  5
17D
  9
$SURFTAB1
 70
     6
  9
$SURFTAB2
 70
     6
  9
$SURFTYPE
 70
     6
  9
$SURFU
 70
     6
  9
$SURFV
 70
     6
  9
$UCSBASE
  2

  9
$UCSNAME
  2

  9
$UCSORG
 10
0.0
 20
0.0
 30
0.0
  9
$UCSXDIR
 10
1.0
 20
0.0
 30
0.0
  9
$UCSYDIR
 10
0.0
 20
1.0
 30
0.0
  9
$UCSORTHOREF
  2

  9
$UCSORTHOVIEW
 70
     0
  9
$UCSORGTOP
 10
0.0
 20
0.0
 30
0.0
  9
$UCSORGBOTTOM
 10
0.0
 20
0.0
 30
0.0
  9
$UCSORGLEFT
 10
0.0
 20
0.0
 30
0.0
  9
$UCSORGRIGHT
 10
0.0
 20
0.0
 30
0.0
  9
$UCSORGFRONT
 10
0.0
 20
0.0
 30
0.0
  9
$UCSORGBACK
 10
0.0
 20
0.0
 30
0.0
  9
$PUCSBASE
  2

  9
$PUCSNAME
  2

  9
$PUCSORG
 10
0.0
 20
0.0
 30
0.0
  9
$PUCSXDIR
 10
1.0
 20
0.0
 30
0.0
  9
$PUCSYDIR
 10
0.0
 20
1.0
 30
0.0
  9
$PUCSORTHOREF
  2

  9
$PUCSORTHOVIEW
 70
     0
  9
$PUCSORGTOP
 10
0.0
 20
0.0
 30
0.0
  9
$PUCSORGBOTTOM
 10
0.0
 20
0.0
 30
0.0
  9
$PUCSORGLEFT
 10
0.0
 20
0.0
 30
0.0
  9
$PUCSORGRIGHT
 10
0.0
 20
0.0
 30
0.0
  9
$PUCSORGFRONT
 10
0.0
 20
0.0
 30
0.0
  9
$PUCSORGBACK
 10
0.0
 20
0.0
 30
0.0
  9
$USERI1
 70
     0
  9
$USERI2
 70
     0
  9
$USERI3
 70
     0
  9
$USERI4
 70
     0
  9
$USERI5
 70
     0
  9
$USERR1
 40
0.0
  9
$USERR2
 40
0.0
  9
$USERR3
 40
0.0
  9
$USERR4
 40
0.0
  9
$USERR5
 40
0.0
  9
$WORLDVIEW
 70
     1
  9
$SHADEDGE
 70
     3
  9
$SHADEDIF
 70
    70
  9
$TILEMODE
 70
     1
  9
$MAXACTVP
 70
    64
  9
$PINSBASE
 10
0.0
 20
0.0
 30
0.0
  9
$PLIMCHECK
 70
     0
  9
$PEXTMIN
 10
1.0000000000E+20
 20
1.0000000000E+20
 30
1.0000000000E+20
  9
$PEXTMAX
 10
-1.0000000000E+20
 20
-1.0000000000E+20
 30
-1.0000000000E+20
  9
$PLIMMIN
 10
0.0
 20
0.0
  9
$PLIMMAX
 10
420.0
 20
297.0
  9
$UNITMODE
 70
     0
  9
$VISRETAIN
 70
     1
  9
$PLINEGEN
 70
     0
  9
$PSLTSCALE
 70
     1
  9
$TREEDEPTH
 70
  3020
  9
$CMLSTYLE
  2
Standard
  9
$CMLJUST
 70
     0
  9
$CMLSCALE
 40
20.0
  9
$PROXYGRAPHICS
 70
     1
  9
$MEASUREMENT
 70
     1
  9
$CELWEIGHT
370
    -1
  9
$ENDCAPS
280
     0
  9
$JOINSTYLE
280
     0
  9
$LWDISPLAY
290
     1
  9
$INSUNITS
 70
     4
  9
$HYPERLINKBASE
  1

  9
$STYLESHEET
  1

  9
$XEDIT
290
     1
  9
$CEPSNTYPE
380
     0
  9
$PSTYLEMODE
290
     1
  9
$FINGERPRINTGUID
  2
{484dc5f0-ad39-4266-84c7-cb9c8ea897e0}
  9
$VERSIONGUID
  2
{FAEB1C32-E019-11D5-929B-00C0DF256EC4}
  9
$EXTNAMES
290
     1
  9
$PSVPSCALE
 40
0.0
  9
$OLESTARTUP
290
     0
  0
ENDSEC
  0
SECTION
  2
CLASSES
  0
CLASS
  1
ACDBDICTIONARYWDFLT
  2
AcDbDictionaryWithDefault
  3
ObjectDBX Classes
 90
        0
280
     0
281
     0
  0
CLASS
  1
VISUALSTYLE
  2
AcDbVisualStyle
  3
ObjectDBX Classes
 90
     4095
280
     0
281
     0
  0
CLASS
  1
MATERIAL
  2
AcDbMaterial
  3
ObjectDBX Classes
 90
     1153
280
     0
281
     0
  0
CLASS
  1
SCALE
  2
AcDbScale
  3
ObjectDBX Classes
 90
     1153
280
     0
281
     0
  0
CLASS
  1
TABLESTYLE
  2
AcDbTableStyle
  3
ObjectDBX Classes
 90
     4095
280
     0
281
     0
  0
CLASS
  1
MLEADERSTYLE
  2
AcDbMLeaderStyle
  3
ACDB_MLEADERSTYLE_CLASS
 90
     4095
280
     0
281
     0
  0
CLASS
  1
SUN
  2
AcDbSun
  3
SCENEOE
 90
     1153
280
     0
281
     0
  0
CLASS
  1
ACDBPLACEHOLDER
  2
AcDbPlaceHolder
  3
ObjectDBX Classes
 90
        0
280
     0
281
     0
  0
CLASS
  1
LAYOUT
  2
AcDbLayout
  3
ObjectDBX Classes
 90
        0
280
     0
281
     0
  0
ENDSEC
  0
SECTION
  2
TABLES
  0
TABLE
  2
VPORT
  5
8
330
0
100
AcDbSymbolTable
 70
     1
  0
VPORT
  5
29
330
8
100
AcDbSymbolTableRecord
100
AcDbViewportTableRecord
  2
*Active
 70
     0
 10
0.0
 20
0.0
 11
1.0
 21
1.0
 12
10000.0
 22
5000.0
 13
0.0
 23
0.0
 14
10.0
 24
10.0
 15
10.0
 25
10.0
 16
0.0
 26
0.0
 36
1.0
 17
0.0
 27
0.0
 37
0.0
 40
10000.0
 41
2.0
 42
50.0
 43
0.0
 44
0.0
 50
0.0
 51
0.0
 71
     0
 72
  2000
 73
     1
 74
     3
 75
     0
 76
     0
 77
     0
 78
     0
281
     0
 65
     1
110
0.0
120
0.0
130
0.0
111
1.0
121
0.0
131
0.0
112
0.0
122
1.0
132
0.0
 79
     0
146
0.0
  0
ENDTAB
  0
TABLE
  2
LTYPE
  5
5
330
0
100
AcDbSymbolTable
 70
     6
  0
LTYPE
  5
14
330
5
100
AcDbSymbolTableRecord
100
AcDbLinetypeTableRecord
  2
ByBlock
 70
     0
  3

 72
    65
 73
     0
 40
0.0
  0
LTYPE
  5
15
330
5
100
AcDbSymbolTableRecord
100
AcDbLinetypeTableRecord
  2
ByLayer
 70
     0
  3

 72
    65
 73
     0
 40
0.0
  0
LTYPE
  5
16
330
5
100
AcDbSymbolTableRecord
100
AcDbLinetypeTableRecord
  2
Continuous
 70
     0
  3
Solid line
 72
    65
 73
     0
 40
0.0
  0
LTYPE
  5
6E
330
5
100
AcDbSymbolTableRecord
100
AcDbLinetypeTableRecord
  2
HIDDEN
 70
     0
  3
Hidden __ __ __ __ __ __ __ __ __ __ __ __ __ __
 72
    65
 73
     2
 40
1.905
 49
1.27
 74
     0
 49
-0.635
 74
     0
  0
LTYPE
  5
6F
330
5
100
AcDbSymbolTableRecord
100
AcDbLinetypeTableRecord
  2
PHANTOM
 70
     0
  3
Phantom ______  __  __  ______  __  __  ______
 72
    65
 73
     6
 40
12.7
 49
6.35
 74
     0
 49
-1.27
 74
     0
 49
1.27
 74
     0
 49
-1.27
 74
     0
 49
1.27
 74
     0
 49
-1.27
 74
     0
  0
LTYPE
  5
70
330
5
100
AcDbSymbolTableRecord
100
AcDbLinetypeTableRecord
  2
CENTER
 70
     0
  3
Center ____ _ ____ _ ____ _ ____ _ ____ _ ____
 72
    65
 73
     4
 40
10.16
 49
6.35
 74
     0
 49
-1.27
 74
     0
 49
1.27
 74
     0
 49
-1.27
 74
     0
  0
LTYPE
  5
71
330
5
100
AcDbSymbolTableRecord
100
AcDbLinetypeTableRecord
  2
CENTERX2
 70
     0
  3
Center (2x) ________  __  ________  __  _____
 72
    65
 73
     4
 40
20.32
 49
12.7
 74
     0
 49
-2.54
 74
     0
 49
2.54
 74
     0
 49
-2.54
 74
     0
  0
LTYPE
  5
72
330
5
100
AcDbSymbolTableRecord
100
AcDbLinetypeTableRecord
  2
DOT2
 70
     0
  3
Dot (.5x) ........................................
 72
    65
 73
     2
 40
0.635
 49
0.0
 74
     0
 49
-0.635
 74
     0
  0
ENDTAB
  0
TABLE
  2
LAYER
  5
2
330
0
100
AcDbSymbolTable
 70
    13
  0
LAYER
  5
10
330
2
100
AcDbSymbolTableRecord
100
AcDbLayerTableRecord
  2
0
 70
     0
 62
     7
  6
Continuous
370
    -3
390
F
  0
LAYER
  5
73
330
2
100
AcDbSymbolTableRecord
100
AcDbLayerTableRecord
  2
FORMAT
 70
     0
 62
     7
  6
Continuous
370
    -3
390
F
  0
LAYER
  5
74
330
2
100
AcDbSymbolTableRecord
100
AcDbLayerTableRecord
  2
OSA
 70
     0
 62
     7
  6
CENTER
370
    -3
390
F
  0
LAYER
  5
75
330
2
100
AcDbSymbolTableRecord
100
AcDbLayerTableRecord
  2
0_35
 70
     0
 62
     7
  6
Continuous
370
    35
390
F
  0
LAYER
  5
76
330
2
100
AcDbSymbolTableRecord
100
AcDbLayerTableRecord
  2
0_5
 70
     0
 62
     7
  6
Continuous
370
    50
390
F
  0
LAYER
  5
77
330
2
100
AcDbSymbolTableRecord
100
AcDbLayerTableRecord
  2
0_25
 70
     0
 62
     7
  6
Continuous
370
    25
390
F
  0
LAYER
  5
78
330
2
100
AcDbSymbolTableRecord
100
AcDbLayerTableRecord
  2
0_18
 70
     0
 62
     7
  6
Continuous
370
    -3
390
F
  0
LAYER
  5
79
330
2
100
AcDbSymbolTableRecord
100
AcDbLayerTableRecord
  2
SLD-0
 70
     0
 62
   179
  6
Continuous
370
    -3
390
F
  0
LAYER
  5
7A
330
2
100
AcDbSymbolTableRecord
100
AcDbLayerTableRecord
  2
KOTY
 70
     0
 62
     7
  6
Continuous
370
    -3
390
F
  0
LAYER
  5
7B
330
2
100
AcDbSymbolTableRecord
100
AcDbLayerTableRecord
  2
SILNA
 70
     0
 62
   179
  6
Continuous
370
    -3
390
F
  0
LAYER
  5
7C
330
2
100
AcDbSymbolTableRecord
100
AcDbLayerTableRecord
  2
0_18_1
 70
     0
 62
   179
  6
Continuous
370
    -3
390
F
  0
LAYER
  5
7D
330
2
100
AcDbSymbolTableRecord
100
AcDbLayerTableRecord
  2
0_35_1
 70
     0
 62
   179
  6
Continuous
370
    35
390
F
  0
LAYER
  5
7E
330
2
100
AcDbSymbolTableRecord
100
AcDbLayerTableRecord
  2
0_5_1
 70
     0
 62
   179
  6
Continuous
370
    50
390
F
  0
ENDTAB
  0
TABLE
  2
STYLE
  5
3
330
0
100
AcDbSymbolTable
 70
     1
  0
STYLE
  5
11
330
3
100
AcDbSymbolTableRecord
100
AcDbTextStyleTableRecord
  2
Standard
 70
     0
 40
0.0
 41
1.0
 50
0.0
 71
     0
 42
2.0
  3
txt
  4

  0
ENDTAB
  0
TABLE
  2
VIEW
  5
6
330
0
100
AcDbSymbolTable
 70
     0
  0
ENDTAB
  0
TABLE
  2
UCS
  5
7
330
0
100
AcDbSymbolTable
 70
     0
  0
ENDTAB
  0
TABLE
  2
APPID
  5
9
330
0
100
AcDbSymbolTable
 70
     1
  0
APPID
  5
12
330
9
100
AcDbSymbolTableRecord
100
AcDbRegAppTableRecord
  2
ACAD
 70
     0
  0
ENDTAB
  0
TABLE
  2
DIMSTYLE
  5
A
330
0
100
AcDbSymbolTable
 70
     1
100
AcDbDimStyleTable
  0
DIMSTYLE
105
27
330
A
100
AcDbSymbolTableRecord
100
AcDbDimStyleTableRecord
  2
ISO-25
 70
     0
 41
2.5
 42
0.625
 43
3.75
 44
1.25
 73
     0
 74
     0
 77
     1
 78
     8
140
2.5
141
2.5
143
0.0393700787
147
0.625
171
     3
172
     1
178
     0
271
     2
272
     2
274
     3
278
    44
283
     0
284
     8
340
11
  0
ENDTAB
  0
TABLE
  2
BLOCK_RECORD
  5
1
330
0
100
AcDbSymbolTable
 70
     1
  0
BLOCK_RECORD
  5
1F
330
1
100
AcDbSymbolTableRecord
100
AcDbBlockTableRecord
  2
*Model_Space
340
22
  0
BLOCK_RECORD
  5
1B
330
1
100
AcDbSymbolTableRecord
100
AcDbBlockTableRecord
  2
*Paper_Space
340
1E
  0
BLOCK_RECORD
  5
23
330
1
100
AcDbSymbolTableRecord
100
AcDbBlockTableRecord
  2
*Paper_Space0
340
26
  0
ENDTAB
  0
ENDSEC
  0
SECTION
  2
BLOCKS
  0
BLOCK
  5
20
330
1F
100
AcDbEntity
  8
0
100
AcDbBlockBegin
  2
*Model_Space
 70
     0
 10
0.0
 20
0.0
 30
0.0
  3
*Model_Space
  1

  0
ENDBLK
  5
21
330
1F
100
AcDbEntity
  8
0
100
AcDbBlockEnd
  0
BLOCK
  5
1C
330
1B
100
AcDbEntity
 67
     1
  8
0
100
AcDbBlockBegin
  2
*Paper_Space
 70
     0
 10
0.0
 20
0.0
 30
0.0
  3
*Paper_Space
  1

  0
ENDBLK
  5
1D
330
1B
100
AcDbEntity
 67
     1
  8
0
100
AcDbBlockEnd
  0
BLOCK
  5
24
330
23
100
AcDbEntity
  8
0
100
AcDbBlockBegin
  2
*Paper_Space0
 70
     0
 10
0.0
 20
0.0
 30
0.0
  3
*Paper_Space0
  1

  0
ENDBLK
  5
25
330
23
100
AcDbEntity
  8
0
100
AcDbBlockEnd
  0
ENDSEC
  0
SECTION
  2
ENTITIES
  0
ARC
  5
7F
330
1F
100
AcDbEntity
  8
0
  6
Continuous
 62
     7
370
    25
100
AcDbCircle
 10
9083.9512227015
 20
5297.9795352524
 30
0.0
 40
5.417880890079578
100
AcDbArc
 50
220.3482154921
 51
264.9293804605
  0
ARC
  5
80
330
1F
100
AcDbEntity
  8
0
  6
Continuous
 62
     7
370
    25
100
AcDbCircle
 10
9083.9512227015
 20
5297.9795352524
 30
0.0
 40
5.417880890080149
100
AcDbArc
 50
113.5303920269
 51
158.1115569953
  0
ARC
  5
81
330
1F
100
AcDbEntity
  8
0
  6
Continuous
 62
     7
370
    25
100
AcDbCircle
 10
9113.6244955362
 20
5115.374779347
 30
0.0
 40
5.417880890079578
100
AcDbArc
 50
220.3482154921
 51
264.9293804605
  0
ARC
  5
82
330
1F
100
AcDbEntity
  8
0
  6
Continuous
 62
     7
370
    25
100
AcDbCircle
 10
9113.6244955362
 20
5115.374779347
 30
0.0
 40
5.41788089007846
100
AcDbArc
 50
113.5303920269
 51
158.1115569953
  0
LINE
  5
83
330
1F
100
AcDbEntity
  8
0
  6
Continuous
 62
     7
370
    25
100
AcDbLine
 10
9085.3817013995
 20
5353.8022573563
 30
0.0
 11
9411.8693594816
 21
5353.8022573563
 31
0.0
  0
ARC
  5
84
330
1F
100
AcDbEntity
  8
0
  6
Continuous
 62
     7
370
    25
100
AcDbCircle
 10
9411.8693594816
 20
5343.8022573563
 30
0.0
 40
10.00000000000067
100
AcDbArc
 50
350.7701137563
 51
90.0
  0
LINE
  5
85
330
1F
100
AcDbEntity
  8
0
  6
Continuous
 62
     7
370
    25
100
AcDbLine
 10
9421.7398868278
 20
5342.1982966625
 30
0.0
 11
9075.5111740533
 21
5342.1982966625
 31
0.0
  0
ARC
  5
86
330
1F
100
AcDbEntity
  8
0
  6
Continuous
 62
     7
370
    25
100
AcDbCircle
 10
9085.3817013995
 20
5343.8022573563
 30
0.0
 40
10.0
100
AcDbArc
 50
90.0
 51
189.2298862437
  0
LINE
  5
87
330
1F
100
AcDbEntity
  8
0
  6
Continuous
 62
     7
370
    25
100
AcDbLine
 10
9421.7398868278
 20
5342.1982966625
 30
0.0
 11
9358.898401718
 21
4955.4814652175
 31
0.0
  0
LINE
  5
88
330
1F
100
AcDbEntity
  8
0
  6
Continuous
 62
     7
370
    25
100
AcDbLine
 10
9138.3526591631
 20
4955.4814652175
 30
0.0
 11
9358.898401718
 21
4955.4814652175
 31
0.0
  0
LINE
  5
89
330
1F
100
AcDbEntity
  8
0
  6
Continuous
 62
     7
370
    25
100
AcDbLine
 10
9138.3526591631
 20
4955.4814652175
 30
0.0
 11
9075.5111740533
 21
5342.1982966625
 31
0.0
  0
ARC
  5
8A
330
1F
100
AcDbEntity
  8
0
  6
Continuous
 62
     7
370
    25
100
AcDbCircle
 10
9356.9242962487
 20
4955.8022573563
 30
0.0
 40
2.000000000000909
100
AcDbArc
 50
270.0
 51
350.7701137563
  0
LINE
  5
8B
330
1F
100
AcDbEntity
  8
0
  6
Continuous
 62
     7
370
    25
100
AcDbLine
 10
9356.9242962487
 20
4953.8022573563
 30
0.0
 11
9140.3267646323
 21
4953.8022573563
 31
0.0
  0
ARC
  5
8C
330
1F
100
AcDbEntity
  8
0
  6
Continuous
 62
     7
370
    25
100
AcDbCircle
 10
9140.3267646323
 20
4955.8022573563
 30
0.0
 40
2.0000000000016
100
AcDbArc
 50
189.2298862437
 51
270.0
  0
LINE
  5
8D
330
1F
100
AcDbEntity
  8
0
  6
Continuous
 62
     7
370
    25
100
AcDbLine
 10
9081.7882125375
 20
5302.9469108543
 30
0.0
 11
9081.8283115549
 21
5302.7001476706
 31
0.0
  0
LINE
  5
8E
330
1F
100
AcDbEntity
  8
0
  6
Continuous
 62
     7
370
    25
100
AcDbLine
 10
9079.5783729783
 20
5295.9718532713
 30
0.0
 11
9079.8215944427
 21
5294.4751057978
 31
0.0
  0
LINE
  5
8F
330
1F
100
AcDbEntity
  8
0
  6
Continuous
 62
     7
370
    25
100
AcDbLine
 10
9079.1297964131
 20
5298.732324442
 30
0.0
 11
9079.5783729783
 21
5295.9718532713
 31
0.0
  0
LINE
  5
90
330
1F
100
AcDbEntity
  8
0
  6
Continuous
 62
     7
370
    25
100
AcDbLine
 10
9078.9244413122
 20
5299.9960481393
 30
0.0
 11
9079.1297964131
 21
5298.732324442
 31
0.0
  0
LINE
  5
91
330
1F
100
AcDbEntity
  8
0
  6
Continuous
 62
     7
370
    25
100
AcDbLine
 10
9079.8215944427
 20
5294.4751057978
 30
0.0
 11
9079.8216885943
 21
5294.4745264038
 31
0.0
  0
LINE
  5
92
330
1F
100
AcDbEntity
  8
0
  6
Continuous
 62
     7
370
    25
100
AcDbLine
 10
9113.1055450833
 20
5110.2248644189
 30
0.0
 11
9113.1456441006
 21
5109.9781012353
 31
0.0
  0
LINE
  5
93
330
1F
100
AcDbEntity
  8
0
  6
Continuous
 62
     7
370
    25
100
AcDbLine
 10
9109.2516458129
 20
5113.3670973659
 30
0.0
 11
9109.4948672774
 21
5111.8703498924
 31
0.0
  0
LINE
  5
94
330
1F
100
AcDbEntity
  8
0
  6
Continuous
 62
     7
370
    25
100
AcDbLine
 10
9108.8030692477
 20
5116.1275685366
 30
0.0
 11
9109.2516458129
 21
5113.3670973659
 31
0.0
  0
LINE
  5
95
330
1F
100
AcDbEntity
  8
0
  6
Continuous
 62
     7
370
    25
100
AcDbLine
 10
9108.5977141469
 20
5117.3912922339
 30
0.0
 11
9108.8030692477
 21
5116.1275685366
 31
0.0
  0
LINE
  5
96
330
1F
100
AcDbEntity
  8
0
  6
Continuous
 62
     7
370
    25
100
AcDbLine
 10
9109.4948672774
 20
5111.8703498924
 30
0.0
 11
9109.4949614289
 21
5111.8697704984
 31
0.0
  0
LINE
  5
97
330
1F
100
AcDbEntity
  8
0
  6
Continuous
 62
     7
370
    25
100
AcDbLine
 10
9113.1055450833
 20
5110.2248644189
 30
0.0
 11
9081.8283115549
 21
5302.7001476706
 31
0.0
  0
LINE
  5
98
330
1F
100
AcDbEntity
  8
0
  6
Continuous
 62
     7
370
    25
100
AcDbLine
 10
9081.8283115549
 20
5302.7001476706
 30
0.0
 11
9081.9270168283
 21
5302.7161872775
 31
0.0
  0
LINE
  5
99
330
1F
100
AcDbEntity
  8
0
  6
Continuous
 62
     7
370
    25
100
AcDbLine
 10
9113.1055450833
 20
5110.2248644189
 30
0.0
 11
9113.2042503567
 21
5110.2409040259
 31
0.0
  0
ARC
  5
9A
330
1F
100
AcDbEntity
  8
0
  6
Continuous
 62
     7
370
    25
100
AcDbCircle
 10
10284.2749150612
 20
5343.8022573563
 30
0.0
 40
10.0
100
AcDbArc
 50
350.7701137563
 51
90.0
  0
LINE
  5
9B
330
1F
100
AcDbEntity
  8
0
  6
Continuous
 62
     7
370
    25
100
AcDbLine
 10
10231.3039572976
 20
4955.4814652175
 30
0.0
 11
10294.1454424074
 21
5342.1982966625
 31
0.0
  0
ARC
  5
9C
330
1F
100
AcDbEntity
  8
0
  6
Continuous
 62
     7
370
    25
100
AcDbCircle
 10
10229.3298518284
 20
4955.8022573563
 30
0.0
 40
2.000000000000909
100
AcDbArc
 50
270.0
 51
350.7701137563
  0
LINE
  5
9D
330
1F
100
AcDbEntity
  8
0
  6
Continuous
 62
     7
370
    25
100
AcDbLine
 10
9805.5234947673
 20
5114.9557105735
 30
0.0
 11
9805.5234947673
 21
5114.7792748972
 31
0.0
  0
LINE
  5
9E
330
1F
100
AcDbEntity
  8
0
  6
Continuous
 62
     7
370
    25
100
AcDbLine
 10
9801.5386772731
 20
5114.482367229
 30
0.0
 11
9801.5386772731
 21
5114.6588029053
 31
0.0
  0
LINE
  5
9F
330
1F
100
AcDbEntity
  8
0
  6
Continuous
 62
     7
370
    25
100
AcDbLine
 10
9805.5234947673
 20
5297.5604664789
 30
0.0
 11
9805.5234947673
 21
5297.3840308026
 31
0.0
  0
LINE
  5
A0
330
1F
100
AcDbEntity
  8
0
  6
Continuous
 62
     7
370
    25
100
AcDbLine
 10
9801.5386772731
 20
5297.0871231345
 30
0.0
 11
9801.5386772731
 21
5297.2635588108
 31
0.0
  0
LINE
  5
A1
330
1F
100
AcDbEntity
  8
0
  6
Continuous
 62
     7
370
    25
100
AcDbLine
 10
9965.5234947673
 20
5297.5604664789
 30
0.0
 11
9965.5234947673
 21
5297.3840308026
 31
0.0
  0
LINE
  5
A2
330
1F
100
AcDbEntity
  8
0
  6
Continuous
 62
     7
370
    25
100
AcDbLine
 10
9961.5386772731
 20
5297.0871231345
 30
0.0
 11
9961.5386772731
 21
5297.2635588108
 31
0.0
  0
LINE
  5
A3
330
1F
100
AcDbEntity
  8
0
  6
Continuous
 62
     7
370
    25
100
AcDbLine
 10
9965.5234947673
 20
5114.9557105735
 30
0.0
 11
9965.5234947673
 21
5114.7792748972
 31
0.0
  0
LINE
  5
A4
330
1F
100
AcDbEntity
  8
0
  6
Continuous
 62
     7
370
    25
100
AcDbLine
 10
9961.5386772731
 20
5114.482367229
 30
0.0
 11
9961.5386772731
 21
5114.6588029053
 31
0.0
  0
LINE
  5
A5
330
1F
100
AcDbEntity
  8
0
  6
Continuous
 62
     7
370
    25
100
AcDbLine
 10
9746.0310860202
 20
5353.8022573563
 30
0.0
 11
10121.0310860202
 21
5353.8022573563
 31
0.0
  0
LINE
  5
A6
330
1F
100
AcDbEntity
  8
0
  6
Continuous
 62
     7
370
    25
100
AcDbLine
 10
10121.0310860202
 20
5353.8022573563
 30
0.0
 11
10121.0310860202
 21
5342.1982966625
 31
0.0
  0
LINE
  5
A7
330
1F
100
AcDbEntity
  8
0
  6
Continuous
 62
     7
370
    25
100
AcDbLine
 10
10121.0310860202
 20
5342.1982966625
 30
0.0
 11
9746.0310860202
 21
5342.1982966625
 31
0.0
  0
LINE
  5
A8
330
1F
100
AcDbEntity
  8
0
  6
Continuous
 62
     7
370
    25
100
AcDbLine
 10
9746.0310860202
 20
5342.1982966625
 30
0.0
 11
9746.0310860202
 21
5353.8022573563
 31
0.0
  0
LINE
  5
A9
330
1F
100
AcDbEntity
  8
0
  6
Continuous
 62
     7
370
    25
100
AcDbLine
 10
10121.0310860202
 20
5353.8022573563
 30
0.0
 11
10284.2749150612
 21
5353.8022573563
 31
0.0
  0
LINE
  5
AA
330
1F
100
AcDbEntity
  8
0
  6
Continuous
 62
     7
370
    25
100
AcDbLine
 10
10121.0310860202
 20
4955.4814652175
 30
0.0
 11
10121.0310860202
 21
5342.1982966625
 31
0.0
  0
LINE
  5
AB
330
1F
100
AcDbEntity
  8
0
  6
Continuous
 62
     7
370
    25
100
AcDbLine
 10
9746.0310860202
 20
4955.4814652175
 30
0.0
 11
10121.0310860202
 21
4955.4814652175
 31
0.0
  0
LINE
  5
AC
330
1F
100
AcDbEntity
  8
0
  6
Continuous
 62
     7
370
    25
100
AcDbLine
 10
9746.0310860202
 20
4955.4814652175
 30
0.0
 11
9746.0310860202
 21
5342.1982966625
 31
0.0
  0
LINE
  5
AD
330
1F
100
AcDbEntity
  8
0
  6
Continuous
 62
     7
370
    25
100
AcDbLine
 10
10121.0310860202
 20
4955.4814652175
 30
0.0
 11
10121.0310860202
 21
4953.8022573563
 31
0.0
  0
LINE
  5
AE
330
1F
100
AcDbEntity
  8
0
  6
Continuous
 62
     7
370
    25
100
AcDbLine
 10
10121.0310860202
 20
4953.8022573563
 30
0.0
 11
9746.0310860202
 21
4953.8022573563
 31
0.0
  0
LINE
  5
AF
330
1F
100
AcDbEntity
  8
0
  6
Continuous
 62
     7
370
    25
100
AcDbLine
 10
9746.0310860202
 20
4953.8022573563
 30
0.0
 11
9746.0310860202
 21
4955.4814652175
 31
0.0
  0
LINE
  5
B0
330
1F
100
AcDbEntity
  8
0
  6
Continuous
 62
     7
370
    25
100
AcDbLine
 10
10229.3298518284
 20
4953.8022573563
 30
0.0
 11
10121.0310860202
 21
4953.8022573563
 31
0.0
  0
CIRCLE
  5
B1
330
1F
100
AcDbEntity
  8
0
  6
Continuous
 62
     7
370
    25
100
AcDbCircle
 10
9803.4825281538
 20
5115.1319972517
 30
0.0
 40
5.205503624775504
  0
ARC
  5
B2
330
1F
100
AcDbEntity
  8
0
  6
Continuous
 62
     7
370
    25
100
AcDbCircle
 10
9803.4649396667
 20
5114.6306316618
 30
0.0
 40
2.733725495184273
100
AcDbArc
 50
152.4617352108
 51
213.191747933
  0
ARC
  5
B3
330
1F
100
AcDbEntity
  8
0
  6
Continuous
 62
     7
370
    25
100
AcDbCircle
 10
9803.5261881528
 20
5114.6773784852
 30
0.0
 40
2.810577638100854
100
AcDbArc
 50
213.305698797
 51
272.879660685
  0
ARC
  5
B4
330
1F
100
AcDbEntity
  8
0
  6
Continuous
 62
     7
370
    25
100
AcDbCircle
 10
9803.5400977522
 20
5114.6697807953
 30
0.0
 40
2.802323313777433
100
AcDbArc
 50
272.6034297388
 51
332.2989440399
  0
ARC
  5
B5
330
1F
100
AcDbEntity
  8
0
  6
Continuous
 62
     7
370
    25
100
AcDbCircle
 10
9803.5972323737
 20
5114.6310104644
 30
0.0
 40
2.733725495172562
100
AcDbArc
 50
332.4617352107
 51
33.1917479331
  0
ARC
  5
B6
330
1F
100
AcDbEntity
  8
0
  6
Continuous
 62
     7
370
    25
100
AcDbCircle
 10
9803.5359838876
 20
5114.584263641
 30
0.0
 40
2.810577638082505
100
AcDbArc
 50
33.3056987968
 51
92.879660685
  0
ARC
  5
B7
330
1F
100
AcDbEntity
  8
0
  6
Continuous
 62
     7
370
    25
100
AcDbCircle
 10
9803.5220742882
 20
5114.5918613309
 30
0.0
 40
2.802323313770818
100
AcDbArc
 50
92.6034297385
 51
152.2989440399
  0
ARC
  5
B8
330
1F
100
AcDbEntity
  8
0
  6
Continuous
 62
     7
370
    25
100
AcDbCircle
 10
9801.860104281
 20
5117.2074705361
 30
0.0
 40
1.093321729120739
100
AcDbArc
 50
256.1637342774
 51
348.7386395014
  0
ARC
  5
B9
330
1F
100
AcDbEntity
  8
0
  6
Continuous
 62
     7
370
    25
100
AcDbCircle
 10
9801.480873165
 20
5115.6627625227
 30
0.0
 40
0.4972574684914942
100
AcDbArc
 50
76.3005016688
 51
152.217192987
  0
ARC
  5
BA
330
1F
100
AcDbEntity
  8
0
  6
Continuous
 62
     7
370
    25
100
AcDbCircle
 10
9803.4161584136
 20
5116.8986793635
 30
0.0
 40
0.4930763275782267
100
AcDbArc
 50
92.4843878645
 51
168.8580720791
  0
ARC
  5
BB
330
1F
100
AcDbEntity
  8
0
  6
Continuous
 62
     7
370
    25
100
AcDbCircle
 10
9805.4687447065
 20
5115.8534631965
 30
0.0
 40
0.4983427522651719
100
AcDbArc
 50
33.3693293984
 51
109.1684981843
  0
ARC
  5
BC
330
1F
100
AcDbEntity
  8
0
  6
Continuous
 62
     7
370
    25
100
AcDbCircle
 10
9804.9429427344
 20
5117.3586923949
 30
0.0
 40
1.096080434523101
100
AcDbArc
 50
196.8907827148
 51
289.2945767671
  0
ARC
  5
BD
330
1F
100
AcDbEntity
  8
0
  6
Continuous
 62
     7
370
    25
100
AcDbCircle
 10
9803.4206259537
 20
5116.8973649533
 30
0.0
 40
0.4946027858582557
100
AcDbArc
 50
16.7887758474
 51
92.9948367846
  0
LINE
  5
BE
330
1F
100
AcDbEntity
  8
0
  6
Continuous
 62
     7
370
    25
100
AcDbLine
 10
9805.8265943882
 20
5115.7016112556
 30
0.0
 11
9805.8265943882
 21
5115.5251755793
 31
0.0
  0
LWPOLYLINE
  5
BF
330
1F
100
AcDbEntity
  8
0
  6
Continuous
 62
     7
370
    25
100
AcDbPolyline
 90
        3
 70
   128
 43
0.0
 10
9805.8265943882
 20
5115.7016112556
 10
9805.918938875
 20
5115.8359944129
 10
9805.9556939004
 20
5115.9511106145
  0
ARC
  5
C0
330
1F
100
AcDbEntity
  8
0
  6
Continuous
 62
     7
370
    25
100
AcDbCircle
 10
9805.4796674506
 20
5115.8627942597
 30
0.0
 40
0.4840915960178323
100
AcDbArc
 50
315.7790437442
 51
33.1580742977
  0
ARC
  5
C1
330
1F
100
AcDbEntity
  8
0
  6
Continuous
 62
     7
370
    25
100
AcDbCircle
 10
9801.472603392
 20
5115.8485228323
 30
0.0
 40
0.4865752013392913
100
AcDbArc
 50
190.5668556344
 51
229.770236537
  0
LINE
  5
C2
330
1F
100
AcDbEntity
  8
0
  6
Continuous
 62
     7
370
    25
100
AcDbLine
 10
9801.1583466718
 20
5115.4770418228
 30
0.0
 11
9801.1583466718
 21
5115.3006061465
 31
0.0
  0
ARC
  5
C3
330
1F
100
AcDbEntity
  8
0
  6
Continuous
 62
     7
370
    25
100
AcDbCircle
 10
9801.4707928258
 20
5115.6709429927
 30
0.0
 40
0.4845327427424941
100
AcDbArc
 50
152.5174031397
 51
229.8463104102
  0
ARC
  5
C4
330
1F
100
AcDbEntity
  8
0
  6
Continuous
 62
     7
370
    25
100
AcDbCircle
 10
9805.5913792145
 20
5113.5906991335
 30
0.0
 40
0.4845327427508168
100
AcDbArc
 50
332.5174031406
 51
49.8463104086
  0
ARC
  5
C5
330
1F
100
AcDbEntity
  8
0
  6
Continuous
 62
     7
370
    25
100
AcDbCircle
 10
9806.5941786539
 20
5114.7790993527
 30
0.0
 40
1.070427643928947
100
AcDbArc
 50
135.8140774948
 51
229.839405649
  0
ARC
  5
C6
330
1F
100
AcDbEntity
  8
0
  6
Continuous
 62
     7
370
    25
100
AcDbCircle
 10
9800.4679933864
 20
5114.4825427735
 30
0.0
 40
1.070427643936103
100
AcDbArc
 50
315.8140774951
 51
49.8394056483
  0
ARC
  5
C7
330
1F
100
AcDbEntity
  8
0
  6
Continuous
 62
     7
370
    25
100
AcDbCircle
 10
9801.5825045897
 20
5113.3988478665
 30
0.0
 40
0.4840915960184666
100
AcDbArc
 50
135.7790437441
 51
213.1580742975
  0
ARC
  5
C8
330
1F
100
AcDbEntity
  8
0
  6
Continuous
 62
     7
370
    25
100
AcDbCircle
 10
9806.5954370041
 20
5114.9546559
 30
0.0
 40
1.071942755627445
100
AcDbArc
 50
135.8272609651
 51
179.9436272593
  0
ARC
  5
C9
330
1F
100
AcDbEntity
  8
0
  6
Continuous
 62
     7
370
    25
100
AcDbCircle
 10
9800.4657882074
 20
5114.6576181691
 30
0.0
 40
1.072889719799486
100
AcDbArc
 50
0.0632687562
 51
49.7962560097
  0
ARC
  5
CA
330
1F
100
AcDbEntity
  8
0
  6
Continuous
 62
     7
370
    25
100
AcDbCircle
 10
9803.6460136268
 20
5112.3629627627
 30
0.0
 40
0.4930763275812307
100
AcDbArc
 50
272.4843878655
 51
348.8580720788
  0
ARC
  5
CB
330
1F
100
AcDbEntity
  8
0
  6
Continuous
 62
     7
370
    25
100
AcDbCircle
 10
9805.2020677594
 20
5112.0541715901
 30
0.0
 40
1.093321729121145
100
AcDbArc
 50
76.163734277
 51
168.7386395015
  0
ARC
  5
CC
330
1F
100
AcDbEntity
  8
0
  6
Continuous
 62
     7
370
    25
100
AcDbCircle
 10
9805.5812988754
 20
5113.5988796035
 30
0.0
 40
0.4972574684795401
100
AcDbArc
 50
256.3005016683
 51
332.2171929879
  0
LINE
  5
CD
330
1F
100
AcDbEntity
  8
0
  6
Continuous
 62
     7
370
    25
100
AcDbLine
 10
9805.4635335684
 20
5113.2922041928
 30
0.0
 11
9805.4635335684
 21
5113.1157685165
 31
0.0
  0
ARC
  5
CE
330
1F
100
AcDbEntity
  8
0
  6
Continuous
 62
     7
370
    25
100
AcDbCircle
 10
9805.5822105491
 20
5113.7723720706
 30
0.0
 40
0.4946164338379486
100
AcDbArc
 50
256.1171543658
 51
349.0931689077
  0
ARC
  5
CF
330
1F
100
AcDbEntity
  8
0
  6
Continuous
 62
     7
370
    25
100
AcDbCircle
 10
9801.5924162008
 20
5113.5805850127
 30
0.0
 40
0.494873818269782
100
AcDbArc
 50
190.9046503439
 51
289.4322634328
  0
LINE
  5
D0
330
1F
100
AcDbEntity
  8
0
  6
Continuous
 62
     7
370
    25
100
AcDbLine
 10
9801.7570568654
 20
5113.1139014502
 30
0.0
 11
9801.7570568654
 21
5112.9374657739
 31
0.0
  0
ARC
  5
D1
330
1F
100
AcDbEntity
  8
0
  6
Continuous
 62
     7
370
    25
100
AcDbCircle
 10
9801.5934273338
 20
5113.4081789297
 30
0.0
 40
0.4983427522641714
100
AcDbArc
 50
213.3693293982
 51
289.1684981844
  0
ARC
  5
D2
330
1F
100
AcDbEntity
  8
0
  6
Continuous
 62
     7
370
    25
100
AcDbCircle
 10
9802.1192293059
 20
5111.9029497313
 30
0.0
 40
1.096080434526534
100
AcDbArc
 50
16.890782715
 51
109.294576767
  0
ARC
  5
D3
330
1F
100
AcDbEntity
  8
0
  6
Continuous
 62
     7
370
    25
100
AcDbCircle
 10
9803.6415460866
 20
5112.364277173
 30
0.0
 40
0.4946027858608036
100
AcDbArc
 50
196.7887758475
 51
272.9948367851
  0
LINE
  5
D4
330
1F
100
AcDbEntity
  8
0
  6
Continuous
 62
     7
370
    25
100
AcDbLine
 10
9804.1297962138
 20
5112.4441163668
 30
0.0
 11
9804.1297962138
 21
5112.2676806905
 31
0.0
  0
ARC
  5
D5
330
1F
100
AcDbEntity
  8
0
  6
Continuous
 62
     7
370
    25
100
AcDbCircle
 10
9805.2020677594
 20
5112.2306072664
 30
0.0
 40
1.093321729120207
100
AcDbArc
 50
76.1637342769
 51
168.7386395016
  0
ARC
  5
D6
330
1F
100
AcDbEntity
  8
0
  6
Continuous
 62
     7
370
    25
100
AcDbCircle
 10
9802.1192293059
 20
5112.0793854076
 30
0.0
 40
1.096080434531685
100
AcDbArc
 50
16.8907827154
 51
109.2945767669
  0
LINE
  5
D7
330
1F
100
AcDbEntity
  8
0
  6
Continuous
 62
     7
370
    25
100
AcDbLine
 10
9803.1680252004
 20
5112.3978496766
 30
0.0
 11
9803.1680252004
 21
5112.2214140002
 31
0.0
  0
ARC
  5
D8
330
1F
100
AcDbEntity
  8
0
  6
Continuous
 62
     7
370
    25
100
AcDbCircle
 10
9803.6430923952
 20
5112.5419314572
 30
0.0
 40
0.4964356947310055
100
AcDbArc
 50
196.8718769161
 51
348.6363865285
  0
CIRCLE
  5
D9
330
1F
100
AcDbEntity
  8
0
  6
Continuous
 62
     7
370
    25
100
AcDbCircle
 10
9803.4825281538
 20
5297.7367531571
 30
0.0
 40
5.205503624775923
  0
ARC
  5
DA
330
1F
100
AcDbEntity
  8
0
  6
Continuous
 62
     7
370
    25
100
AcDbCircle
 10
9803.4649396667
 20
5297.2353875672
 30
0.0
 40
2.733725495184273
100
AcDbArc
 50
152.4617352108
 51
213.191747933
  0
ARC
  5
DB
330
1F
100
AcDbEntity
  8
0
  6
Continuous
 62
     7
370
    25
100
AcDbCircle
 10
9803.5261881528
 20
5297.2821343906
 30
0.0
 40
2.810577638095578
100
AcDbArc
 50
213.305698797
 51
272.879660685
  0
ARC
  5
DC
330
1F
100
AcDbEntity
  8
0
  6
Continuous
 62
     7
370
    25
100
AcDbCircle
 10
9803.5400977522
 20
5297.2745367007
 30
0.0
 40
2.802323313771161
100
AcDbArc
 50
272.6034297387
 51
332.29894404
  0
ARC
  5
DD
330
1F
100
AcDbEntity
  8
0
  6
Continuous
 62
     7
370
    25
100
AcDbCircle
 10
9803.5972323737
 20
5297.2357663698
 30
0.0
 40
2.733725495174175
100
AcDbArc
 50
332.4617352107
 51
33.1917479331
  0
ARC
  5
DE
330
1F
100
AcDbEntity
  8
0
  6
Continuous
 62
     7
370
    25
100
AcDbCircle
 10
9803.5359838876
 20
5297.1890195465
 30
0.0
 40
2.810577638081007
100
AcDbArc
 50
33.3056987968
 51
92.879660685
  0
ARC
  5
DF
330
1F
100
AcDbEntity
  8
0
  6
Continuous
 62
     7
370
    25
100
AcDbCircle
 10
9803.5220742882
 20
5297.1966172363
 30
0.0
 40
2.802323313770818
100
AcDbArc
 50
92.6034297385
 51
152.2989440399
  0
ARC
  5
E0
330
1F
100
AcDbEntity
  8
0
  6
Continuous
 62
     7
370
    25
100
AcDbCircle
 10
9801.860104281
 20
5299.8122264415
 30
0.0
 40
1.093321729120723
100
AcDbArc
 50
256.1637342773
 51
348.7386395013
  0
ARC
  5
E1
330
1F
100
AcDbEntity
  8
0
  6
Continuous
 62
     7
370
    25
100
AcDbCircle
 10
9801.480873165
 20
5298.2675184281
 30
0.0
 40
0.4972574684914942
100
AcDbArc
 50
76.3005016688
 51
152.217192987
  0
ARC
  5
E2
330
1F
100
AcDbEntity
  8
0
  6
Continuous
 62
     7
370
    25
100
AcDbCircle
 10
9803.4161584136
 20
5299.5034352689
 30
0.0
 40
0.4930763275790191
100
AcDbArc
 50
92.4843878644
 51
168.8580720791
  0
ARC
  5
E3
330
1F
100
AcDbEntity
  8
0
  6
Continuous
 62
     7
370
    25
100
AcDbCircle
 10
9805.4687447065
 20
5298.4582191019
 30
0.0
 40
0.498342752264236
100
AcDbArc
 50
33.3693293982
 51
109.1684981844
  0
ARC
  5
E4
330
1F
100
AcDbEntity
  8
0
  6
Continuous
 62
     7
370
    25
100
AcDbCircle
 10
9804.9429427344
 20
5299.9634483003
 30
0.0
 40
1.096080434524818
100
AcDbArc
 50
196.890782715
 51
289.294576767
  0
ARC
  5
E5
330
1F
100
AcDbEntity
  8
0
  6
Continuous
 62
     7
370
    25
100
AcDbCircle
 10
9803.4206259537
 20
5299.5021208587
 30
0.0
 40
0.4946027858620014
100
AcDbArc
 50
16.7887758474
 51
92.9948367842
  0
LINE
  5
E6
330
1F
100
AcDbEntity
  8
0
  6
Continuous
 62
     7
370
    25
100
AcDbLine
 10
9805.8265943882
 20
5298.3063671611
 30
0.0
 11
9805.8265943882
 21
5298.1299314848
 31
0.0
  0
LWPOLYLINE
  5
E7
330
1F
100
AcDbEntity
  8
0
  6
Continuous
 62
     7
370
    25
100
AcDbPolyline
 90
        3
 70
   128
 43
0.0
 10
9805.8265943882
 20
5298.3063671611
 10
9805.918938875
 20
5298.4407503184
 10
9805.9556939003
 20
5298.5558665199
  0
ARC
  5
E8
330
1F
100
AcDbEntity
  8
0
  6
Continuous
 62
     7
370
    25
100
AcDbCircle
 10
9805.4796674506
 20
5298.4675501652
 30
0.0
 40
0.4840915960157681
100
AcDbArc
 50
315.7790437442
 51
33.1580742979
  0
ARC
  5
E9
330
1F
100
AcDbEntity
  8
0
  6
Continuous
 62
     7
370
    25
100
AcDbCircle
 10
9801.472603392
 20
5298.4532787377
 30
0.0
 40
0.486575201383347
100
AcDbArc
 50
190.5668556376
 51
229.7702365352
  0
LINE
  5
EA
330
1F
100
AcDbEntity
  8
0
  6
Continuous
 62
     7
370
    25
100
AcDbLine
 10
9801.1583466718
 20
5298.0817977283
 30
0.0
 11
9801.1583466718
 21
5297.9053620519
 31
0.0
  0
ARC
  5
EB
330
1F
100
AcDbEntity
  8
0
  6
Continuous
 62
     7
370
    25
100
AcDbCircle
 10
9801.4707928258
 20
5298.2756988981
 30
0.0
 40
0.4845327427441078
100
AcDbArc
 50
152.5174031398
 51
229.84631041
  0
ARC
  5
EC
330
1F
100
AcDbEntity
  8
0
  6
Continuous
 62
     7
370
    25
100
AcDbCircle
 10
9805.5913792145
 20
5296.195455039
 30
0.0
 40
0.4845327427508168
100
AcDbArc
 50
332.5174031404
 51
49.8463104086
  0
ARC
  5
ED
330
1F
100
AcDbEntity
  8
0
  6
Continuous
 62
     7
370
    25
100
AcDbCircle
 10
9806.5941786539
 20
5297.3838552582
 30
0.0
 40
1.070427643928947
100
AcDbArc
 50
135.8140774948
 51
229.839405649
  0
ARC
  5
EE
330
1F
100
AcDbEntity
  8
0
  6
Continuous
 62
     7
370
    25
100
AcDbCircle
 10
9800.4679933864
 20
5297.0872986789
 30
0.0
 40
1.070427643936569
100
AcDbArc
 50
315.8140774951
 51
49.8394056484
  0
ARC
  5
EF
330
1F
100
AcDbEntity
  8
0
  6
Continuous
 62
     7
370
    25
100
AcDbCircle
 10
9801.5825045897
 20
5296.0036037719
 30
0.0
 40
0.484091596017163
100
AcDbArc
 50
135.779043744
 51
213.1580742976
  0
ARC
  5
F0
330
1F
100
AcDbEntity
  8
0
  6
Continuous
 62
     7
370
    25
100
AcDbCircle
 10
9806.5954370041
 20
5297.5594118054
 30
0.0
 40
1.071942755626811
100
AcDbArc
 50
135.8272609651
 51
179.9436272593
  0
ARC
  5
F1
330
1F
100
AcDbEntity
  8
0
  6
Continuous
 62
     7
370
    25
100
AcDbCircle
 10
9800.4657882074
 20
5297.2623740746
 30
0.0
 40
1.072889719799486
100
AcDbArc
 50
0.0632687562
 51
49.7962560097
  0
ARC
  5
F2
330
1F
100
AcDbEntity
  8
0
  6
Continuous
 62
     7
370
    25
100
AcDbCircle
 10
9803.6460136268
 20
5294.9677186682
 30
0.0
 40
0.4930763275765297
100
AcDbArc
 50
272.4843878651
 51
348.8580720791
  0
ARC
  5
F3
330
1F
100
AcDbEntity
  8
0
  6
Continuous
 62
     7
370
    25
100
AcDbCircle
 10
9805.2020677594
 20
5294.6589274955
 30
0.0
 40
1.093321729123794
100
AcDbArc
 50
76.163734277
 51
168.7386395014
  0
ARC
  5
F4
330
1F
100
AcDbEntity
  8
0
  6
Continuous
 62
     7
370
    25
100
AcDbCircle
 10
9805.5812988754
 20
5296.2036355089
 30
0.0
 40
0.4972574684804237
100
AcDbArc
 50
256.3005016683
 51
332.2171929876
  0
LINE
  5
F5
330
1F
100
AcDbEntity
  8
0
  6
Continuous
 62
     7
370
    25
100
AcDbLine
 10
9805.4635335684
 20
5295.8969600982
 30
0.0
 11
9805.4635335684
 21
5295.7205244219
 31
0.0
  0
ARC
  5
F6
330
1F
100
AcDbEntity
  8
0
  6
Continuous
 62
     7
370
    25
100
AcDbCircle
 10
9805.5822105491
 20
5296.377127976
 30
0.0
 40
0.4946164338430344
100
AcDbArc
 50
256.1171543662
 51
349.0931688857
  0
ARC
  5
F7
330
1F
100
AcDbEntity
  8
0
  6
Continuous
 62
     7
370
    25
100
AcDbCircle
 10
9801.5924162008
 20
5296.1853409182
 30
0.0
 40
0.4948738182757108
100
AcDbArc
 50
190.9046503122
 51
289.4322634317
  0
LINE
  5
F8
330
1F
100
AcDbEntity
  8
0
  6
Continuous
 62
     7
370
    25
100
AcDbLine
 10
9801.7570568654
 20
5295.7186573556
 30
0.0
 11
9801.7570568654
 21
5295.5422216793
 31
0.0
  0
ARC
  5
F9
330
1F
100
AcDbEntity
  8
0
  6
Continuous
 62
     7
370
    25
100
AcDbCircle
 10
9801.5934273338
 20
5296.0129348352
 30
0.0
 40
0.4983427522659541
100
AcDbArc
 50
213.3693293985
 51
289.1684981843
  0
ARC
  5
FA
330
1F
100
AcDbEntity
  8
0
  6
Continuous
 62
     7
370
    25
100
AcDbCircle
 10
9802.1192293059
 20
5294.5077056367
 30
0.0
 40
1.096080434526534
100
AcDbArc
 50
16.890782715
 51
109.294576767
  0
ARC
  5
FB
330
1F
100
AcDbEntity
  8
0
  6
Continuous
 62
     7
370
    25
100
AcDbCircle
 10
9803.6415460866
 20
5294.9690330784
 30
0.0
 40
0.4946027858582557
100
AcDbArc
 50
196.7887758474
 51
272.9948367853
  0
LINE
  5
FC
330
1F
100
AcDbEntity
  8
0
  6
Continuous
 62
     7
370
    25
100
AcDbLine
 10
9804.1297962138
 20
5295.0488722722
 30
0.0
 11
9804.1297962138
 21
5294.8724365959
 31
0.0
  0
ARC
  5
FD
330
1F
100
AcDbEntity
  8
0
  6
Continuous
 62
     7
370
    25
100
AcDbCircle
 10
9805.2020677594
 20
5294.8353631718
 30
0.0
 40
1.09332172912158
100
AcDbArc
 50
76.1637342769
 51
168.7386395014
  0
ARC
  5
FE
330
1F
100
AcDbEntity
  8
0
  6
Continuous
 62
     7
370
    25
100
AcDbCircle
 10
9802.1192293059
 20
5294.684141313
 30
0.0
 40
1.096080434529968
100
AcDbArc
 50
16.8907827152
 51
109.2945767669
  0
LINE
  5
FF
330
1F
100
AcDbEntity
  8
0
  6
Continuous
 62
     7
370
    25
100
AcDbLine
 10
9803.1680252004
 20
5295.002605582
 30
0.0
 11
9803.1680252004
 21
5294.8261699057
 31
0.0
  0
ARC
  5
100
330
1F
100
AcDbEntity
  8
0
  6
Continuous
 62
     7
370
    25
100
AcDbCircle
 10
9803.6430923952
 20
5295.1466873626
 30
0.0
 40
0.4964356947310055
100
AcDbArc
 50
196.8718769163
 51
348.6363865285
  0
CIRCLE
  5
101
330
1F
100
AcDbEntity
  8
0
  6
Continuous
 62
     7
370
    25
100
AcDbCircle
 10
9963.4825281538
 20
5297.7367531571
 30
0.0
 40
5.205503624773113
  0
ARC
  5
102
330
1F
100
AcDbEntity
  8
0
  6
Continuous
 62
     7
370
    25
100
AcDbCircle
 10
9963.4649396667
 20
5297.2353875672
 30
0.0
 40
2.733725495179179
100
AcDbArc
 50
152.4617352107
 51
213.191747933
  0
ARC
  5
103
330
1F
100
AcDbEntity
  8
0
  6
Continuous
 62
     7
370
    25
100
AcDbCircle
 10
9963.5261881528
 20
5297.2821343906
 30
0.0
 40
2.810577638095578
100
AcDbArc
 50
213.305698797
 51
272.879660685
  0
ARC
  5
104
330
1F
100
AcDbEntity
  8
0
  6
Continuous
 62
     7
370
    25
100
AcDbCircle
 10
9963.5400977522
 20
5297.2745367007
 30
0.0
 40
2.802323313771161
100
AcDbArc
 50
272.6034297387
 51
332.29894404
  0
ARC
  5
105
330
1F
100
AcDbEntity
  8
0
  6
Continuous
 62
     7
370
    25
100
AcDbCircle
 10
9963.5972323737
 20
5297.2357663698
 30
0.0
 40
2.733725495169548
100
AcDbArc
 50
332.4617352107
 51
33.1917479331
  0
ARC
  5
106
330
1F
100
AcDbEntity
  8
0
  6
Continuous
 62
     7
370
    25
100
AcDbCircle
 10
9963.5359838876
 20
5297.1890195465
 30
0.0
 40
2.810577638084025
100
AcDbArc
 50
33.3056987968
 51
92.8796606851
  0
ARC
  5
107
330
1F
100
AcDbEntity
  8
0
  6
Continuous
 62
     7
370
    25
100
AcDbCircle
 10
9963.5220742882
 20
5297.1966172364
 30
0.0
 40
2.80232331375888
100
AcDbArc
 50
92.6034297386
 51
152.29894404
  0
ARC
  5
108
330
1F
100
AcDbEntity
  8
0
  6
Continuous
 62
     7
370
    25
100
AcDbCircle
 10
9961.860104281
 20
5299.8122264415
 30
0.0
 40
1.093321729121158
100
AcDbArc
 50
256.1637342772
 51
348.7386395013
  0
ARC
  5
109
330
1F
100
AcDbEntity
  8
0
  6
Continuous
 62
     7
370
    25
100
AcDbCircle
 10
9961.480873165
 20
5298.2675184281
 30
0.0
 40
0.4972574684845466
100
AcDbArc
 50
76.3005016687
 51
152.2171929872
  0
ARC
  5
10A
330
1F
100
AcDbEntity
  8
0
  6
Continuous
 62
     7
370
    25
100
AcDbCircle
 10
9963.4161584136
 20
5299.5034352689
 30
0.0
 40
0.4930763275800114
100
AcDbArc
 50
92.4843878651
 51
168.8580720792
  0
ARC
  5
10B
330
1F
100
AcDbEntity
  8
0
  6
Continuous
 62
     7
370
    25
100
AcDbCircle
 10
9965.4687447065
 20
5298.4582191019
 30
0.0
 40
0.4983427522659541
100
AcDbArc
 50
33.3693293984
 51
109.1684981843
  0
ARC
  5
10C
330
1F
100
AcDbEntity
  8
0
  6
Continuous
 62
     7
370
    25
100
AcDbCircle
 10
9964.9429427344
 20
5299.9634483003
 30
0.0
 40
1.096080434524818
100
AcDbArc
 50
196.890782715
 51
289.294576767
  0
ARC
  5
10D
330
1F
100
AcDbEntity
  8
0
  6
Continuous
 62
     7
370
    25
100
AcDbCircle
 10
9963.4206259537
 20
5299.5021208587
 30
0.0
 40
0.4946027858607085
100
AcDbArc
 50
16.7887758474
 51
92.9948367848
  0
LINE
  5
10E
330
1F
100
AcDbEntity
  8
0
  6
Continuous
 62
     7
370
    25
100
AcDbLine
 10
9965.8265943882
 20
5298.3063671611
 30
0.0
 11
9965.8265943882
 21
5298.1299314848
 31
0.0
  0
LWPOLYLINE
  5
10F
330
1F
100
AcDbEntity
  8
0
  6
Continuous
 62
     7
370
    25
100
AcDbPolyline
 90
        3
 70
   128
 43
0.0
 10
9965.8265943882
 20
5298.3063671611
 10
9965.918938875
 20
5298.4407503184
 10
9965.9556939004
 20
5298.5558665199
  0
ARC
  5
110
330
1F
100
AcDbEntity
  8
0
  6
Continuous
 62
     7
370
    25
100
AcDbCircle
 10
9965.4796674506
 20
5298.4675501652
 30
0.0
 40
0.4840915960142453
100
AcDbArc
 50
315.7790437441
 51
33.158074298
  0
ARC
  5
111
330
1F
100
AcDbEntity
  8
0
  6
Continuous
 62
     7
370
    25
100
AcDbCircle
 10
9961.4726033916
 20
5298.4532787375
 30
0.0
 40
0.4865752009208317
100
AcDbArc
 50
190.5668556028
 51
229.770236554
  0
LINE
  5
112
330
1F
100
AcDbEntity
  8
0
  6
Continuous
 62
     7
370
    25
100
AcDbLine
 10
9961.1583466718
 20
5298.0817977283
 30
0.0
 11
9961.1583466718
 21
5297.9053620519
 31
0.0
  0
ARC
  5
113
330
1F
100
AcDbEntity
  8
0
  6
Continuous
 62
     7
370
    25
100
AcDbCircle
 10
9961.4707928258
 20
5298.2756988981
 30
0.0
 40
0.484532742738392
100
AcDbArc
 50
152.5174031391
 51
229.8463104102
  0
ARC
  5
114
330
1F
100
AcDbEntity
  8
0
  6
Continuous
 62
     7
370
    25
100
AcDbCircle
 10
9965.5913792145
 20
5296.195455039
 30
0.0
 40
0.4845327427497232
100
AcDbArc
 50
332.5174031404
 51
49.8463104088
  0
ARC
  5
115
330
1F
100
AcDbEntity
  8
0
  6
Continuous
 62
     7
370
    25
100
AcDbCircle
 10
9966.5941786539
 20
5297.3838552582
 30
0.0
 40
1.070427643929052
100
AcDbArc
 50
135.8140774948
 51
229.8394056489
  0
ARC
  5
116
330
1F
100
AcDbEntity
  8
0
  6
Continuous
 62
     7
370
    25
100
AcDbCircle
 10
9960.4679933864
 20
5297.0872986789
 30
0.0
 40
1.070427643935469
100
AcDbArc
 50
315.8140774951
 51
49.8394056485
  0
ARC
  5
117
330
1F
100
AcDbEntity
  8
0
  6
Continuous
 62
     7
370
    25
100
AcDbCircle
 10
9961.5825045897
 20
5296.0036037719
 30
0.0
 40
0.484091596017163
100
AcDbArc
 50
135.779043744
 51
213.1580742976
  0
ARC
  5
118
330
1F
100
AcDbEntity
  8
0
  6
Continuous
 62
     7
370
    25
100
AcDbCircle
 10
9966.5954370041
 20
5297.5594118054
 30
0.0
 40
1.071942755626811
100
AcDbArc
 50
135.8272609651
 51
179.9436272593
  0
ARC
  5
119
330
1F
100
AcDbEntity
  8
0
  6
Continuous
 62
     7
370
    25
100
AcDbCircle
 10
9960.4657882074
 20
5297.2623740746
 30
0.0
 40
1.072889719798796
100
AcDbArc
 50
0.0632687562
 51
49.7962560098
  0
ARC
  5
11A
330
1F
100
AcDbEntity
  8
0
  6
Continuous
 62
     7
370
    25
100
AcDbCircle
 10
9963.6460136268
 20
5294.9677186682
 30
0.0
 40
0.4930763275735672
100
AcDbArc
 50
272.4843878645
 51
348.8580720793
  0
ARC
  5
11B
330
1F
100
AcDbEntity
  8
0
  6
Continuous
 62
     7
370
    25
100
AcDbCircle
 10
9965.2020677594
 20
5294.6589274955
 30
0.0
 40
1.093321729122924
100
AcDbArc
 50
76.1637342772
 51
168.7386395014
  0
ARC
  5
11C
330
1F
100
AcDbEntity
  8
0
  6
Continuous
 62
     7
370
    25
100
AcDbCircle
 10
9965.5812988754
 20
5296.2036355089
 30
0.0
 40
0.4972574684808544
100
AcDbArc
 50
256.3005016681
 51
332.2171929876
  0
LINE
  5
11D
330
1F
100
AcDbEntity
  8
0
  6
Continuous
 62
     7
370
    25
100
AcDbLine
 10
9965.4635335684
 20
5295.8969600982
 30
0.0
 11
9965.4635335684
 21
5295.7205244219
 31
0.0
  0
ARC
  5
11E
330
1F
100
AcDbEntity
  8
0
  6
Continuous
 62
     7
370
    25
100
AcDbCircle
 10
9965.5822105491
 20
5296.377127976
 30
0.0
 40
0.4946164338424766
100
AcDbArc
 50
256.1171543659
 51
349.0931688882
  0
ARC
  5
11F
330
1F
100
AcDbEntity
  8
0
  6
Continuous
 62
     7
370
    25
100
AcDbCircle
 10
9961.5924162008
 20
5296.1853409181
 30
0.0
 40
0.4948738182708923
100
AcDbArc
 50
190.904650335
 51
289.4322634325
  0
LINE
  5
120
330
1F
100
AcDbEntity
  8
0
  6
Continuous
 62
     7
370
    25
100
AcDbLine
 10
9961.7570568654
 20
5295.7186573556
 30
0.0
 11
9961.7570568654
 21
5295.5422216793
 31
0.0
  0
ARC
  5
121
330
1F
100
AcDbEntity
  8
0
  6
Continuous
 62
     7
370
    25
100
AcDbCircle
 10
9961.5934273338
 20
5296.0129348352
 30
0.0
 40
0.4983427522659541
100
AcDbArc
 50
213.3693293985
 51
289.1684981843
  0
ARC
  5
122
330
1F
100
AcDbEntity
  8
0
  6
Continuous
 62
     7
370
    25
100
AcDbCircle
 10
9962.1192293059
 20
5294.5077056367
 30
0.0
 40
1.096080434526534
100
AcDbArc
 50
16.890782715
 51
109.294576767
  0
ARC
  5
123
330
1F
100
AcDbEntity
  8
0
  6
Continuous
 62
     7
370
    25
100
AcDbCircle
 10
9963.6415460866
 20
5294.9690330784
 30
0.0
 40
0.4946027858616168
100
AcDbArc
 50
196.7887758477
 51
272.9948367848
  0
LINE
  5
124
330
1F
100
AcDbEntity
  8
0
  6
Continuous
 62
     7
370
    25
100
AcDbLine
 10
9964.1297962138
 20
5295.0488722722
 30
0.0
 11
9964.1297962138
 21
5294.8724365959
 31
0.0
  0
ARC
  5
125
330
1F
100
AcDbEntity
  8
0
  6
Continuous
 62
     7
370
    25
100
AcDbCircle
 10
9965.2020677594
 20
5294.8353631718
 30
0.0
 40
1.093321729122523
100
AcDbArc
 50
76.1637342771
 51
168.7386395015
  0
ARC
  5
126
330
1F
100
AcDbEntity
  8
0
  6
Continuous
 62
     7
370
    25
100
AcDbCircle
 10
9962.1192293059
 20
5294.6841413131
 30
0.0
 40
1.096080434526534
100
AcDbArc
 50
16.8907827151
 51
109.294576767
  0
LINE
  5
127
330
1F
100
AcDbEntity
  8
0
  6
Continuous
 62
     7
370
    25
100
AcDbLine
 10
9963.1680252004
 20
5295.002605582
 30
0.0
 11
9963.1680252004
 21
5294.8261699057
 31
0.0
  0
ARC
  5
128
330
1F
100
AcDbEntity
  8
0
  6
Continuous
 62
     7
370
    25
100
AcDbCircle
 10
9963.6430923952
 20
5295.1466873626
 30
0.0
 40
0.4964356947324857
100
AcDbArc
 50
196.8718769166
 51
348.6363865282
  0
CIRCLE
  5
129
330
1F
100
AcDbEntity
  8
0
  6
Continuous
 62
     7
370
    25
100
AcDbCircle
 10
9963.4825281538
 20
5115.1319972517
 30
0.0
 40
5.205503624772694
  0
ARC
  5
12A
330
1F
100
AcDbEntity
  8
0
  6
Continuous
 62
     7
370
    25
100
AcDbCircle
 10
9963.4649396667
 20
5114.6306316618
 30
0.0
 40
2.733725495178183
100
AcDbArc
 50
152.4617352107
 51
213.191747933
  0
ARC
  5
12B
330
1F
100
AcDbEntity
  8
0
  6
Continuous
 62
     7
370
    25
100
AcDbCircle
 10
9963.5261881528
 20
5114.6773784852
 30
0.0
 40
2.810577638100763
100
AcDbArc
 50
213.305698797
 51
272.8796606849
  0
ARC
  5
12C
330
1F
100
AcDbEntity
  8
0
  6
Continuous
 62
     7
370
    25
100
AcDbCircle
 10
9963.5400977522
 20
5114.6697807953
 30
0.0
 40
2.802323313777351
100
AcDbArc
 50
272.6034297388
 51
332.2989440399
  0
ARC
  5
12D
330
1F
100
AcDbEntity
  8
0
  6
Continuous
 62
     7
370
    25
100
AcDbCircle
 10
9963.5972323737
 20
5114.6310104644
 30
0.0
 40
2.733725495169336
100
AcDbArc
 50
332.4617352107
 51
33.1917479331
  0
ARC
  5
12E
330
1F
100
AcDbEntity
  8
0
  6
Continuous
 62
     7
370
    25
100
AcDbCircle
 10
9963.5359838876
 20
5114.584263641
 30
0.0
 40
2.810577638086023
100
AcDbArc
 50
33.3056987969
 51
92.8796606851
  0
ARC
  5
12F
330
1F
100
AcDbEntity
  8
0
  6
Continuous
 62
     7
370
    25
100
AcDbCircle
 10
9963.5220742882
 20
5114.5918613309
 30
0.0
 40
2.80232331375888
100
AcDbArc
 50
92.6034297386
 51
152.29894404
  0
ARC
  5
130
330
1F
100
AcDbEntity
  8
0
  6
Continuous
 62
     7
370
    25
100
AcDbCircle
 10
9961.860104281
 20
5117.2074705361
 30
0.0
 40
1.093321729120739
100
AcDbArc
 50
256.1637342773
 51
348.7386395014
  0
ARC
  5
131
330
1F
100
AcDbEntity
  8
0
  6
Continuous
 62
     7
370
    25
100
AcDbCircle
 10
9961.480873165
 20
5115.6627625227
 30
0.0
 40
0.4972574684841227
100
AcDbArc
 50
76.3005016686
 51
152.2171929873
  0
ARC
  5
132
330
1F
100
AcDbEntity
  8
0
  6
Continuous
 62
     7
370
    25
100
AcDbCircle
 10
9963.4161584136
 20
5116.8986793635
 30
0.0
 40
0.493076327580363
100
AcDbArc
 50
92.4843878651
 51
168.858072079
  0
ARC
  5
133
330
1F
100
AcDbEntity
  8
0
  6
Continuous
 62
     7
370
    25
100
AcDbCircle
 10
9965.4687447065
 20
5115.8534631965
 30
0.0
 40
0.4983427522676723
100
AcDbArc
 50
33.3693293986
 51
109.1684981842
  0
ARC
  5
134
330
1F
100
AcDbEntity
  8
0
  6
Continuous
 62
     7
370
    25
100
AcDbCircle
 10
9964.9429427344
 20
5117.3586923949
 30
0.0
 40
1.096080434523101
100
AcDbArc
 50
196.8907827148
 51
289.2945767671
  0
ARC
  5
135
330
1F
100
AcDbEntity
  8
0
  6
Continuous
 62
     7
370
    25
100
AcDbCircle
 10
9963.4206259537
 20
5116.8973649533
 30
0.0
 40
0.4946027858597346
100
AcDbArc
 50
16.7887758472
 51
92.9948367849
  0
LINE
  5
136
330
1F
100
AcDbEntity
  8
0
  6
Continuous
 62
     7
370
    25
100
AcDbLine
 10
9965.8265943882
 20
5115.7016112556
 30
0.0
 11
9965.8265943882
 21
5115.5251755793
 31
0.0
  0
LWPOLYLINE
  5
137
330
1F
100
AcDbEntity
  8
0
  6
Continuous
 62
     7
370
    25
100
AcDbPolyline
 90
        3
 70
   128
 43
0.0
 10
9965.8265943882
 20
5115.7016112556
 10
9965.918938875
 20
5115.8359944129
 10
9965.9556939004
 20
5115.9511106145
  0
ARC
  5
138
330
1F
100
AcDbEntity
  8
0
  6
Continuous
 62
     7
370
    25
100
AcDbCircle
 10
9965.4796674506
 20
5115.8627942597
 30
0.0
 40
0.4840915960178323
100
AcDbArc
 50
315.7790437442
 51
33.1580742977
  0
ARC
  5
139
330
1F
100
AcDbEntity
  8
0
  6
Continuous
 62
     7
370
    25
100
AcDbCircle
 10
9961.4726033915
 20
5115.8485228321
 30
0.0
 40
0.4865752008869728
100
AcDbArc
 50
190.5668556024
 51
229.7702365554
  0
LINE
  5
13A
330
1F
100
AcDbEntity
  8
0
  6
Continuous
 62
     7
370
    25
100
AcDbLine
 10
9961.1583466718
 20
5115.4770418228
 30
0.0
 11
9961.1583466718
 21
5115.3006061465
 31
0.0
  0
ARC
  5
13B
330
1F
100
AcDbEntity
  8
0
  6
Continuous
 62
     7
370
    25
100
AcDbCircle
 10
9961.4707928258
 20
5115.6709429927
 30
0.0
 40
0.4845327427390872
100
AcDbArc
 50
152.5174031392
 51
229.8463104103
  0
ARC
  5
13C
330
1F
100
AcDbEntity
  8
0
  6
Continuous
 62
     7
370
    25
100
AcDbCircle
 10
9965.5913792145
 20
5113.5906991335
 30
0.0
 40
0.4845327427496438
100
AcDbArc
 50
332.5174031406
 51
49.8463104088
  0
ARC
  5
13D
330
1F
100
AcDbEntity
  8
0
  6
Continuous
 62
     7
370
    25
100
AcDbCircle
 10
9966.5941786539
 20
5114.7790993527
 30
0.0
 40
1.070427643929052
100
AcDbArc
 50
135.8140774948
 51
229.8394056489
  0
ARC
  5
13E
330
1F
100
AcDbEntity
  8
0
  6
Continuous
 62
     7
370
    25
100
AcDbCircle
 10
9960.4679933864
 20
5114.4825427735
 30
0.0
 40
1.070427643936103
100
AcDbArc
 50
315.8140774951
 51
49.8394056484
  0
ARC
  5
13F
330
1F
100
AcDbEntity
  8
0
  6
Continuous
 62
     7
370
    25
100
AcDbCircle
 10
9961.5825045897
 20
5113.3988478665
 30
0.0
 40
0.4840915960184666
100
AcDbArc
 50
135.7790437441
 51
213.1580742975
  0
ARC
  5
140
330
1F
100
AcDbEntity
  8
0
  6
Continuous
 62
     7
370
    25
100
AcDbCircle
 10
9966.5954370041
 20
5114.9546559
 30
0.0
 40
1.071942755627445
100
AcDbArc
 50
135.8272609651
 51
179.9436272593
  0
ARC
  5
141
330
1F
100
AcDbEntity
  8
0
  6
Continuous
 62
     7
370
    25
100
AcDbCircle
 10
9960.4657882074
 20
5114.6576181691
 30
0.0
 40
1.072889719798796
100
AcDbArc
 50
0.0632687562
 51
49.7962560098
  0
ARC
  5
142
330
1F
100
AcDbEntity
  8
0
  6
Continuous
 62
     7
370
    25
100
AcDbCircle
 10
9963.6460136268
 20
5112.3629627627
 30
0.0
 40
0.4930763275782267
100
AcDbArc
 50
272.4843878651
 51
348.8580720791
  0
ARC
  5
143
330
1F
100
AcDbEntity
  8
0
  6
Continuous
 62
     7
370
    25
100
AcDbCircle
 10
9965.2020677594
 20
5112.0541715901
 30
0.0
 40
1.093321729122168
100
AcDbArc
 50
76.1637342772
 51
168.7386395016
  0
ARC
  5
144
330
1F
100
AcDbEntity
  8
0
  6
Continuous
 62
     7
370
    25
100
AcDbCircle
 10
9965.5812988754
 20
5113.5988796035
 30
0.0
 40
0.4972574684799708
100
AcDbArc
 50
256.3005016681
 51
332.2171929879
  0
LINE
  5
145
330
1F
100
AcDbEntity
  8
0
  6
Continuous
 62
     7
370
    25
100
AcDbLine
 10
9965.4635335684
 20
5113.2922041928
 30
0.0
 11
9965.4635335684
 21
5113.1157685165
 31
0.0
  0
ARC
  5
146
330
1F
100
AcDbEntity
  8
0
  6
Continuous
 62
     7
370
    25
100
AcDbCircle
 10
9965.5822105491
 20
5113.7723720706
 30
0.0
 40
0.4946164338434023
100
AcDbArc
 50
256.117154366
 51
349.0931688888
  0
ARC
  5
147
330
1F
100
AcDbEntity
  8
0
  6
Continuous
 62
     7
370
    25
100
AcDbCircle
 10
9961.5924162008
 20
5113.5805850127
 30
0.0
 40
0.494873818267209
100
AcDbArc
 50
190.904650332
 51
289.4322634329
  0
LINE
  5
148
330
1F
100
AcDbEntity
  8
0
  6
Continuous
 62
     7
370
    25
100
AcDbLine
 10
9961.7570568654
 20
5113.1139014502
 30
0.0
 11
9961.7570568654
 21
5112.9374657739
 31
0.0
  0
ARC
  5
149
330
1F
100
AcDbEntity
  8
0
  6
Continuous
 62
     7
370
    25
100
AcDbCircle
 10
9961.5934273338
 20
5113.4081789297
 30
0.0
 40
0.4983427522641714
100
AcDbArc
 50
213.3693293982
 51
289.1684981844
  0
ARC
  5
14A
330
1F
100
AcDbEntity
  8
0
  6
Continuous
 62
     7
370
    25
100
AcDbCircle
 10
9962.1192293059
 20
5111.9029497313
 30
0.0
 40
1.096080434526534
100
AcDbArc
 50
16.890782715
 51
109.294576767
  0
ARC
  5
14B
330
1F
100
AcDbEntity
  8
0
  6
Continuous
 62
     7
370
    25
100
AcDbCircle
 10
9963.6415460866
 20
5112.364277173
 30
0.0
 40
0.4946027858633383
100
AcDbArc
 50
196.7887758478
 51
272.9948367846
  0
LINE
  5
14C
330
1F
100
AcDbEntity
  8
0
  6
Continuous
 62
     7
370
    25
100
AcDbLine
 10
9964.1297962138
 20
5112.4441163668
 30
0.0
 11
9964.1297962138
 21
5112.2676806905
 31
0.0
  0
ARC
  5
14D
330
1F
100
AcDbEntity
  8
0
  6
Continuous
 62
     7
370
    25
100
AcDbCircle
 10
9965.2020677594
 20
5112.2306072664
 30
0.0
 40
1.093321729120207
100
AcDbArc
 50
76.163734277
 51
168.7386395016
  0
ARC
  5
14E
330
1F
100
AcDbEntity
  8
0
  6
Continuous
 62
     7
370
    25
100
AcDbCircle
 10
9962.1192293059
 20
5112.0793854076
 30
0.0
 40
1.096080434527393
100
AcDbArc
 50
16.8907827152
 51
109.294576767
  0
LINE
  5
14F
330
1F
100
AcDbEntity
  8
0
  6
Continuous
 62
     7
370
    25
100
AcDbLine
 10
9963.1680252004
 20
5112.3978496766
 30
0.0
 11
9963.1680252004
 21
5112.2214140002
 31
0.0
  0
ARC
  5
150
330
1F
100
AcDbEntity
  8
0
  6
Continuous
 62
     7
370
    25
100
AcDbCircle
 10
9963.6430923952
 20
5112.5419314572
 30
0.0
 40
0.4964356947316938
100
AcDbArc
 50
196.8718769163
 51
348.6363865283
  0
LINE
  5
151
330
1F
100
AcDbEntity
  8
0
  6
Continuous
 62
     7
370
    25
100
AcDbLine
 10
9981.0310860202
 20
5302.7001476706
 30
0.0
 11
9981.0310860202
 21
5302.7161872775
 31
0.0
  0
LINE
  5
152
330
1F
100
AcDbEntity
  8
0
  6
Continuous
 62
     7
370
    25
100
AcDbLine
 10
9981.0310860202
 20
5302.7001476706
 30
0.0
 11
9965.1318670795
 21
5302.7001476706
 31
0.0
  0
LINE
  5
153
330
1F
100
AcDbEntity
  8
0
  6
Continuous
 62
     7
370
    25
100
AcDbLine
 10
9961.9303049608
 20
5302.7001476706
 30
0.0
 11
9805.1318670795
 21
5302.7001476706
 31
0.0
  0
LINE
  5
154
330
1F
100
AcDbEntity
  8
0
  6
Continuous
 62
     7
370
    25
100
AcDbLine
 10
9801.9303049608
 20
5302.7001476706
 30
0.0
 11
9786.0310860202
 21
5302.7001476706
 31
0.0
  0
LINE
  5
155
330
1F
100
AcDbEntity
  8
0
  6
Continuous
 62
     7
370
    25
100
AcDbLine
 10
9786.0310860202
 20
5302.7001476706
 30
0.0
 11
9786.0310860202
 21
5302.7161872775
 31
0.0
  0
LINE
  5
156
330
1F
100
AcDbEntity
  8
0
  6
Continuous
 62
     7
370
    25
100
AcDbLine
 10
9981.0310860202
 20
5110.2248644189
 30
0.0
 11
9981.0310860202
 21
5302.7001476706
 31
0.0
  0
LINE
  5
157
330
1F
100
AcDbEntity
  8
0
  6
Continuous
 62
     7
370
    25
100
AcDbLine
 10
9786.0310860202
 20
5110.2248644189
 30
0.0
 11
9801.9303049608
 21
5110.2248644189
 31
0.0
  0
LINE
  5
158
330
1F
100
AcDbEntity
  8
0
  6
Continuous
 62
     7
370
    25
100
AcDbLine
 10
9805.1318670795
 20
5110.2248644189
 30
0.0
 11
9961.9303049608
 21
5110.2248644189
 31
0.0
  0
LINE
  5
159
330
1F
100
AcDbEntity
  8
0
  6
Continuous
 62
     7
370
    25
100
AcDbLine
 10
9965.1318670795
 20
5110.2248644189
 30
0.0
 11
9981.0310860202
 21
5110.2248644189
 31
0.0
  0
LINE
  5
15A
330
1F
100
AcDbEntity
  8
0
  6
Continuous
 62
     7
370
    25
100
AcDbLine
 10
9786.0310860202
 20
5302.7001476706
 30
0.0
 11
9786.0310860202
 21
5110.2248644189
 31
0.0
  0
LINE
  5
15B
330
1F
100
AcDbEntity
  8
0
  6
Continuous
 62
     8
370
    25
100
AcDbLine
 10
10294.1454424074
 20
5342.1982966625
 30
0.0
 11
10121.0310860202
 21
5342.1982966625
 31
0.0
  0
LINE
  5
15C
330
1F
100
AcDbEntity
  8
0
  6
Continuous
 62
     8
370
    25
100
AcDbLine
 10
10121.0310860202
 20
4955.4814652175
 30
0.0
 11
10231.3039572976
 21
4955.4814652175
 31
0.0
  0
ARC
  5
15D
330
1F
100
AcDbEntity
  8
0
  6
CENTERX2
 62
     7
100
AcDbCircle
 10
9248.6255304405
 20
4361.6756327487
 30
0.0
 40
120.0
100
AcDbArc
 50
0.0
 51
180.0
  0
ARC
  5
15E
330
1F
100
AcDbEntity
  8
0
  6
CENTERX2
 62
     7
100
AcDbCircle
 10
9248.6255304405
 20
4296.6756327487
 30
0.0
 40
120.0
100
AcDbArc
 50
180.0
 51
0.0
  0
ARC
  5
15F
330
1F
100
AcDbEntity
  8
0
  6
Continuous
 62
     7
100
AcDbCircle
 10
9248.6255304405
 20
4296.6756327487
 30
0.0
 40
130.0
100
AcDbArc
 50
180.0
 51
0.0
  0
ARC
  5
160
330
1F
100
AcDbEntity
  8
0
  6
Continuous
 62
     7
100
AcDbCircle
 10
9248.6255304405
 20
4361.6756327487
 30
0.0
 40
130.0
100
AcDbArc
 50
0.0
 51
180.0
  0
LINE
  5
161
330
1F
100
AcDbEntity
  8
0
  6
CENTERX2
 62
     7
100
AcDbLine
 10
9128.6255304405
 20
4361.6756327487
 30
0.0
 11
9128.6255304405
 21
4296.6756327487
 31
0.0
  0
LINE
  5
162
330
1F
100
AcDbEntity
  8
0
  6
CENTERX2
 62
     7
100
AcDbLine
 10
9368.6255304405
 20
4296.6756327487
 30
0.0
 11
9368.6255304405
 21
4361.6756327487
 31
0.0
  0
LINE
  5
163
330
1F
100
AcDbEntity
  8
0
  6
Continuous
 62
     7
100
AcDbLine
 10
9118.6255304405
 20
4361.6756327487
 30
0.0
 11
9118.6255304405
 21
4296.6756327487
 31
0.0
  0
LINE
  5
164
330
1F
100
AcDbEntity
  8
0
  6
Continuous
 62
     7
100
AcDbLine
 10
9378.6255304405
 20
4296.6756327487
 30
0.0
 11
9378.6255304405
 21
4361.6756327487
 31
0.0
  0
LINE
  5
165
330
1F
100
AcDbEntity
  8
0
  6
Continuous
 62
     7
370
    25
100
AcDbLine
 10
9075.3817013995
 20
4671.6756327487
 30
0.0
 11
9075.3817013995
 21
4296.6756327487
 31
0.0
  0
LINE
  5
166
330
1F
100
AcDbEntity
  8
0
  6
Continuous
 62
     7
370
    25
100
AcDbLine
 10
9421.8693594816
 20
4296.6756327487
 30
0.0
 11
9421.8693594816
 21
4671.6756327487
 31
0.0
  0
ARC
  5
167
330
1F
100
AcDbEntity
  8
0
  6
Continuous
 62
     7
370
    25
100
AcDbCircle
 10
9248.6255304405
 20
4296.6756327487
 30
0.0
 40
173.2438290410246
100
AcDbArc
 50
180.0
 51
0.0
  0
LINE
  5
168
330
1F
100
AcDbEntity
  8
0
  6
Continuous
 62
     7
370
    25
100
AcDbLine
 10
9085.3817013995
 20
4671.6756327487
 30
0.0
 11
9085.3817013995
 21
4296.6756327487
 31
0.0
  0
LINE
  5
169
330
1F
100
AcDbEntity
  8
0
  6
Continuous
 62
     7
370
    25
100
AcDbLine
 10
9075.3817013995
 20
4671.6756327487
 30
0.0
 11
9085.3817013995
 21
4671.6756327487
 31
0.0
  0
LINE
  5
16A
330
1F
100
AcDbEntity
  8
0
  6
Continuous
 62
     7
370
    25
100
AcDbLine
 10
9411.8693594816
 20
4296.6756327487
 30
0.0
 11
9411.8693594816
 21
4671.6756327487
 31
0.0
  0
LINE
  5
16B
330
1F
100
AcDbEntity
  8
0
  6
Continuous
 62
     7
370
    25
100
AcDbLine
 10
9411.8693594816
 20
4671.6756327487
 30
0.0
 11
9421.8693594816
 21
4671.6756327487
 31
0.0
  0
LINE
  5
16C
330
1F
100
AcDbEntity
  8
0
  6
Continuous
 62
     7
370
    25
100
AcDbLine
 10
9085.3817013995
 20
4671.6756327487
 30
0.0
 11
9411.8693594816
 21
4671.6756327487
 31
0.0
  0
ARC
  5
16D
330
1F
100
AcDbEntity
  8
0
  6
Continuous
 62
     7
370
    25
100
AcDbCircle
 10
9248.6255304405
 20
4296.6756327487
 30
0.0
 40
163.2438290410246
100
AcDbArc
 50
180.0
 51
0.0
  0
ARC
  5
16E
330
1F
100
AcDbEntity
  8
0
  6
Continuous
 62
     7
370
    25
100
AcDbCircle
 10
9248.6255304405
 20
4296.6756327487
 30
0.0
 40
120.0
100
AcDbArc
 50
180.0
 51
0.0
  0
LINE
  5
16F
330
1F
100
AcDbEntity
  8
0
  6
Continuous
 62
     7
370
    25
100
AcDbLine
 10
9368.6255304405
 20
4296.6756327487
 30
0.0
 11
9368.6255304405
 21
4361.6756327487
 31
0.0
  0
LINE
  5
170
330
1F
100
AcDbEntity
  8
0
  6
Continuous
 62
     7
370
    25
100
AcDbLine
 10
9128.6255304405
 20
4361.6756327487
 30
0.0
 11
9128.6255304405
 21
4296.6756327487
 31
0.0
  0
ARC
  5
171
330
1F
100
AcDbEntity
  8
0
  6
Continuous
 62
     7
370
    25
100
AcDbCircle
 10
9248.6255304405
 20
4361.6756327487
 30
0.0
 40
120.0
100
AcDbArc
 50
0.0
 51
180.0
  0
CIRCLE
  5
172
330
1F
100
AcDbEntity
  8
0
  6
Continuous
 62
     7
370
    25
100
AcDbCircle
 10
9248.6255304405
 20
4361.6756327487
 30
0.0
 40
40.0
  0
ARC
  5
173
330
1F
100
AcDbEntity
  8
0
  6
Continuous
 62
     7
370
    25
100
AcDbCircle
 10
9248.6255304405
 20
4361.7003414468
 30
0.0
 40
34.99999920586403
100
AcDbArc
 50
180.0183828601
 51
359.9816171399
  0
ARC
  5
174
330
1F
100
AcDbEntity
  8
0
  6
Continuous
 62
     7
370
    25
100
AcDbCircle
 10
9248.6255304405
 20
4361.6756327487
 30
0.0
 40
37.95803989155015
100
AcDbArc
 50
179.9779341698
 51
0.0220658302
  0
ARC
  5
175
330
1F
100
AcDbEntity
  8
0
  6
Continuous
 62
     7
370
    25
100
AcDbCircle
 10
9248.6255304405
 20
4361.6756327487
 30
0.0
 40
37.95803989155015
100
AcDbArc
 50
0.0220658302
 51
179.9779341698
  0
ARC
  5
176
330
1F
100
AcDbEntity
  8
0
  6
Continuous
 62
     7
370
    25
100
AcDbCircle
 10
9248.6255304405
 20
4361.6756327487
 30
0.0
 40
35.00000000000108
100
AcDbArc
 50
0.0220658302
 51
179.9779341698
  0
LINE
  5
177
330
1F
100
AcDbEntity
  8
0
  6
Continuous
 62
     7
370
    25
100
AcDbLine
 10
9210.6674933639
 20
4361.6902512014
 30
0.0
 11
9213.6255330361
 21
4361.689111997
 31
0.0
  0
LINE
  5
178
330
1F
100
AcDbEntity
  8
0
  6
Continuous
 62
     7
370
    25
100
AcDbLine
 10
9283.625527845
 20
4361.689111997
 30
0.0
 11
9286.5835675172
 21
4361.6902512014
 31
0.0
  0
ARC
  5
179
330
1F
100
AcDbEntity
  8
0
  6
Continuous
 62
     7
370
    25
100
AcDbCircle
 10
9248.6255304405
 20
4361.6756327487
 30
0.0
 40
35.00000000000108
100
AcDbArc
 50
179.9779341698
 51
0.0220658302
  0
LINE
  5
17A
330
1F
100
AcDbEntity
  8
0
  6
Continuous
 62
     8
370
    25
100
AcDbLine
 10
9085.3817013995
 20
4296.6756327487
 30
0.0
 11
9075.3817013995
 21
4296.6756327487
 31
0.0
  0
LINE
  5
17B
330
1F
100
AcDbEntity
  8
0
  6
Continuous
 62
     8
370
    25
100
AcDbLine
 10
9411.8693594816
 20
4296.6756327487
 30
0.0
 11
9421.8693594816
 21
4296.6756327487
 31
0.0
  0
ENDSEC
  0
SECTION
  2
OBJECTS
  0
DICTIONARY
  5
C
330
0
100
AcDbDictionary
281
     1
  3
ACAD_GROUP
350
D
  3
ACAD_LAYOUT
350
1A
  3
ACAD_MLINESTYLE
350
17
  3
ACAD_PLOTSETTINGS
350
19
  3
ACAD_PLOTSTYLENAME
350
E
  3
ACAD_SCALELIST
350
47
  3
DWGPROPS
350
17C
  0
DICTIONARY
  5
D
102
{ACAD_REACTORS
330
C
102
}
330
C
100
AcDbDictionary
281
     1
  0
DICTIONARY
  5
1A
102
{ACAD_REACTORS
330
C
102
}
330
C
100
AcDbDictionary
281
     1
  3
Layout1
350
1E
  3
Layout2
350
26
  3
Model
350
22
  0
DICTIONARY
  5
17
102
{ACAD_REACTORS
330
C
102
}
330
C
100
AcDbDictionary
281
     1
  3
Standard
350
18
  0
DICTIONARY
  5
19
102
{ACAD_REACTORS
330
C
102
}
330
C
100
AcDbDictionary
281
     1
  0
ACDBDICTIONARYWDFLT
  5
E
102
{ACAD_REACTORS
330
C
102
}
330
C
100
AcDbDictionary
281
     1
  3
Normal
350
F
100
AcDbDictionaryWithDefault
340
F
  0
DICTIONARY
  5
47
102
{ACAD_REACTORS
330
C
102
}
330
C
100
AcDbDictionary
281
     1
  3
A0
350
48
  3
A1
350
49
  3
A2
350
4A
  3
A3
350
4B
  3
A4
350
4C
  3
A5
350
4D
  3
A6
350
4E
  3
A7
350
4F
  3
A8
350
50
  3
A9
350
51
  3
B0
350
52
  3
B1
350
53
  3
B2
350
54
  3
B3
350
55
  3
B4
350
56
  3
B5
350
57
  3
B6
350
58
  3
B7
350
59
  3
B8
350
5A
  3
B9
350
5B
  3
C0
350
5C
  3
C1
350
5D
  3
C2
350
5E
  3
C3
350
5F
  3
C4
350
60
  3
C5
350
61
  3
C6
350
62
  3
C7
350
63
  3
C8
350
64
  3
C9
350
65
  3
D0
350
66
  3
D1
350
67
  3
D2
350
68
  0
XRECORD
  5
17C
102
{ACAD_REACTORS
330
C
102
}
330
C
100
AcDbXrecord
280
     1
  1
DWGPROPS COOKIE
  2

  3

  4

  6

  7

  8
radek.stransky
  9

300
=
301
=
302
=
303
=
304
=
305
=
306
=
307
=
308
=
309
=
 40
0.0
 41
2459116.503363646
 42
2459116.503363785
  1

 90
        0
  0
LAYOUT
  5
1E
102
{ACAD_REACTORS
330
1A
102
}
330
1A
100
AcDbPlotSettings
  1

  2
none_device
  4

  6

 40
0.0
 41
0.0
 42
0.0
 43
0.0
 44
0.0
 45
0.0
 46
0.0
 47
0.0
 48
0.0
 49
0.0
140
0.0
141
0.0
142
1.0
143
1.0
 70
   688
 72
     1
 73
     0
 74
     5
  7

 75
    16
147
1.0
148
0.0
149
0.0
100
AcDbLayout
  1
Layout1
 70
     1
 71
     1
 10
0.0
 20
0.0
 11
420.0
 21
297.0
 12
0.0
 22
0.0
 32
0.0
 14
1.0000000000E+20
 24
1.0000000000E+20
 34
1.0000000000E+20
 15
-1.0000000000E+20
 25
-1.0000000000E+20
 35
-1.0000000000E+20
146
0.0
 13
0.0
 23
0.0
 33
0.0
 16
1.0
 26
0.0
 36
0.0
 17
0.0
 27
1.0
 37
0.0
 76
     0
330
1B
  0
LAYOUT
  5
26
102
{ACAD_REACTORS
330
1A
102
}
330
1A
100
AcDbPlotSettings
  1

  2
none_device
  4

  6

 40
0.0
 41
0.0
 42
0.0
 43
0.0
 44
0.0
 45
0.0
 46
0.0
 47
0.0
 48
0.0
 49
0.0
140
0.0
141
0.0
142
1.0
143
1.0
 70
   688
 72
     1
 73
     0
 74
     5
  7

 75
    16
147
1.0
148
0.0
149
0.0
100
AcDbLayout
  1
Layout2
 70
     1
 71
     2
 10
0.0
 20
0.0
 11
0.0
 21
0.0
 12
0.0
 22
0.0
 32
0.0
 14
0.0
 24
0.0
 34
0.0
 15
0.0
 25
0.0
 35
0.0
146
0.0
 13
0.0
 23
0.0
 33
0.0
 16
1.0
 26
0.0
 36
0.0
 17
0.0
 27
1.0
 37
0.0
 76
     0
330
23
  0
LAYOUT
  5
22
102
{ACAD_REACTORS
330
1A
102
}
330
1A
100
AcDbPlotSettings
  1

  2
none_device
  4
Letter_(8.50_x_11.00_Inches)
  6

 40
6.35
 41
6.35
 42
6.35000508
 43
6.35000508
 44
215.9
 45
279.4
 46
0.0
 47
0.0
 48
0.0
 49
0.0
140
0.0
141
0.0
142
1.0
143
1.0
 70
  1712
 72
     1
 73
     0
 74
     0
  7

 75
     0
147
1.0
148
0.0
149
0.0
100
AcDbLayout
  1
Model
 70
     1
 71
     0
 10
0.0
 20
0.0
 11
20000.0
 21
10000.0
 12
0.0
 22
0.0
 32
0.0
 14
0.0
 24
0.0
 34
0.0
 15
20000.0
 25
10000.0
 35
0.0
146
0.0
 13
0.0
 23
0.0
 33
0.0
 16
1.0
 26
0.0
 36
0.0
 17
0.0
 27
1.0
 37
0.0
 76
     0
330
1F
331
29
  0
MLINESTYLE
  5
18
102
{ACAD_REACTORS
330
17
102
}
330
17
100
AcDbMlineStyle
  2
Standard
 70
     0
  3

 62
   256
 51
90.0
 52
90.0
 71
     2
 49
0.5
 62
   256
  6
BYLAYER
 49
-0.5
 62
   256
  6
BYLAYER
  0
ACDBPLACEHOLDER
  5
F
102
{ACAD_REACTORS
330
E
102
}
330
E
  0
SCALE
  5
48
102
{ACAD_REACTORS
330
47
102
}
330
47
100
AcDbScale
 70
     0
300
1:1
140
1.0
141
1.0
290
     1
  0
SCALE
  5
49
102
{ACAD_REACTORS
330
47
102
}
330
47
100
AcDbScale
 70
     0
300
1:2
140
1.0
141
2.0
290
     0
  0
SCALE
  5
4A
102
{ACAD_REACTORS
330
47
102
}
330
47
100
AcDbScale
 70
     0
300
1:4
140
1.0
141
4.0
290
     0
  0
SCALE
  5
4B
102
{ACAD_REACTORS
330
47
102
}
330
47
100
AcDbScale
 70
     0
300
1:5
140
1.0
141
5.0
290
     0
  0
SCALE
  5
4C
102
{ACAD_REACTORS
330
47
102
}
330
47
100
AcDbScale
 70
     0
300
1:8
140
1.0
141
8.0
290
     0
  0
SCALE
  5
4D
102
{ACAD_REACTORS
330
47
102
}
330
47
100
AcDbScale
 70
     0
300
1:10
140
1.0
141
10.0
290
     0
  0
SCALE
  5
4E
102
{ACAD_REACTORS
330
47
102
}
330
47
100
AcDbScale
 70
     0
300
1:16
140
1.0
141
16.0
290
     0
  0
SCALE
  5
4F
102
{ACAD_REACTORS
330
47
102
}
330
47
100
AcDbScale
 70
     0
300
1:20
140
1.0
141
20.0
290
     0
  0
SCALE
  5
50
102
{ACAD_REACTORS
330
47
102
}
330
47
100
AcDbScale
 70
     0
300
1:30
140
1.0
141
30.0
290
     0
  0
SCALE
  5
51
102
{ACAD_REACTORS
330
47
102
}
330
47
100
AcDbScale
 70
     0
300
1:40
140
1.0
141
40.0
290
     0
  0
SCALE
  5
52
102
{ACAD_REACTORS
330
47
102
}
330
47
100
AcDbScale
 70
     0
300
1:50
140
1.0
141
50.0
290
     0
  0
SCALE
  5
53
102
{ACAD_REACTORS
330
47
102
}
330
47
100
AcDbScale
 70
     0
300
1:100
140
1.0
141
100.0
290
     0
  0
SCALE
  5
54
102
{ACAD_REACTORS
330
47
102
}
330
47
100
AcDbScale
 70
     0
300
2:1
140
2.0
141
1.0
290
     0
  0
SCALE
  5
55
102
{ACAD_REACTORS
330
47
102
}
330
47
100
AcDbScale
 70
     0
300
4:1
140
4.0
141
1.0
290
     0
  0
SCALE
  5
56
102
{ACAD_REACTORS
330
47
102
}
330
47
100
AcDbScale
 70
     0
300
8:1
140
8.0
141
1.0
290
     0
  0
SCALE
  5
57
102
{ACAD_REACTORS
330
47
102
}
330
47
100
AcDbScale
 70
     0
300
10:1
140
10.0
141
1.0
290
     0
  0
SCALE
  5
58
102
{ACAD_REACTORS
330
47
102
}
330
47
100
AcDbScale
 70
     0
300
100:1
140
100.0
141
1.0
290
     0
  0
SCALE
  5
59
102
{ACAD_REACTORS
330
47
102
}
330
47
100
AcDbScale
 70
     0
300
1/128" = 1'-0"
140
0.0078125
141
12.0
290
     0
  0
SCALE
  5
5A
102
{ACAD_REACTORS
330
47
102
}
330
47
100
AcDbScale
 70
     0
300
1/64" = 1'-0"
140
0.015625
141
12.0
290
     0
  0
SCALE
  5
5B
102
{ACAD_REACTORS
330
47
102
}
330
47
100
AcDbScale
 70
     0
300
1/32" = 1'-0"
140
0.03125
141
12.0
290
     0
  0
SCALE
  5
5C
102
{ACAD_REACTORS
330
47
102
}
330
47
100
AcDbScale
 70
     0
300
1/16" = 1'-0"
140
0.0625
141
12.0
290
     0
  0
SCALE
  5
5D
102
{ACAD_REACTORS
330
47
102
}
330
47
100
AcDbScale
 70
     0
300
3/32" = 1'-0"
140
0.09375
141
12.0
290
     0
  0
SCALE
  5
5E
102
{ACAD_REACTORS
330
47
102
}
330
47
100
AcDbScale
 70
     0
300
1/8" = 1'-0"
140
0.125
141
12.0
290
     0
  0
SCALE
  5
5F
102
{ACAD_REACTORS
330
47
102
}
330
47
100
AcDbScale
 70
     0
300
3/16" = 1'-0"
140
0.1875
141
12.0
290
     0
  0
SCALE
  5
60
102
{ACAD_REACTORS
330
47
102
}
330
47
100
AcDbScale
 70
     0
300
1/4" = 1'-0"
140
0.25
141
12.0
290
     0
  0
SCALE
  5
61
102
{ACAD_REACTORS
330
47
102
}
330
47
100
AcDbScale
 70
     0
300
3/8" = 1'-0"
140
0.375
141
12.0
290
     0
  0
SCALE
  5
62
102
{ACAD_REACTORS
330
47
102
}
330
47
100
AcDbScale
 70
     0
300
1/2" = 1'-0"
140
0.5
141
12.0
290
     0
  0
SCALE
  5
63
102
{ACAD_REACTORS
330
47
102
}
330
47
100
AcDbScale
 70
     0
300
3/4" = 1'-0"
140
0.75
141
12.0
290
     0
  0
SCALE
  5
64
102
{ACAD_REACTORS
330
47
102
}
330
47
100
AcDbScale
 70
     0
300
1" = 1'-0"
140
1.0
141
12.0
290
     0
  0
SCALE
  5
65
102
{ACAD_REACTORS
330
47
102
}
330
47
100
AcDbScale
 70
     0
300
1-1/2" = 1'-0"
140
1.5
141
12.0
290
     0
  0
SCALE
  5
66
102
{ACAD_REACTORS
330
47
102
}
330
47
100
AcDbScale
 70
     0
300
3" = 1'-0"
140
3.0
141
12.0
290
     0
  0
SCALE
  5
67
102
{ACAD_REACTORS
330
47
102
}
330
47
100
AcDbScale
 70
     0
300
6" = 1'-0"
140
6.0
141
12.0
290
     0
  0
SCALE
  5
68
102
{ACAD_REACTORS
330
47
102
}
330
47
100
AcDbScale
 70
     0
300
1'-0" = 1'-0"
140
12.0
141
12.0
290
     0
  0
ENDSEC
  0
EOF
