  0
SECTION
  2
HEADER
  9
$ACADVER
  1
AC1015
  9
$ACADMAINTVER
 70
     6
  9
$DWGCODEPAGE
  3
ANSI_1250
  9
$INSBASE
 10
0.0
 20
0.0
 30
0.0
  9
$EXTMIN
 10
0.0
 20
0.0
 30
0.0
  9
$EXTMAX
 10
20000.0
 20
10000.0
 30
0.0
  9
$LIMMIN
 10
0.0
 20
0.0
  9
$LIMMAX
 10
20000.0
 20
10000.0
  9
$ORTHOMODE
 70
     0
  9
$REGENMODE
 70
     1
  9
$FILLMODE
 70
     1
  9
$QTEXTMODE
 70
     0
  9
$MIRRTEXT
 70
     1
  9
$LTSCALE
 40
1.0
  9
$ATTMODE
 70
     1
  9
$TEXTSIZE
 40
2.0
  9
$TRACEWID
 40
1.0
  9
$TEXTSTYLE
  7
Standard
  9
$CLAYER
  8
0
  9
$CELTYPE
  6
ByLayer
  9
$CECOLOR
 62
   256
  9
$CELTSCALE
 40
1.0
  9
$DISPSILH
 70
     0
  9
$DIMSCALE
 40
1.0
  9
$DIMASZ
 40
2.0
  9
$DIMEXO
 40
1.0
  9
$DIMDLI
 40
3.75
  9
$DIMRND
 40
0.0
  9
$DIMDLE
 40
0.0
  9
$DIMEXE
 40
1.0
  9
$DIMTP
 40
0.0
  9
$DIMTM
 40
0.0
  9
$DIMTXT
 40
2.0
  9
$DIMCEN
 40
2.5
  9
$DIMTSZ
 40
0.0
  9
$DIMTOL
 70
     0
  9
$DIMLIM
 70
     0
  9
$DIMTIH
 70
     1
  9
$DIMTOH
 70
     1
  9
$DIMSE1
 70
     0
  9
$DIMSE2
 70
     0
  9
$DIMTAD
 70
     1
  9
$DIMZIN
 70
     0
  9
$DIMBLK
  1

  9
$DIMASO
 70
     1
  9
$DIMSHO
 70
     1
  9
$DIMPOST
  1

  9
$DIMAPOST
  1

  9
$DIMALT
 70
     0
  9
$DIMALTD
 70
     3
  9
$DIMALTF
 40
0.0393700787
  9
$DIMLFAC
 40
1.0
  9
$DIMTOFL
 70
     1
  9
$DIMTVP
 40
0.0
  9
$DIMTIX
 70
     0
  9
$DIMSOXD
 70
     0
  9
$DIMSAH
 70
     0
  9
$DIMBLK1
  1

  9
$DIMBLK2
  1

  9
$DIMSTYLE
  2
ISO-25
  9
$DIMCLRD
 70
     0
  9
$DIMCLRE
 70
     0
  9
$DIMCLRT
 70
     0
  9
$DIMTFAC
 40
1.0
  9
$DIMGAP
 40
1.524
  9
$DIMJUST
 70
     0
  9
$DIMSD1
 70
     0
  9
$DIMSD2
 70
     0
  9
$DIMTOLJ
 70
     0
  9
$DIMTZIN
 70
     0
  9
$DIMALTZ
 70
     0
  9
$DIMALTTZ
 70
     0
  9
$DIMUPT
 70
     0
  9
$DIMDEC
 70
     2
  9
$DIMTDEC
 70
     0
  9
$DIMALTU
 70
     2
  9
$DIMALTTD
 70
     3
  9
$DIMTXSTY
  7
Standard
  9
$DIMAUNIT
 70
     0
  9
$DIMADEC
 70
     2
  9
$DIMALTRND
 40
0.0
  9
$DIMAZIN
 70
     0
  9
$DIMDSEP
 70
    44
  9
$DIMATFIT
 70
     3
  9
$DIMFRAC
 70
     0
  9
$DIMLDRBLK
  1

  9
$DIMLUNIT
 70
     2
  9
$DIMLWD
 70
    -2
  9
$DIMLWE
 70
    -2
  9
$DIMTMOVE
 70
     0
  9
$LUNITS
 70
     2
  9
$LUPREC
 70
     3
  9
$SKETCHINC
 40
1.0
  9
$FILLETRAD
 40
10.0
  9
$AUNITS
 70
     0
  9
$AUPREC
 70
     2
  9
$MENU
  1
.
  9
$ELEVATION
 40
0.0
  9
$PELEVATION
 40
0.0
  9
$THICKNESS
 40
0.0
  9
$LIMCHECK
 70
     0
  9
$CHAMFERA
 40
0.0
  9
$CHAMFERB
 40
0.0
  9
$CHAMFERC
 40
0.0
  9
$CHAMFERD
 40
0.0
  9
$SKPOLY
 70
     0
  9
$TDCREATE
 40
2459100.435400706
  9
$TDUCREATE
 40
2459100.352067373
  9
$TDUPDATE
 40
2459100.435400822
  9
$TDUUPDATE
 40
2459100.352067488
  9
$TDINDWG
 40
0.0000000116
  9
$TDUSRTIMER
 40
0.0000000116
  9
$USRTIMER
 70
     1
  9
$ANGBASE
 50
0.0
  9
$ANGDIR
 70
     0
  9
$PDMODE
 70
     0
  9
$PDSIZE
 40
-1.0
  9
$PLINEWID
 40
0.0
  9
$SPLFRAME
 70
     0
  9
$SPLINETYPE
 70
     6
  9
$SPLINESEGS
 70
     8
  9
$HANDSEED
  5
188
  9
$SURFTAB1
 70
     6
  9
$SURFTAB2
 70
     6
  9
$SURFTYPE
 70
     6
  9
$SURFU
 70
     6
  9
$SURFV
 70
     6
  9
$UCSBASE
  2

  9
$UCSNAME
  2

  9
$UCSORG
 10
0.0
 20
0.0
 30
0.0
  9
$UCSXDIR
 10
1.0
 20
0.0
 30
0.0
  9
$UCSYDIR
 10
0.0
 20
1.0
 30
0.0
  9
$UCSORTHOREF
  2

  9
$UCSORTHOVIEW
 70
     0
  9
$UCSORGTOP
 10
0.0
 20
0.0
 30
0.0
  9
$UCSORGBOTTOM
 10
0.0
 20
0.0
 30
0.0
  9
$UCSORGLEFT
 10
0.0
 20
0.0
 30
0.0
  9
$UCSORGRIGHT
 10
0.0
 20
0.0
 30
0.0
  9
$UCSORGFRONT
 10
0.0
 20
0.0
 30
0.0
  9
$UCSORGBACK
 10
0.0
 20
0.0
 30
0.0
  9
$PUCSBASE
  2

  9
$PUCSNAME
  2

  9
$PUCSORG
 10
0.0
 20
0.0
 30
0.0
  9
$PUCSXDIR
 10
1.0
 20
0.0
 30
0.0
  9
$PUCSYDIR
 10
0.0
 20
1.0
 30
0.0
  9
$PUCSORTHOREF
  2

  9
$PUCSORTHOVIEW
 70
     0
  9
$PUCSORGTOP
 10
0.0
 20
0.0
 30
0.0
  9
$PUCSORGBOTTOM
 10
0.0
 20
0.0
 30
0.0
  9
$PUCSORGLEFT
 10
0.0
 20
0.0
 30
0.0
  9
$PUCSORGRIGHT
 10
0.0
 20
0.0
 30
0.0
  9
$PUCSORGFRONT
 10
0.0
 20
0.0
 30
0.0
  9
$PUCSORGBACK
 10
0.0
 20
0.0
 30
0.0
  9
$USERI1
 70
     0
  9
$USERI2
 70
     0
  9
$USERI3
 70
     0
  9
$USERI4
 70
     0
  9
$USERI5
 70
     0
  9
$USERR1
 40
0.0
  9
$USERR2
 40
0.0
  9
$USERR3
 40
0.0
  9
$USERR4
 40
0.0
  9
$USERR5
 40
0.0
  9
$WORLDVIEW
 70
     1
  9
$SHADEDGE
 70
     3
  9
$SHADEDIF
 70
    70
  9
$TILEMODE
 70
     1
  9
$MAXACTVP
 70
    64
  9
$PINSBASE
 10
0.0
 20
0.0
 30
0.0
  9
$PLIMCHECK
 70
     0
  9
$PEXTMIN
 10
1.0000000000E+20
 20
1.0000000000E+20
 30
1.0000000000E+20
  9
$PEXTMAX
 10
-1.0000000000E+20
 20
-1.0000000000E+20
 30
-1.0000000000E+20
  9
$PLIMMIN
 10
0.0
 20
0.0
  9
$PLIMMAX
 10
420.0
 20
297.0
  9
$UNITMODE
 70
     0
  9
$VISRETAIN
 70
     1
  9
$PLINEGEN
 70
     0
  9
$PSLTSCALE
 70
     1
  9
$TREEDEPTH
 70
  3020
  9
$CMLSTYLE
  2
Standard
  9
$CMLJUST
 70
     0
  9
$CMLSCALE
 40
20.0
  9
$PROXYGRAPHICS
 70
     1
  9
$MEASUREMENT
 70
     1
  9
$CELWEIGHT
370
    -1
  9
$ENDCAPS
280
     0
  9
$JOINSTYLE
280
     0
  9
$LWDISPLAY
290
     1
  9
$INSUNITS
 70
     4
  9
$HYPERLINKBASE
  1

  9
$STYLESHEET
  1

  9
$XEDIT
290
     1
  9
$CEPSNTYPE
380
     0
  9
$PSTYLEMODE
290
     1
  9
$FINGERPRINTGUID
  2
{5fc0be8b-5499-4461-ab16-92e67d7b8bcf}
  9
$VERSIONGUID
  2
{FAEB1C32-E019-11D5-929B-00C0DF256EC4}
  9
$EXTNAMES
290
     1
  9
$PSVPSCALE
 40
0.0
  9
$OLESTARTUP
290
     0
  0
ENDSEC
  0
SECTION
  2
CLASSES
  0
CLASS
  1
ACDBDICTIONARYWDFLT
  2
AcDbDictionaryWithDefault
  3
ObjectDBX Classes
 90
        0
280
     0
281
     0
  0
CLASS
  1
VISUALSTYLE
  2
AcDbVisualStyle
  3
ObjectDBX Classes
 90
     4095
280
     0
281
     0
  0
CLASS
  1
MATERIAL
  2
AcDbMaterial
  3
ObjectDBX Classes
 90
     1153
280
     0
281
     0
  0
CLASS
  1
SCALE
  2
AcDbScale
  3
ObjectDBX Classes
 90
     1153
280
     0
281
     0
  0
CLASS
  1
TABLESTYLE
  2
AcDbTableStyle
  3
ObjectDBX Classes
 90
     4095
280
     0
281
     0
  0
CLASS
  1
MLEADERSTYLE
  2
AcDbMLeaderStyle
  3
ACDB_MLEADERSTYLE_CLASS
 90
     4095
280
     0
281
     0
  0
CLASS
  1
SUN
  2
AcDbSun
  3
SCENEOE
 90
     1153
280
     0
281
     0
  0
CLASS
  1
ACDBPLACEHOLDER
  2
AcDbPlaceHolder
  3
ObjectDBX Classes
 90
        0
280
     0
281
     0
  0
CLASS
  1
LAYOUT
  2
AcDbLayout
  3
ObjectDBX Classes
 90
        0
280
     0
281
     0
  0
ENDSEC
  0
SECTION
  2
TABLES
  0
TABLE
  2
VPORT
  5
8
330
0
100
AcDbSymbolTable
 70
     1
  0
VPORT
  5
29
330
8
100
AcDbSymbolTableRecord
100
AcDbViewportTableRecord
  2
*Active
 70
     0
 10
0.0
 20
0.0
 11
1.0
 21
1.0
 12
10000.0
 22
5000.0
 13
0.0
 23
0.0
 14
10.0
 24
10.0
 15
10.0
 25
10.0
 16
0.0
 26
0.0
 36
1.0
 17
0.0
 27
0.0
 37
0.0
 40
10000.0
 41
2.0
 42
50.0
 43
0.0
 44
0.0
 50
0.0
 51
0.0
 71
     0
 72
  2000
 73
     1
 74
     3
 75
     0
 76
     0
 77
     0
 78
     0
281
     0
 65
     1
110
0.0
120
0.0
130
0.0
111
1.0
121
0.0
131
0.0
112
0.0
122
1.0
132
0.0
 79
     0
146
0.0
  0
ENDTAB
  0
TABLE
  2
LTYPE
  5
5
330
0
100
AcDbSymbolTable
 70
     6
  0
LTYPE
  5
14
330
5
100
AcDbSymbolTableRecord
100
AcDbLinetypeTableRecord
  2
ByBlock
 70
     0
  3

 72
    65
 73
     0
 40
0.0
  0
LTYPE
  5
15
330
5
100
AcDbSymbolTableRecord
100
AcDbLinetypeTableRecord
  2
ByLayer
 70
     0
  3

 72
    65
 73
     0
 40
0.0
  0
LTYPE
  5
16
330
5
100
AcDbSymbolTableRecord
100
AcDbLinetypeTableRecord
  2
Continuous
 70
     0
  3
Solid line
 72
    65
 73
     0
 40
0.0
  0
LTYPE
  5
6E
330
5
100
AcDbSymbolTableRecord
100
AcDbLinetypeTableRecord
  2
HIDDEN
 70
     0
  3
Hidden __ __ __ __ __ __ __ __ __ __ __ __ __ __
 72
    65
 73
     2
 40
1.905
 49
1.27
 74
     0
 49
-0.635
 74
     0
  0
LTYPE
  5
6F
330
5
100
AcDbSymbolTableRecord
100
AcDbLinetypeTableRecord
  2
PHANTOM
 70
     0
  3
Phantom ______  __  __  ______  __  __  ______
 72
    65
 73
     6
 40
12.7
 49
6.35
 74
     0
 49
-1.27
 74
     0
 49
1.27
 74
     0
 49
-1.27
 74
     0
 49
1.27
 74
     0
 49
-1.27
 74
     0
  0
LTYPE
  5
70
330
5
100
AcDbSymbolTableRecord
100
AcDbLinetypeTableRecord
  2
CENTER
 70
     0
  3
Center ____ _ ____ _ ____ _ ____ _ ____ _ ____
 72
    65
 73
     4
 40
10.16
 49
6.35
 74
     0
 49
-1.27
 74
     0
 49
1.27
 74
     0
 49
-1.27
 74
     0
  0
LTYPE
  5
71
330
5
100
AcDbSymbolTableRecord
100
AcDbLinetypeTableRecord
  2
CENTERX2
 70
     0
  3
Center (2x) ________  __  ________  __  _____
 72
    65
 73
     4
 40
20.32
 49
12.7
 74
     0
 49
-2.54
 74
     0
 49
2.54
 74
     0
 49
-2.54
 74
     0
  0
LTYPE
  5
72
330
5
100
AcDbSymbolTableRecord
100
AcDbLinetypeTableRecord
  2
DOT2
 70
     0
  3
Dot (.5x) ........................................
 72
    65
 73
     2
 40
0.635
 49
0.0
 74
     0
 49
-0.635
 74
     0
  0
ENDTAB
  0
TABLE
  2
LAYER
  5
2
330
0
100
AcDbSymbolTable
 70
    13
  0
LAYER
  5
10
330
2
100
AcDbSymbolTableRecord
100
AcDbLayerTableRecord
  2
0
 70
     0
 62
     7
  6
Continuous
370
    -3
390
F
  0
LAYER
  5
73
330
2
100
AcDbSymbolTableRecord
100
AcDbLayerTableRecord
  2
FORMAT
 70
     0
 62
     7
  6
Continuous
370
    -3
390
F
  0
LAYER
  5
74
330
2
100
AcDbSymbolTableRecord
100
AcDbLayerTableRecord
  2
OSA
 70
     0
 62
     7
  6
CENTER
370
    -3
390
F
  0
LAYER
  5
75
330
2
100
AcDbSymbolTableRecord
100
AcDbLayerTableRecord
  2
0_35
 70
     0
 62
     7
  6
Continuous
370
    35
390
F
  0
LAYER
  5
76
330
2
100
AcDbSymbolTableRecord
100
AcDbLayerTableRecord
  2
0_5
 70
     0
 62
     7
  6
Continuous
370
    50
390
F
  0
LAYER
  5
77
330
2
100
AcDbSymbolTableRecord
100
AcDbLayerTableRecord
  2
0_25
 70
     0
 62
     7
  6
Continuous
370
    25
390
F
  0
LAYER
  5
78
330
2
100
AcDbSymbolTableRecord
100
AcDbLayerTableRecord
  2
0_18
 70
     0
 62
     7
  6
Continuous
370
    -3
390
F
  0
LAYER
  5
79
330
2
100
AcDbSymbolTableRecord
100
AcDbLayerTableRecord
  2
SLD-0
 70
     0
 62
   179
  6
Continuous
370
    -3
390
F
  0
LAYER
  5
7A
330
2
100
AcDbSymbolTableRecord
100
AcDbLayerTableRecord
  2
KOTY
 70
     0
 62
     7
  6
Continuous
370
    -3
390
F
  0
LAYER
  5
7B
330
2
100
AcDbSymbolTableRecord
100
AcDbLayerTableRecord
  2
SILNA
 70
     0
 62
   179
  6
Continuous
370
    -3
390
F
  0
LAYER
  5
7C
330
2
100
AcDbSymbolTableRecord
100
AcDbLayerTableRecord
  2
0_18_1
 70
     0
 62
   179
  6
Continuous
370
    -3
390
F
  0
LAYER
  5
7D
330
2
100
AcDbSymbolTableRecord
100
AcDbLayerTableRecord
  2
0_35_1
 70
     0
 62
   179
  6
Continuous
370
    35
390
F
  0
LAYER
  5
7E
330
2
100
AcDbSymbolTableRecord
100
AcDbLayerTableRecord
  2
0_5_1
 70
     0
 62
   179
  6
Continuous
370
    50
390
F
  0
ENDTAB
  0
TABLE
  2
STYLE
  5
3
330
0
100
AcDbSymbolTable
 70
     1
  0
STYLE
  5
11
330
3
100
AcDbSymbolTableRecord
100
AcDbTextStyleTableRecord
  2
Standard
 70
     0
 40
0.0
 41
1.0
 50
0.0
 71
     0
 42
2.0
  3
txt
  4

  0
ENDTAB
  0
TABLE
  2
VIEW
  5
6
330
0
100
AcDbSymbolTable
 70
     0
  0
ENDTAB
  0
TABLE
  2
UCS
  5
7
330
0
100
AcDbSymbolTable
 70
     0
  0
ENDTAB
  0
TABLE
  2
APPID
  5
9
330
0
100
AcDbSymbolTable
 70
     1
  0
APPID
  5
12
330
9
100
AcDbSymbolTableRecord
100
AcDbRegAppTableRecord
  2
ACAD
 70
     0
  0
ENDTAB
  0
TABLE
  2
DIMSTYLE
  5
A
330
0
100
AcDbSymbolTable
 70
     1
100
AcDbDimStyleTable
  0
DIMSTYLE
105
27
330
A
100
AcDbSymbolTableRecord
100
AcDbDimStyleTableRecord
  2
ISO-25
 70
     0
 41
2.5
 42
0.625
 43
3.75
 44
1.25
 73
     0
 74
     0
 77
     1
 78
     8
140
2.5
141
2.5
143
0.0393700787
147
0.625
171
     3
172
     1
178
     0
271
     2
272
     2
274
     3
278
    44
283
     0
284
     8
340
11
  0
ENDTAB
  0
TABLE
  2
BLOCK_RECORD
  5
1
330
0
100
AcDbSymbolTable
 70
     1
  0
BLOCK_RECORD
  5
1F
330
1
100
AcDbSymbolTableRecord
100
AcDbBlockTableRecord
  2
*Model_Space
340
22
  0
BLOCK_RECORD
  5
1B
330
1
100
AcDbSymbolTableRecord
100
AcDbBlockTableRecord
  2
*Paper_Space
340
1E
  0
BLOCK_RECORD
  5
23
330
1
100
AcDbSymbolTableRecord
100
AcDbBlockTableRecord
  2
*Paper_Space0
340
26
  0
ENDTAB
  0
ENDSEC
  0
SECTION
  2
BLOCKS
  0
BLOCK
  5
20
330
1F
100
AcDbEntity
  8
0
100
AcDbBlockBegin
  2
*Model_Space
 70
     0
 10
0.0
 20
0.0
 30
0.0
  3
*Model_Space
  1

  0
ENDBLK
  5
21
330
1F
100
AcDbEntity
  8
0
100
AcDbBlockEnd
  0
BLOCK
  5
1C
330
1B
100
AcDbEntity
 67
     1
  8
0
100
AcDbBlockBegin
  2
*Paper_Space
 70
     0
 10
0.0
 20
0.0
 30
0.0
  3
*Paper_Space
  1

  0
ENDBLK
  5
1D
330
1B
100
AcDbEntity
 67
     1
  8
0
100
AcDbBlockEnd
  0
BLOCK
  5
24
330
23
100
AcDbEntity
  8
0
100
AcDbBlockBegin
  2
*Paper_Space0
 70
     0
 10
0.0
 20
0.0
 30
0.0
  3
*Paper_Space0
  1

  0
ENDBLK
  5
25
330
23
100
AcDbEntity
  8
0
100
AcDbBlockEnd
  0
ENDSEC
  0
SECTION
  2
ENTITIES
  0
LINE
  5
7F
330
1F
100
AcDbEntity
  8
0
  6
Continuous
 62
     7
370
    25
100
AcDbLine
 10
8935.7888179039
 20
6870.5300545113
 30
0.0
 11
8935.7888179039
 21
6866.8216263513
 31
0.0
  0
LINE
  5
80
330
1F
100
AcDbEntity
  8
0
  6
Continuous
 62
     7
370
    25
100
AcDbLine
 10
8982.0479480623
 20
6866.8216263513
 30
0.0
 11
8982.0479480623
 21
6870.5300545113
 31
0.0
  0
LINE
  5
81
330
1F
100
AcDbEntity
  8
0
  6
Continuous
 62
     7
370
    25
100
AcDbLine
 10
9138.8978939184
 20
6856.1216263513
 30
0.0
 11
9138.532639902
 21
6856.1216263513
 31
0.0
  0
LINE
  5
82
330
1F
100
AcDbEntity
  8
0
  6
Continuous
 62
     7
370
    25
100
AcDbLine
 10
9138.532639902
 20
6848.5216263513
 30
0.0
 11
9138.8978939184
 21
6848.5216263513
 31
0.0
  0
ARC
  5
83
330
1F
100
AcDbEntity
  8
0
  6
Continuous
 62
     7
370
    25
100
AcDbCircle
 10
9136.8326192463
 20
6852.3216263513
 30
0.0
 40
4.324969328314404
100
AcDbArc
 50
298.5237867603
 51
333.9401718646
  0
ARC
  5
84
330
1F
100
AcDbEntity
  8
0
  6
Continuous
 62
     7
370
    25
100
AcDbCircle
 10
9136.8326192463
 20
6852.3216263513
 30
0.0
 40
4.324969328315204
100
AcDbArc
 50
26.0598281354
 51
61.4762132397
  0
LINE
  5
85
330
1F
100
AcDbEntity
  8
0
  6
Continuous
 62
     7
370
    25
100
AcDbLine
 10
8778.9236660984
 20
6848.5216263513
 30
0.0
 11
8779.3036660984
 21
6848.5216263513
 31
0.0
  0
LINE
  5
86
330
1F
100
AcDbEntity
  8
0
  6
Continuous
 62
     7
370
    25
100
AcDbLine
 10
8779.3036660984
 20
6856.1216263513
 30
0.0
 11
8778.9236660984
 21
6856.1216263513
 31
0.0
  0
ARC
  5
87
330
1F
100
AcDbEntity
  8
0
  6
Continuous
 62
     7
370
    25
100
AcDbCircle
 10
8780.9889408236
 20
6852.3216263513
 30
0.0
 40
4.324969328314602
100
AcDbArc
 50
206.059831153
 51
241.4762140417
  0
ARC
  5
88
330
1F
100
AcDbEntity
  8
0
  6
Continuous
 62
     7
370
    25
100
AcDbCircle
 10
8780.9889408236
 20
6852.3216263513
 30
0.0
 40
4.324969328314602
100
AcDbArc
 50
118.5237859583
 51
153.940168847
  0
LINE
  5
89
330
1F
100
AcDbEntity
  8
0
  6
Continuous
 62
     7
370
    25
100
AcDbLine
 10
8785.3593173663
 20
6483.2143739798
 30
0.0
 11
8785.0639133285
 21
6483.1620628481
 31
0.0
  0
LINE
  5
8A
330
1F
100
AcDbEntity
  8
0
  6
Continuous
 62
     7
370
    25
100
AcDbLine
 10
8786.0403877866
 20
6477.647854144
 30
0.0
 11
8786.3357918243
 21
6477.7001652756
 31
0.0
  0
ARC
  5
8B
330
1F
100
AcDbEntity
  8
0
  6
Continuous
 62
     7
370
    25
100
AcDbCircle
 10
8786.9261440293
 20
6480.64826984
 30
0.0
 40
3.128427475667329
100
AcDbArc
 50
218.6930850045
 51
253.5528106399
  0
ARC
  5
8C
330
1F
100
AcDbEntity
  8
0
  6
Continuous
 62
     7
370
    25
100
AcDbCircle
 10
8786.9261440293
 20
6480.64826984
 30
0.0
 40
3.128427475666745
100
AcDbArc
 50
126.5312366312
 51
161.3909622665
  0
ARC
  5
8D
330
1F
100
AcDbEntity
  8
0
  6
Continuous
 62
     7
370
    25
100
AcDbCircle
 10
8820.7540091823
 20
6289.6203254465
 30
0.0
 40
3.128427475666814
100
AcDbArc
 50
218.6930850046
 51
253.5528106399
  0
ARC
  5
8E
330
1F
100
AcDbEntity
  8
0
  6
Continuous
 62
     7
370
    25
100
AcDbCircle
 10
8820.7540091823
 20
6289.6203254465
 30
0.0
 40
3.128427475667098
100
AcDbArc
 50
126.5312366312
 51
161.3909622665
  0
LINE
  5
8F
330
1F
100
AcDbEntity
  8
0
  6
Continuous
 62
     7
370
    25
100
AcDbLine
 10
8819.1871825193
 20
6292.1864295863
 30
0.0
 11
8818.8917784815
 21
6292.1341184546
 31
0.0
  0
LINE
  5
90
330
1F
100
AcDbEntity
  8
0
  6
Continuous
 62
     7
370
    25
100
AcDbLine
 10
8819.8682529396
 20
6286.6199097505
 30
0.0
 11
8820.1636569773
 21
6286.6722208822
 31
0.0
  0
LINE
  5
91
330
1F
100
AcDbEntity
  8
0
  6
Continuous
 62
     7
370
    25
100
AcDbLine
 10
8935.7888179039
 20
6870.5300545113
 30
0.0
 11
8982.0479480623
 21
6870.5300545113
 31
0.0
  0
LWPOLYLINE
  5
92
330
1F
100
AcDbEntity
  8
0
  6
Continuous
 62
     7
370
    25
100
AcDbPolyline
 90
       11
 70
   128
 43
0.0
 10
9138.8978939184
 20
6856.1216263513
 10
9138.8981604308
 20
6855.9356411132
 10
9138.898400855
 20
6855.3958909299
 10
9138.8985916568
 20
6854.55521031
 10
9138.8987141591
 20
6853.4958909299
 10
9138.8987563705
 20
6852.3216263513
 10
9138.8987141591
 20
6851.1473617727
 10
9138.8985916568
 20
6850.0880423926
 10
9138.898400855
 20
6849.2473617727
 10
9138.8981604308
 20
6848.7076115894
 10
9138.8978939184
 20
6848.5216263513
  0
LWPOLYLINE
  5
93
330
1F
100
AcDbEntity
  8
0
  6
Continuous
 62
     7
370
    25
100
AcDbPolyline
 90
        9
 70
   128
 43
0.0
 10
9140.7178940716
 20
6854.2216261467
 10
9140.7180588946
 20
6854.0769974631
 10
9140.7181987944
 20
6853.6651292356
 10
9140.7182922725
 20
6853.0487248728
 10
9140.7183250976
 20
6852.3216263513
 10
9140.7182922725
 20
6851.5945278298
 10
9140.7181987944
 20
6850.978123467
 10
9140.7180588946
 20
6850.5662552395
 10
9140.7178940716
 20
6850.4216265559
  0
LINE
  5
94
330
1F
100
AcDbEntity
  8
0
  6
Continuous
 62
     7
370
    25
100
AcDbLine
 10
8778.9236660984
 20
6848.5216263513
 30
0.0
 11
8778.9236660984
 21
6856.1216263513
 31
0.0
  0
LINE
  5
95
330
1F
100
AcDbEntity
  8
0
  6
Continuous
 62
     7
370
    25
100
AcDbLine
 10
8777.1036660984
 20
6850.4216263513
 30
0.0
 11
8777.1036660984
 21
6854.2216263513
 31
0.0
  0
LINE
  5
96
330
1F
100
AcDbEntity
  8
0
  6
Continuous
 62
     7
370
    25
100
AcDbLine
 10
8780.6318038164
 20
6862.3216263513
 30
0.0
 11
8780.6318038164
 21
6865.3216263513
 31
0.0
  0
LINE
  5
97
330
1F
100
AcDbEntity
  8
0
  6
Continuous
 62
     7
370
    25
100
AcDbLine
 10
9137.2044979079
 20
6865.3216263513
 30
0.0
 11
8780.6318038164
 21
6865.3216263513
 31
0.0
  0
LINE
  5
98
330
1F
100
AcDbEntity
  8
0
  6
Continuous
 62
     7
370
    25
100
AcDbLine
 10
9137.2044979079
 20
6862.3216263513
 30
0.0
 11
9137.2044979079
 21
6865.3216263513
 31
0.0
  0
LINE
  5
99
330
1F
100
AcDbEntity
  8
0
  6
Continuous
 62
     7
370
    25
100
AcDbLine
 10
8780.6318038164
 20
6862.3216263513
 30
0.0
 11
9137.2044979079
 21
6862.3216263513
 31
0.0
  0
LWPOLYLINE
  5
9A
330
1F
100
AcDbEntity
  8
0
  6
Continuous
 62
     7
370
    25
100
AcDbPolyline
 90
        9
 70
   128
 43
0.0
 10
8780.6318038164
 20
6865.3216263513
 10
8780.642511938
 20
6865.6142618343
 10
8780.6742247959
 20
6865.8956514998
 10
8780.7257236825
 20
6866.1549817008
 10
8780.7950295248
 20
6866.3822865231
 10
8780.8794789378
 20
6866.5688307698
 10
8780.9758265782
 20
6866.7074456501
 10
8781.08036986
 20
6866.7928042719
 10
8781.1890912437
 20
6866.8216263513
  0
LINE
  5
9B
330
1F
100
AcDbEntity
  8
0
  6
Continuous
 62
     7
370
    25
100
AcDbLine
 10
8781.1890912437
 20
6866.8216263513
 30
0.0
 11
9136.6472119317
 21
6866.8216263513
 31
0.0
  0
LWPOLYLINE
  5
9C
330
1F
100
AcDbEntity
  8
0
  6
Continuous
 62
     7
370
    25
100
AcDbPolyline
 90
        9
 70
   128
 43
0.0
 10
9137.2044979079
 20
6865.3216263513
 10
9137.1937898141
 20
6865.6142618343
 10
9137.1620770388
 20
6865.8956514998
 10
9137.1105782862
 20
6866.1549817008
 10
9137.0412726245
 20
6866.3822865231
 10
9136.9568234313
 20
6866.5688307698
 10
9136.8604760418
 20
6866.7074456501
 10
9136.7559330322
 20
6866.7928042719
 10
9136.6472119317
 20
6866.8216263513
  0
LINE
  5
9D
330
1F
100
AcDbEntity
  8
0
  6
Continuous
 62
     7
370
    25
100
AcDbLine
 10
9140.0326398633
 20
6865.3216263513
 30
0.0
 11
9137.2044979079
 21
6865.3216263513
 31
0.0
  0
ARC
  5
9E
330
1F
100
AcDbEntity
  8
0
  6
Continuous
 62
     7
370
    25
100
AcDbCircle
 10
9138.5326398826
 20
6865.3216263706
 30
0.0
 40
1.499999980684152
100
AcDbArc
 50
359.9999992622
 51
89.9999992623
  0
LINE
  5
9F
330
1F
100
AcDbEntity
  8
0
  6
Continuous
 62
     7
370
    25
100
AcDbLine
 10
9136.6472119317
 20
6866.8216263513
 30
0.0
 11
9138.532639902
 21
6866.8216263513
 31
0.0
  0
LINE
  5
A0
330
1F
100
AcDbEntity
  8
0
  6
Continuous
 62
     7
370
    25
100
AcDbLine
 10
9140.0326398633
 20
6862.3216263513
 30
0.0
 11
9140.0326398633
 21
6865.3216263513
 31
0.0
  0
LINE
  5
A1
330
1F
100
AcDbEntity
  8
0
  6
Continuous
 62
     7
370
    25
100
AcDbLine
 10
9137.2044979079
 20
6862.3216263513
 30
0.0
 11
9140.0326398633
 21
6862.3216263513
 31
0.0
  0
LINE
  5
A2
330
1F
100
AcDbEntity
  8
0
  6
Continuous
 62
     7
370
    25
100
AcDbLine
 10
8777.8036660984
 20
6862.3216263513
 30
0.0
 11
8777.8036660984
 21
6865.3216263513
 31
0.0
  0
LINE
  5
A3
330
1F
100
AcDbEntity
  8
0
  6
Continuous
 62
     7
370
    25
100
AcDbLine
 10
8780.6318038164
 20
6865.3216263513
 30
0.0
 11
8777.8036660984
 21
6865.3216263513
 31
0.0
  0
LINE
  5
A4
330
1F
100
AcDbEntity
  8
0
  6
Continuous
 62
     7
370
    25
100
AcDbLine
 10
8777.8036660984
 20
6862.3216263513
 30
0.0
 11
8780.6318038164
 21
6862.3216263513
 31
0.0
  0
ARC
  5
A5
330
1F
100
AcDbEntity
  8
0
  6
Continuous
 62
     7
370
    25
100
AcDbCircle
 10
8779.3036660984
 20
6865.3216263513
 30
0.0
 40
1.500000000001819
100
AcDbArc
 50
90.0
 51
180.0
  0
LINE
  5
A6
330
1F
100
AcDbEntity
  8
0
  6
Continuous
 62
     7
370
    25
100
AcDbLine
 10
8779.3036660984
 20
6866.8216263513
 30
0.0
 11
8781.1890912437
 21
6866.8216263513
 31
0.0
  0
LINE
  5
A7
330
1F
100
AcDbEntity
  8
0
  6
Continuous
 62
     7
370
    25
100
AcDbLine
 10
8781.1890912437
 20
6528.3216263513
 30
0.0
 11
9136.6472119317
 21
6528.3216263513
 31
0.0
  0
LWPOLYLINE
  5
A8
330
1F
100
AcDbEntity
  8
0
  6
Continuous
 62
     7
370
    25
100
AcDbPolyline
 90
        9
 70
   128
 43
0.0
 10
8782.3036660984
 20
6525.3216263513
 10
8782.0862233311
 20
6525.3792705101
 10
8781.8771367674
 20
6525.5499877538
 10
8781.6844414866
 20
6525.8272175144
 10
8781.5155426605
 20
6526.2003060077
 10
8781.3769309761
 20
6526.6549156522
 10
8781.2739332027
 20
6527.1735760542
 10
8781.210507487
 20
6527.7363553853
 10
8781.1890912437
 20
6528.3216263513
  0
LWPOLYLINE
  5
A9
330
1F
100
AcDbEntity
  8
0
  6
Continuous
 62
     7
370
    25
100
AcDbPolyline
 90
        9
 70
   128
 43
0.0
 10
9136.6472119317
 20
6528.3216263513
 10
9136.6257957441
 20
6527.7363553853
 10
9136.5623701936
 20
6527.1735760542
 10
9136.4593726884
 20
6526.6549156522
 10
9136.3207613649
 20
6526.2003060077
 10
9136.1518629786
 20
6525.8272175144
 10
9135.9591681996
 20
6525.5499877538
 10
9135.7500821803
 20
6525.3792705101
 10
9135.5326399792
 20
6525.3216263513
  0
LINE
  5
AA
330
1F
100
AcDbEntity
  8
0
  6
Continuous
 62
     7
370
    25
100
AcDbLine
 10
9138.532639902
 20
6862.3216263513
 30
0.0
 11
9138.532639902
 21
6528.3216263513
 31
0.0
  0
LINE
  5
AB
330
1F
100
AcDbEntity
  8
0
  6
Continuous
 62
     7
370
    25
100
AcDbLine
 10
9138.532639902
 20
6528.3216263513
 30
0.0
 11
9136.6472119317
 21
6528.3216263513
 31
0.0
  0
ARC
  5
AC
330
1F
100
AcDbEntity
  8
0
  6
Continuous
 62
     7
370
    25
100
AcDbCircle
 10
9135.5326399406
 20
6528.3216263127
 30
0.0
 40
2.999999961364666
100
AcDbArc
 50
270.0000007378
 51
0.0000007379
  0
LINE
  5
AD
330
1F
100
AcDbEntity
  8
0
  6
Continuous
 62
     7
370
    25
100
AcDbLine
 10
8781.1890912437
 20
6528.3216263513
 30
0.0
 11
8779.3036660984
 21
6528.3216263513
 31
0.0
  0
LINE
  5
AE
330
1F
100
AcDbEntity
  8
0
  6
Continuous
 62
     7
370
    25
100
AcDbLine
 10
8779.3036660984
 20
6528.3216263513
 30
0.0
 11
8779.3036660984
 21
6862.3216263513
 31
0.0
  0
ARC
  5
AF
330
1F
100
AcDbEntity
  8
0
  6
Continuous
 62
     7
370
    25
100
AcDbCircle
 10
8782.3036660984
 20
6528.3216263513
 30
0.0
 40
3.0
100
AcDbArc
 50
180.0
 51
270.0
  0
LINE
  5
B0
330
1F
100
AcDbEntity
  8
0
  6
Continuous
 62
     7
370
    25
100
AcDbLine
 10
8785.0639133285
 20
6483.1620628481
 30
0.0
 11
8786.0403877866
 21
6477.647854144
 31
0.0
  0
LINE
  5
B1
330
1F
100
AcDbEntity
  8
0
  6
Continuous
 62
     7
370
    25
100
AcDbLine
 10
8783.9612767294
 20
6481.6465785921
 30
0.0
 11
8784.4843880462
 21
6478.6925382149
 31
0.0
  0
LINE
  5
B2
330
1F
100
AcDbEntity
  8
0
  6
Continuous
 62
     7
370
    25
100
AcDbLine
 10
8818.8917784815
 20
6292.1341184546
 30
0.0
 11
8819.8682529396
 21
6286.6199097505
 31
0.0
  0
LINE
  5
B3
330
1F
100
AcDbEntity
  8
0
  6
Continuous
 62
     7
370
    25
100
AcDbLine
 10
8817.7891418824
 20
6290.6186341986
 30
0.0
 11
8818.3122531992
 21
6287.6645938214
 31
0.0
  0
LINE
  5
B4
330
1F
100
AcDbEntity
  8
0
  6
Continuous
 62
     7
370
    25
100
AcDbLine
 10
8820.1985310651
 20
6286.475284857
 30
0.0
 11
8821.1832111908
 21
6286.649655296
 31
0.0
  0
LINE
  5
B5
330
1F
100
AcDbEntity
  8
0
  6
Continuous
 62
     7
370
    25
100
AcDbLine
 10
8820.1985310651
 20
6286.475284857
 30
0.0
 11
8785.3244432785
 21
6483.4113100049
 31
0.0
  0
LINE
  5
B6
330
1F
100
AcDbEntity
  8
0
  6
Continuous
 62
     7
370
    25
100
AcDbLine
 10
8785.3244432785
 20
6483.4113100049
 30
0.0
 11
8786.3091234042
 21
6483.5856804439
 31
0.0
  0
LINE
  5
B7
330
1F
100
AcDbEntity
  8
0
  6
Continuous
 62
     7
370
    25
100
AcDbLine
 10
8781.3036660984
 20
6525.3216263513
 30
0.0
 11
9136.5330998678
 21
6525.3216263513
 31
0.0
  0
ARC
  5
B8
330
1F
100
AcDbEntity
  8
0
  6
Continuous
 62
     7
370
    25
100
AcDbCircle
 10
9136.5330998678
 20
6523.3216263513
 30
0.0
 40
2.000000000000839
100
AcDbArc
 50
349.9579763645
 51
90.0
  0
LINE
  5
B9
330
1F
100
AcDbEntity
  8
0
  6
Continuous
 62
     7
370
    25
100
AcDbLine
 10
9138.5024601193
 20
6522.9728854734
 30
0.0
 11
8779.3343058469
 21
6522.9728854734
 31
0.0
  0
ARC
  5
BA
330
1F
100
AcDbEntity
  8
0
  6
Continuous
 62
     7
370
    25
100
AcDbCircle
 10
8781.3036660984
 20
6523.3216263513
 30
0.0
 40
2.000000000000839
100
AcDbArc
 50
90.0
 51
190.0420236355
  0
LINE
  5
BB
330
1F
100
AcDbEntity
  8
0
  6
Continuous
 62
     7
370
    25
100
AcDbLine
 10
8863.9183829831
 20
6045.3216263513
 30
0.0
 11
9053.9183829831
 21
6045.3216263513
 31
0.0
  0
LINE
  5
BC
330
1F
100
AcDbEntity
  8
0
  6
Continuous
 62
     7
370
    25
100
AcDbLine
 10
8863.9183829831
 20
6045.3216263513
 30
0.0
 11
8779.3343058469
 21
6522.9728854734
 31
0.0
  0
LINE
  5
BD
330
1F
100
AcDbEntity
  8
0
  6
Continuous
 62
     7
370
    25
100
AcDbLine
 10
9138.5024601193
 20
6522.9728854734
 30
0.0
 11
9053.9183829831
 21
6045.3216263513
 31
0.0
  0
LINE
  5
BE
330
1F
100
AcDbEntity
  8
0
  6
Continuous
 62
     8
370
    25
100
AcDbLine
 10
8781.1890912437
 20
6862.3216263513
 30
0.0
 11
8781.1890912437
 21
6528.3216263513
 31
0.0
  0
LINE
  5
BF
330
1F
100
AcDbEntity
  8
0
  6
Continuous
 62
     8
370
    25
100
AcDbLine
 10
9136.6472119317
 20
6528.3216263513
 30
0.0
 11
9136.6472119317
 21
6862.3216263513
 31
0.0
  0
LINE
  5
C0
330
1F
100
AcDbEntity
  8
0
  6
Continuous
 62
     7
370
    25
100
AcDbLine
 10
9532.5179146266
 20
6870.5300545113
 30
0.0
 11
9532.5179146266
 21
6866.8216263513
 31
0.0
  0
LINE
  5
C1
330
1F
100
AcDbEntity
  8
0
  6
Continuous
 62
     7
370
    25
100
AcDbLine
 10
9578.7770447851
 20
6866.8216263513
 30
0.0
 11
9578.7770447851
 21
6870.5300545113
 31
0.0
  0
ARC
  5
C2
330
1F
100
AcDbEntity
  8
0
  6
Continuous
 62
     7
370
    25
100
AcDbCircle
 10
9640.6474797059
 20
6865.3216263513
 30
0.0
 40
1.5
100
AcDbArc
 50
0.0
 51
90.0
  0
LINE
  5
C3
330
1F
100
AcDbEntity
  8
0
  6
Continuous
 62
     7
370
    25
100
AcDbLine
 10
9642.1474797059
 20
6862.3216263513
 30
0.0
 11
9642.1474797059
 21
6865.3216263513
 31
0.0
  0
LINE
  5
C4
330
1F
100
AcDbEntity
  8
0
  6
Continuous
 62
     7
370
    25
100
AcDbLine
 10
9640.6474797059
 20
6528.3216263513
 30
0.0
 11
9640.6474797059
 21
6862.3216263513
 31
0.0
  0
ARC
  5
C5
330
1F
100
AcDbEntity
  8
0
  6
Continuous
 62
     7
370
    25
100
AcDbCircle
 10
9637.6474797059
 20
6528.3216263513
 30
0.0
 40
3.0
100
AcDbArc
 50
270.0
 51
0.0
  0
LINE
  5
C6
330
1F
100
AcDbEntity
  8
0
  6
Continuous
 62
     7
370
    25
100
AcDbLine
 10
9510.8474797059
 20
6480.4572696277
 30
0.0
 11
9510.8474797059
 21
6480.404958496
 31
0.0
  0
LINE
  5
C7
330
1F
100
AcDbEntity
  8
0
  6
Continuous
 62
     7
370
    25
100
AcDbLine
 10
9516.4474797059
 20
6480.404958496
 30
0.0
 11
9516.4474797059
 21
6480.4572696277
 31
0.0
  0
LINE
  5
C8
330
1F
100
AcDbEntity
  8
0
  6
Continuous
 62
     7
370
    25
100
AcDbLine
 10
9704.8474797059
 20
6480.4572696277
 30
0.0
 11
9704.8474797059
 21
6480.404958496
 31
0.0
  0
LINE
  5
C9
330
1F
100
AcDbEntity
  8
0
  6
Continuous
 62
     7
370
    25
100
AcDbLine
 10
9710.4474797059
 20
6480.404958496
 30
0.0
 11
9710.4474797059
 21
6480.4572696277
 31
0.0
  0
LINE
  5
CA
330
1F
100
AcDbEntity
  8
0
  6
Continuous
 62
     7
370
    25
100
AcDbLine
 10
9510.8474797059
 20
6289.4293252342
 30
0.0
 11
9510.8474797059
 21
6289.3770141026
 31
0.0
  0
LINE
  5
CB
330
1F
100
AcDbEntity
  8
0
  6
Continuous
 62
     7
370
    25
100
AcDbLine
 10
9516.4474797059
 20
6289.3770141026
 30
0.0
 11
9516.4474797059
 21
6289.4293252342
 31
0.0
  0
LINE
  5
CC
330
1F
100
AcDbEntity
  8
0
  6
Continuous
 62
     7
370
    25
100
AcDbLine
 10
9704.8474797059
 20
6289.4293252342
 30
0.0
 11
9704.8474797059
 21
6289.3770141026
 31
0.0
  0
LINE
  5
CD
330
1F
100
AcDbEntity
  8
0
  6
Continuous
 62
     7
370
    25
100
AcDbLine
 10
9710.4474797059
 20
6289.3770141026
 30
0.0
 11
9710.4474797059
 21
6289.4293252342
 31
0.0
  0
ARC
  5
CE
330
1F
100
AcDbEntity
  8
0
  6
Continuous
 62
     7
370
    25
100
AcDbCircle
 10
10173.2621965906
 20
6523.3216263513
 30
0.0
 40
2.000000000000839
100
AcDbArc
 50
349.9579763645
 51
90.0
  0
LINE
  5
CF
330
1F
100
AcDbEntity
  8
0
  6
Continuous
 62
     7
370
    25
100
AcDbLine
 10
10090.6474619976
 20
6045.3215263513
 30
0.0
 11
10175.2315568421
 21
6522.9728854734
 31
0.0
  0
LINE
  5
D0
330
1F
100
AcDbEntity
  8
0
  6
Continuous
 62
     7
370
    25
100
AcDbLine
 10
9532.5179146266
 20
6870.5300545113
 30
0.0
 11
9578.7770447851
 21
6870.5300545113
 31
0.0
  0
LINE
  5
D1
330
1F
100
AcDbEntity
  8
0
  6
Continuous
 62
     7
370
    25
100
AcDbLine
 10
9538.8231744937
 20
6853.7524831009
 30
0.0
 11
9539.9674877888
 21
6852.8727783686
 31
0.0
  0
CIRCLE
  5
D2
330
1F
100
AcDbEntity
  8
0
  6
Continuous
 62
     7
370
    25
100
AcDbCircle
 10
9538.6334844953
 20
6852.3216263513
 30
0.0
 40
1.900000000000301
  0
LINE
  5
D3
330
1F
100
AcDbEntity
  8
0
  6
Continuous
 62
     7
370
    25
100
AcDbLine
 10
9537.4891712001
 20
6853.2013310836
 30
0.0
 11
9538.8231744937
 21
6853.7524831009
 31
0.0
  0
LINE
  5
D4
330
1F
100
AcDbEntity
  8
0
  6
Continuous
 62
     7
370
    25
100
AcDbLine
 10
9537.2994812017
 20
6851.770474334
 30
0.0
 11
9537.4891712001
 21
6853.2013310836
 31
0.0
  0
LINE
  5
D5
330
1F
100
AcDbEntity
  8
0
  6
Continuous
 62
     7
370
    25
100
AcDbLine
 10
9538.4437944969
 20
6850.8907696017
 30
0.0
 11
9537.2994812017
 21
6851.770474334
 31
0.0
  0
LINE
  5
D6
330
1F
100
AcDbEntity
  8
0
  6
Continuous
 62
     7
370
    25
100
AcDbLine
 10
9539.7777977904
 20
6851.441921619
 30
0.0
 11
9538.4437944969
 21
6850.8907696017
 31
0.0
  0
LINE
  5
D7
330
1F
100
AcDbEntity
  8
0
  6
Continuous
 62
     7
370
    25
100
AcDbLine
 10
9539.9674877888
 20
6852.8727783686
 30
0.0
 11
9539.7777977904
 21
6851.441921619
 31
0.0
  0
CIRCLE
  5
D8
330
1F
100
AcDbEntity
  8
0
  6
Continuous
 62
     7
370
    25
100
AcDbCircle
 10
9538.6334844953
 20
6852.3216263513
 30
0.0
 40
3.800000000000456
  0
ARC
  5
D9
330
1F
100
AcDbEntity
  8
0
  6
Continuous
 62
     7
370
    25
100
AcDbCircle
 10
9538.6334844953
 20
6852.3216263513
 30
0.0
 40
1.250000000000029
100
AcDbArc
 50
112.4482808468
 51
172.4482808468
  0
ARC
  5
DA
330
1F
100
AcDbEntity
  8
0
  6
Continuous
 62
     7
370
    25
100
AcDbCircle
 10
9538.6334844953
 20
6852.3216263513
 30
0.0
 40
1.250000000001803
100
AcDbArc
 50
52.4482808468
 51
112.4482808468
  0
ARC
  5
DB
330
1F
100
AcDbEntity
  8
0
  6
Continuous
 62
     7
370
    25
100
AcDbCircle
 10
9538.6334844953
 20
6852.3216263513
 30
0.0
 40
1.249999999999883
100
AcDbArc
 50
232.4482808468
 51
292.4482808469
  0
ARC
  5
DC
330
1F
100
AcDbEntity
  8
0
  6
Continuous
 62
     7
370
    25
100
AcDbCircle
 10
9538.6334844953
 20
6852.3216263513
 30
0.0
 40
1.250000000000913
100
AcDbArc
 50
292.4482808469
 51
352.4482808469
  0
ARC
  5
DD
330
1F
100
AcDbEntity
  8
0
  6
Continuous
 62
     7
370
    25
100
AcDbCircle
 10
9538.6334844953
 20
6852.3216263513
 30
0.0
 40
1.250000000001803
100
AcDbArc
 50
352.4482808469
 51
52.4482808468
  0
ARC
  5
DE
330
1F
100
AcDbEntity
  8
0
  6
Continuous
 62
     7
370
    25
100
AcDbCircle
 10
9538.6334844953
 20
6852.3216263513
 30
0.0
 40
1.249999999999253
100
AcDbArc
 50
172.4482808468
 51
232.4482808468
  0
LINE
  5
DF
330
1F
100
AcDbEntity
  8
0
  6
Continuous
 62
     7
370
    25
100
AcDbLine
 10
9469.1474797059
 20
6862.3216263513
 30
0.0
 11
9473.6474797059
 21
6862.3216263513
 31
0.0
  0
LINE
  5
E0
330
1F
100
AcDbEntity
  8
0
  6
Continuous
 62
     7
370
    25
100
AcDbLine
 10
9469.1474797059
 20
6862.3216263513
 30
0.0
 11
9469.1474797059
 21
6865.3216263513
 31
0.0
  0
LINE
  5
E1
330
1F
100
AcDbEntity
  8
0
  6
Continuous
 62
     7
370
    25
100
AcDbLine
 10
9473.6474797059
 20
6865.3216263513
 30
0.0
 11
9469.1474797059
 21
6865.3216263513
 31
0.0
  0
LINE
  5
E2
330
1F
100
AcDbEntity
  8
0
  6
Continuous
 62
     7
370
    25
100
AcDbLine
 10
9473.6474797059
 20
6862.3216263513
 30
0.0
 11
9473.6474797059
 21
6865.3216263513
 31
0.0
  0
LINE
  5
E3
330
1F
100
AcDbEntity
  8
0
  6
Continuous
 62
     7
370
    25
100
AcDbLine
 10
9473.6474797059
 20
6862.3216263513
 30
0.0
 11
9603.6213479022
 21
6862.3216263513
 31
0.0
  0
LINE
  5
E4
330
1F
100
AcDbEntity
  8
0
  6
Continuous
 62
     7
370
    25
100
AcDbLine
 10
9603.6213479022
 20
6865.3216263513
 30
0.0
 11
9473.6474797059
 21
6865.3216263513
 31
0.0
  0
LINE
  5
E5
330
1F
100
AcDbEntity
  8
0
  6
Continuous
 62
     7
370
    25
100
AcDbLine
 10
9603.6213479022
 20
6862.3216263513
 30
0.0
 11
9603.6213479022
 21
6865.3216263513
 31
0.0
  0
LINE
  5
E6
330
1F
100
AcDbEntity
  8
0
  6
Continuous
 62
     7
370
    25
100
AcDbLine
 10
9470.6474797059
 20
6866.8216263513
 30
0.0
 11
9473.6474797059
 21
6866.8216263513
 31
0.0
  0
LINE
  5
E7
330
1F
100
AcDbEntity
  8
0
  6
Continuous
 62
     7
370
    25
100
AcDbLine
 10
9473.6474797059
 20
6866.8216263513
 30
0.0
 11
9473.6474797059
 21
6865.3216263513
 31
0.0
  0
ARC
  5
E8
330
1F
100
AcDbEntity
  8
0
  6
Continuous
 62
     7
370
    25
100
AcDbCircle
 10
9470.6474797059
 20
6865.3216263513
 30
0.0
 40
1.5
100
AcDbArc
 50
90.0
 51
180.0
  0
LINE
  5
E9
330
1F
100
AcDbEntity
  8
0
  6
Continuous
 62
     7
370
    25
100
AcDbLine
 10
9473.6474797059
 20
6866.8216263513
 30
0.0
 11
9603.6213479022
 21
6866.8216263513
 31
0.0
  0
LINE
  5
EA
330
1F
100
AcDbEntity
  8
0
  6
Continuous
 62
     7
370
    25
100
AcDbLine
 10
9603.6213479022
 20
6866.8216263513
 30
0.0
 11
9603.6213479022
 21
6865.3216263513
 31
0.0
  0
LINE
  5
EB
330
1F
100
AcDbEntity
  8
0
  6
Continuous
 62
     7
370
    25
100
AcDbLine
 10
9603.6213479022
 20
6866.8216263513
 30
0.0
 11
9606.4066168108
 21
6866.8216263513
 31
0.0
  0
ARC
  5
EC
330
1F
100
AcDbEntity
  8
0
  6
Continuous
 62
     7
370
    25
100
AcDbCircle
 10
9606.3508646937
 20
6865.3733878974
 30
0.0
 40
1.449311187387005
100
AcDbArc
 50
357.9532698022
 51
87.7954014357
  0
LINE
  5
ED
330
1F
100
AcDbEntity
  8
0
  6
Continuous
 62
     7
370
    25
100
AcDbLine
 10
9607.7992512651
 20
6865.3216263513
 30
0.0
 11
9603.6213479022
 21
6865.3216263513
 31
0.0
  0
LINE
  5
EE
330
1F
100
AcDbEntity
  8
0
  6
Continuous
 62
     7
370
    25
100
AcDbLine
 10
9607.7992512651
 20
6862.3216263513
 30
0.0
 11
9607.7992512651
 21
6865.3216263513
 31
0.0
  0
LINE
  5
EF
330
1F
100
AcDbEntity
  8
0
  6
Continuous
 62
     7
370
    25
100
AcDbLine
 10
9603.6213479022
 20
6862.3216263513
 30
0.0
 11
9607.7992512651
 21
6862.3216263513
 31
0.0
  0
LINE
  5
F0
330
1F
100
AcDbEntity
  8
0
  6
Continuous
 62
     7
370
    25
100
AcDbLine
 10
9606.4066168108
 20
6866.8216263513
 30
0.0
 11
9640.6474797059
 21
6866.8216263513
 31
0.0
  0
LINE
  5
F1
330
1F
100
AcDbEntity
  8
0
  6
Continuous
 62
     7
370
    25
100
AcDbLine
 10
9607.7992512651
 20
6862.3216263513
 30
0.0
 11
9642.1474797059
 21
6862.3216263513
 31
0.0
  0
LINE
  5
F2
330
1F
100
AcDbEntity
  8
0
  6
Continuous
 62
     7
370
    25
100
AcDbLine
 10
9473.6474797059
 20
6528.3216263513
 30
0.0
 11
9470.6474797059
 21
6528.3216263513
 31
0.0
  0
LINE
  5
F3
330
1F
100
AcDbEntity
  8
0
  6
Continuous
 62
     7
370
    25
100
AcDbLine
 10
9470.6474797059
 20
6528.3216263513
 30
0.0
 11
9470.6474797059
 21
6862.3216263513
 31
0.0
  0
LINE
  5
F4
330
1F
100
AcDbEntity
  8
0
  6
Continuous
 62
     7
370
    25
100
AcDbLine
 10
9473.6474797059
 20
6525.3216263513
 30
0.0
 11
9473.6474797059
 21
6528.3216263513
 31
0.0
  0
LINE
  5
F5
330
1F
100
AcDbEntity
  8
0
  6
Continuous
 62
     7
370
    25
100
AcDbLine
 10
9473.6474797059
 20
6528.3216263513
 30
0.0
 11
9603.6213479022
 21
6528.3216263513
 31
0.0
  0
LINE
  5
F6
330
1F
100
AcDbEntity
  8
0
  6
Continuous
 62
     7
370
    25
100
AcDbLine
 10
9603.6213479022
 20
6525.3216263513
 30
0.0
 11
9603.6213479022
 21
6528.3216263513
 31
0.0
  0
ARC
  5
F7
330
1F
100
AcDbEntity
  8
0
  6
Continuous
 62
     7
370
    25
100
AcDbCircle
 10
9473.6474797059
 20
6528.3216263513
 30
0.0
 40
3.0
100
AcDbArc
 50
180.0
 51
270.0
  0
LINE
  5
F8
330
1F
100
AcDbEntity
  8
0
  6
Continuous
 62
     7
370
    25
100
AcDbLine
 10
9606.4066168108
 20
6528.3216263513
 30
0.0
 11
9603.6213479022
 21
6528.3216263513
 31
0.0
  0
ARC
  5
F9
330
1F
100
AcDbEntity
  8
0
  6
Continuous
 62
     7
370
    25
100
AcDbCircle
 10
9603.509843668
 20
6528.2181032591
 30
0.0
 40
2.898622374777786
100
AcDbArc
 50
272.2045985643
 51
2.0467301977
  0
CIRCLE
  5
FA
330
1F
100
AcDbEntity
  8
0
  6
Continuous
 62
     7
370
    25
100
AcDbCircle
 10
9513.61735351
 20
6480.3771440072
 30
0.0
 40
2.777104755715328
  0
CIRCLE
  5
FB
330
1F
100
AcDbEntity
  8
0
  6
Continuous
 62
     7
370
    25
100
AcDbCircle
 10
9513.6315800034
 20
6480.1542673675
 30
0.0
 40
1.488191187243816
  0
LINE
  5
FC
330
1F
100
AcDbEntity
  8
0
  6
Continuous
 62
     7
370
    25
100
AcDbLine
 10
9513.0256930817
 20
6479.2114718632
 30
0.0
 11
9514.1792227599
 21
6479.160281613
 31
0.0
  0
LINE
  5
FD
330
1F
100
AcDbEntity
  8
0
  6
Continuous
 62
     7
370
    25
100
AcDbLine
 10
9514.1792227599
 20
6479.160281613
 30
0.0
 11
9514.8010093841
 21
6480.1183681533
 31
0.0
  0
LINE
  5
FE
330
1F
100
AcDbEntity
  8
0
  6
Continuous
 62
     7
370
    25
100
AcDbLine
 10
9514.8010093841
 20
6480.1183681533
 30
0.0
 11
9514.2692663301
 21
6481.1276449437
 31
0.0
  0
LINE
  5
FF
330
1F
100
AcDbEntity
  8
0
  6
Continuous
 62
     7
370
    25
100
AcDbLine
 10
9514.2692663301
 20
6481.1276449437
 30
0.0
 11
9513.1157366519
 21
6481.1788351939
 31
0.0
  0
LINE
  5
100
330
1F
100
AcDbEntity
  8
0
  6
Continuous
 62
     7
370
    25
100
AcDbLine
 10
9513.1157366519
 20
6481.1788351939
 30
0.0
 11
9512.4939500277
 21
6480.2207486536
 31
0.0
  0
LINE
  5
101
330
1F
100
AcDbEntity
  8
0
  6
Continuous
 62
     7
370
    25
100
AcDbLine
 10
9512.4939500277
 20
6480.2207486536
 30
0.0
 11
9513.0256930817
 21
6479.2114718632
 31
0.0
  0
LINE
  5
102
330
1F
100
AcDbEntity
  8
0
  6
Continuous
 62
     7
370
    25
100
AcDbLine
 10
9512.6257832505
 20
6480.4238852786
 30
0.0
 11
9513.0256930817
 21
6479.6648350044
 31
0.0
  0
LINE
  5
103
330
1F
100
AcDbEntity
  8
0
  6
Continuous
 62
     7
370
    25
100
AcDbLine
 10
9513.0256930817
 20
6479.6648350044
 30
0.0
 11
9513.0256930817
 21
6479.2114718632
 31
0.0
  0
LINE
  5
104
330
1F
100
AcDbEntity
  8
0
  6
Continuous
 62
     7
370
    25
100
AcDbLine
 10
9514.1792227599
 20
6479.6136447543
 30
0.0
 11
9514.1792227599
 21
6479.160281613
 31
0.0
  0
LINE
  5
105
330
1F
100
AcDbEntity
  8
0
  6
Continuous
 62
     7
370
    25
100
AcDbLine
 10
9514.1792227599
 20
6479.6136447543
 30
0.0
 11
9514.6691761613
 21
6480.3685946696
 31
0.0
  0
LINE
  5
106
330
1F
100
AcDbEntity
  8
0
  6
Continuous
 62
     7
370
    25
100
AcDbLine
 10
9513.0256930817
 20
6479.6648350044
 30
0.0
 11
9514.1792227599
 21
6479.6136447543
 31
0.0
  0
ARC
  5
107
330
1F
100
AcDbEntity
  8
0
  6
Continuous
 62
     7
370
    25
100
AcDbCircle
 10
9513.6519443171
 20
6480.4263568626
 30
0.0
 40
2.795706298744489
100
AcDbArc
 50
0.6335454716
 51
117.5683995769
  0
ARC
  5
108
330
1F
100
AcDbEntity
  8
0
  6
Continuous
 62
     7
370
    25
100
AcDbCircle
 10
9513.5996669134
 20
6480.4484083178
 30
0.0
 40
2.752201472986257
100
AcDbArc
 50
116.8160886254
 51
179.8155234855
  0
CIRCLE
  5
109
330
1F
100
AcDbEntity
  8
0
  6
Continuous
 62
     7
370
    25
100
AcDbCircle
 10
9707.61735351
 20
6480.3771440072
 30
0.0
 40
2.777104755715328
  0
CIRCLE
  5
10A
330
1F
100
AcDbEntity
  8
0
  6
Continuous
 62
     7
370
    25
100
AcDbCircle
 10
9707.6315800034
 20
6480.1542673675
 30
0.0
 40
1.488191187242992
  0
LINE
  5
10B
330
1F
100
AcDbEntity
  8
0
  6
Continuous
 62
     7
370
    25
100
AcDbLine
 10
9707.0256930817
 20
6479.2114718632
 30
0.0
 11
9708.1792227599
 21
6479.160281613
 31
0.0
  0
LINE
  5
10C
330
1F
100
AcDbEntity
  8
0
  6
Continuous
 62
     7
370
    25
100
AcDbLine
 10
9708.1792227599
 20
6479.160281613
 30
0.0
 11
9708.8010093841
 21
6480.1183681533
 31
0.0
  0
LINE
  5
10D
330
1F
100
AcDbEntity
  8
0
  6
Continuous
 62
     7
370
    25
100
AcDbLine
 10
9708.8010093841
 20
6480.1183681533
 30
0.0
 11
9708.2692663301
 21
6481.1276449437
 31
0.0
  0
LINE
  5
10E
330
1F
100
AcDbEntity
  8
0
  6
Continuous
 62
     7
370
    25
100
AcDbLine
 10
9708.2692663301
 20
6481.1276449437
 30
0.0
 11
9707.1157366519
 21
6481.1788351939
 31
0.0
  0
LINE
  5
10F
330
1F
100
AcDbEntity
  8
0
  6
Continuous
 62
     7
370
    25
100
AcDbLine
 10
9707.1157366519
 20
6481.1788351939
 30
0.0
 11
9706.4939500277
 21
6480.2207486536
 31
0.0
  0
LINE
  5
110
330
1F
100
AcDbEntity
  8
0
  6
Continuous
 62
     7
370
    25
100
AcDbLine
 10
9706.4939500277
 20
6480.2207486536
 30
0.0
 11
9707.0256930817
 21
6479.2114718632
 31
0.0
  0
LINE
  5
111
330
1F
100
AcDbEntity
  8
0
  6
Continuous
 62
     7
370
    25
100
AcDbLine
 10
9706.6257832505
 20
6480.4238852786
 30
0.0
 11
9707.0256930817
 21
6479.6648350044
 31
0.0
  0
LINE
  5
112
330
1F
100
AcDbEntity
  8
0
  6
Continuous
 62
     7
370
    25
100
AcDbLine
 10
9707.0256930817
 20
6479.6648350044
 30
0.0
 11
9707.0256930817
 21
6479.2114718632
 31
0.0
  0
LINE
  5
113
330
1F
100
AcDbEntity
  8
0
  6
Continuous
 62
     7
370
    25
100
AcDbLine
 10
9708.1792227599
 20
6479.6136447543
 30
0.0
 11
9708.1792227599
 21
6479.160281613
 31
0.0
  0
LINE
  5
114
330
1F
100
AcDbEntity
  8
0
  6
Continuous
 62
     7
370
    25
100
AcDbLine
 10
9708.1792227599
 20
6479.6136447543
 30
0.0
 11
9708.6691761613
 21
6480.3685946696
 31
0.0
  0
LINE
  5
115
330
1F
100
AcDbEntity
  8
0
  6
Continuous
 62
     7
370
    25
100
AcDbLine
 10
9707.0256930817
 20
6479.6648350044
 30
0.0
 11
9708.1792227599
 21
6479.6136447543
 31
0.0
  0
ARC
  5
116
330
1F
100
AcDbEntity
  8
0
  6
Continuous
 62
     7
370
    25
100
AcDbCircle
 10
9707.6519443171
 20
6480.4263568626
 30
0.0
 40
2.795706298751855
100
AcDbArc
 50
0.6335454717
 51
117.5683995767
  0
ARC
  5
117
330
1F
100
AcDbEntity
  8
0
  6
Continuous
 62
     7
370
    25
100
AcDbCircle
 10
9707.5996669134
 20
6480.4484083178
 30
0.0
 40
2.752201472998798
100
AcDbArc
 50
116.8160886255
 51
179.8155234854
  0
CIRCLE
  5
118
330
1F
100
AcDbEntity
  8
0
  6
Continuous
 62
     7
370
    25
100
AcDbCircle
 10
9513.61735351
 20
6289.3491996138
 30
0.0
 40
2.777104755715328
  0
CIRCLE
  5
119
330
1F
100
AcDbEntity
  8
0
  6
Continuous
 62
     7
370
    25
100
AcDbCircle
 10
9513.6315800034
 20
6289.126322974
 30
0.0
 40
1.488191187246263
  0
LINE
  5
11A
330
1F
100
AcDbEntity
  8
0
  6
Continuous
 62
     7
370
    25
100
AcDbLine
 10
9513.0256930817
 20
6288.1835274697
 30
0.0
 11
9514.1792227599
 21
6288.1323372196
 31
0.0
  0
LINE
  5
11B
330
1F
100
AcDbEntity
  8
0
  6
Continuous
 62
     7
370
    25
100
AcDbLine
 10
9514.1792227599
 20
6288.1323372196
 30
0.0
 11
9514.8010093841
 21
6289.0904237599
 31
0.0
  0
LINE
  5
11C
330
1F
100
AcDbEntity
  8
0
  6
Continuous
 62
     7
370
    25
100
AcDbLine
 10
9514.8010093841
 20
6289.0904237599
 30
0.0
 11
9514.2692663301
 21
6290.0997005503
 31
0.0
  0
LINE
  5
11D
330
1F
100
AcDbEntity
  8
0
  6
Continuous
 62
     7
370
    25
100
AcDbLine
 10
9514.2692663301
 20
6290.0997005503
 30
0.0
 11
9513.1157366519
 21
6290.1508908004
 31
0.0
  0
LINE
  5
11E
330
1F
100
AcDbEntity
  8
0
  6
Continuous
 62
     7
370
    25
100
AcDbLine
 10
9513.1157366519
 20
6290.1508908004
 30
0.0
 11
9512.4939500277
 21
6289.1928042601
 31
0.0
  0
LINE
  5
11F
330
1F
100
AcDbEntity
  8
0
  6
Continuous
 62
     7
370
    25
100
AcDbLine
 10
9512.4939500277
 20
6289.1928042601
 30
0.0
 11
9513.0256930817
 21
6288.1835274697
 31
0.0
  0
LINE
  5
120
330
1F
100
AcDbEntity
  8
0
  6
Continuous
 62
     7
370
    25
100
AcDbLine
 10
9512.6257832505
 20
6289.3959408851
 30
0.0
 11
9513.0256930817
 21
6288.6368906109
 31
0.0
  0
LINE
  5
121
330
1F
100
AcDbEntity
  8
0
  6
Continuous
 62
     7
370
    25
100
AcDbLine
 10
9513.0256930817
 20
6288.6368906109
 30
0.0
 11
9513.0256930817
 21
6288.1835274697
 31
0.0
  0
LINE
  5
122
330
1F
100
AcDbEntity
  8
0
  6
Continuous
 62
     7
370
    25
100
AcDbLine
 10
9514.1792227599
 20
6288.5857003608
 30
0.0
 11
9514.1792227599
 21
6288.1323372196
 31
0.0
  0
LINE
  5
123
330
1F
100
AcDbEntity
  8
0
  6
Continuous
 62
     7
370
    25
100
AcDbLine
 10
9514.1792227599
 20
6288.5857003608
 30
0.0
 11
9514.6691761613
 21
6289.3406502761
 31
0.0
  0
LINE
  5
124
330
1F
100
AcDbEntity
  8
0
  6
Continuous
 62
     7
370
    25
100
AcDbLine
 10
9513.0256930817
 20
6288.6368906109
 30
0.0
 11
9514.1792227599
 21
6288.5857003608
 31
0.0
  0
ARC
  5
125
330
1F
100
AcDbEntity
  8
0
  6
Continuous
 62
     7
370
    25
100
AcDbCircle
 10
9513.6519443171
 20
6289.3984124692
 30
0.0
 40
2.795706298744653
100
AcDbArc
 50
0.6335454716
 51
117.5683995769
  0
ARC
  5
126
330
1F
100
AcDbEntity
  8
0
  6
Continuous
 62
     7
370
    25
100
AcDbCircle
 10
9513.5996669134
 20
6289.4204639244
 30
0.0
 40
2.752201472988701
100
AcDbArc
 50
116.8160886254
 51
179.8155234855
  0
CIRCLE
  5
127
330
1F
100
AcDbEntity
  8
0
  6
Continuous
 62
     7
370
    25
100
AcDbCircle
 10
9707.61735351
 20
6289.3491996138
 30
0.0
 40
2.777104755715328
  0
CIRCLE
  5
128
330
1F
100
AcDbEntity
  8
0
  6
Continuous
 62
     7
370
    25
100
AcDbCircle
 10
9707.6315800034
 20
6289.126322974
 30
0.0
 40
1.488191187247073
  0
LINE
  5
129
330
1F
100
AcDbEntity
  8
0
  6
Continuous
 62
     7
370
    25
100
AcDbLine
 10
9707.0256930817
 20
6288.1835274697
 30
0.0
 11
9708.1792227599
 21
6288.1323372196
 31
0.0
  0
LINE
  5
12A
330
1F
100
AcDbEntity
  8
0
  6
Continuous
 62
     7
370
    25
100
AcDbLine
 10
9708.1792227599
 20
6288.1323372196
 30
0.0
 11
9708.8010093841
 21
6289.0904237599
 31
0.0
  0
LINE
  5
12B
330
1F
100
AcDbEntity
  8
0
  6
Continuous
 62
     7
370
    25
100
AcDbLine
 10
9708.8010093841
 20
6289.0904237599
 30
0.0
 11
9708.2692663301
 21
6290.0997005503
 31
0.0
  0
LINE
  5
12C
330
1F
100
AcDbEntity
  8
0
  6
Continuous
 62
     7
370
    25
100
AcDbLine
 10
9708.2692663301
 20
6290.0997005503
 30
0.0
 11
9707.1157366519
 21
6290.1508908004
 31
0.0
  0
LINE
  5
12D
330
1F
100
AcDbEntity
  8
0
  6
Continuous
 62
     7
370
    25
100
AcDbLine
 10
9707.1157366519
 20
6290.1508908004
 30
0.0
 11
9706.4939500277
 21
6289.1928042601
 31
0.0
  0
LINE
  5
12E
330
1F
100
AcDbEntity
  8
0
  6
Continuous
 62
     7
370
    25
100
AcDbLine
 10
9706.4939500277
 20
6289.1928042601
 30
0.0
 11
9707.0256930817
 21
6288.1835274697
 31
0.0
  0
LINE
  5
12F
330
1F
100
AcDbEntity
  8
0
  6
Continuous
 62
     7
370
    25
100
AcDbLine
 10
9706.6257832505
 20
6289.3959408851
 30
0.0
 11
9707.0256930817
 21
6288.6368906109
 31
0.0
  0
LINE
  5
130
330
1F
100
AcDbEntity
  8
0
  6
Continuous
 62
     7
370
    25
100
AcDbLine
 10
9707.0256930817
 20
6288.6368906109
 30
0.0
 11
9707.0256930817
 21
6288.1835274697
 31
0.0
  0
LINE
  5
131
330
1F
100
AcDbEntity
  8
0
  6
Continuous
 62
     7
370
    25
100
AcDbLine
 10
9708.1792227599
 20
6288.5857003608
 30
0.0
 11
9708.1792227599
 21
6288.1323372196
 31
0.0
  0
LINE
  5
132
330
1F
100
AcDbEntity
  8
0
  6
Continuous
 62
     7
370
    25
100
AcDbLine
 10
9708.1792227599
 20
6288.5857003608
 30
0.0
 11
9708.6691761613
 21
6289.3406502761
 31
0.0
  0
LINE
  5
133
330
1F
100
AcDbEntity
  8
0
  6
Continuous
 62
     7
370
    25
100
AcDbLine
 10
9707.0256930817
 20
6288.6368906109
 30
0.0
 11
9708.1792227599
 21
6288.5857003608
 31
0.0
  0
ARC
  5
134
330
1F
100
AcDbEntity
  8
0
  6
Continuous
 62
     7
370
    25
100
AcDbCircle
 10
9707.6519443171
 20
6289.3984124692
 30
0.0
 40
2.795706298751845
100
AcDbArc
 50
0.6335454717
 51
117.5683995767
  0
ARC
  5
135
330
1F
100
AcDbEntity
  8
0
  6
Continuous
 62
     7
370
    25
100
AcDbCircle
 10
9707.5996669134
 20
6289.4204639243
 30
0.0
 40
2.752201472999297
100
AcDbArc
 50
116.8160886255
 51
179.8155234854
  0
LINE
  5
136
330
1F
100
AcDbEntity
  8
0
  6
Continuous
 62
     7
370
    25
100
AcDbLine
 10
9710.6474797059
 20
6483.4113100049
 30
0.0
 11
9710.6474797059
 21
6483.5856804439
 31
0.0
  0
LINE
  5
137
330
1F
100
AcDbEntity
  8
0
  6
Continuous
 62
     7
370
    25
100
AcDbLine
 10
9710.6474797059
 20
6483.4113100049
 30
0.0
 11
9510.6474797059
 21
6483.4113100049
 31
0.0
  0
LINE
  5
138
330
1F
100
AcDbEntity
  8
0
  6
Continuous
 62
     7
370
    25
100
AcDbLine
 10
9510.6474797059
 20
6483.4113100049
 30
0.0
 11
9510.6474797059
 21
6483.5856804439
 31
0.0
  0
LINE
  5
139
330
1F
100
AcDbEntity
  8
0
  6
Continuous
 62
     7
370
    25
100
AcDbLine
 10
9710.6474797059
 20
6483.5856804439
 30
0.0
 11
9510.6474797059
 21
6483.5856804439
 31
0.0
  0
LINE
  5
13A
330
1F
100
AcDbEntity
  8
0
  6
Continuous
 62
     7
370
    25
100
AcDbLine
 10
9710.6474797059
 20
6286.475284857
 30
0.0
 11
9710.6474797059
 21
6483.4113100049
 31
0.0
  0
LINE
  5
13B
330
1F
100
AcDbEntity
  8
0
  6
Continuous
 62
     7
370
    25
100
AcDbLine
 10
9510.6474797059
 20
6286.475284857
 30
0.0
 11
9710.6474797059
 21
6286.475284857
 31
0.0
  0
LINE
  5
13C
330
1F
100
AcDbEntity
  8
0
  6
Continuous
 62
     7
370
    25
100
AcDbLine
 10
9510.6474797059
 20
6483.4113100049
 30
0.0
 11
9510.6474797059
 21
6286.475284857
 31
0.0
  0
LINE
  5
13D
330
1F
100
AcDbEntity
  8
0
  6
Continuous
 62
     7
370
    25
100
AcDbLine
 10
9470.6474797059
 20
6525.3216263513
 30
0.0
 11
9995.6474797059
 21
6525.3216263513
 31
0.0
  0
LINE
  5
13E
330
1F
100
AcDbEntity
  8
0
  6
Continuous
 62
     7
370
    25
100
AcDbLine
 10
9995.6474797059
 20
6525.3216263513
 30
0.0
 11
9995.6474797059
 21
6522.9728854734
 31
0.0
  0
LINE
  5
13F
330
1F
100
AcDbEntity
  8
0
  6
Continuous
 62
     7
370
    25
100
AcDbLine
 10
9995.6474797059
 20
6522.9728854734
 30
0.0
 11
9470.6474797059
 21
6522.9728854734
 31
0.0
  0
LINE
  5
140
330
1F
100
AcDbEntity
  8
0
  6
Continuous
 62
     7
370
    25
100
AcDbLine
 10
9470.6474797059
 20
6522.9728854734
 30
0.0
 11
9470.6474797059
 21
6525.3216263513
 31
0.0
  0
LINE
  5
141
330
1F
100
AcDbEntity
  8
0
  6
Continuous
 62
     7
370
    25
100
AcDbLine
 10
9995.6474797059
 20
6525.3216263513
 30
0.0
 11
10173.2621965906
 21
6525.3216263513
 31
0.0
  0
LINE
  5
142
330
1F
100
AcDbEntity
  8
0
  6
Continuous
 62
     7
370
    25
100
AcDbLine
 10
9470.6474797059
 20
6045.3216263513
 30
0.0
 11
9995.6474797059
 21
6045.3216263513
 31
0.0
  0
LINE
  5
143
330
1F
100
AcDbEntity
  8
0
  6
Continuous
 62
     7
370
    25
100
AcDbLine
 10
9995.6474797059
 20
6045.3216263513
 30
0.0
 11
9995.6474797059
 21
6522.9728854734
 31
0.0
  0
LINE
  5
144
330
1F
100
AcDbEntity
  8
0
  6
Continuous
 62
     7
370
    25
100
AcDbLine
 10
9470.6474797059
 20
6045.3216263513
 30
0.0
 11
9470.6474797059
 21
6522.9728854734
 31
0.0
  0
LINE
  5
145
330
1F
100
AcDbEntity
  8
0
  6
Continuous
 62
     7
370
    25
100
AcDbLine
 10
9995.6474797059
 20
6045.3216263513
 30
0.0
 11
10090.6474797059
 21
6045.3216263513
 31
0.0
  0
LINE
  5
146
330
1F
100
AcDbEntity
  8
0
  6
Continuous
 62
     8
370
    25
100
AcDbLine
 10
9642.1474797059
 20
6865.3216263513
 30
0.0
 11
9607.7992512651
 21
6865.3216263513
 31
0.0
  0
LINE
  5
147
330
1F
100
AcDbEntity
  8
0
  6
Continuous
 62
     8
370
    25
100
AcDbLine
 10
9473.6474797059
 20
6862.3216263513
 30
0.0
 11
9473.6474797059
 21
6528.3216263513
 31
0.0
  0
LINE
  5
148
330
1F
100
AcDbEntity
  8
0
  6
Continuous
 62
     8
370
    25
100
AcDbLine
 10
9603.6213479022
 20
6528.3216263513
 30
0.0
 11
9603.6213479022
 21
6862.3216263513
 31
0.0
  0
LINE
  5
149
330
1F
100
AcDbEntity
  8
0
  6
Continuous
 62
     8
370
    25
100
AcDbLine
 10
9606.4066168108
 20
6862.3216263513
 30
0.0
 11
9606.4066168108
 21
6528.3216263513
 31
0.0
  0
LINE
  5
14A
330
1F
100
AcDbEntity
  8
0
  6
Continuous
 62
     8
370
    25
100
AcDbLine
 10
9606.4066168108
 20
6528.3216263513
 30
0.0
 11
9640.6474797059
 21
6528.3216263513
 31
0.0
  0
LINE
  5
14B
330
1F
100
AcDbEntity
  8
0
  6
Continuous
 62
     8
370
    25
100
AcDbLine
 10
10175.2315568421
 20
6522.9728854734
 30
0.0
 11
9995.6474797059
 21
6522.9728854734
 31
0.0
  0
ARC
  5
14C
330
1F
100
AcDbEntity
  8
0
  6
Continuous
 62
     7
370
    25
100
AcDbCircle
 10
9136.8326192463
 20
5688.6230673071
 30
0.0
 40
4.324969328314434
100
AcDbArc
 50
26.0728350659
 51
42.580163943
  0
ARC
  5
14D
330
1F
100
AcDbEntity
  8
0
  6
Continuous
 62
     7
370
    25
100
AcDbCircle
 10
9136.8326192463
 20
5688.6230673071
 30
0.0
 40
4.324969328314872
100
AcDbArc
 50
317.4458438829
 51
333.9531727599
  0
ARC
  5
14E
330
1F
100
AcDbEntity
  8
0
  6
Continuous
 62
     7
370
    25
100
AcDbCircle
 10
8780.9889408236
 20
5688.6394455522
 30
0.0
 40
4.324969328313783
100
AcDbArc
 50
206.059831153
 51
222.5671600301
  0
ARC
  5
14F
330
1F
100
AcDbEntity
  8
0
  6
Continuous
 62
     7
370
    25
100
AcDbCircle
 10
8780.9889408236
 20
5688.6394455522
 30
0.0
 40
4.324969328313783
100
AcDbArc
 50
137.4328399699
 51
153.940168847
  0
LINE
  5
150
330
1F
100
AcDbEntity
  8
0
  6
Continuous
 62
     7
370
    25
100
AcDbLine
 10
8779.3036660984
 20
5620.297480179
 30
0.0
 11
8779.3036660984
 21
5231.6254503416
 31
0.0
  0
LINE
  5
151
330
1F
100
AcDbEntity
  8
0
  6
Continuous
 62
     7
370
    25
100
AcDbLine
 10
9138.5330998678
 20
5231.6254503416
 30
0.0
 11
9138.5330998678
 21
5620.2977075403
 31
0.0
  0
ARC
  5
152
330
1F
100
AcDbEntity
  8
0
  6
Continuous
 62
     7
370
    25
100
AcDbCircle
 10
8958.9183829831
 20
5231.6254503416
 30
0.0
 40
179.6147168847328
100
AcDbArc
 50
180.0
 51
0.0
  0
CIRCLE
  5
153
330
1F
100
AcDbEntity
  8
0
  6
Continuous
 62
     7
370
    25
100
AcDbCircle
 10
8958.9183829831
 20
5671.6254503416
 30
0.0
 40
17.45608564464328
  0
CIRCLE
  5
154
330
1F
100
AcDbEntity
  8
0
  6
Continuous
 62
     7
370
    25
100
AcDbCircle
 10
8967.3851239295
 20
5671.6254503416
 30
0.0
 40
4.884122518994445
  0
CIRCLE
  5
155
330
1F
100
AcDbEntity
  8
0
  6
Continuous
 62
     7
370
    25
100
AcDbCircle
 10
8958.9183829831
 20
5671.6254503416
 30
0.0
 40
18.67781986342379
  0
CIRCLE
  5
156
330
1F
100
AcDbEntity
  8
0
  6
Continuous
 62
     7
370
    25
100
AcDbCircle
 10
8958.9183829831
 20
5671.6254503416
 30
0.0
 40
23.129565079239
  0
LINE
  5
157
330
1F
100
AcDbEntity
  8
0
  6
Continuous
 62
     7
370
    25
100
AcDbLine
 10
9140.7174626454
 20
5690.5239490644
 30
0.0
 11
9140.7183250976
 21
5686.7239491623
 31
0.0
  0
LINE
  5
158
330
1F
100
AcDbEntity
  8
0
  6
Continuous
 62
     7
370
    25
100
AcDbLine
 10
8777.1036660984
 20
5689.3649592577
 30
0.0
 11
8777.1036660984
 21
5690.5394455522
 31
0.0
  0
LINE
  5
159
330
1F
100
AcDbEntity
  8
0
  6
Continuous
 62
     7
370
    25
100
AcDbLine
 10
8777.1036660984
 20
5686.7394455522
 30
0.0
 11
8777.1036660984
 21
5689.3649592577
 31
0.0
  0
LINE
  5
15A
330
1F
100
AcDbEntity
  8
0
  6
Continuous
 62
     7
370
    25
100
AcDbLine
 10
9135.5031409253
 20
5756.6254503416
 30
0.0
 11
8782.3036660984
 21
5756.6254503416
 31
0.0
  0
LINE
  5
15B
330
1F
100
AcDbEntity
  8
0
  6
Continuous
 62
     7
370
    25
100
AcDbLine
 10
8782.3036660984
 20
5756.6254503416
 30
0.0
 11
8782.3036660984
 21
5758.1254503416
 31
0.0
  0
LINE
  5
15C
330
1F
100
AcDbEntity
  8
0
  6
Continuous
 62
     7
370
    25
100
AcDbLine
 10
8782.3036660984
 20
5758.1254503416
 30
0.0
 11
9135.5031409253
 21
5758.1254503416
 31
0.0
  0
LINE
  5
15D
330
1F
100
AcDbEntity
  8
0
  6
Continuous
 62
     7
370
    25
100
AcDbLine
 10
9135.5031409253
 20
5756.6254503416
 30
0.0
 11
9135.5031409253
 21
5758.1254503416
 31
0.0
  0
LINE
  5
15E
330
1F
100
AcDbEntity
  8
0
  6
Continuous
 62
     7
370
    25
100
AcDbLine
 10
9140.0031408094
 20
5753.6264716665
 30
0.0
 11
9140.0326398633
 21
5623.6524194379
 31
0.0
  0
LINE
  5
15F
330
1F
100
AcDbEntity
  8
0
  6
Continuous
 62
     7
370
    25
100
AcDbLine
 10
9140.0326398633
 20
5623.6524194379
 30
0.0
 11
9138.532639902
 21
5623.6520789962
 31
0.0
  0
LINE
  5
160
330
1F
100
AcDbEntity
  8
0
  6
Continuous
 62
     7
370
    25
100
AcDbLine
 10
9138.532639902
 20
5623.6520789962
 30
0.0
 11
9138.5031408481
 21
5753.6261312248
 31
0.0
  0
LINE
  5
161
330
1F
100
AcDbEntity
  8
0
  6
Continuous
 62
     7
370
    25
100
AcDbLine
 10
9140.0031408094
 20
5753.6264716665
 30
0.0
 11
9138.5031408481
 21
5753.6261312248
 31
0.0
  0
ARC
  5
162
330
1F
100
AcDbEntity
  8
0
  6
Continuous
 62
     7
370
    25
100
AcDbCircle
 10
9135.5031409253
 20
5753.6254503416
 30
0.0
 40
3.0
100
AcDbArc
 50
0.0130039129
 51
90.0
  0
ARC
  5
163
330
1F
100
AcDbEntity
  8
0
  6
Continuous
 62
     7
370
    25
100
AcDbCircle
 10
9135.5031409253
 20
5753.6254503416
 30
0.0
 40
4.5
100
AcDbArc
 50
0.0130039129
 51
90.0
  0
ARC
  5
164
330
1F
100
AcDbEntity
  8
0
  6
Continuous
 62
     7
370
    25
100
AcDbCircle
 10
8782.3036660984
 20
5753.6254503416
 30
0.0
 40
3.0
100
AcDbArc
 50
90.0
 51
180.0
  0
ARC
  5
165
330
1F
100
AcDbEntity
  8
0
  6
Continuous
 62
     7
370
    25
100
AcDbCircle
 10
9135.5326399792
 20
5623.651398113
 30
0.0
 40
2.999999999999954
100
AcDbArc
 50
291.8096360719
 51
0.0130039129
  0
ARC
  5
166
330
1F
100
AcDbEntity
  8
0
  6
Continuous
 62
     7
370
    25
100
AcDbCircle
 10
8958.9183829831
 20
6065.0032577927
 30
0.0
 40
478.3778074511803
100
AcDbArc
 50
248.1903042259
 51
291.8096360719
  0
ARC
  5
167
330
1F
100
AcDbEntity
  8
0
  6
Continuous
 62
     7
370
    25
100
AcDbCircle
 10
8782.3036660984
 20
5623.6515821453
 30
0.0
 40
3.000000000001004
100
AcDbArc
 50
180.0
 51
248.1903042259
  0
LINE
  5
168
330
1F
100
AcDbEntity
  8
0
  6
Continuous
 62
     7
370
    25
100
AcDbLine
 10
8779.3036660984
 20
5753.6254503416
 30
0.0
 11
8779.3036660984
 21
5623.6515821453
 31
0.0
  0
LINE
  5
169
330
1F
100
AcDbEntity
  8
0
  6
Continuous
 62
     7
370
    25
100
AcDbLine
 10
8779.3036660984
 20
5623.6515821453
 30
0.0
 11
8777.8036660984
 21
5623.6515821453
 31
0.0
  0
LINE
  5
16A
330
1F
100
AcDbEntity
  8
0
  6
Continuous
 62
     7
370
    25
100
AcDbLine
 10
8777.8036660984
 20
5623.6515821453
 30
0.0
 11
8777.8036660984
 21
5753.6254503416
 31
0.0
  0
LINE
  5
16B
330
1F
100
AcDbEntity
  8
0
  6
Continuous
 62
     7
370
    25
100
AcDbLine
 10
8779.3036660984
 20
5753.6254503416
 30
0.0
 11
8777.8036660984
 21
5753.6254503416
 31
0.0
  0
ARC
  5
16C
330
1F
100
AcDbEntity
  8
0
  6
Continuous
 62
     7
370
    25
100
AcDbCircle
 10
8782.3036660984
 20
5753.6254503416
 30
0.0
 40
4.500000000001819
100
AcDbArc
 50
90.0
 51
180.0
  0
ARC
  5
16D
330
1F
100
AcDbEntity
  8
0
  6
Continuous
 62
     7
370
    25
100
AcDbCircle
 10
8958.9183829831
 20
6065.0032577927
 30
0.0
 40
479.8778074511791
100
AcDbArc
 50
248.1903042259
 51
291.8096360719
  0
LINE
  5
16E
330
1F
100
AcDbEntity
  8
0
  6
Continuous
 62
     7
370
    25
100
AcDbLine
 10
8780.6318038164
 20
5619.4736787824
 30
0.0
 11
8781.1890912437
 21
5620.8663132367
 31
0.0
  0
LINE
  5
16F
330
1F
100
AcDbEntity
  8
0
  6
Continuous
 62
     7
370
    25
100
AcDbLine
 10
9137.2044979079
 20
5619.473493008
 30
0.0
 11
9136.6472119317
 21
5620.866128043
 31
0.0
  0
ARC
  5
170
330
1F
100
AcDbEntity
  8
0
  6
Continuous
 62
     7
370
    25
100
AcDbCircle
 10
9135.5326399792
 20
5623.651398113
 30
0.0
 40
4.499999999999964
100
AcDbArc
 50
291.8096360719
 51
0.0130039129
  0
ARC
  5
171
330
1F
100
AcDbEntity
  8
0
  6
Continuous
 62
     7
370
    25
100
AcDbCircle
 10
8782.3036660984
 20
5623.6515821453
 30
0.0
 40
4.500000000001819
100
AcDbArc
 50
180.0
 51
248.1903042259
  0
ARC
  5
172
330
1F
100
AcDbEntity
  8
0
  6
Continuous
 62
     7
370
    25
100
AcDbCircle
 10
8958.9183829831
 20
5231.6254503416
 30
0.0
 40
177.614716884731
100
AcDbArc
 50
180.0
 51
0.0
  0
CIRCLE
  5
173
330
1F
100
AcDbEntity
  8
0
  6
Continuous
 62
     7
370
    25
100
AcDbCircle
 10
8878.9183829831
 20
5483.6254503416
 30
0.0
 40
2.5
  0
CIRCLE
  5
174
330
1F
100
AcDbEntity
  8
0
  6
Continuous
 62
     7
370
    25
100
AcDbCircle
 10
9038.9183829831
 20
5483.6254503416
 30
0.0
 40
2.5
  0
ARC
  5
175
330
1F
100
AcDbEntity
  8
0
  6
Continuous
 62
     7
370
    25
100
AcDbCircle
 10
8958.9183829831
 20
5296.6254503416
 30
0.0
 40
130.0
100
AcDbArc
 50
0.0
 51
180.0
  0
LINE
  5
176
330
1F
100
AcDbEntity
  8
0
  6
Continuous
 62
     7
370
    25
100
AcDbLine
 10
8828.9183829831
 20
5231.6254503416
 30
0.0
 11
8828.9183829831
 21
5296.6254503416
 31
0.0
  0
ARC
  5
177
330
1F
100
AcDbEntity
  8
0
  6
Continuous
 62
     7
370
    25
100
AcDbCircle
 10
8958.9183829831
 20
5231.6254503416
 30
0.0
 40
130.0
100
AcDbArc
 50
180.0
 51
0.0
  0
LINE
  5
178
330
1F
100
AcDbEntity
  8
0
  6
Continuous
 62
     7
370
    25
100
AcDbLine
 10
9088.9183829831
 20
5296.6254503416
 30
0.0
 11
9088.9183829831
 21
5231.6254503416
 31
0.0
  0
ARC
  5
179
330
1F
100
AcDbEntity
  8
0
  6
Continuous
 62
     7
370
    25
100
AcDbCircle
 10
8958.9183829831
 20
5296.6254503416
 30
0.0
 40
120.0
100
AcDbArc
 50
0.0
 51
180.0
  0
LINE
  5
17A
330
1F
100
AcDbEntity
  8
0
  6
Continuous
 62
     7
370
    25
100
AcDbLine
 10
8838.9183829831
 20
5296.6254503416
 30
0.0
 11
8828.9183829831
 21
5296.6254503416
 31
0.0
  0
LINE
  5
17B
330
1F
100
AcDbEntity
  8
0
  6
Continuous
 62
     7
370
    25
100
AcDbLine
 10
9088.9183829831
 20
5296.6254503416
 30
0.0
 11
9078.9183829831
 21
5296.6254503416
 31
0.0
  0
LINE
  5
17C
330
1F
100
AcDbEntity
  8
0
  6
Continuous
 62
     7
370
    25
100
AcDbLine
 10
8838.9183829831
 20
5296.6254503416
 30
0.0
 11
8838.9183829831
 21
5231.6254503416
 31
0.0
  0
LINE
  5
17D
330
1F
100
AcDbEntity
  8
0
  6
Continuous
 62
     7
370
    25
100
AcDbLine
 10
8838.9183829831
 20
5231.6254503416
 30
0.0
 11
8828.9183829831
 21
5231.6254503416
 31
0.0
  0
LINE
  5
17E
330
1F
100
AcDbEntity
  8
0
  6
Continuous
 62
     7
370
    25
100
AcDbLine
 10
9088.9183829831
 20
5231.6254503416
 30
0.0
 11
9078.9183829831
 21
5231.6254503416
 31
0.0
  0
LINE
  5
17F
330
1F
100
AcDbEntity
  8
0
  6
Continuous
 62
     7
370
    25
100
AcDbLine
 10
9078.9183829831
 20
5231.6254503416
 30
0.0
 11
9078.9183829831
 21
5296.6254503416
 31
0.0
  0
ARC
  5
180
330
1F
100
AcDbEntity
  8
0
  6
Continuous
 62
     7
370
    25
100
AcDbCircle
 10
8958.9183829831
 20
5231.6254503416
 30
0.0
 40
120.0
100
AcDbArc
 50
180.0
 51
0.0
  0
CIRCLE
  5
181
330
1F
100
AcDbEntity
  8
0
  6
Continuous
 62
     7
370
    25
100
AcDbCircle
 10
8958.9210914631
 20
5306.6255686921
 30
0.0
 40
39.99988174120394
  0
SPLINE
  5
182
330
1F
100
AcDbEntity
  8
0
  6
Continuous
 62
     7
370
    25
100
AcDbSpline
210
0.0
220
0.0
230
1.0
 70
    11
 71
     3
 72
    45
 73
    41
 74
     0
 42
0.00000001
 43
0.00000001
 40
0.0
 40
0.0
 40
0.0
 40
0.0
 40
0.026462614138033
 40
0.0536926458787717
 40
0.0801552600168045
 40
0.1073852917575439
 40
0.1338479058955759
 40
0.1610779376363152
 40
0.1875405517743476
 40
0.2147705835150881
 40
0.2412331976531198
 40
0.2684632293938596
 40
0.2949258435318912
 40
0.3221558752726317
 40
0.3486184894106628
 40
0.3758485211514029
 40
0.4023111352894356
 40
0.4295411670301747
 40
0.4560037811682073
 40
0.4832338129089467
 40
0.50969642704698
 40
0.5369264587877193
 40
0.563389072925751
 40
0.5906191046664908
 40
0.6170817188045238
 40
0.6443117505452636
 40
0.6707743646832957
 40
0.6980043964240351
 40
0.7244670105620672
 40
0.7516970423028075
 40
0.7781596564408391
 40
0.8053896881815789
 40
0.8318523023196102
 40
0.8590823340603507
 40
0.8855449481983827
 40
0.9127749799391227
 40
0.939237594077155
 40
0.9664676258178942
 40
0.9831407413772143
 40
1.0
 40
1.0
 40
1.0
 40
1.0
 10
8958.918382983102
 20
5341.625450341557
 30
0.0
 10
8956.978643827064
 20
5341.531971620564
 30
0.0
 10
8953.042912948054
 20
5341.34230328934
 30
0.0
 10
8947.331042912683
 20
5339.816236006365
 30
0.0
 10
8941.897507304588
 20
5337.401456374022
 30
0.0
 10
8936.993999707744
 20
5334.119993408241
 30
0.0
 10
8932.671031219965
 20
5330.029770987414
 30
0.0
 10
8929.128776229581
 20
5325.313734194432
 30
0.0
 10
8926.403741706119
 20
5320.022220020807
 30
0.0
 10
8924.622105784976
 20
5314.39977943435
 30
0.0
 10
8923.802231115826
 20
5308.504485464611
 30
0.0
 10
8923.982080492086
 20
5302.609275403508
 30
0.0
 10
8925.15980024922
 20
5296.774918349719
 30
0.0
 10
8927.280858291047
 20
5291.271560852501
 30
0.0
 10
8930.32339350017
 20
5286.155925026654
 30
0.0
 10
8934.146527004696
 20
5281.664880599221
 30
0.0
 10
8938.710854900526
 20
5277.844715480137
 30
0.0
 10
8943.805034566594
 20
5274.872315220042
 30
0.0
 10
8949.376561802741
 20
5272.77831547084
 30
0.0
 10
8955.167457516229
 20
5271.659674952768
 30
0.0
 10
8961.118036661077
 20
5271.527923162375
 30
0.0
 10
8966.952768858633
 20
5272.389160618513
 30
0.0
 10
8972.61151725327
 20
5274.234510802013
 30
0.0
 10
8977.832264140477
 20
5276.978528242187
 30
0.0
 10
8982.56120082937
 20
5280.592931165144
 30
0.0
 10
8986.57936279781
 20
5284.910361437061
 30
0.0
 10
8989.845336042668
 20
5289.886320592952
 30
0.0
 10
8992.207895808146
 20
5295.290406165369
 30
0.0
 10
8993.642691911786
 20
5301.066919976131
 30
0.0
 10
8994.08328873995
 20
5306.948390929192
 30
0.0
 10
8993.525145482834
 20
5312.874202261713
 30
0.0
 10
8991.99410483006
 20
5318.569963660055
 30
0.0
 10
8989.505950819477
 20
5323.976995887708
 30
0.0
 10
8986.175877637215
 20
5328.844842285356
 30
0.0
 10
8982.0382638574
 20
5333.123683685302
 30
0.0
 10
8977.284483456453
 20
5336.614084131781
 30
0.0
 10
8971.96431927702
 20
5339.284976632714
 30
0.0
 10
8967.010386056241
 20
5340.785633999267
 30
0.0
 10
8962.609870490025
 20
5341.512288574214
 30
0.0
 10
8960.153424181764
 20
5341.587590415302
 30
0.0
 10
8958.918382983102
 20
5341.625450341557
 30
0.0
  0
LINE
  5
183
330
1F
100
AcDbEntity
  8
0
  6
Continuous
 62
     8
370
    25
100
AcDbLine
 10
8781.3036660984
 20
5619.2054085044
 30
0.0
 11
8781.3036660984
 21
5231.6254503416
 31
0.0
  0
LINE
  5
184
330
1F
100
AcDbEntity
  8
0
  6
Continuous
 62
     8
370
    25
100
AcDbLine
 10
8781.3036660984
 20
5231.6254503416
 30
0.0
 11
8779.3036660984
 21
5231.6254503416
 31
0.0
  0
LINE
  5
185
330
1F
100
AcDbEntity
  8
0
  6
Continuous
 62
     8
370
    25
100
AcDbLine
 10
9136.5330998678
 20
5231.6254503416
 30
0.0
 11
9138.5330998678
 21
5231.6254503416
 31
0.0
  0
LINE
  5
186
330
1F
100
AcDbEntity
  8
0
  6
Continuous
 62
     8
370
    25
100
AcDbLine
 10
9136.5330998678
 20
5231.6254503416
 30
0.0
 11
9136.5330998678
 21
5619.2054085044
 31
0.0
  0
ENDSEC
  0
SECTION
  2
OBJECTS
  0
DICTIONARY
  5
C
330
0
100
AcDbDictionary
281
     1
  3
ACAD_GROUP
350
D
  3
ACAD_LAYOUT
350
1A
  3
ACAD_MLINESTYLE
350
17
  3
ACAD_PLOTSETTINGS
350
19
  3
ACAD_PLOTSTYLENAME
350
E
  3
ACAD_SCALELIST
350
47
  3
DWGPROPS
350
187
  0
DICTIONARY
  5
D
102
{ACAD_REACTORS
330
C
102
}
330
C
100
AcDbDictionary
281
     1
  0
DICTIONARY
  5
1A
102
{ACAD_REACTORS
330
C
102
}
330
C
100
AcDbDictionary
281
     1
  3
Layout1
350
1E
  3
Layout2
350
26
  3
Model
350
22
  0
DICTIONARY
  5
17
102
{ACAD_REACTORS
330
C
102
}
330
C
100
AcDbDictionary
281
     1
  3
Standard
350
18
  0
DICTIONARY
  5
19
102
{ACAD_REACTORS
330
C
102
}
330
C
100
AcDbDictionary
281
     1
  0
ACDBDICTIONARYWDFLT
  5
E
102
{ACAD_REACTORS
330
C
102
}
330
C
100
AcDbDictionary
281
     1
  3
Normal
350
F
100
AcDbDictionaryWithDefault
340
F
  0
DICTIONARY
  5
47
102
{ACAD_REACTORS
330
C
102
}
330
C
100
AcDbDictionary
281
     1
  3
A0
350
48
  3
A1
350
49
  3
A2
350
4A
  3
A3
350
4B
  3
A4
350
4C
  3
A5
350
4D
  3
A6
350
4E
  3
A7
350
4F
  3
A8
350
50
  3
A9
350
51
  3
B0
350
52
  3
B1
350
53
  3
B2
350
54
  3
B3
350
55
  3
B4
350
56
  3
B5
350
57
  3
B6
350
58
  3
B7
350
59
  3
B8
350
5A
  3
B9
350
5B
  3
C0
350
5C
  3
C1
350
5D
  3
C2
350
5E
  3
C3
350
5F
  3
C4
350
60
  3
C5
350
61
  3
C6
350
62
  3
C7
350
63
  3
C8
350
64
  3
C9
350
65
  3
D0
350
66
  3
D1
350
67
  3
D2
350
68
  0
XRECORD
  5
187
102
{ACAD_REACTORS
330
C
102
}
330
C
100
AcDbXrecord
280
     1
  1
DWGPROPS COOKIE
  2

  3

  4

  6

  7

  8
radek.stransky
  9

300
=
301
=
302
=
303
=
304
=
305
=
306
=
307
=
308
=
309
=
 40
0.0
 41
2459100.352067373
 42
2459100.352067488
  1

 90
        0
  0
LAYOUT
  5
1E
102
{ACAD_REACTORS
330
1A
102
}
330
1A
100
AcDbPlotSettings
  1

  2
none_device
  4

  6

 40
0.0
 41
0.0
 42
0.0
 43
0.0
 44
0.0
 45
0.0
 46
0.0
 47
0.0
 48
0.0
 49
0.0
140
0.0
141
0.0
142
1.0
143
1.0
 70
   688
 72
     1
 73
     0
 74
     5
  7

 75
    16
147
1.0
148
0.0
149
0.0
100
AcDbLayout
  1
Layout1
 70
     1
 71
     1
 10
0.0
 20
0.0
 11
420.0
 21
297.0
 12
0.0
 22
0.0
 32
0.0
 14
1.0000000000E+20
 24
1.0000000000E+20
 34
1.0000000000E+20
 15
-1.0000000000E+20
 25
-1.0000000000E+20
 35
-1.0000000000E+20
146
0.0
 13
0.0
 23
0.0
 33
0.0
 16
1.0
 26
0.0
 36
0.0
 17
0.0
 27
1.0
 37
0.0
 76
     0
330
1B
  0
LAYOUT
  5
26
102
{ACAD_REACTORS
330
1A
102
}
330
1A
100
AcDbPlotSettings
  1

  2
none_device
  4

  6

 40
0.0
 41
0.0
 42
0.0
 43
0.0
 44
0.0
 45
0.0
 46
0.0
 47
0.0
 48
0.0
 49
0.0
140
0.0
141
0.0
142
1.0
143
1.0
 70
   688
 72
     1
 73
     0
 74
     5
  7

 75
    16
147
1.0
148
0.0
149
0.0
100
AcDbLayout
  1
Layout2
 70
     1
 71
     2
 10
0.0
 20
0.0
 11
0.0
 21
0.0
 12
0.0
 22
0.0
 32
0.0
 14
0.0
 24
0.0
 34
0.0
 15
0.0
 25
0.0
 35
0.0
146
0.0
 13
0.0
 23
0.0
 33
0.0
 16
1.0
 26
0.0
 36
0.0
 17
0.0
 27
1.0
 37
0.0
 76
     0
330
23
  0
LAYOUT
  5
22
102
{ACAD_REACTORS
330
1A
102
}
330
1A
100
AcDbPlotSettings
  1

  2
none_device
  4
Letter_(8.50_x_11.00_Inches)
  6

 40
6.35
 41
6.35
 42
6.35000508
 43
6.35000508
 44
215.9
 45
279.4
 46
0.0
 47
0.0
 48
0.0
 49
0.0
140
0.0
141
0.0
142
1.0
143
1.0
 70
  1712
 72
     1
 73
     0
 74
     0
  7

 75
     0
147
1.0
148
0.0
149
0.0
100
AcDbLayout
  1
Model
 70
     1
 71
     0
 10
0.0
 20
0.0
 11
20000.0
 21
10000.0
 12
0.0
 22
0.0
 32
0.0
 14
0.0
 24
0.0
 34
0.0
 15
20000.0
 25
10000.0
 35
0.0
146
0.0
 13
0.0
 23
0.0
 33
0.0
 16
1.0
 26
0.0
 36
0.0
 17
0.0
 27
1.0
 37
0.0
 76
     0
330
1F
331
29
  0
MLINESTYLE
  5
18
102
{ACAD_REACTORS
330
17
102
}
330
17
100
AcDbMlineStyle
  2
Standard
 70
     0
  3

 62
   256
 51
90.0
 52
90.0
 71
     2
 49
0.5
 62
   256
  6
BYLAYER
 49
-0.5
 62
   256
  6
BYLAYER
  0
ACDBPLACEHOLDER
  5
F
102
{ACAD_REACTORS
330
E
102
}
330
E
  0
SCALE
  5
48
102
{ACAD_REACTORS
330
47
102
}
330
47
100
AcDbScale
 70
     0
300
1:1
140
1.0
141
1.0
290
     1
  0
SCALE
  5
49
102
{ACAD_REACTORS
330
47
102
}
330
47
100
AcDbScale
 70
     0
300
1:2
140
1.0
141
2.0
290
     0
  0
SCALE
  5
4A
102
{ACAD_REACTORS
330
47
102
}
330
47
100
AcDbScale
 70
     0
300
1:4
140
1.0
141
4.0
290
     0
  0
SCALE
  5
4B
102
{ACAD_REACTORS
330
47
102
}
330
47
100
AcDbScale
 70
     0
300
1:5
140
1.0
141
5.0
290
     0
  0
SCALE
  5
4C
102
{ACAD_REACTORS
330
47
102
}
330
47
100
AcDbScale
 70
     0
300
1:8
140
1.0
141
8.0
290
     0
  0
SCALE
  5
4D
102
{ACAD_REACTORS
330
47
102
}
330
47
100
AcDbScale
 70
     0
300
1:10
140
1.0
141
10.0
290
     0
  0
SCALE
  5
4E
102
{ACAD_REACTORS
330
47
102
}
330
47
100
AcDbScale
 70
     0
300
1:16
140
1.0
141
16.0
290
     0
  0
SCALE
  5
4F
102
{ACAD_REACTORS
330
47
102
}
330
47
100
AcDbScale
 70
     0
300
1:20
140
1.0
141
20.0
290
     0
  0
SCALE
  5
50
102
{ACAD_REACTORS
330
47
102
}
330
47
100
AcDbScale
 70
     0
300
1:30
140
1.0
141
30.0
290
     0
  0
SCALE
  5
51
102
{ACAD_REACTORS
330
47
102
}
330
47
100
AcDbScale
 70
     0
300
1:40
140
1.0
141
40.0
290
     0
  0
SCALE
  5
52
102
{ACAD_REACTORS
330
47
102
}
330
47
100
AcDbScale
 70
     0
300
1:50
140
1.0
141
50.0
290
     0
  0
SCALE
  5
53
102
{ACAD_REACTORS
330
47
102
}
330
47
100
AcDbScale
 70
     0
300
1:100
140
1.0
141
100.0
290
     0
  0
SCALE
  5
54
102
{ACAD_REACTORS
330
47
102
}
330
47
100
AcDbScale
 70
     0
300
2:1
140
2.0
141
1.0
290
     0
  0
SCALE
  5
55
102
{ACAD_REACTORS
330
47
102
}
330
47
100
AcDbScale
 70
     0
300
4:1
140
4.0
141
1.0
290
     0
  0
SCALE
  5
56
102
{ACAD_REACTORS
330
47
102
}
330
47
100
AcDbScale
 70
     0
300
8:1
140
8.0
141
1.0
290
     0
  0
SCALE
  5
57
102
{ACAD_REACTORS
330
47
102
}
330
47
100
AcDbScale
 70
     0
300
10:1
140
10.0
141
1.0
290
     0
  0
SCALE
  5
58
102
{ACAD_REACTORS
330
47
102
}
330
47
100
AcDbScale
 70
     0
300
100:1
140
100.0
141
1.0
290
     0
  0
SCALE
  5
59
102
{ACAD_REACTORS
330
47
102
}
330
47
100
AcDbScale
 70
     0
300
1/128" = 1'-0"
140
0.0078125
141
12.0
290
     0
  0
SCALE
  5
5A
102
{ACAD_REACTORS
330
47
102
}
330
47
100
AcDbScale
 70
     0
300
1/64" = 1'-0"
140
0.015625
141
12.0
290
     0
  0
SCALE
  5
5B
102
{ACAD_REACTORS
330
47
102
}
330
47
100
AcDbScale
 70
     0
300
1/32" = 1'-0"
140
0.03125
141
12.0
290
     0
  0
SCALE
  5
5C
102
{ACAD_REACTORS
330
47
102
}
330
47
100
AcDbScale
 70
     0
300
1/16" = 1'-0"
140
0.0625
141
12.0
290
     0
  0
SCALE
  5
5D
102
{ACAD_REACTORS
330
47
102
}
330
47
100
AcDbScale
 70
     0
300
3/32" = 1'-0"
140
0.09375
141
12.0
290
     0
  0
SCALE
  5
5E
102
{ACAD_REACTORS
330
47
102
}
330
47
100
AcDbScale
 70
     0
300
1/8" = 1'-0"
140
0.125
141
12.0
290
     0
  0
SCALE
  5
5F
102
{ACAD_REACTORS
330
47
102
}
330
47
100
AcDbScale
 70
     0
300
3/16" = 1'-0"
140
0.1875
141
12.0
290
     0
  0
SCALE
  5
60
102
{ACAD_REACTORS
330
47
102
}
330
47
100
AcDbScale
 70
     0
300
1/4" = 1'-0"
140
0.25
141
12.0
290
     0
  0
SCALE
  5
61
102
{ACAD_REACTORS
330
47
102
}
330
47
100
AcDbScale
 70
     0
300
3/8" = 1'-0"
140
0.375
141
12.0
290
     0
  0
SCALE
  5
62
102
{ACAD_REACTORS
330
47
102
}
330
47
100
AcDbScale
 70
     0
300
1/2" = 1'-0"
140
0.5
141
12.0
290
     0
  0
SCALE
  5
63
102
{ACAD_REACTORS
330
47
102
}
330
47
100
AcDbScale
 70
     0
300
3/4" = 1'-0"
140
0.75
141
12.0
290
     0
  0
SCALE
  5
64
102
{ACAD_REACTORS
330
47
102
}
330
47
100
AcDbScale
 70
     0
300
1" = 1'-0"
140
1.0
141
12.0
290
     0
  0
SCALE
  5
65
102
{ACAD_REACTORS
330
47
102
}
330
47
100
AcDbScale
 70
     0
300
1-1/2" = 1'-0"
140
1.5
141
12.0
290
     0
  0
SCALE
  5
66
102
{ACAD_REACTORS
330
47
102
}
330
47
100
AcDbScale
 70
     0
300
3" = 1'-0"
140
3.0
141
12.0
290
     0
  0
SCALE
  5
67
102
{ACAD_REACTORS
330
47
102
}
330
47
100
AcDbScale
 70
     0
300
6" = 1'-0"
140
6.0
141
12.0
290
     0
  0
SCALE
  5
68
102
{ACAD_REACTORS
330
47
102
}
330
47
100
AcDbScale
 70
     0
300
1'-0" = 1'-0"
140
12.0
141
12.0
290
     0
  0
ENDSEC
  0
EOF
