  0
SECTION
  2
HEADER
  9
$ACADVER
  1
AC1015
  9
$ACADMAINTVER
 70
     6
  9
$DWGCODEPAGE
  3
ANSI_1250
  9
$INSBASE
 10
0.0
 20
0.0
 30
0.0
  9
$EXTMIN
 10
1748.6651833558
 20
940.0410704249
 30
0.0
  9
$EXTMAX
 10
11275.4937426714
 20
8837.1068003928
 30
0.0
  9
$LIMMIN
 10
0.0
 20
0.0
  9
$LIMMAX
 10
420.0
 20
297.0
  9
$ORTHOMODE
 70
     0
  9
$REGENMODE
 70
     1
  9
$FILLMODE
 70
     1
  9
$QTEXTMODE
 70
     0
  9
$MIRRTEXT
 70
     1
  9
$LTSCALE
 40
1.0
  9
$ATTMODE
 70
     1
  9
$TEXTSIZE
 40
3.5
  9
$TRACEWID
 40
1.0
  9
$TEXTSTYLE
  7
Standard
  9
$CLAYER
  8
0
  9
$CELTYPE
  6
ByLayer
  9
$CECOLOR
 62
   256
  9
$CELTSCALE
 40
1.0
  9
$DISPSILH
 70
     0
  9
$DIMSCALE
 40
1.0
  9
$DIMASZ
 40
3.302
  9
$DIMEXO
 40
0.0
  9
$DIMDLI
 40
3.75
  9
$DIMRND
 40
0.0
  9
$DIMDLE
 40
0.0
  9
$DIMEXE
 40
1.0
  9
$DIMTP
 40
0.0
  9
$DIMTM
 40
0.0
  9
$DIMTXT
 40
3.5
  9
$DIMCEN
 40
2.5
  9
$DIMTSZ
 40
0.0
  9
$DIMTOL
 70
     0
  9
$DIMLIM
 70
     0
  9
$DIMTIH
 70
     1
  9
$DIMTOH
 70
     1
  9
$DIMSE1
 70
     0
  9
$DIMSE2
 70
     0
  9
$DIMTAD
 70
     1
  9
$DIMZIN
 70
     0
  9
$DIMBLK
  1

  9
$DIMASO
 70
     1
  9
$DIMSHO
 70
     1
  9
$DIMPOST
  1

  9
$DIMAPOST
  1

  9
$DIMALT
 70
     0
  9
$DIMALTD
 70
     3
  9
$DIMALTF
 40
0.0393700787
  9
$DIMLFAC
 40
1.0
  9
$DIMTOFL
 70
     1
  9
$DIMTVP
 40
0.0
  9
$DIMTIX
 70
     0
  9
$DIMSOXD
 70
     0
  9
$DIMSAH
 70
     0
  9
$DIMBLK1
  1

  9
$DIMBLK2
  1

  9
$DIMSTYLE
  2
ISO-25
  9
$DIMCLRD
 70
     0
  9
$DIMCLRE
 70
     0
  9
$DIMCLRT
 70
     0
  9
$DIMTFAC
 40
1.0
  9
$DIMGAP
 40
1.524
  9
$DIMJUST
 70
     0
  9
$DIMSD1
 70
     0
  9
$DIMSD2
 70
     0
  9
$DIMTOLJ
 70
     0
  9
$DIMTZIN
 70
     0
  9
$DIMALTZ
 70
     0
  9
$DIMALTTZ
 70
     0
  9
$DIMUPT
 70
     0
  9
$DIMDEC
 70
     2
  9
$DIMTDEC
 70
     2
  9
$DIMALTU
 70
     2
  9
$DIMALTTD
 70
     3
  9
$DIMTXSTY
  7
Standard
  9
$DIMAUNIT
 70
     0
  9
$DIMADEC
 70
     2
  9
$DIMALTRND
 40
0.0
  9
$DIMAZIN
 70
     0
  9
$DIMDSEP
 70
    44
  9
$DIMATFIT
 70
     3
  9
$DIMFRAC
 70
     0
  9
$DIMLDRBLK
  1

  9
$DIMLUNIT
 70
     2
  9
$DIMLWD
 70
    -2
  9
$DIMLWE
 70
    -2
  9
$DIMTMOVE
 70
     0
  9
$LUNITS
 70
     2
  9
$LUPREC
 70
     2
  9
$SKETCHINC
 40
1.0
  9
$FILLETRAD
 40
10.0
  9
$AUNITS
 70
     0
  9
$AUPREC
 70
     2
  9
$MENU
  1
.
  9
$ELEVATION
 40
0.0
  9
$PELEVATION
 40
0.0
  9
$THICKNESS
 40
0.0
  9
$LIMCHECK
 70
     0
  9
$CHAMFERA
 40
0.0
  9
$CHAMFERB
 40
0.0
  9
$CHAMFERC
 40
0.0
  9
$CHAMFERD
 40
0.0
  9
$SKPOLY
 70
     0
  9
$TDCREATE
 40
2459104.443723356
  9
$TDUCREATE
 40
2459104.360390023
  9
$TDUPDATE
 40
2459104.443752627
  9
$TDUUPDATE
 40
2459104.360419294
  9
$TDINDWG
 40
0.0000000116
  9
$TDUSRTIMER
 40
0.0000000116
  9
$USRTIMER
 70
     1
  9
$ANGBASE
 50
0.0
  9
$ANGDIR
 70
     0
  9
$PDMODE
 70
     0
  9
$PDSIZE
 40
-1.0
  9
$PLINEWID
 40
0.0
  9
$SPLFRAME
 70
     0
  9
$SPLINETYPE
 70
     6
  9
$SPLINESEGS
 70
     8
  9
$HANDSEED
  5
248
  9
$SURFTAB1
 70
     6
  9
$SURFTAB2
 70
     6
  9
$SURFTYPE
 70
     6
  9
$SURFU
 70
     6
  9
$SURFV
 70
     6
  9
$UCSBASE
  2

  9
$UCSNAME
  2

  9
$UCSORG
 10
0.0
 20
0.0
 30
0.0
  9
$UCSXDIR
 10
1.0
 20
0.0
 30
0.0
  9
$UCSYDIR
 10
0.0
 20
1.0
 30
0.0
  9
$UCSORTHOREF
  2

  9
$UCSORTHOVIEW
 70
     0
  9
$UCSORGTOP
 10
0.0
 20
0.0
 30
0.0
  9
$UCSORGBOTTOM
 10
0.0
 20
0.0
 30
0.0
  9
$UCSORGLEFT
 10
0.0
 20
0.0
 30
0.0
  9
$UCSORGRIGHT
 10
0.0
 20
0.0
 30
0.0
  9
$UCSORGFRONT
 10
0.0
 20
0.0
 30
0.0
  9
$UCSORGBACK
 10
0.0
 20
0.0
 30
0.0
  9
$PUCSBASE
  2

  9
$PUCSNAME
  2

  9
$PUCSORG
 10
0.0
 20
0.0
 30
0.0
  9
$PUCSXDIR
 10
1.0
 20
0.0
 30
0.0
  9
$PUCSYDIR
 10
0.0
 20
1.0
 30
0.0
  9
$PUCSORTHOREF
  2

  9
$PUCSORTHOVIEW
 70
     0
  9
$PUCSORGTOP
 10
0.0
 20
0.0
 30
0.0
  9
$PUCSORGBOTTOM
 10
0.0
 20
0.0
 30
0.0
  9
$PUCSORGLEFT
 10
0.0
 20
0.0
 30
0.0
  9
$PUCSORGRIGHT
 10
0.0
 20
0.0
 30
0.0
  9
$PUCSORGFRONT
 10
0.0
 20
0.0
 30
0.0
  9
$PUCSORGBACK
 10
0.0
 20
0.0
 30
0.0
  9
$USERI1
 70
     0
  9
$USERI2
 70
     0
  9
$USERI3
 70
     0
  9
$USERI4
 70
     0
  9
$USERI5
 70
     0
  9
$USERR1
 40
0.0
  9
$USERR2
 40
0.0
  9
$USERR3
 40
0.0
  9
$USERR4
 40
0.0
  9
$USERR5
 40
0.0
  9
$WORLDVIEW
 70
     1
  9
$SHADEDGE
 70
     3
  9
$SHADEDIF
 70
    70
  9
$TILEMODE
 70
     1
  9
$MAXACTVP
 70
    64
  9
$PINSBASE
 10
0.0
 20
0.0
 30
0.0
  9
$PLIMCHECK
 70
     0
  9
$PEXTMIN
 10
1.0000000000E+20
 20
1.0000000000E+20
 30
1.0000000000E+20
  9
$PEXTMAX
 10
-1.0000000000E+20
 20
-1.0000000000E+20
 30
-1.0000000000E+20
  9
$PLIMMIN
 10
0.0
 20
0.0
  9
$PLIMMAX
 10
420.0
 20
297.0
  9
$UNITMODE
 70
     0
  9
$VISRETAIN
 70
     1
  9
$PLINEGEN
 70
     0
  9
$PSLTSCALE
 70
     1
  9
$TREEDEPTH
 70
  3020
  9
$CMLSTYLE
  2
Standard
  9
$CMLJUST
 70
     0
  9
$CMLSCALE
 40
20.0
  9
$PROXYGRAPHICS
 70
     1
  9
$MEASUREMENT
 70
     1
  9
$CELWEIGHT
370
    -1
  9
$ENDCAPS
280
     0
  9
$JOINSTYLE
280
     0
  9
$LWDISPLAY
290
     1
  9
$INSUNITS
 70
     4
  9
$HYPERLINKBASE
  1

  9
$STYLESHEET
  1

  9
$XEDIT
290
     1
  9
$CEPSNTYPE
380
     0
  9
$PSTYLEMODE
290
     1
  9
$FINGERPRINTGUID
  2
{b73dcb61-3993-45cf-85a7-59068b0eccaa}
  9
$VERSIONGUID
  2
{FAEB1C32-E019-11D5-929B-00C0DF256EC4}
  9
$EXTNAMES
290
     1
  9
$PSVPSCALE
 40
0.0
  9
$OLESTARTUP
290
     0
  0
ENDSEC
  0
SECTION
  2
CLASSES
  0
CLASS
  1
ACDBDICTIONARYWDFLT
  2
AcDbDictionaryWithDefault
  3
ObjectDBX Classes
 90
        0
280
     0
281
     0
  0
CLASS
  1
VISUALSTYLE
  2
AcDbVisualStyle
  3
ObjectDBX Classes
 90
     4095
280
     0
281
     0
  0
CLASS
  1
MATERIAL
  2
AcDbMaterial
  3
ObjectDBX Classes
 90
     1153
280
     0
281
     0
  0
CLASS
  1
SCALE
  2
AcDbScale
  3
ObjectDBX Classes
 90
     1153
280
     0
281
     0
  0
CLASS
  1
TABLESTYLE
  2
AcDbTableStyle
  3
ObjectDBX Classes
 90
     4095
280
     0
281
     0
  0
CLASS
  1
MLEADERSTYLE
  2
AcDbMLeaderStyle
  3
ACDB_MLEADERSTYLE_CLASS
 90
     4095
280
     0
281
     0
  0
CLASS
  1
SUN
  2
AcDbSun
  3
SCENEOE
 90
     1153
280
     0
281
     0
  0
CLASS
  1
ACDBPLACEHOLDER
  2
AcDbPlaceHolder
  3
ObjectDBX Classes
 90
        0
280
     0
281
     0
  0
CLASS
  1
LAYOUT
  2
AcDbLayout
  3
ObjectDBX Classes
 90
        0
280
     0
281
     0
  0
ENDSEC
  0
SECTION
  2
TABLES
  0
TABLE
  2
VPORT
  5
8
330
0
100
AcDbSymbolTable
 70
     1
  0
VPORT
  5
29
330
8
100
AcDbSymbolTableRecord
100
AcDbViewportTableRecord
  2
*Active
 70
     0
 10
0.0
 20
0.0
 11
1.0
 21
1.0
 12
6512.0794630136
 22
4888.5739354088
 13
0.0
 23
0.0
 14
10.0
 24
10.0
 15
10.0
 25
10.0
 16
0.0
 26
0.0
 36
1.0
 17
0.0
 27
0.0
 37
0.0
 40
8055.0070445673
 41
1.2063757458
 42
50.0
 43
0.0
 44
0.0
 50
0.0
 51
0.0
 71
     0
 72
   100
 73
     1
 74
     3
 75
     0
 76
     0
 77
     0
 78
     0
281
     0
 65
     1
110
0.0
120
0.0
130
0.0
111
1.0
121
0.0
131
0.0
112
0.0
122
1.0
132
0.0
 79
     0
146
0.0
  0
ENDTAB
  0
TABLE
  2
LTYPE
  5
5
330
0
100
AcDbSymbolTable
 70
     6
  0
LTYPE
  5
14
330
5
100
AcDbSymbolTableRecord
100
AcDbLinetypeTableRecord
  2
ByBlock
 70
     0
  3

 72
    65
 73
     0
 40
0.0
  0
LTYPE
  5
15
330
5
100
AcDbSymbolTableRecord
100
AcDbLinetypeTableRecord
  2
ByLayer
 70
     0
  3

 72
    65
 73
     0
 40
0.0
  0
LTYPE
  5
16
330
5
100
AcDbSymbolTableRecord
100
AcDbLinetypeTableRecord
  2
Continuous
 70
     0
  3
Solid line
 72
    65
 73
     0
 40
0.0
  0
LTYPE
  5
6E
330
5
100
AcDbSymbolTableRecord
100
AcDbLinetypeTableRecord
  2
HIDDEN
 70
     0
  3
Hidden __ __ __ __ __ __ __ __ __ __ __ __ __ __
 72
    65
 73
     2
 40
1.905
 49
1.27
 74
     0
 49
-0.635
 74
     0
  0
LTYPE
  5
6F
330
5
100
AcDbSymbolTableRecord
100
AcDbLinetypeTableRecord
  2
PHANTOM
 70
     0
  3
Phantom ______  __  __  ______  __  __  ______
 72
    65
 73
     6
 40
12.7
 49
6.35
 74
     0
 49
-1.27
 74
     0
 49
1.27
 74
     0
 49
-1.27
 74
     0
 49
1.27
 74
     0
 49
-1.27
 74
     0
  0
LTYPE
  5
70
330
5
100
AcDbSymbolTableRecord
100
AcDbLinetypeTableRecord
  2
CENTER
 70
     0
  3
Center ____ _ ____ _ ____ _ ____ _ ____ _ ____
 72
    65
 73
     4
 40
10.16
 49
6.35
 74
     0
 49
-1.27
 74
     0
 49
1.27
 74
     0
 49
-1.27
 74
     0
  0
LTYPE
  5
71
330
5
100
AcDbSymbolTableRecord
100
AcDbLinetypeTableRecord
  2
CENTERX2
 70
     0
  3
Center (2x) ________  __  ________  __  _____
 72
    65
 73
     4
 40
20.32
 49
12.7
 74
     0
 49
-2.54
 74
     0
 49
2.54
 74
     0
 49
-2.54
 74
     0
  0
LTYPE
  5
72
330
5
100
AcDbSymbolTableRecord
100
AcDbLinetypeTableRecord
  2
DOT2
 70
     0
  3
Dot (.5x) ........................................
 72
    65
 73
     2
 40
0.635
 49
0.0
 74
     0
 49
-0.635
 74
     0
  0
ENDTAB
  0
TABLE
  2
LAYER
  5
2
330
0
100
AcDbSymbolTable
 70
     1
  0
LAYER
  5
10
330
2
100
AcDbSymbolTableRecord
100
AcDbLayerTableRecord
  2
0
 70
     0
 62
     7
  6
Continuous
370
    -3
390
F
  0
ENDTAB
  0
TABLE
  2
STYLE
  5
3
330
0
100
AcDbSymbolTable
 70
     1
  0
STYLE
  5
11
330
3
100
AcDbSymbolTableRecord
100
AcDbTextStyleTableRecord
  2
Standard
 70
     0
 40
0.0
 41
1.0
 50
0.0
 71
     0
 42
3.5
  3
txt
  4

  0
ENDTAB
  0
TABLE
  2
VIEW
  5
6
330
0
100
AcDbSymbolTable
 70
     0
  0
ENDTAB
  0
TABLE
  2
UCS
  5
7
330
0
100
AcDbSymbolTable
 70
     0
  0
ENDTAB
  0
TABLE
  2
APPID
  5
9
330
0
100
AcDbSymbolTable
 70
     1
  0
APPID
  5
12
330
9
100
AcDbSymbolTableRecord
100
AcDbRegAppTableRecord
  2
ACAD
 70
     0
  0
ENDTAB
  0
TABLE
  2
DIMSTYLE
  5
A
330
0
100
AcDbSymbolTable
 70
     1
100
AcDbDimStyleTable
  0
DIMSTYLE
105
27
330
A
100
AcDbSymbolTableRecord
100
AcDbDimStyleTableRecord
  2
ISO-25
 70
     0
 41
2.5
 42
0.625
 43
3.75
 44
1.25
 73
     0
 74
     0
 77
     1
 78
     8
140
2.5
141
2.5
143
0.0393700787
147
0.625
171
     3
172
     1
178
     0
271
     2
272
     2
274
     3
278
    44
283
     0
284
     8
340
11
  0
ENDTAB
  0
TABLE
  2
BLOCK_RECORD
  5
1
330
0
100
AcDbSymbolTable
 70
     1
  0
BLOCK_RECORD
  5
1F
330
1
100
AcDbSymbolTableRecord
100
AcDbBlockTableRecord
  2
*Model_Space
340
22
  0
BLOCK_RECORD
  5
1B
330
1
100
AcDbSymbolTableRecord
100
AcDbBlockTableRecord
  2
*Paper_Space
340
1E
  0
BLOCK_RECORD
  5
23
330
1
100
AcDbSymbolTableRecord
100
AcDbBlockTableRecord
  2
*Paper_Space0
340
26
  0
ENDTAB
  0
ENDSEC
  0
SECTION
  2
BLOCKS
  0
BLOCK
  5
20
330
1F
100
AcDbEntity
  8
0
100
AcDbBlockBegin
  2
*Model_Space
 70
     0
 10
0.0
 20
0.0
 30
0.0
  3
*Model_Space
  1

  0
ENDBLK
  5
21
330
1F
100
AcDbEntity
  8
0
100
AcDbBlockEnd
  0
BLOCK
  5
1C
330
1B
100
AcDbEntity
 67
     1
  8
0
100
AcDbBlockBegin
  2
*Paper_Space
 70
     0
 10
0.0
 20
0.0
 30
0.0
  3
*Paper_Space
  1

  0
ENDBLK
  5
1D
330
1B
100
AcDbEntity
 67
     1
  8
0
100
AcDbBlockEnd
  0
BLOCK
  5
24
330
23
100
AcDbEntity
  8
0
100
AcDbBlockBegin
  2
*Paper_Space0
 70
     0
 10
0.0
 20
0.0
 30
0.0
  3
*Paper_Space0
  1

  0
ENDBLK
  5
25
330
23
100
AcDbEntity
  8
0
100
AcDbBlockEnd
  0
ENDSEC
  0
SECTION
  2
ENTITIES
  0
ARC
  5
73
330
1F
100
AcDbEntity
  8
0
  6
Continuous
 62
     7
100
AcDbCircle
 10
4886.6651833558
 20
8599.1068003928
 30
0.0
 40
73.41401273885532
100
AcDbArc
 50
276.6130607407
 51
80.9554355136
  0
ARC
  5
74
330
1F
100
AcDbEntity
  8
0
  6
Continuous
 62
     7
100
AcDbCircle
 10
4886.6651833558
 20
8599.1068003928
 30
0.0
 40
73.4140127388859
100
AcDbArc
 50
96.6130607407
 51
260.9554355134
  0
ARC
  5
75
330
1F
100
AcDbEntity
  8
0
  6
Continuous
 62
     7
100
AcDbCircle
 10
4886.6651833558
 20
8599.1068003928
 30
0.0
 40
78.00000000000007
100
AcDbArc
 50
276.1501339561
 51
81.4183622982
  0
ARC
  5
76
330
1F
100
AcDbEntity
  8
0
  6
Continuous
 62
     7
100
AcDbCircle
 10
4886.6651833558
 20
8599.1068003928
 30
0.0
 40
78.00000000001
100
AcDbArc
 50
96.1501339561
 51
261.4183622982
  0
ARC
  5
77
330
1F
100
AcDbEntity
  8
0
  6
Continuous
 62
     7
100
AcDbCircle
 10
4886.6651833558
 20
8599.1068003928
 30
0.0
 40
78.00000000000037
100
AcDbArc
 50
81.4183622982
 51
96.1501339561
  0
ARC
  5
78
330
1F
100
AcDbEntity
  8
0
  6
Continuous
 62
     7
100
AcDbCircle
 10
4886.6651833558
 20
8599.1068003928
 30
0.0
 40
78.00000000001
100
AcDbArc
 50
261.4183622982
 51
276.1501339561
  0
ARC
  5
79
330
1F
100
AcDbEntity
  8
0
  6
Continuous
 62
     7
100
AcDbCircle
 10
1986.6651833558
 20
6499.1068003928
 30
0.0
 40
73.41401273885498
100
AcDbArc
 50
276.6130607407
 51
80.9554355136
  0
ARC
  5
7A
330
1F
100
AcDbEntity
  8
0
  6
Continuous
 62
     7
100
AcDbCircle
 10
1986.6651833558
 20
6499.1068003928
 30
0.0
 40
73.41401273887843
100
AcDbArc
 50
96.6130607407
 51
260.9554355134
  0
ARC
  5
7B
330
1F
100
AcDbEntity
  8
0
  6
Continuous
 62
     7
100
AcDbCircle
 10
1986.6651833558
 20
6499.1068003928
 30
0.0
 40
78.0000000000131
100
AcDbArc
 50
96.1501339561
 51
261.4183622982
  0
ARC
  5
7C
330
1F
100
AcDbEntity
  8
0
  6
Continuous
 62
     7
100
AcDbCircle
 10
1986.6651833558
 20
6499.1068003928
 30
0.0
 40
78.0000000000015
100
AcDbArc
 50
276.1501339561
 51
81.4183622982
  0
ARC
  5
7D
330
1F
100
AcDbEntity
  8
0
  6
Continuous
 62
     7
100
AcDbCircle
 10
1986.6651833558
 20
6499.1068003928
 30
0.0
 40
78.0000000000131
100
AcDbArc
 50
261.4183622982
 51
276.1501339561
  0
ARC
  5
7E
330
1F
100
AcDbEntity
  8
0
  6
Continuous
 62
     7
100
AcDbCircle
 10
1986.6651833558
 20
6499.1068003928
 30
0.0
 40
77.9999999999988
100
AcDbArc
 50
81.4183622982
 51
96.1501339561
  0
ARC
  5
7F
330
1F
100
AcDbEntity
  8
0
  6
Continuous
 62
     7
100
AcDbCircle
 10
4886.6651833558
 20
6499.1068003927
 30
0.0
 40
73.41401273886873
100
AcDbArc
 50
196.0152270385
 51
0.3576018113
  0
ARC
  5
80
330
1F
100
AcDbEntity
  8
0
  6
Continuous
 62
     7
100
AcDbCircle
 10
4886.6651833558
 20
6499.1068003927
 30
0.0
 40
73.41401273880939
100
AcDbArc
 50
16.015227038
 51
180.3576018112
  0
ARC
  5
81
330
1F
100
AcDbEntity
  8
0
  6
Continuous
 62
     7
100
AcDbCircle
 10
4886.6651833558
 20
6499.1068003927
 30
0.0
 40
78.00000000000058
100
AcDbArc
 50
195.5523002537
 51
0.8205285959
  0
ARC
  5
82
330
1F
100
AcDbEntity
  8
0
  6
Continuous
 62
     7
100
AcDbCircle
 10
4886.6651833558
 20
6499.1068003927
 30
0.0
 40
78.00000000002834
100
AcDbArc
 50
15.5523002539
 51
180.8205285957
  0
ARC
  5
83
330
1F
100
AcDbEntity
  8
0
  6
Continuous
 62
     7
100
AcDbCircle
 10
4886.6651833558
 20
6499.1068003927
 30
0.0
 40
78.00000000000068
100
AcDbArc
 50
0.8205285959
 51
15.5523002539
  0
ARC
  5
84
330
1F
100
AcDbEntity
  8
0
  6
Continuous
 62
     7
100
AcDbCircle
 10
4886.6651833558
 20
6499.1068003927
 30
0.0
 40
78.00000000002834
100
AcDbArc
 50
180.8205285957
 51
195.5523002537
  0
ARC
  5
85
330
1F
100
AcDbEntity
  8
0
  6
Continuous
 62
     7
100
AcDbCircle
 10
1986.6651833558
 20
8599.1068003928
 30
0.0
 40
73.41401273885535
100
AcDbArc
 50
276.6130607407
 51
80.9554355136
  0
ARC
  5
86
330
1F
100
AcDbEntity
  8
0
  6
Continuous
 62
     7
100
AcDbCircle
 10
1986.6651833558
 20
8599.1068003928
 30
0.0
 40
73.41401273888077
100
AcDbArc
 50
96.6130607407
 51
260.9554355134
  0
ARC
  5
87
330
1F
100
AcDbEntity
  8
0
  6
Continuous
 62
     7
100
AcDbCircle
 10
1986.6651833558
 20
8599.1068003928
 30
0.0
 40
78.00000000000188
100
AcDbArc
 50
276.1501339561
 51
81.4183622982
  0
ARC
  5
88
330
1F
100
AcDbEntity
  8
0
  6
Continuous
 62
     7
100
AcDbCircle
 10
1986.6651833558
 20
8599.1068003928
 30
0.0
 40
78.00000000000993
100
AcDbArc
 50
96.1501339561
 51
261.4183622982
  0
ARC
  5
89
330
1F
100
AcDbEntity
  8
0
  6
Continuous
 62
     7
100
AcDbCircle
 10
1986.6651833558
 20
8599.1068003928
 30
0.0
 40
78.00000000000993
100
AcDbArc
 50
261.4183622982
 51
276.1501339561
  0
ARC
  5
8A
330
1F
100
AcDbEntity
  8
0
  6
Continuous
 62
     7
100
AcDbCircle
 10
1986.6651833558
 20
8599.1068003928
 30
0.0
 40
78.00000000000028
100
AcDbArc
 50
81.4183622982
 51
96.1501339561
  0
ARC
  5
8B
330
1F
100
AcDbEntity
  8
0
  6
Continuous
 62
     7
100
AcDbCircle
 10
1986.6651833558
 20
6499.1068003928
 30
0.0
 40
120.0000000000526
100
AcDbArc
 50
114.6243183522
 51
335.3756816478
  0
ARC
  5
8C
330
1F
100
AcDbEntity
  8
0
  6
Continuous
 62
     7
100
AcDbCircle
 10
1986.6651833558
 20
8599.1068003928
 30
0.0
 40
119.999999999997
100
AcDbArc
 50
24.6243183522
 51
245.3756816478
  0
ARC
  5
8D
330
1F
100
AcDbEntity
  8
0
  6
Continuous
 62
     7
100
AcDbCircle
 10
4886.6651833558
 20
8599.1068003928
 30
0.0
 40
119.9999999999854
100
AcDbArc
 50
294.6243183522
 51
155.3756816478
  0
ARC
  5
8E
330
1F
100
AcDbEntity
  8
0
  6
Continuous
 62
     7
100
AcDbCircle
 10
4886.6651833558
 20
6499.1068003927
 30
0.0
 40
119.9999999999366
100
AcDbArc
 50
204.6243183521
 51
65.3756816479
  0
CIRCLE
  5
8F
330
1F
100
AcDbEntity
  8
0
  6
Continuous
 62
     7
100
AcDbCircle
 10
1986.6651833558
 20
8599.1068003928
 30
0.0
 40
84.99999999995725
  0
CIRCLE
  5
90
330
1F
100
AcDbEntity
  8
0
  6
Continuous
 62
     7
100
AcDbCircle
 10
1986.6651833558
 20
6499.1068003928
 30
0.0
 40
84.99999999995362
  0
CIRCLE
  5
91
330
1F
100
AcDbEntity
  8
0
  6
Continuous
 62
     7
100
AcDbCircle
 10
4886.6651833558
 20
6499.1068003927
 30
0.0
 40
84.9999999999718
  0
CIRCLE
  5
92
330
1F
100
AcDbEntity
  8
0
  6
Continuous
 62
     7
100
AcDbCircle
 10
4886.6651833558
 20
8599.1068003928
 30
0.0
 40
84.99999999995634
  0
CIRCLE
  5
93
330
1F
100
AcDbEntity
  8
0
  6
Continuous
 62
     7
100
AcDbCircle
 10
10143.4937426715
 20
7939.1068003929
 30
0.0
 40
60.0
  0
CIRCLE
  5
94
330
1F
100
AcDbEntity
  8
0
  6
Continuous
 62
     7
100
AcDbCircle
 10
10143.4937426715
 20
7939.1068003929
 30
0.0
 40
110.0000000000018
  0
CIRCLE
  5
95
330
1F
100
AcDbEntity
  8
0
  6
Continuous
 62
     7
100
AcDbCircle
 10
10143.4937426715
 20
7939.1068003929
 30
0.0
 40
170.0000000000018
  0
CIRCLE
  5
96
330
1F
100
AcDbEntity
  8
0
  6
Continuous
 62
     7
100
AcDbCircle
 10
10143.4937426715
 20
7939.1068003929
 30
0.0
 40
230.0
  0
CIRCLE
  5
97
330
1F
100
AcDbEntity
  8
0
  6
Continuous
 62
     7
100
AcDbCircle
 10
10143.4937426715
 20
7939.1068003929
 30
0.0
 40
280.0000000000018
  0
CIRCLE
  5
98
330
1F
100
AcDbEntity
  8
0
  6
Continuous
 62
     7
100
AcDbCircle
 10
10143.4937426715
 20
7939.1068003929
 30
0.0
 40
360.0000000000018
  0
CIRCLE
  5
99
330
1F
100
AcDbEntity
  8
0
  6
Continuous
 62
     7
100
AcDbCircle
 10
10143.4937426714
 20
7159.1068003928
 30
0.0
 40
60.0
  0
CIRCLE
  5
9A
330
1F
100
AcDbEntity
  8
0
  6
Continuous
 62
     7
100
AcDbCircle
 10
10143.4937426714
 20
7159.1068003928
 30
0.0
 40
110.0
  0
CIRCLE
  5
9B
330
1F
100
AcDbEntity
  8
0
  6
Continuous
 62
     7
100
AcDbCircle
 10
10143.4937426714
 20
7159.1068003928
 30
0.0
 40
170.0
  0
CIRCLE
  5
9C
330
1F
100
AcDbEntity
  8
0
  6
Continuous
 62
     7
100
AcDbCircle
 10
10143.4937426714
 20
7159.1068003928
 30
0.0
 40
230.0
  0
CIRCLE
  5
9D
330
1F
100
AcDbEntity
  8
0
  6
Continuous
 62
     7
100
AcDbCircle
 10
10143.4937426714
 20
7159.1068003928
 30
0.0
 40
280.0
  0
CIRCLE
  5
9E
330
1F
100
AcDbEntity
  8
0
  6
Continuous
 62
     7
100
AcDbCircle
 10
10143.4937426714
 20
7159.1068003928
 30
0.0
 40
360.0
  0
CIRCLE
  5
9F
330
1F
100
AcDbEntity
  8
0
  6
Continuous
 62
     7
100
AcDbCircle
 10
4306.6651833558
 20
2072.0410704249
 30
0.0
 40
59.99999999999909
  0
CIRCLE
  5
A0
330
1F
100
AcDbEntity
  8
0
  6
Continuous
 62
     7
100
AcDbCircle
 10
4306.6651833558
 20
2072.0410704249
 30
0.0
 40
109.9999999999991
  0
CIRCLE
  5
A1
330
1F
100
AcDbEntity
  8
0
  6
Continuous
 62
     7
100
AcDbCircle
 10
4306.6651833558
 20
2072.0410704249
 30
0.0
 40
170.0
  0
CIRCLE
  5
A2
330
1F
100
AcDbEntity
  8
0
  6
Continuous
 62
     7
100
AcDbCircle
 10
4306.6651833558
 20
2072.0410704249
 30
0.0
 40
229.9999999999991
  0
CIRCLE
  5
A3
330
1F
100
AcDbEntity
  8
0
  6
Continuous
 62
     7
100
AcDbCircle
 10
4306.6651833558
 20
2072.0410704249
 30
0.0
 40
280.0
  0
CIRCLE
  5
A4
330
1F
100
AcDbEntity
  8
0
  6
Continuous
 62
     7
100
AcDbCircle
 10
4306.6651833558
 20
2072.0410704249
 30
0.0
 40
360.0
  0
CIRCLE
  5
A5
330
1F
100
AcDbEntity
  8
0
  6
Continuous
 62
     7
100
AcDbCircle
 10
2566.6651833558
 20
2072.0410704249
 30
0.0
 40
60.0
  0
CIRCLE
  5
A6
330
1F
100
AcDbEntity
  8
0
  6
Continuous
 62
     7
100
AcDbCircle
 10
2566.6651833558
 20
2072.0410704249
 30
0.0
 40
110.0
  0
CIRCLE
  5
A7
330
1F
100
AcDbEntity
  8
0
  6
Continuous
 62
     7
100
AcDbCircle
 10
2566.6651833558
 20
2072.0410704249
 30
0.0
 40
170.0
  0
CIRCLE
  5
A8
330
1F
100
AcDbEntity
  8
0
  6
Continuous
 62
     7
100
AcDbCircle
 10
2566.6651833558
 20
2072.0410704249
 30
0.0
 40
229.9999999999995
  0
CIRCLE
  5
A9
330
1F
100
AcDbEntity
  8
0
  6
Continuous
 62
     7
100
AcDbCircle
 10
2566.6651833558
 20
2072.0410704249
 30
0.0
 40
280.0000000000005
  0
CIRCLE
  5
AA
330
1F
100
AcDbEntity
  8
0
  6
Continuous
 62
     7
100
AcDbCircle
 10
2566.6651833558
 20
2072.0410704249
 30
0.0
 40
360.0000000000005
  0
CIRCLE
  5
AB
330
1F
100
AcDbEntity
  8
0
  6
Continuous
 62
     7
100
AcDbCircle
 10
3436.6651833558
 20
2072.0410704249
 30
0.0
 40
60.0
  0
CIRCLE
  5
AC
330
1F
100
AcDbEntity
  8
0
  6
Continuous
 62
     7
100
AcDbCircle
 10
3436.6651833558
 20
2072.0410704249
 30
0.0
 40
110.0
  0
CIRCLE
  5
AD
330
1F
100
AcDbEntity
  8
0
  6
Continuous
 62
     7
100
AcDbCircle
 10
3436.6651833558
 20
2072.0410704249
 30
0.0
 40
169.9999999999995
  0
CIRCLE
  5
AE
330
1F
100
AcDbEntity
  8
0
  6
Continuous
 62
     7
100
AcDbCircle
 10
3436.6651833558
 20
2072.0410704249
 30
0.0
 40
230.0
  0
CIRCLE
  5
AF
330
1F
100
AcDbEntity
  8
0
  6
Continuous
 62
     7
100
AcDbCircle
 10
3436.6651833558
 20
2072.0410704249
 30
0.0
 40
280.0
  0
CIRCLE
  5
B0
330
1F
100
AcDbEntity
  8
0
  6
Continuous
 62
     7
100
AcDbCircle
 10
3436.6651833558
 20
2072.0410704249
 30
0.0
 40
359.9999999999995
  0
LINE
  5
B1
330
1F
100
AcDbEntity
  8
0
  6
Continuous
 62
     7
100
AcDbLine
 10
2926.6651833558
 20
6361.1068003928
 30
0.0
 11
2926.6651833558
 21
6379.1068003928
 31
0.0
  0
LINE
  5
B2
330
1F
100
AcDbEntity
  8
0
  6
Continuous
 62
     7
100
AcDbLine
 10
2206.6651833558
 20
6379.1068003928
 30
0.0
 11
2206.6651833558
 21
6361.1068003928
 31
0.0
  0
LINE
  5
B3
330
1F
100
AcDbEntity
  8
0
  6
Continuous
 62
     7
100
AcDbLine
 10
2846.6651833558
 20
6341.1068003928
 30
0.0
 11
2846.6651833558
 21
6361.1068003928
 31
0.0
  0
LINE
  5
B4
330
1F
100
AcDbEntity
  8
0
  6
Continuous
 62
     7
100
AcDbLine
 10
2286.6651833558
 20
6361.1068003928
 30
0.0
 11
2286.6651833558
 21
6341.1068003928
 31
0.0
  0
LINE
  5
B5
330
1F
100
AcDbEntity
  8
0
  6
Continuous
 62
     7
100
AcDbLine
 10
2796.6651833558
 20
6321.1068003928
 30
0.0
 11
2796.6651833558
 21
6341.1068003928
 31
0.0
  0
LINE
  5
B6
330
1F
100
AcDbEntity
  8
0
  6
Continuous
 62
     7
100
AcDbLine
 10
2336.6651833558
 20
6341.1068003928
 30
0.0
 11
2336.6651833558
 21
6321.1068003928
 31
0.0
  0
LINE
  5
B7
330
1F
100
AcDbEntity
  8
0
  6
Continuous
 62
     7
100
AcDbLine
 10
2736.6651833558
 20
6301.1068003928
 30
0.0
 11
2736.6651833558
 21
6321.1068003928
 31
0.0
  0
LINE
  5
B8
330
1F
100
AcDbEntity
  8
0
  6
Continuous
 62
     7
100
AcDbLine
 10
2396.6651833558
 20
6321.1068003928
 30
0.0
 11
2396.6651833558
 21
6301.1068003928
 31
0.0
  0
LINE
  5
B9
330
1F
100
AcDbEntity
  8
0
  6
Continuous
 62
     7
100
AcDbLine
 10
2676.6651833558
 20
6281.1068003928
 30
0.0
 11
2676.6651833558
 21
6301.1068003928
 31
0.0
  0
LINE
  5
BA
330
1F
100
AcDbEntity
  8
0
  6
Continuous
 62
     7
100
AcDbLine
 10
2456.6651833558
 20
6301.1068003928
 30
0.0
 11
2456.6651833558
 21
6281.1068003928
 31
0.0
  0
LINE
  5
BB
330
1F
100
AcDbEntity
  8
0
  6
Continuous
 62
     7
100
AcDbLine
 10
2626.6651833558
 20
6261.1068003928
 30
0.0
 11
2626.6651833558
 21
6281.1068003928
 31
0.0
  0
LINE
  5
BC
330
1F
100
AcDbEntity
  8
0
  6
Continuous
 62
     7
100
AcDbLine
 10
2506.6651833558
 20
6281.1068003928
 30
0.0
 11
2506.6651833558
 21
6261.1068003928
 31
0.0
  0
LINE
  5
BD
330
1F
100
AcDbEntity
  8
0
  6
Continuous
 62
     7
100
AcDbLine
 10
5024.6651833558
 20
8299.1068003928
 30
0.0
 11
5006.6651833558
 21
8299.1068003928
 31
0.0
  0
LINE
  5
BE
330
1F
100
AcDbEntity
  8
0
  6
Continuous
 62
     7
100
AcDbLine
 10
5006.6651833558
 20
7579.1068003928
 30
0.0
 11
5024.6651833558
 21
7579.1068003928
 31
0.0
  0
LINE
  5
BF
330
1F
100
AcDbEntity
  8
0
  6
Continuous
 62
     7
100
AcDbLine
 10
5044.6651833558
 20
8219.1068003928
 30
0.0
 11
5024.6651833558
 21
8219.1068003928
 31
0.0
  0
LINE
  5
C0
330
1F
100
AcDbEntity
  8
0
  6
Continuous
 62
     7
100
AcDbLine
 10
5024.6651833558
 20
7659.1068003928
 30
0.0
 11
5044.6651833558
 21
7659.1068003928
 31
0.0
  0
LINE
  5
C1
330
1F
100
AcDbEntity
  8
0
  6
Continuous
 62
     7
100
AcDbLine
 10
5064.6651833558
 20
8169.1068003928
 30
0.0
 11
5044.6651833558
 21
8169.1068003928
 31
0.0
  0
LINE
  5
C2
330
1F
100
AcDbEntity
  8
0
  6
Continuous
 62
     7
100
AcDbLine
 10
5044.6651833558
 20
7709.1068003928
 30
0.0
 11
5064.6651833558
 21
7709.1068003928
 31
0.0
  0
LINE
  5
C3
330
1F
100
AcDbEntity
  8
0
  6
Continuous
 62
     7
100
AcDbLine
 10
5084.6651833558
 20
8109.1068003928
 30
0.0
 11
5064.6651833558
 21
8109.1068003928
 31
0.0
  0
LINE
  5
C4
330
1F
100
AcDbEntity
  8
0
  6
Continuous
 62
     7
100
AcDbLine
 10
5064.6651833558
 20
7769.1068003928
 30
0.0
 11
5084.6651833558
 21
7769.1068003928
 31
0.0
  0
LINE
  5
C5
330
1F
100
AcDbEntity
  8
0
  6
Continuous
 62
     7
100
AcDbLine
 10
5104.6651833558
 20
8049.1068003928
 30
0.0
 11
5084.6651833558
 21
8049.1068003928
 31
0.0
  0
LINE
  5
C6
330
1F
100
AcDbEntity
  8
0
  6
Continuous
 62
     7
100
AcDbLine
 10
5084.6651833558
 20
7829.1068003928
 30
0.0
 11
5104.6651833558
 21
7829.1068003928
 31
0.0
  0
LINE
  5
C7
330
1F
100
AcDbEntity
  8
0
  6
Continuous
 62
     7
100
AcDbLine
 10
5124.6651833558
 20
7999.1068003928
 30
0.0
 11
5104.6651833558
 21
7999.1068003928
 31
0.0
  0
LINE
  5
C8
330
1F
100
AcDbEntity
  8
0
  6
Continuous
 62
     7
100
AcDbLine
 10
5104.6651833558
 20
7879.1068003928
 30
0.0
 11
5124.6651833558
 21
7879.1068003928
 31
0.0
  0
LINE
  5
C9
330
1F
100
AcDbEntity
  8
0
  6
Continuous
 62
     7
100
AcDbLine
 10
3946.6651833558
 20
8737.1068003928
 30
0.0
 11
3946.6651833558
 21
8719.1068003928
 31
0.0
  0
LINE
  5
CA
330
1F
100
AcDbEntity
  8
0
  6
Continuous
 62
     7
100
AcDbLine
 10
4666.6651833558
 20
8719.1068003928
 30
0.0
 11
4666.6651833558
 21
8737.1068003928
 31
0.0
  0
LINE
  5
CB
330
1F
100
AcDbEntity
  8
0
  6
Continuous
 62
     7
100
AcDbLine
 10
4026.6651833558
 20
8757.1068003928
 30
0.0
 11
4026.6651833558
 21
8737.1068003928
 31
0.0
  0
LINE
  5
CC
330
1F
100
AcDbEntity
  8
0
  6
Continuous
 62
     7
100
AcDbLine
 10
4586.6651833558
 20
8737.1068003928
 30
0.0
 11
4586.6651833558
 21
8757.1068003928
 31
0.0
  0
LINE
  5
CD
330
1F
100
AcDbEntity
  8
0
  6
Continuous
 62
     7
100
AcDbLine
 10
4076.6651833558
 20
8777.1068003928
 30
0.0
 11
4076.6651833558
 21
8757.1068003928
 31
0.0
  0
LINE
  5
CE
330
1F
100
AcDbEntity
  8
0
  6
Continuous
 62
     7
100
AcDbLine
 10
4536.6651833558
 20
8757.1068003928
 30
0.0
 11
4536.6651833558
 21
8777.1068003928
 31
0.0
  0
LINE
  5
CF
330
1F
100
AcDbEntity
  8
0
  6
Continuous
 62
     7
100
AcDbLine
 10
4136.6651833558
 20
8797.1068003928
 30
0.0
 11
4136.6651833558
 21
8777.1068003928
 31
0.0
  0
LINE
  5
D0
330
1F
100
AcDbEntity
  8
0
  6
Continuous
 62
     7
100
AcDbLine
 10
4476.6651833558
 20
8777.1068003928
 30
0.0
 11
4476.6651833558
 21
8797.1068003928
 31
0.0
  0
LINE
  5
D1
330
1F
100
AcDbEntity
  8
0
  6
Continuous
 62
     7
100
AcDbLine
 10
4196.6651833558
 20
8817.1068003928
 30
0.0
 11
4196.6651833558
 21
8797.1068003928
 31
0.0
  0
LINE
  5
D2
330
1F
100
AcDbEntity
  8
0
  6
Continuous
 62
     7
100
AcDbLine
 10
4416.6651833558
 20
8797.1068003928
 30
0.0
 11
4416.6651833558
 21
8817.1068003928
 31
0.0
  0
LINE
  5
D3
330
1F
100
AcDbEntity
  8
0
  6
Continuous
 62
     7
100
AcDbLine
 10
4246.6651833558
 20
8837.1068003928
 30
0.0
 11
4246.6651833558
 21
8817.1068003928
 31
0.0
  0
LINE
  5
D4
330
1F
100
AcDbEntity
  8
0
  6
Continuous
 62
     7
100
AcDbLine
 10
4366.6651833558
 20
8817.1068003928
 30
0.0
 11
4366.6651833558
 21
8837.1068003928
 31
0.0
  0
LINE
  5
D5
330
1F
100
AcDbEntity
  8
0
  6
Continuous
 62
     7
100
AcDbLine
 10
2206.6651833558
 20
8737.1068003928
 30
0.0
 11
2206.6651833558
 21
8719.1068003928
 31
0.0
  0
LINE
  5
D6
330
1F
100
AcDbEntity
  8
0
  6
Continuous
 62
     7
100
AcDbLine
 10
2926.6651833558
 20
8719.1068003928
 30
0.0
 11
2926.6651833558
 21
8737.1068003928
 31
0.0
  0
LINE
  5
D7
330
1F
100
AcDbEntity
  8
0
  6
Continuous
 62
     7
100
AcDbLine
 10
2286.6651833558
 20
8757.1068003928
 30
0.0
 11
2286.6651833558
 21
8737.1068003928
 31
0.0
  0
LINE
  5
D8
330
1F
100
AcDbEntity
  8
0
  6
Continuous
 62
     7
100
AcDbLine
 10
2846.6651833558
 20
8737.1068003928
 30
0.0
 11
2846.6651833558
 21
8757.1068003928
 31
0.0
  0
LINE
  5
D9
330
1F
100
AcDbEntity
  8
0
  6
Continuous
 62
     7
100
AcDbLine
 10
2336.6651833558
 20
8777.1068003928
 30
0.0
 11
2336.6651833558
 21
8757.1068003928
 31
0.0
  0
LINE
  5
DA
330
1F
100
AcDbEntity
  8
0
  6
Continuous
 62
     7
100
AcDbLine
 10
2796.6651833558
 20
8757.1068003928
 30
0.0
 11
2796.6651833558
 21
8777.1068003928
 31
0.0
  0
LINE
  5
DB
330
1F
100
AcDbEntity
  8
0
  6
Continuous
 62
     7
100
AcDbLine
 10
2396.6651833558
 20
8797.1068003928
 30
0.0
 11
2396.6651833558
 21
8777.1068003928
 31
0.0
  0
LINE
  5
DC
330
1F
100
AcDbEntity
  8
0
  6
Continuous
 62
     7
100
AcDbLine
 10
2736.6651833558
 20
8777.1068003928
 30
0.0
 11
2736.6651833558
 21
8797.1068003928
 31
0.0
  0
LINE
  5
DD
330
1F
100
AcDbEntity
  8
0
  6
Continuous
 62
     7
100
AcDbLine
 10
2456.6651833558
 20
8817.1068003928
 30
0.0
 11
2456.6651833558
 21
8797.1068003928
 31
0.0
  0
LINE
  5
DE
330
1F
100
AcDbEntity
  8
0
  6
Continuous
 62
     7
100
AcDbLine
 10
2676.6651833558
 20
8797.1068003928
 30
0.0
 11
2676.6651833558
 21
8817.1068003928
 31
0.0
  0
LINE
  5
DF
330
1F
100
AcDbEntity
  8
0
  6
Continuous
 62
     7
100
AcDbLine
 10
2506.6651833558
 20
8837.1068003928
 30
0.0
 11
2506.6651833558
 21
8817.1068003928
 31
0.0
  0
LINE
  5
E0
330
1F
100
AcDbEntity
  8
0
  6
Continuous
 62
     7
100
AcDbLine
 10
2626.6651833558
 20
8817.1068003928
 30
0.0
 11
2626.6651833558
 21
8837.1068003928
 31
0.0
  0
LINE
  5
E1
330
1F
100
AcDbEntity
  8
0
  6
Continuous
 62
     7
100
AcDbLine
 10
3076.6651833558
 20
8737.1068003928
 30
0.0
 11
3076.6651833558
 21
8719.1068003928
 31
0.0
  0
LINE
  5
E2
330
1F
100
AcDbEntity
  8
0
  6
Continuous
 62
     7
100
AcDbLine
 10
3796.6651833558
 20
8719.1068003928
 30
0.0
 11
3796.6651833558
 21
8737.1068003928
 31
0.0
  0
LINE
  5
E3
330
1F
100
AcDbEntity
  8
0
  6
Continuous
 62
     7
100
AcDbLine
 10
3156.6651833558
 20
8757.1068003928
 30
0.0
 11
3156.6651833558
 21
8737.1068003928
 31
0.0
  0
LINE
  5
E4
330
1F
100
AcDbEntity
  8
0
  6
Continuous
 62
     7
100
AcDbLine
 10
3716.6651833558
 20
8737.1068003928
 30
0.0
 11
3716.6651833558
 21
8757.1068003928
 31
0.0
  0
LINE
  5
E5
330
1F
100
AcDbEntity
  8
0
  6
Continuous
 62
     7
100
AcDbLine
 10
3206.6651833558
 20
8777.1068003928
 30
0.0
 11
3206.6651833558
 21
8757.1068003928
 31
0.0
  0
LINE
  5
E6
330
1F
100
AcDbEntity
  8
0
  6
Continuous
 62
     7
100
AcDbLine
 10
3666.6651833558
 20
8757.1068003928
 30
0.0
 11
3666.6651833558
 21
8777.1068003928
 31
0.0
  0
LINE
  5
E7
330
1F
100
AcDbEntity
  8
0
  6
Continuous
 62
     7
100
AcDbLine
 10
3266.6651833558
 20
8797.1068003928
 30
0.0
 11
3266.6651833558
 21
8777.1068003928
 31
0.0
  0
LINE
  5
E8
330
1F
100
AcDbEntity
  8
0
  6
Continuous
 62
     7
100
AcDbLine
 10
3606.6651833558
 20
8777.1068003928
 30
0.0
 11
3606.6651833558
 21
8797.1068003928
 31
0.0
  0
LINE
  5
E9
330
1F
100
AcDbEntity
  8
0
  6
Continuous
 62
     7
100
AcDbLine
 10
3326.6651833558
 20
8817.1068003928
 30
0.0
 11
3326.6651833558
 21
8797.1068003928
 31
0.0
  0
LINE
  5
EA
330
1F
100
AcDbEntity
  8
0
  6
Continuous
 62
     7
100
AcDbLine
 10
3546.6651833558
 20
8797.1068003928
 30
0.0
 11
3546.6651833558
 21
8817.1068003928
 31
0.0
  0
LINE
  5
EB
330
1F
100
AcDbEntity
  8
0
  6
Continuous
 62
     7
100
AcDbLine
 10
3376.6651833558
 20
8837.1068003928
 30
0.0
 11
3376.6651833558
 21
8817.1068003928
 31
0.0
  0
LINE
  5
EC
330
1F
100
AcDbEntity
  8
0
  6
Continuous
 62
     7
100
AcDbLine
 10
3496.6651833558
 20
8817.1068003928
 30
0.0
 11
3496.6651833558
 21
8837.1068003928
 31
0.0
  0
LINE
  5
ED
330
1F
100
AcDbEntity
  8
0
  6
Continuous
 62
     7
100
AcDbLine
 10
5024.6651833558
 20
7519.1068003928
 30
0.0
 11
5006.6651833558
 21
7519.1068003928
 31
0.0
  0
LINE
  5
EE
330
1F
100
AcDbEntity
  8
0
  6
Continuous
 62
     7
100
AcDbLine
 10
5006.6651833558
 20
6799.1068003928
 30
0.0
 11
5024.6651833558
 21
6799.1068003928
 31
0.0
  0
LINE
  5
EF
330
1F
100
AcDbEntity
  8
0
  6
Continuous
 62
     7
100
AcDbLine
 10
5044.6651833558
 20
7439.1068003928
 30
0.0
 11
5024.6651833558
 21
7439.1068003928
 31
0.0
  0
LINE
  5
F0
330
1F
100
AcDbEntity
  8
0
  6
Continuous
 62
     7
100
AcDbLine
 10
5024.6651833558
 20
6879.1068003928
 30
0.0
 11
5044.6651833558
 21
6879.1068003928
 31
0.0
  0
LINE
  5
F1
330
1F
100
AcDbEntity
  8
0
  6
Continuous
 62
     7
100
AcDbLine
 10
5064.6651833558
 20
7389.1068003928
 30
0.0
 11
5044.6651833558
 21
7389.1068003928
 31
0.0
  0
LINE
  5
F2
330
1F
100
AcDbEntity
  8
0
  6
Continuous
 62
     7
100
AcDbLine
 10
5044.6651833558
 20
6929.1068003928
 30
0.0
 11
5064.6651833558
 21
6929.1068003928
 31
0.0
  0
LINE
  5
F3
330
1F
100
AcDbEntity
  8
0
  6
Continuous
 62
     7
100
AcDbLine
 10
5084.6651833558
 20
7329.1068003928
 30
0.0
 11
5064.6651833558
 21
7329.1068003928
 31
0.0
  0
LINE
  5
F4
330
1F
100
AcDbEntity
  8
0
  6
Continuous
 62
     7
100
AcDbLine
 10
5064.6651833558
 20
6989.1068003928
 30
0.0
 11
5084.6651833558
 21
6989.1068003928
 31
0.0
  0
LINE
  5
F5
330
1F
100
AcDbEntity
  8
0
  6
Continuous
 62
     7
100
AcDbLine
 10
5104.6651833558
 20
7269.1068003928
 30
0.0
 11
5084.6651833558
 21
7269.1068003928
 31
0.0
  0
LINE
  5
F6
330
1F
100
AcDbEntity
  8
0
  6
Continuous
 62
     7
100
AcDbLine
 10
5084.6651833558
 20
7049.1068003928
 30
0.0
 11
5104.6651833558
 21
7049.1068003928
 31
0.0
  0
LINE
  5
F7
330
1F
100
AcDbEntity
  8
0
  6
Continuous
 62
     7
100
AcDbLine
 10
5124.6651833558
 20
7219.1068003928
 30
0.0
 11
5104.6651833558
 21
7219.1068003928
 31
0.0
  0
LINE
  5
F8
330
1F
100
AcDbEntity
  8
0
  6
Continuous
 62
     7
100
AcDbLine
 10
5104.6651833558
 20
7099.1068003928
 30
0.0
 11
5124.6651833558
 21
7099.1068003928
 31
0.0
  0
LINE
  5
F9
330
1F
100
AcDbEntity
  8
0
  6
Continuous
 62
     7
100
AcDbLine
 10
3796.6651833558
 20
6361.1068003928
 30
0.0
 11
3796.6651833558
 21
6379.1068003928
 31
0.0
  0
LINE
  5
FA
330
1F
100
AcDbEntity
  8
0
  6
Continuous
 62
     7
100
AcDbLine
 10
3076.6651833558
 20
6379.1068003928
 30
0.0
 11
3076.6651833558
 21
6361.1068003928
 31
0.0
  0
LINE
  5
FB
330
1F
100
AcDbEntity
  8
0
  6
Continuous
 62
     7
100
AcDbLine
 10
3716.6651833558
 20
6341.1068003928
 30
0.0
 11
3716.6651833558
 21
6361.1068003928
 31
0.0
  0
LINE
  5
FC
330
1F
100
AcDbEntity
  8
0
  6
Continuous
 62
     7
100
AcDbLine
 10
3156.6651833558
 20
6361.1068003928
 30
0.0
 11
3156.6651833558
 21
6341.1068003928
 31
0.0
  0
LINE
  5
FD
330
1F
100
AcDbEntity
  8
0
  6
Continuous
 62
     7
100
AcDbLine
 10
3666.6651833558
 20
6321.1068003928
 30
0.0
 11
3666.6651833558
 21
6341.1068003928
 31
0.0
  0
LINE
  5
FE
330
1F
100
AcDbEntity
  8
0
  6
Continuous
 62
     7
100
AcDbLine
 10
3206.6651833558
 20
6341.1068003928
 30
0.0
 11
3206.6651833558
 21
6321.1068003928
 31
0.0
  0
LINE
  5
FF
330
1F
100
AcDbEntity
  8
0
  6
Continuous
 62
     7
100
AcDbLine
 10
3606.6651833558
 20
6301.1068003928
 30
0.0
 11
3606.6651833558
 21
6321.1068003928
 31
0.0
  0
LINE
  5
100
330
1F
100
AcDbEntity
  8
0
  6
Continuous
 62
     7
100
AcDbLine
 10
3266.6651833558
 20
6321.1068003928
 30
0.0
 11
3266.6651833558
 21
6301.1068003928
 31
0.0
  0
LINE
  5
101
330
1F
100
AcDbEntity
  8
0
  6
Continuous
 62
     7
100
AcDbLine
 10
3546.6651833558
 20
6281.1068003928
 30
0.0
 11
3546.6651833558
 21
6301.1068003928
 31
0.0
  0
LINE
  5
102
330
1F
100
AcDbEntity
  8
0
  6
Continuous
 62
     7
100
AcDbLine
 10
3326.6651833558
 20
6301.1068003928
 30
0.0
 11
3326.6651833558
 21
6281.1068003928
 31
0.0
  0
LINE
  5
103
330
1F
100
AcDbEntity
  8
0
  6
Continuous
 62
     7
100
AcDbLine
 10
3496.6651833558
 20
6261.1068003928
 30
0.0
 11
3496.6651833558
 21
6281.1068003928
 31
0.0
  0
LINE
  5
104
330
1F
100
AcDbEntity
  8
0
  6
Continuous
 62
     7
100
AcDbLine
 10
3376.6651833558
 20
6281.1068003928
 30
0.0
 11
3376.6651833558
 21
6261.1068003928
 31
0.0
  0
LINE
  5
105
330
1F
100
AcDbEntity
  8
0
  6
Continuous
 62
     7
100
AcDbLine
 10
1848.6651833558
 20
7579.1068003929
 30
0.0
 11
1866.6651833558
 21
7579.1068003929
 31
0.0
  0
LINE
  5
106
330
1F
100
AcDbEntity
  8
0
  6
Continuous
 62
     7
100
AcDbLine
 10
1866.6651833558
 20
8299.1068003929
 30
0.0
 11
1848.6651833558
 21
8299.1068003929
 31
0.0
  0
LINE
  5
107
330
1F
100
AcDbEntity
  8
0
  6
Continuous
 62
     7
100
AcDbLine
 10
1828.6651833558
 20
7659.1068003929
 30
0.0
 11
1848.6651833558
 21
7659.1068003929
 31
0.0
  0
LINE
  5
108
330
1F
100
AcDbEntity
  8
0
  6
Continuous
 62
     7
100
AcDbLine
 10
1848.6651833558
 20
8219.1068003929
 30
0.0
 11
1828.6651833558
 21
8219.1068003929
 31
0.0
  0
LINE
  5
109
330
1F
100
AcDbEntity
  8
0
  6
Continuous
 62
     7
100
AcDbLine
 10
1808.6651833558
 20
7709.1068003929
 30
0.0
 11
1828.6651833558
 21
7709.1068003929
 31
0.0
  0
LINE
  5
10A
330
1F
100
AcDbEntity
  8
0
  6
Continuous
 62
     7
100
AcDbLine
 10
1828.6651833558
 20
8169.1068003929
 30
0.0
 11
1808.6651833558
 21
8169.1068003929
 31
0.0
  0
LINE
  5
10B
330
1F
100
AcDbEntity
  8
0
  6
Continuous
 62
     7
100
AcDbLine
 10
1788.6651833558
 20
7769.1068003929
 30
0.0
 11
1808.6651833558
 21
7769.1068003929
 31
0.0
  0
LINE
  5
10C
330
1F
100
AcDbEntity
  8
0
  6
Continuous
 62
     7
100
AcDbLine
 10
1808.6651833558
 20
8109.1068003929
 30
0.0
 11
1788.6651833558
 21
8109.1068003929
 31
0.0
  0
LINE
  5
10D
330
1F
100
AcDbEntity
  8
0
  6
Continuous
 62
     7
100
AcDbLine
 10
1768.6651833558
 20
7829.1068003929
 30
0.0
 11
1788.6651833558
 21
7829.1068003929
 31
0.0
  0
LINE
  5
10E
330
1F
100
AcDbEntity
  8
0
  6
Continuous
 62
     7
100
AcDbLine
 10
1788.6651833558
 20
8049.1068003929
 30
0.0
 11
1768.6651833558
 21
8049.1068003929
 31
0.0
  0
LINE
  5
10F
330
1F
100
AcDbEntity
  8
0
  6
Continuous
 62
     7
100
AcDbLine
 10
1748.6651833558
 20
7879.1068003929
 30
0.0
 11
1768.6651833558
 21
7879.1068003929
 31
0.0
  0
LINE
  5
110
330
1F
100
AcDbEntity
  8
0
  6
Continuous
 62
     7
100
AcDbLine
 10
1768.6651833558
 20
7999.1068003929
 30
0.0
 11
1748.6651833558
 21
7999.1068003929
 31
0.0
  0
LINE
  5
111
330
1F
100
AcDbEntity
  8
0
  6
Continuous
 62
     7
100
AcDbLine
 10
4666.6651833558
 20
6361.1068003928
 30
0.0
 11
4666.6651833558
 21
6379.1068003928
 31
0.0
  0
LINE
  5
112
330
1F
100
AcDbEntity
  8
0
  6
Continuous
 62
     7
100
AcDbLine
 10
3946.6651833558
 20
6379.1068003928
 30
0.0
 11
3946.6651833558
 21
6361.1068003928
 31
0.0
  0
LINE
  5
113
330
1F
100
AcDbEntity
  8
0
  6
Continuous
 62
     7
100
AcDbLine
 10
4586.6651833558
 20
6341.1068003928
 30
0.0
 11
4586.6651833558
 21
6361.1068003928
 31
0.0
  0
LINE
  5
114
330
1F
100
AcDbEntity
  8
0
  6
Continuous
 62
     7
100
AcDbLine
 10
4026.6651833558
 20
6361.1068003928
 30
0.0
 11
4026.6651833558
 21
6341.1068003928
 31
0.0
  0
LINE
  5
115
330
1F
100
AcDbEntity
  8
0
  6
Continuous
 62
     7
100
AcDbLine
 10
4536.6651833558
 20
6321.1068003928
 30
0.0
 11
4536.6651833558
 21
6341.1068003928
 31
0.0
  0
LINE
  5
116
330
1F
100
AcDbEntity
  8
0
  6
Continuous
 62
     7
100
AcDbLine
 10
4076.6651833558
 20
6341.1068003928
 30
0.0
 11
4076.6651833558
 21
6321.1068003928
 31
0.0
  0
LINE
  5
117
330
1F
100
AcDbEntity
  8
0
  6
Continuous
 62
     7
100
AcDbLine
 10
4476.6651833558
 20
6301.1068003928
 30
0.0
 11
4476.6651833558
 21
6321.1068003928
 31
0.0
  0
LINE
  5
118
330
1F
100
AcDbEntity
  8
0
  6
Continuous
 62
     7
100
AcDbLine
 10
4136.6651833558
 20
6321.1068003928
 30
0.0
 11
4136.6651833558
 21
6301.1068003928
 31
0.0
  0
LINE
  5
119
330
1F
100
AcDbEntity
  8
0
  6
Continuous
 62
     7
100
AcDbLine
 10
4416.6651833558
 20
6281.1068003928
 30
0.0
 11
4416.6651833558
 21
6301.1068003928
 31
0.0
  0
LINE
  5
11A
330
1F
100
AcDbEntity
  8
0
  6
Continuous
 62
     7
100
AcDbLine
 10
4196.6651833558
 20
6301.1068003928
 30
0.0
 11
4196.6651833558
 21
6281.1068003928
 31
0.0
  0
LINE
  5
11B
330
1F
100
AcDbEntity
  8
0
  6
Continuous
 62
     7
100
AcDbLine
 10
4366.6651833558
 20
6261.1068003928
 30
0.0
 11
4366.6651833558
 21
6281.1068003928
 31
0.0
  0
LINE
  5
11C
330
1F
100
AcDbEntity
  8
0
  6
Continuous
 62
     7
100
AcDbLine
 10
4246.6651833558
 20
6281.1068003928
 30
0.0
 11
4246.6651833558
 21
6261.1068003928
 31
0.0
  0
LINE
  5
11D
330
1F
100
AcDbEntity
  8
0
  6
Continuous
 62
     7
100
AcDbLine
 10
1848.6651833558
 20
6799.1068003928
 30
0.0
 11
1866.6651833558
 21
6799.1068003928
 31
0.0
  0
LINE
  5
11E
330
1F
100
AcDbEntity
  8
0
  6
Continuous
 62
     7
100
AcDbLine
 10
1866.6651833558
 20
7519.1068003928
 30
0.0
 11
1848.6651833558
 21
7519.1068003928
 31
0.0
  0
LINE
  5
11F
330
1F
100
AcDbEntity
  8
0
  6
Continuous
 62
     7
100
AcDbLine
 10
1828.6651833558
 20
6879.1068003928
 30
0.0
 11
1848.6651833558
 21
6879.1068003928
 31
0.0
  0
LINE
  5
120
330
1F
100
AcDbEntity
  8
0
  6
Continuous
 62
     7
100
AcDbLine
 10
1848.6651833558
 20
7439.1068003928
 30
0.0
 11
1828.6651833558
 21
7439.1068003928
 31
0.0
  0
LINE
  5
121
330
1F
100
AcDbEntity
  8
0
  6
Continuous
 62
     7
100
AcDbLine
 10
1808.6651833558
 20
6929.1068003928
 30
0.0
 11
1828.6651833558
 21
6929.1068003928
 31
0.0
  0
LINE
  5
122
330
1F
100
AcDbEntity
  8
0
  6
Continuous
 62
     7
100
AcDbLine
 10
1828.6651833558
 20
7389.1068003928
 30
0.0
 11
1808.6651833558
 21
7389.1068003928
 31
0.0
  0
LINE
  5
123
330
1F
100
AcDbEntity
  8
0
  6
Continuous
 62
     7
100
AcDbLine
 10
1788.6651833558
 20
6989.1068003928
 30
0.0
 11
1808.6651833558
 21
6989.1068003928
 31
0.0
  0
LINE
  5
124
330
1F
100
AcDbEntity
  8
0
  6
Continuous
 62
     7
100
AcDbLine
 10
1808.6651833558
 20
7329.1068003928
 30
0.0
 11
1788.6651833558
 21
7329.1068003928
 31
0.0
  0
LINE
  5
125
330
1F
100
AcDbEntity
  8
0
  6
Continuous
 62
     7
100
AcDbLine
 10
1768.6651833558
 20
7049.1068003928
 30
0.0
 11
1788.6651833558
 21
7049.1068003928
 31
0.0
  0
LINE
  5
126
330
1F
100
AcDbEntity
  8
0
  6
Continuous
 62
     7
100
AcDbLine
 10
1788.6651833558
 20
7269.1068003928
 30
0.0
 11
1768.6651833558
 21
7269.1068003928
 31
0.0
  0
LINE
  5
127
330
1F
100
AcDbEntity
  8
0
  6
Continuous
 62
     7
100
AcDbLine
 10
1748.6651833558
 20
7099.1068003928
 30
0.0
 11
1768.6651833558
 21
7099.1068003928
 31
0.0
  0
LINE
  5
128
330
1F
100
AcDbEntity
  8
0
  6
Continuous
 62
     7
100
AcDbLine
 10
1768.6651833558
 20
7219.1068003928
 30
0.0
 11
1748.6651833558
 21
7219.1068003928
 31
0.0
  0
LINE
  5
129
330
1F
100
AcDbEntity
  8
0
  6
Continuous
 62
     7
100
AcDbLine
 10
2926.6651833558
 20
6361.1068003928
 30
0.0
 11
2206.6651833558
 21
6361.1068003928
 31
0.0
  0
LINE
  5
12A
330
1F
100
AcDbEntity
  8
0
  6
Continuous
 62
     7
100
AcDbLine
 10
2846.6651833558
 20
6341.1068003928
 30
0.0
 11
2286.6651833558
 21
6341.1068003928
 31
0.0
  0
LINE
  5
12B
330
1F
100
AcDbEntity
  8
0
  6
Continuous
 62
     7
100
AcDbLine
 10
2796.6651833558
 20
6321.1068003928
 30
0.0
 11
2336.6651833558
 21
6321.1068003928
 31
0.0
  0
LINE
  5
12C
330
1F
100
AcDbEntity
  8
0
  6
Continuous
 62
     7
100
AcDbLine
 10
2736.6651833558
 20
6301.1068003928
 30
0.0
 11
2396.6651833558
 21
6301.1068003928
 31
0.0
  0
LINE
  5
12D
330
1F
100
AcDbEntity
  8
0
  6
Continuous
 62
     7
100
AcDbLine
 10
2676.6651833558
 20
6281.1068003928
 30
0.0
 11
2456.6651833558
 21
6281.1068003928
 31
0.0
  0
LINE
  5
12E
330
1F
100
AcDbEntity
  8
0
  6
Continuous
 62
     7
100
AcDbLine
 10
2626.6651833558
 20
6261.1068003928
 30
0.0
 11
2506.6651833558
 21
6261.1068003928
 31
0.0
  0
LINE
  5
12F
330
1F
100
AcDbEntity
  8
0
  6
Continuous
 62
     7
100
AcDbLine
 10
5024.6651833558
 20
8013.81691053
 30
0.0
 11
5024.6651833558
 21
7579.1068003928
 31
0.0
  0
LINE
  5
130
330
1F
100
AcDbEntity
  8
0
  6
Continuous
 62
     7
100
AcDbLine
 10
5024.6651833558
 20
8299.1068003928
 30
0.0
 11
5024.6651833558
 21
8013.81691053
 31
0.0
  0
LINE
  5
131
330
1F
100
AcDbEntity
  8
0
  6
Continuous
 62
     7
100
AcDbLine
 10
5044.6651833558
 20
7997.2146638328
 30
0.0
 11
5044.6651833558
 21
7659.1068003928
 31
0.0
  0
LINE
  5
132
330
1F
100
AcDbEntity
  8
0
  6
Continuous
 62
     7
100
AcDbLine
 10
5044.6651833558
 20
8219.1068003928
 30
0.0
 11
5044.6651833558
 21
7997.2146638328
 31
0.0
  0
LINE
  5
133
330
1F
100
AcDbEntity
  8
0
  6
Continuous
 62
     7
100
AcDbLine
 10
5064.6651833558
 20
7986.8382596471
 30
0.0
 11
5064.6651833558
 21
7709.1068003928
 31
0.0
  0
LINE
  5
134
330
1F
100
AcDbEntity
  8
0
  6
Continuous
 62
     7
100
AcDbLine
 10
5064.6651833558
 20
8169.1068003928
 30
0.0
 11
5064.6651833558
 21
7986.8382596471
 31
0.0
  0
LINE
  5
135
330
1F
100
AcDbEntity
  8
0
  6
Continuous
 62
     7
100
AcDbLine
 10
5084.6651833558
 20
7974.3865746242
 30
0.0
 11
5084.6651833558
 21
7769.1068003928
 31
0.0
  0
LINE
  5
136
330
1F
100
AcDbEntity
  8
0
  6
Continuous
 62
     7
100
AcDbLine
 10
5084.6651833558
 20
8109.1068003928
 30
0.0
 11
5084.6651833558
 21
7974.3865746242
 31
0.0
  0
LINE
  5
137
330
1F
100
AcDbEntity
  8
0
  6
Continuous
 62
     7
100
AcDbLine
 10
5104.6651833558
 20
7961.9348896014
 30
0.0
 11
5104.6651833558
 21
7829.1068003928
 31
0.0
  0
LINE
  5
138
330
1F
100
AcDbEntity
  8
0
  6
Continuous
 62
     7
100
AcDbLine
 10
5104.6651833558
 20
8049.1068003928
 30
0.0
 11
5104.6651833558
 21
7961.9348896014
 31
0.0
  0
LINE
  5
139
330
1F
100
AcDbEntity
  8
0
  6
Continuous
 62
     7
100
AcDbLine
 10
5124.6651833558
 20
7951.5584854157
 30
0.0
 11
5124.6651833558
 21
7879.1068003928
 31
0.0
  0
LINE
  5
13A
330
1F
100
AcDbEntity
  8
0
  6
Continuous
 62
     7
100
AcDbLine
 10
5124.6651833558
 20
7999.1068003928
 30
0.0
 11
5124.6651833558
 21
7951.5584854157
 31
0.0
  0
LINE
  5
13B
330
1F
100
AcDbEntity
  8
0
  6
Continuous
 62
     7
100
AcDbLine
 10
4231.9550732187
 20
8737.1068003928
 30
0.0
 11
4666.6651833558
 21
8737.1068003928
 31
0.0
  0
LINE
  5
13C
330
1F
100
AcDbEntity
  8
0
  6
Continuous
 62
     7
100
AcDbLine
 10
3946.6651833558
 20
8737.1068003928
 30
0.0
 11
4231.9550732187
 21
8737.1068003928
 31
0.0
  0
LINE
  5
13D
330
1F
100
AcDbEntity
  8
0
  6
Continuous
 62
     7
100
AcDbLine
 10
4248.5573199158
 20
8757.1068003928
 30
0.0
 11
4586.6651833558
 21
8757.1068003928
 31
0.0
  0
LINE
  5
13E
330
1F
100
AcDbEntity
  8
0
  6
Continuous
 62
     7
100
AcDbLine
 10
4026.6651833558
 20
8757.1068003928
 30
0.0
 11
4248.5573199158
 21
8757.1068003928
 31
0.0
  0
LINE
  5
13F
330
1F
100
AcDbEntity
  8
0
  6
Continuous
 62
     7
100
AcDbLine
 10
4258.9337241016
 20
8777.1068003928
 30
0.0
 11
4536.6651833558
 21
8777.1068003928
 31
0.0
  0
LINE
  5
140
330
1F
100
AcDbEntity
  8
0
  6
Continuous
 62
     7
100
AcDbLine
 10
4076.6651833558
 20
8777.1068003928
 30
0.0
 11
4258.9337241016
 21
8777.1068003928
 31
0.0
  0
LINE
  5
141
330
1F
100
AcDbEntity
  8
0
  6
Continuous
 62
     7
100
AcDbLine
 10
4271.3854091244
 20
8797.1068003928
 30
0.0
 11
4476.6651833558
 21
8797.1068003928
 31
0.0
  0
LINE
  5
142
330
1F
100
AcDbEntity
  8
0
  6
Continuous
 62
     7
100
AcDbLine
 10
4136.6651833558
 20
8797.1068003928
 30
0.0
 11
4271.3854091244
 21
8797.1068003928
 31
0.0
  0
LINE
  5
143
330
1F
100
AcDbEntity
  8
0
  6
Continuous
 62
     7
100
AcDbLine
 10
4283.8370941473
 20
8817.1068003928
 30
0.0
 11
4416.6651833558
 21
8817.1068003928
 31
0.0
  0
LINE
  5
144
330
1F
100
AcDbEntity
  8
0
  6
Continuous
 62
     7
100
AcDbLine
 10
4196.6651833558
 20
8817.1068003928
 30
0.0
 11
4283.8370941473
 21
8817.1068003928
 31
0.0
  0
LINE
  5
145
330
1F
100
AcDbEntity
  8
0
  6
Continuous
 62
     7
100
AcDbLine
 10
4294.213498333
 20
8837.1068003928
 30
0.0
 11
4366.6651833558
 21
8837.1068003928
 31
0.0
  0
LINE
  5
146
330
1F
100
AcDbEntity
  8
0
  6
Continuous
 62
     7
100
AcDbLine
 10
4246.6651833558
 20
8837.1068003928
 30
0.0
 11
4294.213498333
 21
8837.1068003928
 31
0.0
  0
LINE
  5
147
330
1F
100
AcDbEntity
  8
0
  6
Continuous
 62
     7
100
AcDbLine
 10
2491.9550732187
 20
8737.1068003928
 30
0.0
 11
2926.6651833558
 21
8737.1068003928
 31
0.0
  0
LINE
  5
148
330
1F
100
AcDbEntity
  8
0
  6
Continuous
 62
     7
100
AcDbLine
 10
2206.6651833558
 20
8737.1068003928
 30
0.0
 11
2491.9550732187
 21
8737.1068003928
 31
0.0
  0
LINE
  5
149
330
1F
100
AcDbEntity
  8
0
  6
Continuous
 62
     7
100
AcDbLine
 10
2508.5573199158
 20
8757.1068003928
 30
0.0
 11
2846.6651833558
 21
8757.1068003928
 31
0.0
  0
LINE
  5
14A
330
1F
100
AcDbEntity
  8
0
  6
Continuous
 62
     7
100
AcDbLine
 10
2286.6651833558
 20
8757.1068003928
 30
0.0
 11
2508.5573199158
 21
8757.1068003928
 31
0.0
  0
LINE
  5
14B
330
1F
100
AcDbEntity
  8
0
  6
Continuous
 62
     7
100
AcDbLine
 10
2518.9337241016
 20
8777.1068003928
 30
0.0
 11
2796.6651833558
 21
8777.1068003928
 31
0.0
  0
LINE
  5
14C
330
1F
100
AcDbEntity
  8
0
  6
Continuous
 62
     7
100
AcDbLine
 10
2336.6651833558
 20
8777.1068003928
 30
0.0
 11
2518.9337241016
 21
8777.1068003928
 31
0.0
  0
LINE
  5
14D
330
1F
100
AcDbEntity
  8
0
  6
Continuous
 62
     7
100
AcDbLine
 10
2531.3854091244
 20
8797.1068003928
 30
0.0
 11
2736.6651833558
 21
8797.1068003928
 31
0.0
  0
LINE
  5
14E
330
1F
100
AcDbEntity
  8
0
  6
Continuous
 62
     7
100
AcDbLine
 10
2396.6651833558
 20
8797.1068003928
 30
0.0
 11
2531.3854091244
 21
8797.1068003928
 31
0.0
  0
LINE
  5
14F
330
1F
100
AcDbEntity
  8
0
  6
Continuous
 62
     7
100
AcDbLine
 10
2543.8370941473
 20
8817.1068003928
 30
0.0
 11
2676.6651833558
 21
8817.1068003928
 31
0.0
  0
LINE
  5
150
330
1F
100
AcDbEntity
  8
0
  6
Continuous
 62
     7
100
AcDbLine
 10
2456.6651833558
 20
8817.1068003928
 30
0.0
 11
2543.8370941473
 21
8817.1068003928
 31
0.0
  0
LINE
  5
151
330
1F
100
AcDbEntity
  8
0
  6
Continuous
 62
     7
100
AcDbLine
 10
2554.213498333
 20
8837.1068003928
 30
0.0
 11
2626.6651833558
 21
8837.1068003928
 31
0.0
  0
LINE
  5
152
330
1F
100
AcDbEntity
  8
0
  6
Continuous
 62
     7
100
AcDbLine
 10
2506.6651833558
 20
8837.1068003928
 30
0.0
 11
2554.213498333
 21
8837.1068003928
 31
0.0
  0
LINE
  5
153
330
1F
100
AcDbEntity
  8
0
  6
Continuous
 62
     7
100
AcDbLine
 10
3790.1248148122
 20
8737.1068003928
 30
0.0
 11
3796.6651833558
 21
8737.1068003928
 31
0.0
  0
LINE
  5
154
330
1F
100
AcDbEntity
  8
0
  6
Continuous
 62
     7
100
AcDbLine
 10
3076.6651833558
 20
8737.1068003928
 30
0.0
 11
3790.1248148122
 21
8737.1068003928
 31
0.0
  0
LINE
  5
155
330
1F
100
AcDbEntity
  8
0
  6
Continuous
 62
     7
100
AcDbLine
 10
3711.5782300441
 20
8757.1068003928
 30
0.0
 11
3716.6651833558
 21
8757.1068003928
 31
0.0
  0
LINE
  5
156
330
1F
100
AcDbEntity
  8
0
  6
Continuous
 62
     7
100
AcDbLine
 10
3156.6651833558
 20
8757.1068003928
 30
0.0
 11
3711.5782300441
 21
8757.1068003928
 31
0.0
  0
LINE
  5
157
330
1F
100
AcDbEntity
  8
0
  6
Continuous
 62
     7
100
AcDbLine
 10
3662.4866145641
 20
8777.1068003928
 30
0.0
 11
3666.6651833558
 21
8777.1068003928
 31
0.0
  0
LINE
  5
158
330
1F
100
AcDbEntity
  8
0
  6
Continuous
 62
     7
100
AcDbLine
 10
3206.6651833558
 20
8777.1068003928
 30
0.0
 11
3662.4866145641
 21
8777.1068003928
 31
0.0
  0
LINE
  5
159
330
1F
100
AcDbEntity
  8
0
  6
Continuous
 62
     7
100
AcDbLine
 10
3603.576675988
 20
8797.1068003928
 30
0.0
 11
3606.6651833558
 21
8797.1068003928
 31
0.0
  0
LINE
  5
15A
330
1F
100
AcDbEntity
  8
0
  6
Continuous
 62
     7
100
AcDbLine
 10
3266.6651833558
 20
8797.1068003928
 30
0.0
 11
3603.576675988
 21
8797.1068003928
 31
0.0
  0
LINE
  5
15B
330
1F
100
AcDbEntity
  8
0
  6
Continuous
 62
     7
100
AcDbLine
 10
3544.666737412
 20
8817.1068003928
 30
0.0
 11
3546.6651833558
 21
8817.1068003928
 31
0.0
  0
LINE
  5
15C
330
1F
100
AcDbEntity
  8
0
  6
Continuous
 62
     7
100
AcDbLine
 10
3326.6651833558
 20
8817.1068003928
 30
0.0
 11
3544.666737412
 21
8817.1068003928
 31
0.0
  0
LINE
  5
15D
330
1F
100
AcDbEntity
  8
0
  6
Continuous
 62
     7
100
AcDbLine
 10
3495.5751219319
 20
8837.1068003928
 30
0.0
 11
3496.6651833558
 21
8837.1068003928
 31
0.0
  0
LINE
  5
15E
330
1F
100
AcDbEntity
  8
0
  6
Continuous
 62
     7
100
AcDbLine
 10
3376.6651833558
 20
8837.1068003928
 30
0.0
 11
3495.5751219319
 21
8837.1068003928
 31
0.0
  0
LINE
  5
15F
330
1F
100
AcDbEntity
  8
0
  6
Continuous
 62
     7
100
AcDbLine
 10
5024.6651833558
 20
7233.81691053
 30
0.0
 11
5024.6651833558
 21
6799.1068003928
 31
0.0
  0
LINE
  5
160
330
1F
100
AcDbEntity
  8
0
  6
Continuous
 62
     7
100
AcDbLine
 10
5024.6651833558
 20
7519.1068003928
 30
0.0
 11
5024.6651833558
 21
7233.81691053
 31
0.0
  0
LINE
  5
161
330
1F
100
AcDbEntity
  8
0
  6
Continuous
 62
     7
100
AcDbLine
 10
5044.6651833558
 20
7217.2146638328
 30
0.0
 11
5044.6651833558
 21
6879.1068003928
 31
0.0
  0
LINE
  5
162
330
1F
100
AcDbEntity
  8
0
  6
Continuous
 62
     7
100
AcDbLine
 10
5044.6651833558
 20
7439.1068003928
 30
0.0
 11
5044.6651833558
 21
7217.2146638328
 31
0.0
  0
LINE
  5
163
330
1F
100
AcDbEntity
  8
0
  6
Continuous
 62
     7
100
AcDbLine
 10
5064.6651833558
 20
7206.8382596471
 30
0.0
 11
5064.6651833558
 21
6929.1068003928
 31
0.0
  0
LINE
  5
164
330
1F
100
AcDbEntity
  8
0
  6
Continuous
 62
     7
100
AcDbLine
 10
5064.6651833558
 20
7389.1068003928
 30
0.0
 11
5064.6651833558
 21
7206.8382596471
 31
0.0
  0
LINE
  5
165
330
1F
100
AcDbEntity
  8
0
  6
Continuous
 62
     7
100
AcDbLine
 10
5084.6651833558
 20
7194.3865746242
 30
0.0
 11
5084.6651833558
 21
6989.1068003928
 31
0.0
  0
LINE
  5
166
330
1F
100
AcDbEntity
  8
0
  6
Continuous
 62
     7
100
AcDbLine
 10
5084.6651833558
 20
7329.1068003928
 30
0.0
 11
5084.6651833558
 21
7194.3865746242
 31
0.0
  0
LINE
  5
167
330
1F
100
AcDbEntity
  8
0
  6
Continuous
 62
     7
100
AcDbLine
 10
5104.6651833558
 20
7181.9348896014
 30
0.0
 11
5104.6651833558
 21
7049.1068003928
 31
0.0
  0
LINE
  5
168
330
1F
100
AcDbEntity
  8
0
  6
Continuous
 62
     7
100
AcDbLine
 10
5104.6651833558
 20
7269.1068003928
 30
0.0
 11
5104.6651833558
 21
7181.9348896014
 31
0.0
  0
LINE
  5
169
330
1F
100
AcDbEntity
  8
0
  6
Continuous
 62
     7
100
AcDbLine
 10
5124.6651833558
 20
7171.5584854157
 30
0.0
 11
5124.6651833558
 21
7099.1068003928
 31
0.0
  0
LINE
  5
16A
330
1F
100
AcDbEntity
  8
0
  6
Continuous
 62
     7
100
AcDbLine
 10
5124.6651833558
 20
7219.1068003928
 30
0.0
 11
5124.6651833558
 21
7171.5584854157
 31
0.0
  0
LINE
  5
16B
330
1F
100
AcDbEntity
  8
0
  6
Continuous
 62
     7
100
AcDbLine
 10
3796.6651833558
 20
6361.1068003928
 30
0.0
 11
3076.6651833558
 21
6361.1068003928
 31
0.0
  0
LINE
  5
16C
330
1F
100
AcDbEntity
  8
0
  6
Continuous
 62
     7
100
AcDbLine
 10
3716.6651833558
 20
6341.1068003928
 30
0.0
 11
3156.6651833558
 21
6341.1068003928
 31
0.0
  0
LINE
  5
16D
330
1F
100
AcDbEntity
  8
0
  6
Continuous
 62
     7
100
AcDbLine
 10
3666.6651833558
 20
6321.1068003928
 30
0.0
 11
3206.6651833558
 21
6321.1068003928
 31
0.0
  0
LINE
  5
16E
330
1F
100
AcDbEntity
  8
0
  6
Continuous
 62
     7
100
AcDbLine
 10
3606.6651833558
 20
6301.1068003928
 30
0.0
 11
3266.6651833558
 21
6301.1068003928
 31
0.0
  0
LINE
  5
16F
330
1F
100
AcDbEntity
  8
0
  6
Continuous
 62
     7
100
AcDbLine
 10
3546.6651833558
 20
6281.1068003928
 30
0.0
 11
3326.6651833558
 21
6281.1068003928
 31
0.0
  0
LINE
  5
170
330
1F
100
AcDbEntity
  8
0
  6
Continuous
 62
     7
100
AcDbLine
 10
3496.6651833558
 20
6261.1068003928
 30
0.0
 11
3376.6651833558
 21
6261.1068003928
 31
0.0
  0
LINE
  5
171
330
1F
100
AcDbEntity
  8
0
  6
Continuous
 62
     7
100
AcDbLine
 10
1848.6651833558
 20
7579.1068003929
 30
0.0
 11
1848.6651833558
 21
8299.1068003929
 31
0.0
  0
LINE
  5
172
330
1F
100
AcDbEntity
  8
0
  6
Continuous
 62
     7
100
AcDbLine
 10
1828.6651833558
 20
7659.1068003929
 30
0.0
 11
1828.6651833558
 21
8219.1068003929
 31
0.0
  0
LINE
  5
173
330
1F
100
AcDbEntity
  8
0
  6
Continuous
 62
     7
100
AcDbLine
 10
1808.6651833558
 20
7709.1068003929
 30
0.0
 11
1808.6651833558
 21
8169.1068003929
 31
0.0
  0
LINE
  5
174
330
1F
100
AcDbEntity
  8
0
  6
Continuous
 62
     7
100
AcDbLine
 10
1788.6651833558
 20
7769.1068003929
 30
0.0
 11
1788.6651833558
 21
8109.1068003929
 31
0.0
  0
LINE
  5
175
330
1F
100
AcDbEntity
  8
0
  6
Continuous
 62
     7
100
AcDbLine
 10
1768.6651833558
 20
7829.1068003929
 30
0.0
 11
1768.6651833558
 21
8049.1068003929
 31
0.0
  0
LINE
  5
176
330
1F
100
AcDbEntity
  8
0
  6
Continuous
 62
     7
100
AcDbLine
 10
1748.6651833558
 20
7879.1068003929
 30
0.0
 11
1748.6651833558
 21
7999.1068003929
 31
0.0
  0
LINE
  5
177
330
1F
100
AcDbEntity
  8
0
  6
Continuous
 62
     7
100
AcDbLine
 10
4666.6651833558
 20
6361.1068003928
 30
0.0
 11
3946.6651833558
 21
6361.1068003928
 31
0.0
  0
LINE
  5
178
330
1F
100
AcDbEntity
  8
0
  6
Continuous
 62
     7
100
AcDbLine
 10
4586.6651833558
 20
6341.1068003928
 30
0.0
 11
4026.6651833558
 21
6341.1068003928
 31
0.0
  0
LINE
  5
179
330
1F
100
AcDbEntity
  8
0
  6
Continuous
 62
     7
100
AcDbLine
 10
4536.6651833558
 20
6321.1068003928
 30
0.0
 11
4076.6651833558
 21
6321.1068003928
 31
0.0
  0
LINE
  5
17A
330
1F
100
AcDbEntity
  8
0
  6
Continuous
 62
     7
100
AcDbLine
 10
4476.6651833558
 20
6301.1068003928
 30
0.0
 11
4136.6651833558
 21
6301.1068003928
 31
0.0
  0
LINE
  5
17B
330
1F
100
AcDbEntity
  8
0
  6
Continuous
 62
     7
100
AcDbLine
 10
4416.6651833558
 20
6281.1068003928
 30
0.0
 11
4196.6651833558
 21
6281.1068003928
 31
0.0
  0
LINE
  5
17C
330
1F
100
AcDbEntity
  8
0
  6
Continuous
 62
     7
100
AcDbLine
 10
4366.6651833558
 20
6261.1068003928
 30
0.0
 11
4246.6651833558
 21
6261.1068003928
 31
0.0
  0
LINE
  5
17D
330
1F
100
AcDbEntity
  8
0
  6
Continuous
 62
     7
100
AcDbLine
 10
1848.6651833558
 20
6799.1068003928
 30
0.0
 11
1848.6651833558
 21
7519.1068003928
 31
0.0
  0
LINE
  5
17E
330
1F
100
AcDbEntity
  8
0
  6
Continuous
 62
     7
100
AcDbLine
 10
1828.6651833558
 20
6879.1068003928
 30
0.0
 11
1828.6651833558
 21
7439.1068003928
 31
0.0
  0
LINE
  5
17F
330
1F
100
AcDbEntity
  8
0
  6
Continuous
 62
     7
100
AcDbLine
 10
1808.6651833558
 20
6929.1068003928
 30
0.0
 11
1808.6651833558
 21
7389.1068003928
 31
0.0
  0
LINE
  5
180
330
1F
100
AcDbEntity
  8
0
  6
Continuous
 62
     7
100
AcDbLine
 10
1788.6651833558
 20
6989.1068003928
 30
0.0
 11
1788.6651833558
 21
7329.1068003928
 31
0.0
  0
LINE
  5
181
330
1F
100
AcDbEntity
  8
0
  6
Continuous
 62
     7
100
AcDbLine
 10
1768.6651833558
 20
7049.1068003928
 30
0.0
 11
1768.6651833558
 21
7269.1068003928
 31
0.0
  0
LINE
  5
182
330
1F
100
AcDbEntity
  8
0
  6
Continuous
 62
     7
100
AcDbLine
 10
1748.6651833558
 20
7099.1068003928
 30
0.0
 11
1748.6651833558
 21
7219.1068003928
 31
0.0
  0
LINE
  5
183
330
1F
100
AcDbEntity
  8
0
  6
Continuous
 62
     7
100
AcDbLine
 10
4926.4440060738
 20
8588.2603602777
 30
0.0
 11
4896.450759429
 21
8588.8968787028
 31
0.0
  0
LINE
  5
184
330
1F
100
AcDbEntity
  8
0
  6
Continuous
 62
     7
100
AcDbLine
 10
4926.4440060738
 20
8588.2603602777
 30
0.0
 11
4926.8683516906
 21
8608.2558580409
 31
0.0
  0
LINE
  5
185
330
1F
100
AcDbEntity
  8
0
  6
Continuous
 62
     7
100
AcDbLine
 10
4926.8683516906
 20
8608.2558580409
 30
0.0
 11
4896.8751050458
 21
8608.892376466
 31
0.0
  0
LINE
  5
186
330
1F
100
AcDbEntity
  8
0
  6
Continuous
 62
     7
100
AcDbLine
 10
4896.8751050458
 20
8608.892376466
 30
0.0
 11
4898.2060598752
 21
8671.6080102833
 31
0.0
  0
LINE
  5
187
330
1F
100
AcDbEntity
  8
0
  6
Continuous
 62
     7
100
AcDbLine
 10
4895.1198045997
 20
8526.1812448855
 30
0.0
 11
4896.450759429
 21
8588.8968787028
 31
0.0
  0
LINE
  5
188
330
1F
100
AcDbEntity
  8
0
  6
Continuous
 62
     7
100
AcDbLine
 10
4846.4620150209
 20
8589.9577427448
 30
0.0
 11
4846.8863606377
 21
8609.9532405079
 31
0.0
  0
LINE
  5
189
330
1F
100
AcDbEntity
  8
0
  6
Continuous
 62
     7
100
AcDbLine
 10
4875.1243068363
 20
8526.6055905023
 30
0.0
 11
4876.4552616657
 21
8589.3212243196
 31
0.0
  0
LINE
  5
18A
330
1F
100
AcDbEntity
  8
0
  6
Continuous
 62
     7
100
AcDbLine
 10
4876.4552616657
 20
8589.3212243196
 30
0.0
 11
4846.4620150209
 21
8589.9577427448
 31
0.0
  0
LINE
  5
18B
330
1F
100
AcDbEntity
  8
0
  6
Continuous
 62
     7
100
AcDbLine
 10
4876.8796072826
 20
8609.3167220828
 30
0.0
 11
4878.210562112
 21
8672.0323559001
 31
0.0
  0
LINE
  5
18C
330
1F
100
AcDbEntity
  8
0
  6
Continuous
 62
     7
100
AcDbLine
 10
4876.8796072826
 20
8609.3167220828
 30
0.0
 11
4846.8863606377
 21
8609.9532405079
 31
0.0
  0
LINE
  5
18D
330
1F
100
AcDbEntity
  8
0
  6
Continuous
 62
     7
100
AcDbLine
 10
2026.4440060738
 20
6488.2603602777
 30
0.0
 11
1996.450759429
 21
6488.8968787028
 31
0.0
  0
LINE
  5
18E
330
1F
100
AcDbEntity
  8
0
  6
Continuous
 62
     7
100
AcDbLine
 10
2026.4440060738
 20
6488.2603602777
 30
0.0
 11
2026.8683516906
 21
6508.2558580409
 31
0.0
  0
LINE
  5
18F
330
1F
100
AcDbEntity
  8
0
  6
Continuous
 62
     7
100
AcDbLine
 10
2026.8683516906
 20
6508.2558580409
 30
0.0
 11
1996.8751050458
 21
6508.892376466
 31
0.0
  0
LINE
  5
190
330
1F
100
AcDbEntity
  8
0
  6
Continuous
 62
     7
100
AcDbLine
 10
1995.1198045997
 20
6426.1812448855
 30
0.0
 11
1996.450759429
 21
6488.8968787028
 31
0.0
  0
LINE
  5
191
330
1F
100
AcDbEntity
  8
0
  6
Continuous
 62
     7
100
AcDbLine
 10
1996.8751050458
 20
6508.892376466
 30
0.0
 11
1998.2060598752
 21
6571.6080102833
 31
0.0
  0
LINE
  5
192
330
1F
100
AcDbEntity
  8
0
  6
Continuous
 62
     7
100
AcDbLine
 10
1946.4620150209
 20
6489.9577427448
 30
0.0
 11
1946.8863606377
 21
6509.9532405079
 31
0.0
  0
LINE
  5
193
330
1F
100
AcDbEntity
  8
0
  6
Continuous
 62
     7
100
AcDbLine
 10
1975.1243068363
 20
6426.6055905023
 30
0.0
 11
1976.4552616657
 21
6489.3212243196
 31
0.0
  0
LINE
  5
194
330
1F
100
AcDbEntity
  8
0
  6
Continuous
 62
     7
100
AcDbLine
 10
1976.4552616657
 20
6489.3212243196
 30
0.0
 11
1946.4620150209
 21
6489.9577427448
 31
0.0
  0
LINE
  5
195
330
1F
100
AcDbEntity
  8
0
  6
Continuous
 62
     7
100
AcDbLine
 10
1976.8796072826
 20
6509.3167220828
 30
0.0
 11
1946.8863606377
 21
6509.9532405079
 31
0.0
  0
LINE
  5
196
330
1F
100
AcDbEntity
  8
0
  6
Continuous
 62
     7
100
AcDbLine
 10
1976.8796072826
 20
6509.3167220828
 30
0.0
 11
1978.210562112
 21
6572.0323559001
 31
0.0
  0
LINE
  5
197
330
1F
100
AcDbEntity
  8
0
  6
Continuous
 62
     7
100
AcDbLine
 10
4882.462852768
 20
6458.0904570935
 30
0.0
 11
4878.1910255419
 21
6487.7847577613
 31
0.0
  0
LINE
  5
198
330
1F
100
AcDbEntity
  8
0
  6
Continuous
 62
     7
100
AcDbLine
 10
4882.462852768
 20
6458.0904570935
 30
0.0
 11
4902.2590532132
 21
6460.9383419109
 31
0.0
  0
LINE
  5
199
330
1F
100
AcDbEntity
  8
0
  6
Continuous
 62
     7
100
AcDbLine
 10
4902.2590532132
 20
6460.9383419109
 30
0.0
 11
4897.9872259871
 21
6490.6326425789
 31
0.0
  0
LINE
  5
19A
330
1F
100
AcDbEntity
  8
0
  6
Continuous
 62
     7
100
AcDbLine
 10
4897.9872259871
 20
6490.6326425789
 30
0.0
 11
4960.0777662077
 21
6499.564998426
 31
0.0
  0
LINE
  5
19B
330
1F
100
AcDbEntity
  8
0
  6
Continuous
 62
     7
100
AcDbLine
 10
4816.1004853214
 20
6478.8524019142
 30
0.0
 11
4878.1910255419
 21
6487.7847577613
 31
0.0
  0
LINE
  5
19C
330
1F
100
AcDbEntity
  8
0
  6
Continuous
 62
     7
100
AcDbLine
 10
4871.0713134985
 20
6537.2752588745
 30
0.0
 11
4890.8675139437
 21
6540.1231436919
 31
0.0
  0
LINE
  5
19D
330
1F
100
AcDbEntity
  8
0
  6
Continuous
 62
     7
100
AcDbLine
 10
4895.1393411699
 20
6510.4288430235
 30
0.0
 11
4890.8675139437
 21
6540.1231436919
 31
0.0
  0
LINE
  5
19E
330
1F
100
AcDbEntity
  8
0
  6
Continuous
 62
     7
100
AcDbLine
 10
4875.3431407245
 20
6507.5809582067
 30
0.0
 11
4871.0713134985
 21
6537.2752588745
 31
0.0
  0
LINE
  5
19F
330
1F
100
AcDbEntity
  8
0
  6
Continuous
 62
     7
100
AcDbLine
 10
4895.1393411699
 20
6510.4288430235
 30
0.0
 11
4957.2298813904
 21
6519.3611988706
 31
0.0
  0
LINE
  5
1A0
330
1F
100
AcDbEntity
  8
0
  6
Continuous
 62
     7
100
AcDbLine
 10
4813.252600504
 20
6498.6486023596
 30
0.0
 11
4875.3431407245
 21
6507.5809582067
 31
0.0
  0
LINE
  5
1A1
330
1F
100
AcDbEntity
  8
0
  6
Continuous
 62
     7
100
AcDbLine
 10
2026.4440060738
 20
8588.2603602777
 30
0.0
 11
2026.8683516906
 21
8608.2558580409
 31
0.0
  0
LINE
  5
1A2
330
1F
100
AcDbEntity
  8
0
  6
Continuous
 62
     7
100
AcDbLine
 10
2026.8683516906
 20
8608.2558580409
 30
0.0
 11
1996.8751050458
 21
8608.892376466
 31
0.0
  0
LINE
  5
1A3
330
1F
100
AcDbEntity
  8
0
  6
Continuous
 62
     7
100
AcDbLine
 10
1995.1198045997
 20
8526.1812448855
 30
0.0
 11
1996.450759429
 21
8588.8968787028
 31
0.0
  0
LINE
  5
1A4
330
1F
100
AcDbEntity
  8
0
  6
Continuous
 62
     7
100
AcDbLine
 10
1996.8751050458
 20
8608.892376466
 30
0.0
 11
1998.2060598752
 21
8671.6080102833
 31
0.0
  0
LINE
  5
1A5
330
1F
100
AcDbEntity
  8
0
  6
Continuous
 62
     7
100
AcDbLine
 10
2026.4440060738
 20
8588.2603602777
 30
0.0
 11
1996.450759429
 21
8588.8968787028
 31
0.0
  0
LINE
  5
1A6
330
1F
100
AcDbEntity
  8
0
  6
Continuous
 62
     7
100
AcDbLine
 10
1946.4620150209
 20
8589.9577427448
 30
0.0
 11
1946.8863606377
 21
8609.9532405079
 31
0.0
  0
LINE
  5
1A7
330
1F
100
AcDbEntity
  8
0
  6
Continuous
 62
     7
100
AcDbLine
 10
1976.8796072826
 20
8609.3167220828
 30
0.0
 11
1978.210562112
 21
8672.0323559001
 31
0.0
  0
LINE
  5
1A8
330
1F
100
AcDbEntity
  8
0
  6
Continuous
 62
     7
100
AcDbLine
 10
1976.4552616657
 20
8589.3212243196
 30
0.0
 11
1946.4620150209
 21
8589.9577427448
 31
0.0
  0
LINE
  5
1A9
330
1F
100
AcDbEntity
  8
0
  6
Continuous
 62
     7
100
AcDbLine
 10
1976.8796072826
 20
8609.3167220828
 30
0.0
 11
1946.8863606377
 21
8609.9532405079
 31
0.0
  0
LINE
  5
1AA
330
1F
100
AcDbEntity
  8
0
  6
Continuous
 62
     7
100
AcDbLine
 10
1975.1243068363
 20
8526.6055905023
 30
0.0
 11
1976.4552616657
 21
8589.3212243196
 31
0.0
  0
LINE
  5
1AB
330
1F
100
AcDbEntity
  8
0
  6
Continuous
 62
     7
100
AcDbLine
 10
1936.6651833558
 20
8490.0196792465
 30
0.0
 11
1936.6651833558
 21
6608.1939215392
 31
0.0
  0
LINE
  5
1AC
330
1F
100
AcDbEntity
  8
0
  6
Continuous
 62
     7
100
AcDbLine
 10
4777.5780622095
 20
8649.1068003928
 30
0.0
 11
2095.7523045022
 21
8649.1068003928
 31
0.0
  0
LINE
  5
1AD
330
1F
100
AcDbEntity
  8
0
  6
Continuous
 62
     7
100
AcDbLine
 10
4936.6651833557
 20
6608.193921539
 30
0.0
 11
4936.6651833558
 21
8490.0196792465
 31
0.0
  0
LINE
  5
1AE
330
1F
100
AcDbEntity
  8
0
  6
Continuous
 62
     7
100
AcDbLine
 10
2095.7523045022
 20
6449.1068003928
 30
0.0
 11
4777.5780622095
 21
6449.1068003928
 31
0.0
  0
LINE
  5
1AF
330
1F
100
AcDbEntity
  8
0
  6
Continuous
 62
     7
100
AcDbLine
 10
4886.6651833558
 20
8719.1068003928
 30
0.0
 11
1986.6651833558
 21
8719.1068003928
 31
0.0
  0
LINE
  5
1B0
330
1F
100
AcDbEntity
  8
0
  6
Continuous
 62
     7
100
AcDbLine
 10
1986.6651833558
 20
6379.1068003928
 30
0.0
 11
4886.6651833558
 21
6379.1068003928
 31
0.0
  0
LINE
  5
1B1
330
1F
100
AcDbEntity
  8
0
  6
Continuous
 62
     7
100
AcDbLine
 10
1866.6651833558
 20
8599.1068003928
 30
0.0
 11
1866.6651833558
 21
6499.1068003928
 31
0.0
  0
LINE
  5
1B2
330
1F
100
AcDbEntity
  8
0
  6
Continuous
 62
     7
100
AcDbLine
 10
5006.6651833558
 20
6499.1068003928
 30
0.0
 11
5006.6651833558
 21
8599.1068003928
 31
0.0
  0
LINE
  5
1B3
330
1F
100
AcDbEntity
  8
0
  6
Continuous
 62
     7
100
AcDbLine
 10
10503.4937426714
 20
6361.1068003928
 30
0.0
 11
10503.4937426714
 21
6409.1068003928
 31
0.0
  0
LINE
  5
1B4
330
1F
100
AcDbEntity
  8
0
  6
Continuous
 62
     7
100
AcDbLine
 10
9783.4937426714
 20
6409.1068003928
 30
0.0
 11
9783.4937426714
 21
6361.1068003928
 31
0.0
  0
LINE
  5
1B5
330
1F
100
AcDbEntity
  8
0
  6
Continuous
 62
     7
100
AcDbLine
 10
10423.4937426714
 20
6341.1068003928
 30
0.0
 11
10423.4937426714
 21
6361.1068003928
 31
0.0
  0
LINE
  5
1B6
330
1F
100
AcDbEntity
  8
0
  6
Continuous
 62
     7
100
AcDbLine
 10
9863.4937426714
 20
6361.1068003928
 30
0.0
 11
9863.4937426714
 21
6341.1068003928
 31
0.0
  0
LINE
  5
1B7
330
1F
100
AcDbEntity
  8
0
  6
Continuous
 62
     7
100
AcDbLine
 10
10373.4937426714
 20
6321.1068003928
 30
0.0
 11
10373.4937426714
 21
6341.1068003928
 31
0.0
  0
LINE
  5
1B8
330
1F
100
AcDbEntity
  8
0
  6
Continuous
 62
     7
100
AcDbLine
 10
9913.4937426714
 20
6341.1068003928
 30
0.0
 11
9913.4937426714
 21
6321.1068003928
 31
0.0
  0
LINE
  5
1B9
330
1F
100
AcDbEntity
  8
0
  6
Continuous
 62
     7
100
AcDbLine
 10
10313.4937426714
 20
6301.1068003928
 30
0.0
 11
10313.4937426714
 21
6321.1068003928
 31
0.0
  0
LINE
  5
1BA
330
1F
100
AcDbEntity
  8
0
  6
Continuous
 62
     7
100
AcDbLine
 10
9973.4937426714
 20
6321.1068003928
 30
0.0
 11
9973.4937426714
 21
6301.1068003928
 31
0.0
  0
LINE
  5
1BB
330
1F
100
AcDbEntity
  8
0
  6
Continuous
 62
     7
100
AcDbLine
 10
10253.4937426714
 20
6281.1068003928
 30
0.0
 11
10253.4937426714
 21
6301.1068003928
 31
0.0
  0
LINE
  5
1BC
330
1F
100
AcDbEntity
  8
0
  6
Continuous
 62
     7
100
AcDbLine
 10
10033.4937426714
 20
6301.1068003928
 30
0.0
 11
10033.4937426714
 21
6281.1068003928
 31
0.0
  0
LINE
  5
1BD
330
1F
100
AcDbEntity
  8
0
  6
Continuous
 62
     7
100
AcDbLine
 10
10203.4937426714
 20
6261.1068003928
 30
0.0
 11
10203.4937426714
 21
6281.1068003928
 31
0.0
  0
LINE
  5
1BE
330
1F
100
AcDbEntity
  8
0
  6
Continuous
 62
     7
100
AcDbLine
 10
10083.4937426714
 20
6281.1068003928
 30
0.0
 11
10083.4937426714
 21
6261.1068003928
 31
0.0
  0
LINE
  5
1BF
330
1F
100
AcDbEntity
  8
0
  6
Continuous
 62
     7
100
AcDbLine
 10
9783.4937426714
 20
8737.1068003928
 30
0.0
 11
9783.4937426714
 21
8689.1068003928
 31
0.0
  0
LINE
  5
1C0
330
1F
100
AcDbEntity
  8
0
  6
Continuous
 62
     7
100
AcDbLine
 10
10503.4937426714
 20
8689.1068003928
 30
0.0
 11
10503.4937426714
 21
8737.1068003928
 31
0.0
  0
LINE
  5
1C1
330
1F
100
AcDbEntity
  8
0
  6
Continuous
 62
     7
100
AcDbLine
 10
9863.4937426714
 20
8757.1068003928
 30
0.0
 11
9863.4937426714
 21
8737.1068003928
 31
0.0
  0
LINE
  5
1C2
330
1F
100
AcDbEntity
  8
0
  6
Continuous
 62
     7
100
AcDbLine
 10
10423.4937426714
 20
8737.1068003928
 30
0.0
 11
10423.4937426714
 21
8757.1068003928
 31
0.0
  0
LINE
  5
1C3
330
1F
100
AcDbEntity
  8
0
  6
Continuous
 62
     7
100
AcDbLine
 10
9913.4937426714
 20
8777.1068003928
 30
0.0
 11
9913.4937426714
 21
8757.1068003928
 31
0.0
  0
LINE
  5
1C4
330
1F
100
AcDbEntity
  8
0
  6
Continuous
 62
     7
100
AcDbLine
 10
10373.4937426714
 20
8757.1068003928
 30
0.0
 11
10373.4937426714
 21
8777.1068003928
 31
0.0
  0
LINE
  5
1C5
330
1F
100
AcDbEntity
  8
0
  6
Continuous
 62
     7
100
AcDbLine
 10
9973.4937426714
 20
8797.1068003928
 30
0.0
 11
9973.4937426714
 21
8777.1068003928
 31
0.0
  0
LINE
  5
1C6
330
1F
100
AcDbEntity
  8
0
  6
Continuous
 62
     7
100
AcDbLine
 10
10313.4937426714
 20
8777.1068003928
 30
0.0
 11
10313.4937426714
 21
8797.1068003928
 31
0.0
  0
LINE
  5
1C7
330
1F
100
AcDbEntity
  8
0
  6
Continuous
 62
     7
100
AcDbLine
 10
10033.4937426714
 20
8817.1068003928
 30
0.0
 11
10033.4937426714
 21
8797.1068003928
 31
0.0
  0
LINE
  5
1C8
330
1F
100
AcDbEntity
  8
0
  6
Continuous
 62
     7
100
AcDbLine
 10
10253.4937426714
 20
8797.1068003928
 30
0.0
 11
10253.4937426714
 21
8817.1068003928
 31
0.0
  0
LINE
  5
1C9
330
1F
100
AcDbEntity
  8
0
  6
Continuous
 62
     7
100
AcDbLine
 10
10083.4937426714
 20
8837.1068003928
 30
0.0
 11
10083.4937426714
 21
8817.1068003928
 31
0.0
  0
LINE
  5
1CA
330
1F
100
AcDbEntity
  8
0
  6
Continuous
 62
     7
100
AcDbLine
 10
10203.4937426714
 20
8817.1068003928
 30
0.0
 11
10203.4937426714
 21
8837.1068003928
 31
0.0
  0
LINE
  5
1CB
330
1F
100
AcDbEntity
  8
0
  6
Continuous
 62
     7
100
AcDbLine
 10
10873.4937426714
 20
6379.1068003928
 30
0.0
 11
11273.4937426714
 21
6379.1068003928
 31
0.0
  0
LINE
  5
1CC
330
1F
100
AcDbEntity
  8
0
  6
Continuous
 62
     7
100
AcDbLine
 10
11273.4937426714
 20
8719.1068003928
 30
0.0
 11
10873.4937426714
 21
8719.1068003928
 31
0.0
  0
LINE
  5
1CD
330
1F
100
AcDbEntity
  8
0
  6
Continuous
 62
     7
100
AcDbLine
 10
11275.4937426714
 20
6749.1068003928
 30
0.0
 11
11273.4937426714
 21
6749.1068003928
 31
0.0
  0
LINE
  5
1CE
330
1F
100
AcDbEntity
  8
0
  6
Continuous
 62
     7
100
AcDbLine
 10
11275.4937426714
 20
8049.1068003928
 30
0.0
 11
11273.4937426714
 21
8049.1068003928
 31
0.0
  0
LINE
  5
1CF
330
1F
100
AcDbEntity
  8
0
  6
Continuous
 62
     7
100
AcDbLine
 10
10503.4937426714
 20
6361.1068003928
 30
0.0
 11
9783.4937426714
 21
6361.1068003928
 31
0.0
  0
LINE
  5
1D0
330
1F
100
AcDbEntity
  8
0
  6
Continuous
 62
     7
100
AcDbLine
 10
10423.4937426714
 20
6341.1068003928
 30
0.0
 11
9863.4937426714
 21
6341.1068003928
 31
0.0
  0
LINE
  5
1D1
330
1F
100
AcDbEntity
  8
0
  6
Continuous
 62
     7
100
AcDbLine
 10
10373.4937426714
 20
6321.1068003928
 30
0.0
 11
9913.4937426714
 21
6321.1068003928
 31
0.0
  0
LINE
  5
1D2
330
1F
100
AcDbEntity
  8
0
  6
Continuous
 62
     7
100
AcDbLine
 10
10313.4937426714
 20
6301.1068003928
 30
0.0
 11
9973.4937426714
 21
6301.1068003928
 31
0.0
  0
LINE
  5
1D3
330
1F
100
AcDbEntity
  8
0
  6
Continuous
 62
     7
100
AcDbLine
 10
10253.4937426714
 20
6281.1068003928
 30
0.0
 11
10033.4937426714
 21
6281.1068003928
 31
0.0
  0
LINE
  5
1D4
330
1F
100
AcDbEntity
  8
0
  6
Continuous
 62
     7
100
AcDbLine
 10
10203.4937426714
 20
6261.1068003928
 30
0.0
 11
10083.4937426714
 21
6261.1068003928
 31
0.0
  0
LINE
  5
1D5
330
1F
100
AcDbEntity
  8
0
  6
Continuous
 62
     7
100
AcDbLine
 10
10495.6562043894
 20
8737.1068003928
 30
0.0
 11
10503.4937426714
 21
8737.1068003928
 31
0.0
  0
LINE
  5
1D6
330
1F
100
AcDbEntity
  8
0
  6
Continuous
 62
     7
100
AcDbLine
 10
9783.4937426714
 20
8737.1068003928
 30
0.0
 11
10495.6562043894
 21
8737.1068003928
 31
0.0
  0
LINE
  5
1D7
330
1F
100
AcDbEntity
  8
0
  6
Continuous
 62
     7
100
AcDbLine
 10
10417.3978795632
 20
8757.1068003928
 30
0.0
 11
10423.4937426714
 21
8757.1068003928
 31
0.0
  0
LINE
  5
1D8
330
1F
100
AcDbEntity
  8
0
  6
Continuous
 62
     7
100
AcDbLine
 10
9863.4937426714
 20
8757.1068003928
 30
0.0
 11
10417.3978795632
 21
8757.1068003928
 31
0.0
  0
LINE
  5
1D9
330
1F
100
AcDbEntity
  8
0
  6
Continuous
 62
     7
100
AcDbLine
 10
10368.4864265468
 20
8777.1068003928
 30
0.0
 11
10373.4937426714
 21
8777.1068003928
 31
0.0
  0
LINE
  5
1DA
330
1F
100
AcDbEntity
  8
0
  6
Continuous
 62
     7
100
AcDbLine
 10
9913.4937426714
 20
8777.1068003928
 30
0.0
 11
10368.4864265468
 21
8777.1068003928
 31
0.0
  0
LINE
  5
1DB
330
1F
100
AcDbEntity
  8
0
  6
Continuous
 62
     7
100
AcDbLine
 10
10309.7926829271
 20
8797.1068003928
 30
0.0
 11
10313.4937426714
 21
8797.1068003928
 31
0.0
  0
LINE
  5
1DC
330
1F
100
AcDbEntity
  8
0
  6
Continuous
 62
     7
100
AcDbLine
 10
9973.4937426714
 20
8797.1068003928
 30
0.0
 11
10309.7926829271
 21
8797.1068003928
 31
0.0
  0
LINE
  5
1DD
330
1F
100
AcDbEntity
  8
0
  6
Continuous
 62
     7
100
AcDbLine
 10
10251.0989393075
 20
8817.1068003928
 30
0.0
 11
10253.4937426714
 21
8817.1068003928
 31
0.0
  0
LINE
  5
1DE
330
1F
100
AcDbEntity
  8
0
  6
Continuous
 62
     7
100
AcDbLine
 10
10033.4937426714
 20
8817.1068003928
 30
0.0
 11
10251.0989393075
 21
8817.1068003928
 31
0.0
  0
LINE
  5
1DF
330
1F
100
AcDbEntity
  8
0
  6
Continuous
 62
     7
100
AcDbLine
 10
10202.1874862911
 20
8837.1068003928
 30
0.0
 11
10203.4937426714
 21
8837.1068003928
 31
0.0
  0
LINE
  5
1E0
330
1F
100
AcDbEntity
  8
0
  6
Continuous
 62
     7
100
AcDbLine
 10
10083.4937426714
 20
8837.1068003928
 30
0.0
 11
10202.1874862911
 21
8837.1068003928
 31
0.0
  0
LINE
  5
1E1
330
1F
100
AcDbEntity
  8
0
  6
Continuous
 62
     7
100
AcDbLine
 10
10763.4937426714
 20
6379.1068003928
 30
0.0
 11
10763.4937426714
 21
6499.1068003928
 31
0.0
  0
LINE
  5
1E2
330
1F
100
AcDbEntity
  8
0
  6
Continuous
 62
     7
100
AcDbLine
 10
10763.4937426714
 20
6499.1068003928
 30
0.0
 11
10873.4937426714
 21
6499.1068003928
 31
0.0
  0
LINE
  5
1E3
330
1F
100
AcDbEntity
  8
0
  6
Continuous
 62
     7
100
AcDbLine
 10
11273.4937426714
 20
6608.1939215392
 30
0.0
 11
10873.4937426714
 21
6608.1939215392
 31
0.0
  0
LINE
  5
1E4
330
1F
100
AcDbEntity
  8
0
  6
Continuous
 62
     7
100
AcDbLine
 10
11273.4937426714
 20
6608.1939215392
 30
0.0
 11
11273.4937426714
 21
6379.1068003928
 31
0.0
  0
LINE
  5
1E5
330
1F
100
AcDbEntity
  8
0
  6
Continuous
 62
     7
100
AcDbLine
 10
10873.4937426714
 20
6379.1068003928
 30
0.0
 11
10763.4937426714
 21
6379.1068003928
 31
0.0
  0
LINE
  5
1E6
330
1F
100
AcDbEntity
  8
0
  6
Continuous
 62
     7
100
AcDbLine
 10
10873.4937426714
 20
8599.1068003928
 30
0.0
 11
10763.4937426714
 21
8599.1068003928
 31
0.0
  0
LINE
  5
1E7
330
1F
100
AcDbEntity
  8
0
  6
Continuous
 62
     7
100
AcDbLine
 10
10873.4937426714
 20
8599.1068003928
 30
0.0
 11
10873.4937426714
 21
6499.1068003928
 31
0.0
  0
LINE
  5
1E8
330
1F
100
AcDbEntity
  8
0
  6
Continuous
 62
     7
100
AcDbLine
 10
10763.4937426714
 20
8599.1068003928
 30
0.0
 11
10763.4937426714
 21
6499.1068003928
 31
0.0
  0
LINE
  5
1E9
330
1F
100
AcDbEntity
  8
0
  6
Continuous
 62
     7
100
AcDbLine
 10
10763.4937426714
 20
8719.1068003928
 30
0.0
 11
10873.4937426714
 21
8719.1068003928
 31
0.0
  0
LINE
  5
1EA
330
1F
100
AcDbEntity
  8
0
  6
Continuous
 62
     7
100
AcDbLine
 10
11273.4937426714
 20
8719.1068003928
 30
0.0
 11
11273.4937426714
 21
8490.0196792465
 31
0.0
  0
LINE
  5
1EB
330
1F
100
AcDbEntity
  8
0
  6
Continuous
 62
     7
100
AcDbLine
 10
10873.4937426714
 20
8490.0196792465
 30
0.0
 11
11273.4937426714
 21
8490.0196792465
 31
0.0
  0
LINE
  5
1EC
330
1F
100
AcDbEntity
  8
0
  6
Continuous
 62
     7
100
AcDbLine
 10
10763.4937426714
 20
8599.1068003928
 30
0.0
 11
10763.4937426714
 21
8719.1068003928
 31
0.0
  0
LINE
  5
1ED
330
1F
100
AcDbEntity
  8
0
  6
Continuous
 62
     7
100
AcDbLine
 10
11273.4937426714
 20
8490.0196792465
 30
0.0
 11
11273.4937426714
 21
6608.1939215392
 31
0.0
  0
LINE
  5
1EE
330
1F
100
AcDbEntity
  8
0
  6
Continuous
 62
     7
100
AcDbLine
 10
10763.4937426714
 20
6409.1068003928
 30
0.0
 11
9663.4937426714
 21
6409.1068003928
 31
0.0
  0
LINE
  5
1EF
330
1F
100
AcDbEntity
  8
0
  6
Continuous
 62
     7
100
AcDbLine
 10
9663.4937426714
 20
6409.1068003928
 30
0.0
 11
9663.4937426714
 21
6509.1068003928
 31
0.0
  0
LINE
  5
1F0
330
1F
100
AcDbEntity
  8
0
  6
Continuous
 62
     7
100
AcDbLine
 10
9663.4937426714
 20
6509.1068003928
 30
0.0
 11
10763.4937426714
 21
6509.1068003928
 31
0.0
  0
LINE
  5
1F1
330
1F
100
AcDbEntity
  8
0
  6
Continuous
 62
     7
100
AcDbLine
 10
10763.4937426714
 20
8589.1068003928
 30
0.0
 11
9663.4937426714
 21
8589.1068003928
 31
0.0
  0
LINE
  5
1F2
330
1F
100
AcDbEntity
  8
0
  6
Continuous
 62
     7
100
AcDbLine
 10
9663.4937426714
 20
8589.1068003928
 30
0.0
 11
9663.4937426714
 21
6509.1068003928
 31
0.0
  0
LINE
  5
1F3
330
1F
100
AcDbEntity
  8
0
  6
Continuous
 62
     7
100
AcDbLine
 10
9663.4937426714
 20
8689.1068003928
 30
0.0
 11
10763.4937426714
 21
8689.1068003928
 31
0.0
  0
LINE
  5
1F4
330
1F
100
AcDbEntity
  8
0
  6
Continuous
 62
     7
100
AcDbLine
 10
9663.4937426714
 20
8589.1068003928
 30
0.0
 11
9663.4937426714
 21
8689.1068003928
 31
0.0
  0
LINE
  5
1F5
330
1F
100
AcDbEntity
  8
0
  6
Continuous
 62
     7
100
AcDbLine
 10
5024.6651833558
 20
2432.0410704249
 30
0.0
 11
4976.6651833558
 21
2432.0410704249
 31
0.0
  0
LINE
  5
1F6
330
1F
100
AcDbEntity
  8
0
  6
Continuous
 62
     7
100
AcDbLine
 10
4976.6651833558
 20
1712.0410704249
 30
0.0
 11
5024.6651833558
 21
1712.0410704249
 31
0.0
  0
LINE
  5
1F7
330
1F
100
AcDbEntity
  8
0
  6
Continuous
 62
     7
100
AcDbLine
 10
5044.6651833558
 20
2352.0410704249
 30
0.0
 11
5024.6651833558
 21
2352.0410704249
 31
0.0
  0
LINE
  5
1F8
330
1F
100
AcDbEntity
  8
0
  6
Continuous
 62
     7
100
AcDbLine
 10
5024.6651833558
 20
1792.0410704249
 30
0.0
 11
5044.6651833558
 21
1792.0410704249
 31
0.0
  0
LINE
  5
1F9
330
1F
100
AcDbEntity
  8
0
  6
Continuous
 62
     7
100
AcDbLine
 10
5064.6651833558
 20
2302.0410704249
 30
0.0
 11
5044.6651833558
 21
2302.0410704249
 31
0.0
  0
LINE
  5
1FA
330
1F
100
AcDbEntity
  8
0
  6
Continuous
 62
     7
100
AcDbLine
 10
5044.6651833558
 20
1842.0410704249
 30
0.0
 11
5064.6651833558
 21
1842.0410704249
 31
0.0
  0
LINE
  5
1FB
330
1F
100
AcDbEntity
  8
0
  6
Continuous
 62
     7
100
AcDbLine
 10
5084.6651833558
 20
2242.0410704249
 30
0.0
 11
5064.6651833558
 21
2242.0410704249
 31
0.0
  0
LINE
  5
1FC
330
1F
100
AcDbEntity
  8
0
  6
Continuous
 62
     7
100
AcDbLine
 10
5064.6651833558
 20
1902.0410704249
 30
0.0
 11
5084.6651833558
 21
1902.0410704249
 31
0.0
  0
LINE
  5
1FD
330
1F
100
AcDbEntity
  8
0
  6
Continuous
 62
     7
100
AcDbLine
 10
5104.6651833558
 20
2182.0410704249
 30
0.0
 11
5084.6651833558
 21
2182.0410704249
 31
0.0
  0
LINE
  5
1FE
330
1F
100
AcDbEntity
  8
0
  6
Continuous
 62
     7
100
AcDbLine
 10
5084.6651833558
 20
1962.0410704249
 30
0.0
 11
5104.6651833558
 21
1962.0410704249
 31
0.0
  0
LINE
  5
1FF
330
1F
100
AcDbEntity
  8
0
  6
Continuous
 62
     7
100
AcDbLine
 10
5124.6651833558
 20
2132.0410704249
 30
0.0
 11
5104.6651833558
 21
2132.0410704249
 31
0.0
  0
LINE
  5
200
330
1F
100
AcDbEntity
  8
0
  6
Continuous
 62
     7
100
AcDbLine
 10
5104.6651833558
 20
2012.0410704249
 30
0.0
 11
5124.6651833558
 21
2012.0410704249
 31
0.0
  0
LINE
  5
201
330
1F
100
AcDbEntity
  8
0
  6
Continuous
 62
     7
100
AcDbLine
 10
1848.6651833558
 20
1712.0410704248
 30
0.0
 11
1896.6651833558
 21
1712.0410704248
 31
0.0
  0
LINE
  5
202
330
1F
100
AcDbEntity
  8
0
  6
Continuous
 62
     7
100
AcDbLine
 10
1896.6651833558
 20
2432.0410704248
 30
0.0
 11
1848.6651833558
 21
2432.0410704248
 31
0.0
  0
LINE
  5
203
330
1F
100
AcDbEntity
  8
0
  6
Continuous
 62
     7
100
AcDbLine
 10
1828.6651833558
 20
1792.0410704248
 30
0.0
 11
1848.6651833558
 21
1792.0410704248
 31
0.0
  0
LINE
  5
204
330
1F
100
AcDbEntity
  8
0
  6
Continuous
 62
     7
100
AcDbLine
 10
1848.6651833558
 20
2352.0410704248
 30
0.0
 11
1828.6651833558
 21
2352.0410704248
 31
0.0
  0
LINE
  5
205
330
1F
100
AcDbEntity
  8
0
  6
Continuous
 62
     7
100
AcDbLine
 10
1808.6651833558
 20
1842.0410704248
 30
0.0
 11
1828.6651833558
 21
1842.0410704248
 31
0.0
  0
LINE
  5
206
330
1F
100
AcDbEntity
  8
0
  6
Continuous
 62
     7
100
AcDbLine
 10
1828.6651833558
 20
2302.0410704248
 30
0.0
 11
1808.6651833558
 21
2302.0410704248
 31
0.0
  0
LINE
  5
207
330
1F
100
AcDbEntity
  8
0
  6
Continuous
 62
     7
100
AcDbLine
 10
1788.6651833558
 20
1902.0410704248
 30
0.0
 11
1808.6651833558
 21
1902.0410704248
 31
0.0
  0
LINE
  5
208
330
1F
100
AcDbEntity
  8
0
  6
Continuous
 62
     7
100
AcDbLine
 10
1808.6651833558
 20
2242.0410704248
 30
0.0
 11
1788.6651833558
 21
2242.0410704248
 31
0.0
  0
LINE
  5
209
330
1F
100
AcDbEntity
  8
0
  6
Continuous
 62
     7
100
AcDbLine
 10
1768.6651833558
 20
1962.0410704248
 30
0.0
 11
1788.6651833558
 21
1962.0410704248
 31
0.0
  0
LINE
  5
20A
330
1F
100
AcDbEntity
  8
0
  6
Continuous
 62
     7
100
AcDbLine
 10
1788.6651833558
 20
2182.0410704248
 30
0.0
 11
1768.6651833558
 21
2182.0410704248
 31
0.0
  0
LINE
  5
20B
330
1F
100
AcDbEntity
  8
0
  6
Continuous
 62
     7
100
AcDbLine
 10
1748.6651833558
 20
2012.0410704248
 30
0.0
 11
1768.6651833558
 21
2012.0410704248
 31
0.0
  0
LINE
  5
20C
330
1F
100
AcDbEntity
  8
0
  6
Continuous
 62
     7
100
AcDbLine
 10
1768.6651833558
 20
2132.0410704248
 30
0.0
 11
1748.6651833558
 21
2132.0410704248
 31
0.0
  0
LINE
  5
20D
330
1F
100
AcDbEntity
  8
0
  6
Continuous
 62
     7
100
AcDbLine
 10
1866.6651833558
 20
1342.0410704249
 30
0.0
 11
1866.6651833558
 21
942.0410704249
 31
0.0
  0
LINE
  5
20E
330
1F
100
AcDbEntity
  8
0
  6
Continuous
 62
     7
100
AcDbLine
 10
5006.6651833558
 20
942.0410704249
 30
0.0
 11
5006.6651833558
 21
1342.0410704249
 31
0.0
  0
LINE
  5
20F
330
1F
100
AcDbEntity
  8
0
  6
Continuous
 62
     7
100
AcDbLine
 10
4636.6651833558
 20
940.0410704249
 30
0.0
 11
4636.6651833558
 21
942.0410704249
 31
0.0
  0
LINE
  5
210
330
1F
100
AcDbEntity
  8
0
  6
Continuous
 62
     7
100
AcDbLine
 10
3636.6651833558
 20
940.0410704249
 30
0.0
 11
3636.6651833558
 21
942.0410704249
 31
0.0
  0
LINE
  5
211
330
1F
100
AcDbEntity
  8
0
  6
Continuous
 62
     7
100
AcDbLine
 10
5024.6651833558
 20
1719.8786087069
 30
0.0
 11
5024.6651833558
 21
1712.0410704249
 31
0.0
  0
LINE
  5
212
330
1F
100
AcDbEntity
  8
0
  6
Continuous
 62
     7
100
AcDbLine
 10
5024.6651833558
 20
2432.0410704249
 30
0.0
 11
5024.6651833558
 21
1719.8786087069
 31
0.0
  0
LINE
  5
213
330
1F
100
AcDbEntity
  8
0
  6
Continuous
 62
     7
100
AcDbLine
 10
5044.6651833558
 20
1798.1369335331
 30
0.0
 11
5044.6651833558
 21
1792.0410704249
 31
0.0
  0
LINE
  5
214
330
1F
100
AcDbEntity
  8
0
  6
Continuous
 62
     7
100
AcDbLine
 10
5044.6651833558
 20
2352.0410704249
 30
0.0
 11
5044.6651833558
 21
1798.1369335331
 31
0.0
  0
LINE
  5
215
330
1F
100
AcDbEntity
  8
0
  6
Continuous
 62
     7
100
AcDbLine
 10
5064.6651833558
 20
1847.0483865495
 30
0.0
 11
5064.6651833558
 21
1842.0410704249
 31
0.0
  0
LINE
  5
216
330
1F
100
AcDbEntity
  8
0
  6
Continuous
 62
     7
100
AcDbLine
 10
5064.6651833558
 20
2302.0410704249
 30
0.0
 11
5064.6651833558
 21
1847.0483865495
 31
0.0
  0
LINE
  5
217
330
1F
100
AcDbEntity
  8
0
  6
Continuous
 62
     7
100
AcDbLine
 10
5084.6651833558
 20
1905.7421301692
 30
0.0
 11
5084.6651833558
 21
1902.0410704249
 31
0.0
  0
LINE
  5
218
330
1F
100
AcDbEntity
  8
0
  6
Continuous
 62
     7
100
AcDbLine
 10
5084.6651833558
 20
2242.0410704249
 30
0.0
 11
5084.6651833558
 21
1905.7421301692
 31
0.0
  0
LINE
  5
219
330
1F
100
AcDbEntity
  8
0
  6
Continuous
 62
     7
100
AcDbLine
 10
5104.6651833558
 20
1964.4358737888
 30
0.0
 11
5104.6651833558
 21
1962.0410704249
 31
0.0
  0
LINE
  5
21A
330
1F
100
AcDbEntity
  8
0
  6
Continuous
 62
     7
100
AcDbLine
 10
5104.6651833558
 20
2182.0410704249
 30
0.0
 11
5104.6651833558
 21
1964.4358737888
 31
0.0
  0
LINE
  5
21B
330
1F
100
AcDbEntity
  8
0
  6
Continuous
 62
     7
100
AcDbLine
 10
5124.6651833558
 20
2013.3473268052
 30
0.0
 11
5124.6651833558
 21
2012.0410704249
 31
0.0
  0
LINE
  5
21C
330
1F
100
AcDbEntity
  8
0
  6
Continuous
 62
     7
100
AcDbLine
 10
5124.6651833558
 20
2132.0410704249
 30
0.0
 11
5124.6651833558
 21
2013.3473268052
 31
0.0
  0
LINE
  5
21D
330
1F
100
AcDbEntity
  8
0
  6
Continuous
 62
     7
100
AcDbLine
 10
1848.6651833558
 20
1712.0410704248
 30
0.0
 11
1848.6651833558
 21
2432.0410704248
 31
0.0
  0
LINE
  5
21E
330
1F
100
AcDbEntity
  8
0
  6
Continuous
 62
     7
100
AcDbLine
 10
1828.6651833558
 20
1792.0410704248
 30
0.0
 11
1828.6651833558
 21
2352.0410704248
 31
0.0
  0
LINE
  5
21F
330
1F
100
AcDbEntity
  8
0
  6
Continuous
 62
     7
100
AcDbLine
 10
1808.6651833558
 20
1842.0410704248
 30
0.0
 11
1808.6651833558
 21
2302.0410704248
 31
0.0
  0
LINE
  5
220
330
1F
100
AcDbEntity
  8
0
  6
Continuous
 62
     7
100
AcDbLine
 10
1788.6651833558
 20
1902.0410704248
 30
0.0
 11
1788.6651833558
 21
2242.0410704248
 31
0.0
  0
LINE
  5
221
330
1F
100
AcDbEntity
  8
0
  6
Continuous
 62
     7
100
AcDbLine
 10
1768.6651833558
 20
1962.0410704248
 30
0.0
 11
1768.6651833558
 21
2182.0410704248
 31
0.0
  0
LINE
  5
222
330
1F
100
AcDbEntity
  8
0
  6
Continuous
 62
     7
100
AcDbLine
 10
1748.6651833558
 20
2012.0410704248
 30
0.0
 11
1748.6651833558
 21
2132.0410704248
 31
0.0
  0
LINE
  5
223
330
1F
100
AcDbEntity
  8
0
  6
Continuous
 62
     7
100
AcDbLine
 10
1866.6651833558
 20
1452.0410704249
 30
0.0
 11
1986.6651833558
 21
1452.0410704249
 31
0.0
  0
LINE
  5
224
330
1F
100
AcDbEntity
  8
0
  6
Continuous
 62
     7
100
AcDbLine
 10
1986.6651833558
 20
1452.0410704249
 30
0.0
 11
1986.6651833558
 21
1342.0410704249
 31
0.0
  0
LINE
  5
225
330
1F
100
AcDbEntity
  8
0
  6
Continuous
 62
     7
100
AcDbLine
 10
2095.7523045022
 20
942.0410704249
 30
0.0
 11
2095.7523045022
 21
1342.0410704249
 31
0.0
  0
LINE
  5
226
330
1F
100
AcDbEntity
  8
0
  6
Continuous
 62
     7
100
AcDbLine
 10
2095.7523045022
 20
942.0410704249
 30
0.0
 11
1866.6651833558
 21
942.0410704249
 31
0.0
  0
LINE
  5
227
330
1F
100
AcDbEntity
  8
0
  6
Continuous
 62
     7
100
AcDbLine
 10
1866.6651833558
 20
1342.0410704249
 30
0.0
 11
1866.6651833558
 21
1452.0410704249
 31
0.0
  0
LINE
  5
228
330
1F
100
AcDbEntity
  8
0
  6
Continuous
 62
     7
100
AcDbLine
 10
4886.6651833558
 20
1452.0410704249
 30
0.0
 11
1986.6651833558
 21
1452.0410704249
 31
0.0
  0
LINE
  5
229
330
1F
100
AcDbEntity
  8
0
  6
Continuous
 62
     7
100
AcDbLine
 10
4886.6651833558
 20
1342.0410704249
 30
0.0
 11
4886.6651833558
 21
1452.0410704249
 31
0.0
  0
LINE
  5
22A
330
1F
100
AcDbEntity
  8
0
  6
Continuous
 62
     7
100
AcDbLine
 10
4886.6651833558
 20
1342.0410704249
 30
0.0
 11
1986.6651833558
 21
1342.0410704249
 31
0.0
  0
LINE
  5
22B
330
1F
100
AcDbEntity
  8
0
  6
Continuous
 62
     7
100
AcDbLine
 10
5006.6651833558
 20
1452.0410704249
 30
0.0
 11
5006.6651833558
 21
1342.0410704249
 31
0.0
  0
LINE
  5
22C
330
1F
100
AcDbEntity
  8
0
  6
Continuous
 62
     7
100
AcDbLine
 10
5006.6651833558
 20
942.0410704249
 30
0.0
 11
4777.5780622095
 21
942.0410704249
 31
0.0
  0
LINE
  5
22D
330
1F
100
AcDbEntity
  8
0
  6
Continuous
 62
     7
100
AcDbLine
 10
4777.5780622095
 20
1342.0410704249
 30
0.0
 11
4777.5780622095
 21
942.0410704249
 31
0.0
  0
LINE
  5
22E
330
1F
100
AcDbEntity
  8
0
  6
Continuous
 62
     7
100
AcDbLine
 10
4886.6651833558
 20
1452.0410704249
 30
0.0
 11
5006.6651833558
 21
1452.0410704249
 31
0.0
  0
LINE
  5
22F
330
1F
100
AcDbEntity
  8
0
  6
Continuous
 62
     7
100
AcDbLine
 10
4777.5780622095
 20
942.0410704249
 30
0.0
 11
2095.7523045022
 21
942.0410704249
 31
0.0
  0
LINE
  5
230
330
1F
100
AcDbEntity
  8
0
  6
Continuous
 62
     7
100
AcDbLine
 10
1996.6651833558
 20
2552.0410704249
 30
0.0
 11
1996.6651833558
 21
1452.0410704249
 31
0.0
  0
LINE
  5
231
330
1F
100
AcDbEntity
  8
0
  6
Continuous
 62
     7
100
AcDbLine
 10
4876.6651833558
 20
1452.0410704249
 30
0.0
 11
4876.6651833558
 21
2552.0410704249
 31
0.0
  0
LINE
  5
232
330
1F
100
AcDbEntity
  8
0
  6
Continuous
 62
     7
100
AcDbLine
 10
4876.6651833558
 20
2552.0410704249
 30
0.0
 11
1996.6651833558
 21
2552.0410704249
 31
0.0
  0
LINE
  5
233
330
1F
100
AcDbEntity
  8
0
  6
Continuous
 62
     7
100
AcDbLine
 10
4976.6651833558
 20
2552.0410704249
 30
0.0
 11
4976.6651833558
 21
1452.0410704249
 31
0.0
  0
LINE
  5
234
330
1F
100
AcDbEntity
  8
0
  6
Continuous
 62
     7
100
AcDbLine
 10
4876.6651833558
 20
2552.0410704249
 30
0.0
 11
4976.6651833558
 21
2552.0410704249
 31
0.0
  0
LINE
  5
235
330
1F
100
AcDbEntity
  8
0
  6
Continuous
 62
     7
100
AcDbLine
 10
1896.6651833558
 20
1452.0410704249
 30
0.0
 11
1896.6651833558
 21
2552.0410704249
 31
0.0
  0
LINE
  5
236
330
1F
100
AcDbEntity
  8
0
  6
Continuous
 62
     7
100
AcDbLine
 10
1896.6651833558
 20
2552.0410704249
 30
0.0
 11
1996.6651833558
 21
2552.0410704249
 31
0.0
  0
LWPOLYLINE
  5
237
330
1F
100
AcDbEntity
  8
0
  6
Continuous
 62
     7
100
AcDbPolyline
 90
        3
 70
   128
 43
0.0
 10
4898.2048034668
 20
8671.6080102833
 10
4898.2842343892
 20
8675.2916546007
 10
4898.30422297
 20
8676.2335321845
  0
LWPOLYLINE
  5
238
330
1F
100
AcDbEntity
  8
0
  6
Continuous
 62
     7
100
AcDbPolyline
 90
        3
 70
   128
 43
0.0
 10
4895.01953125
 20
8521.5557229844
 10
4895.0542891811
 20
8523.0941070558
 10
4895.1198045997
 20
8526.1812448855
  0
LWPOLYLINE
  5
239
330
1F
100
AcDbEntity
  8
0
  6
Continuous
 62
     7
100
AcDbPolyline
 90
        3
 70
   128
 43
0.0
 10
4875.0228881836
 20
8521.9800686012
 10
4875.0587914178
 20
8523.5184526726
 10
4875.1243068363
 20
8526.6055905023
  0
LWPOLYLINE
  5
23A
330
1F
100
AcDbEntity
  8
0
  6
Continuous
 62
     7
100
AcDbPolyline
 90
        3
 70
   128
 43
0.0
 10
4878.2081604004
 20
8672.0323559001
 10
4878.288736626
 20
8675.7160002175
 10
4878.3087252068
 20
8676.6578778012
  0
LWPOLYLINE
  5
23B
330
1F
100
AcDbEntity
  8
0
  6
Continuous
 62
     7
100
AcDbPolyline
 90
        3
 70
   128
 43
0.0
 10
1975.0261306763
 20
6421.9800686012
 10
1975.0587914178
 20
6423.5184526726
 10
1975.1243068363
 20
6426.6055905023
  0
LWPOLYLINE
  5
23C
330
1F
100
AcDbEntity
  8
0
  6
Continuous
 62
     7
100
AcDbPolyline
 90
        3
 70
   128
 43
0.0
 10
1978.2104492188
 20
6572.0323559001
 10
1978.288736626
 20
6575.7160002175
 10
1978.3087252068
 20
6576.6578778012
  0
LWPOLYLINE
  5
23D
330
1F
100
AcDbEntity
  8
0
  6
Continuous
 62
     7
100
AcDbPolyline
 90
        3
 70
   128
 43
0.0
 10
1995.020866394
 20
6421.5557229844
 10
1995.0542891811
 20
6423.0941070558
 10
1995.1198045997
 20
6426.1812448855
  0
LWPOLYLINE
  5
23E
330
1F
100
AcDbEntity
  8
0
  6
Continuous
 62
     7
100
AcDbPolyline
 90
        3
 70
   128
 43
0.0
 10
1998.2051849365
 20
6571.6080102833
 10
1998.2842343892
 20
6575.2916546007
 10
1998.30422297
 20
6576.2335321845
  0
LWPOLYLINE
  5
23F
330
1F
100
AcDbEntity
  8
0
  6
Continuous
 62
     7
100
AcDbPolyline
 90
        3
 70
   128
 43
0.0
 10
4960.075378418
 20
6499.564998426
 10
4963.7246952384
 20
6500.0896462666
 10
4964.657185025
 20
6500.2237944084
  0
LWPOLYLINE
  5
240
330
1F
100
AcDbEntity
  8
0
  6
Continuous
 62
     7
100
AcDbPolyline
 90
        3
 70
   128
 43
0.0
 10
4811.5196228027
 20
6478.1936059318
 10
4813.0441173327
 20
6478.4127122873
 10
4816.1004853213
 20
6478.8524019142
  0
LWPOLYLINE
  5
241
330
1F
100
AcDbEntity
  8
0
  6
Continuous
 62
     7
100
AcDbPolyline
 90
        3
 70
   128
 43
0.0
 10
4957.2296142578
 20
6519.3611988706
 10
4960.8768104211
 20
6519.8858467117
 10
4961.8093002076
 20
6520.0199948538
  0
LWPOLYLINE
  5
242
330
1F
100
AcDbEntity
  8
0
  6
Continuous
 62
     7
100
AcDbPolyline
 90
        3
 70
   128
 43
0.0
 10
4808.6700439453
 20
6497.9898063772
 10
4810.1962325154
 20
6498.2089127326
 10
4813.252600504
 20
6498.6486023596
  0
LWPOLYLINE
  5
243
330
1F
100
AcDbEntity
  8
0
  6
Continuous
 62
     7
100
AcDbPolyline
 90
        3
 70
   128
 43
0.0
 10
1995.020866394
 20
8521.5557229844
 10
1995.0542891811
 20
8523.0941070558
 10
1995.1198045997
 20
8526.1812448855
  0
LWPOLYLINE
  5
244
330
1F
100
AcDbEntity
  8
0
  6
Continuous
 62
     7
100
AcDbPolyline
 90
        3
 70
   128
 43
0.0
 10
1998.2051849365
 20
8671.6080102833
 10
1998.2842343892
 20
8675.2916546007
 10
1998.30422297
 20
8676.2335321845
  0
LWPOLYLINE
  5
245
330
1F
100
AcDbEntity
  8
0
  6
Continuous
 62
     7
100
AcDbPolyline
 90
        3
 70
   128
 43
0.0
 10
1978.2104492188
 20
8672.0323559001
 10
1978.288736626
 20
8675.7160002175
 10
1978.3087252068
 20
8676.6578778012
  0
LWPOLYLINE
  5
246
330
1F
100
AcDbEntity
  8
0
  6
Continuous
 62
     7
100
AcDbPolyline
 90
        3
 70
   128
 43
0.0
 10
1975.0261306763
 20
8521.9800686012
 10
1975.0587914178
 20
8523.5184526726
 10
1975.1243068363
 20
8526.6055905023
  0
ENDSEC
  0
SECTION
  2
OBJECTS
  0
DICTIONARY
  5
C
330
0
100
AcDbDictionary
281
     1
  3
ACAD_GROUP
350
D
  3
ACAD_LAYOUT
350
1A
  3
ACAD_MLINESTYLE
350
17
  3
ACAD_PLOTSETTINGS
350
19
  3
ACAD_PLOTSTYLENAME
350
E
  3
ACAD_SCALELIST
350
47
  3
DWGPROPS
350
247
  0
DICTIONARY
  5
D
102
{ACAD_REACTORS
330
C
102
}
330
C
100
AcDbDictionary
281
     1
  0
DICTIONARY
  5
1A
102
{ACAD_REACTORS
330
C
102
}
330
C
100
AcDbDictionary
281
     1
  3
Layout1
350
1E
  3
Layout2
350
26
  3
Model
350
22
  0
DICTIONARY
  5
17
102
{ACAD_REACTORS
330
C
102
}
330
C
100
AcDbDictionary
281
     1
  3
Standard
350
18
  0
DICTIONARY
  5
19
102
{ACAD_REACTORS
330
C
102
}
330
C
100
AcDbDictionary
281
     1
  0
ACDBDICTIONARYWDFLT
  5
E
102
{ACAD_REACTORS
330
C
102
}
330
C
100
AcDbDictionary
281
     1
  3
Normal
350
F
100
AcDbDictionaryWithDefault
340
F
  0
DICTIONARY
  5
47
102
{ACAD_REACTORS
330
C
102
}
330
C
100
AcDbDictionary
281
     1
  3
A0
350
48
  3
A1
350
49
  3
A2
350
4A
  3
A3
350
4B
  3
A4
350
4C
  3
A5
350
4D
  3
A6
350
4E
  3
A7
350
4F
  3
A8
350
50
  3
A9
350
51
  3
B0
350
52
  3
B1
350
53
  3
B2
350
54
  3
B3
350
55
  3
B4
350
56
  3
B5
350
57
  3
B6
350
58
  3
B7
350
59
  3
B8
350
5A
  3
B9
350
5B
  3
C0
350
5C
  3
C1
350
5D
  3
C2
350
5E
  3
C3
350
5F
  3
C4
350
60
  3
C5
350
61
  3
C6
350
62
  3
C7
350
63
  3
C8
350
64
  3
C9
350
65
  3
D0
350
66
  3
D1
350
67
  3
D2
350
68
  0
XRECORD
  5
247
102
{ACAD_REACTORS
330
C
102
}
330
C
100
AcDbXrecord
280
     1
  1
DWGPROPS COOKIE
  2

  3

  4

  6

  7

  8
radek.stransky
  9

300
=
301
=
302
=
303
=
304
=
305
=
306
=
307
=
308
=
309
=
 40
0.0
 41
2459104.360390023
 42
2459104.360419294
  1

 90
        0
  0
LAYOUT
  5
1E
102
{ACAD_REACTORS
330
1A
102
}
330
1A
100
AcDbPlotSettings
  1

  2
none_device
  4

  6

 40
0.0
 41
0.0
 42
0.0
 43
0.0
 44
0.0
 45
0.0
 46
0.0
 47
0.0
 48
0.0
 49
0.0
140
0.0
141
0.0
142
1.0
143
1.0
 70
   688
 72
     1
 73
     0
 74
     5
  7

 75
    16
147
1.0
148
0.0
149
0.0
100
AcDbLayout
  1
Layout1
 70
     1
 71
     1
 10
0.0
 20
0.0
 11
420.0
 21
297.0
 12
0.0
 22
0.0
 32
0.0
 14
1.0000000000E+20
 24
1.0000000000E+20
 34
1.0000000000E+20
 15
-1.0000000000E+20
 25
-1.0000000000E+20
 35
-1.0000000000E+20
146
0.0
 13
0.0
 23
0.0
 33
0.0
 16
1.0
 26
0.0
 36
0.0
 17
0.0
 27
1.0
 37
0.0
 76
     0
330
1B
  0
LAYOUT
  5
26
102
{ACAD_REACTORS
330
1A
102
}
330
1A
100
AcDbPlotSettings
  1

  2
none_device
  4

  6

 40
0.0
 41
0.0
 42
0.0
 43
0.0
 44
0.0
 45
0.0
 46
0.0
 47
0.0
 48
0.0
 49
0.0
140
0.0
141
0.0
142
1.0
143
1.0
 70
   688
 72
     1
 73
     0
 74
     5
  7

 75
    16
147
1.0
148
0.0
149
0.0
100
AcDbLayout
  1
Layout2
 70
     1
 71
     2
 10
0.0
 20
0.0
 11
0.0
 21
0.0
 12
0.0
 22
0.0
 32
0.0
 14
0.0
 24
0.0
 34
0.0
 15
0.0
 25
0.0
 35
0.0
146
0.0
 13
0.0
 23
0.0
 33
0.0
 16
1.0
 26
0.0
 36
0.0
 17
0.0
 27
1.0
 37
0.0
 76
     0
330
23
  0
LAYOUT
  5
22
102
{ACAD_REACTORS
330
1A
102
}
330
1A
100
AcDbPlotSettings
  1

  2
none_device
  4
ANSI_A_(11.00_x_8.50_Inches)
  6

 40
6.35
 41
19.05
 42
6.35000508
 43
19.05000254
 44
279.4
 45
215.9
 46
-42.9051362946
 47
-43.4135361014
 48
0.0
 49
0.0
140
0.0
141
0.0
142
0.0010655857
143
1.0
 70
  1696
 72
     0
 73
     0
 74
     0
  7

 75
     0
147
0.0179189148
148
-1300.4909072572
149
0.0
100
AcDbLayout
  1
Model
 70
     1
 71
     0
 10
0.0
 20
0.0
 11
420.0
 21
297.0
 12
0.0
 22
0.0
 32
0.0
 14
1748.6651833558
 24
940.0410704249
 34
0.0
 15
11275.4937426714
 25
8837.1068003928
 35
0.0
146
0.0
 13
0.0
 23
0.0
 33
0.0
 16
1.0
 26
0.0
 36
0.0
 17
0.0
 27
1.0
 37
0.0
 76
     0
330
1F
331
29
  0
MLINESTYLE
  5
18
102
{ACAD_REACTORS
330
17
102
}
330
17
100
AcDbMlineStyle
  2
Standard
 70
     0
  3

 62
   256
 51
90.0
 52
90.0
 71
     2
 49
0.5
 62
   256
  6
BYLAYER
 49
-0.5
 62
   256
  6
BYLAYER
  0
ACDBPLACEHOLDER
  5
F
102
{ACAD_REACTORS
330
E
102
}
330
E
  0
SCALE
  5
48
102
{ACAD_REACTORS
330
47
102
}
330
47
100
AcDbScale
 70
     0
300
1:1
140
1.0
141
1.0
290
     1
  0
SCALE
  5
49
102
{ACAD_REACTORS
330
47
102
}
330
47
100
AcDbScale
 70
     0
300
1:2
140
1.0
141
2.0
290
     0
  0
SCALE
  5
4A
102
{ACAD_REACTORS
330
47
102
}
330
47
100
AcDbScale
 70
     0
300
1:4
140
1.0
141
4.0
290
     0
  0
SCALE
  5
4B
102
{ACAD_REACTORS
330
47
102
}
330
47
100
AcDbScale
 70
     0
300
1:5
140
1.0
141
5.0
290
     0
  0
SCALE
  5
4C
102
{ACAD_REACTORS
330
47
102
}
330
47
100
AcDbScale
 70
     0
300
1:8
140
1.0
141
8.0
290
     0
  0
SCALE
  5
4D
102
{ACAD_REACTORS
330
47
102
}
330
47
100
AcDbScale
 70
     0
300
1:10
140
1.0
141
10.0
290
     0
  0
SCALE
  5
4E
102
{ACAD_REACTORS
330
47
102
}
330
47
100
AcDbScale
 70
     0
300
1:16
140
1.0
141
16.0
290
     0
  0
SCALE
  5
4F
102
{ACAD_REACTORS
330
47
102
}
330
47
100
AcDbScale
 70
     0
300
1:20
140
1.0
141
20.0
290
     0
  0
SCALE
  5
50
102
{ACAD_REACTORS
330
47
102
}
330
47
100
AcDbScale
 70
     0
300
1:30
140
1.0
141
30.0
290
     0
  0
SCALE
  5
51
102
{ACAD_REACTORS
330
47
102
}
330
47
100
AcDbScale
 70
     0
300
1:40
140
1.0
141
40.0
290
     0
  0
SCALE
  5
52
102
{ACAD_REACTORS
330
47
102
}
330
47
100
AcDbScale
 70
     0
300
1:50
140
1.0
141
50.0
290
     0
  0
SCALE
  5
53
102
{ACAD_REACTORS
330
47
102
}
330
47
100
AcDbScale
 70
     0
300
1:100
140
1.0
141
100.0
290
     0
  0
SCALE
  5
54
102
{ACAD_REACTORS
330
47
102
}
330
47
100
AcDbScale
 70
     0
300
2:1
140
2.0
141
1.0
290
     0
  0
SCALE
  5
55
102
{ACAD_REACTORS
330
47
102
}
330
47
100
AcDbScale
 70
     0
300
4:1
140
4.0
141
1.0
290
     0
  0
SCALE
  5
56
102
{ACAD_REACTORS
330
47
102
}
330
47
100
AcDbScale
 70
     0
300
8:1
140
8.0
141
1.0
290
     0
  0
SCALE
  5
57
102
{ACAD_REACTORS
330
47
102
}
330
47
100
AcDbScale
 70
     0
300
10:1
140
10.0
141
1.0
290
     0
  0
SCALE
  5
58
102
{ACAD_REACTORS
330
47
102
}
330
47
100
AcDbScale
 70
     0
300
100:1
140
100.0
141
1.0
290
     0
  0
SCALE
  5
59
102
{ACAD_REACTORS
330
47
102
}
330
47
100
AcDbScale
 70
     0
300
1/128" = 1'-0"
140
0.0078125
141
12.0
290
     0
  0
SCALE
  5
5A
102
{ACAD_REACTORS
330
47
102
}
330
47
100
AcDbScale
 70
     0
300
1/64" = 1'-0"
140
0.015625
141
12.0
290
     0
  0
SCALE
  5
5B
102
{ACAD_REACTORS
330
47
102
}
330
47
100
AcDbScale
 70
     0
300
1/32" = 1'-0"
140
0.03125
141
12.0
290
     0
  0
SCALE
  5
5C
102
{ACAD_REACTORS
330
47
102
}
330
47
100
AcDbScale
 70
     0
300
1/16" = 1'-0"
140
0.0625
141
12.0
290
     0
  0
SCALE
  5
5D
102
{ACAD_REACTORS
330
47
102
}
330
47
100
AcDbScale
 70
     0
300
3/32" = 1'-0"
140
0.09375
141
12.0
290
     0
  0
SCALE
  5
5E
102
{ACAD_REACTORS
330
47
102
}
330
47
100
AcDbScale
 70
     0
300
1/8" = 1'-0"
140
0.125
141
12.0
290
     0
  0
SCALE
  5
5F
102
{ACAD_REACTORS
330
47
102
}
330
47
100
AcDbScale
 70
     0
300
3/16" = 1'-0"
140
0.1875
141
12.0
290
     0
  0
SCALE
  5
60
102
{ACAD_REACTORS
330
47
102
}
330
47
100
AcDbScale
 70
     0
300
1/4" = 1'-0"
140
0.25
141
12.0
290
     0
  0
SCALE
  5
61
102
{ACAD_REACTORS
330
47
102
}
330
47
100
AcDbScale
 70
     0
300
3/8" = 1'-0"
140
0.375
141
12.0
290
     0
  0
SCALE
  5
62
102
{ACAD_REACTORS
330
47
102
}
330
47
100
AcDbScale
 70
     0
300
1/2" = 1'-0"
140
0.5
141
12.0
290
     0
  0
SCALE
  5
63
102
{ACAD_REACTORS
330
47
102
}
330
47
100
AcDbScale
 70
     0
300
3/4" = 1'-0"
140
0.75
141
12.0
290
     0
  0
SCALE
  5
64
102
{ACAD_REACTORS
330
47
102
}
330
47
100
AcDbScale
 70
     0
300
1" = 1'-0"
140
1.0
141
12.0
290
     0
  0
SCALE
  5
65
102
{ACAD_REACTORS
330
47
102
}
330
47
100
AcDbScale
 70
     0
300
1-1/2" = 1'-0"
140
1.5
141
12.0
290
     0
  0
SCALE
  5
66
102
{ACAD_REACTORS
330
47
102
}
330
47
100
AcDbScale
 70
     0
300
3" = 1'-0"
140
3.0
141
12.0
290
     0
  0
SCALE
  5
67
102
{ACAD_REACTORS
330
47
102
}
330
47
100
AcDbScale
 70
     0
300
6" = 1'-0"
140
6.0
141
12.0
290
     0
  0
SCALE
  5
68
102
{ACAD_REACTORS
330
47
102
}
330
47
100
AcDbScale
 70
     0
300
1'-0" = 1'-0"
140
12.0
141
12.0
290
     0
  0
ENDSEC
  0
EOF
