  0
SECTION
  2
HEADER
  9
$ACADVER
  1
AC1015
  9
$ACADMAINTVER
 70
     6
  9
$DWGCODEPAGE
  3
ANSI_1250
  9
$INSBASE
 10
0.0
 20
0.0
 30
0.0
  9
$EXTMIN
 10
1626.1343888262
 20
5586.1060705951
 30
0.0
  9
$EXTMAX
 10
4994.3573618883
 20
9024.4293431379
 30
0.0
  9
$LIMMIN
 10
0.0
 20
0.0
  9
$LIMMAX
 10
420.0
 20
297.0
  9
$ORTHOMODE
 70
     0
  9
$REGENMODE
 70
     1
  9
$FILLMODE
 70
     1
  9
$QTEXTMODE
 70
     0
  9
$MIRRTEXT
 70
     1
  9
$LTSCALE
 40
1.0
  9
$ATTMODE
 70
     1
  9
$TEXTSIZE
 40
3.5
  9
$TRACEWID
 40
1.0
  9
$TEXTSTYLE
  7
Standard
  9
$CLAYER
  8
0
  9
$CELTYPE
  6
ByLayer
  9
$CECOLOR
 62
   256
  9
$CELTSCALE
 40
1.0
  9
$DISPSILH
 70
     0
  9
$DIMSCALE
 40
1.0
  9
$DIMASZ
 40
3.302
  9
$DIMEXO
 40
0.0
  9
$DIMDLI
 40
3.75
  9
$DIMRND
 40
0.0
  9
$DIMDLE
 40
0.0
  9
$DIMEXE
 40
1.0
  9
$DIMTP
 40
0.0
  9
$DIMTM
 40
0.0
  9
$DIMTXT
 40
3.5
  9
$DIMCEN
 40
2.5
  9
$DIMTSZ
 40
0.0
  9
$DIMTOL
 70
     0
  9
$DIMLIM
 70
     0
  9
$DIMTIH
 70
     1
  9
$DIMTOH
 70
     1
  9
$DIMSE1
 70
     0
  9
$DIMSE2
 70
     0
  9
$DIMTAD
 70
     1
  9
$DIMZIN
 70
     0
  9
$DIMBLK
  1

  9
$DIMASO
 70
     1
  9
$DIMSHO
 70
     1
  9
$DIMPOST
  1

  9
$DIMAPOST
  1

  9
$DIMALT
 70
     0
  9
$DIMALTD
 70
     3
  9
$DIMALTF
 40
0.0393700787
  9
$DIMLFAC
 40
1.0
  9
$DIMTOFL
 70
     1
  9
$DIMTVP
 40
0.0
  9
$DIMTIX
 70
     0
  9
$DIMSOXD
 70
     0
  9
$DIMSAH
 70
     0
  9
$DIMBLK1
  1

  9
$DIMBLK2
  1

  9
$DIMSTYLE
  2
ISO-25
  9
$DIMCLRD
 70
     0
  9
$DIMCLRE
 70
     0
  9
$DIMCLRT
 70
     0
  9
$DIMTFAC
 40
1.0
  9
$DIMGAP
 40
1.524
  9
$DIMJUST
 70
     0
  9
$DIMSD1
 70
     0
  9
$DIMSD2
 70
     0
  9
$DIMTOLJ
 70
     0
  9
$DIMTZIN
 70
     0
  9
$DIMALTZ
 70
     0
  9
$DIMALTTZ
 70
     0
  9
$DIMUPT
 70
     0
  9
$DIMDEC
 70
     2
  9
$DIMTDEC
 70
     2
  9
$DIMALTU
 70
     2
  9
$DIMALTTD
 70
     3
  9
$DIMTXSTY
  7
Standard
  9
$DIMAUNIT
 70
     0
  9
$DIMADEC
 70
     2
  9
$DIMALTRND
 40
0.0
  9
$DIMAZIN
 70
     0
  9
$DIMDSEP
 70
    44
  9
$DIMATFIT
 70
     3
  9
$DIMFRAC
 70
     0
  9
$DIMLDRBLK
  1

  9
$DIMLUNIT
 70
     2
  9
$DIMLWD
 70
    -2
  9
$DIMLWE
 70
    -2
  9
$DIMTMOVE
 70
     0
  9
$LUNITS
 70
     2
  9
$LUPREC
 70
     2
  9
$SKETCHINC
 40
1.0
  9
$FILLETRAD
 40
10.0
  9
$AUNITS
 70
     0
  9
$AUPREC
 70
     2
  9
$MENU
  1
.
  9
$ELEVATION
 40
0.0
  9
$PELEVATION
 40
0.0
  9
$THICKNESS
 40
0.0
  9
$LIMCHECK
 70
     0
  9
$CHAMFERA
 40
0.0
  9
$CHAMFERB
 40
0.0
  9
$CHAMFERC
 40
0.0
  9
$CHAMFERD
 40
0.0
  9
$SKPOLY
 70
     0
  9
$TDCREATE
 40
2459104.445132176
  9
$TDUCREATE
 40
2459104.361798842
  9
$TDUPDATE
 40
2459104.445174676
  9
$TDUUPDATE
 40
2459104.361841342
  9
$TDINDWG
 40
0.0000000116
  9
$TDUSRTIMER
 40
0.0000000116
  9
$USRTIMER
 70
     1
  9
$ANGBASE
 50
0.0
  9
$ANGDIR
 70
     0
  9
$PDMODE
 70
     0
  9
$PDSIZE
 40
-1.0
  9
$PLINEWID
 40
0.0
  9
$SPLFRAME
 70
     0
  9
$SPLINETYPE
 70
     6
  9
$SPLINESEGS
 70
     8
  9
$HANDSEED
  5
21C
  9
$SURFTAB1
 70
     6
  9
$SURFTAB2
 70
     6
  9
$SURFTYPE
 70
     6
  9
$SURFU
 70
     6
  9
$SURFV
 70
     6
  9
$UCSBASE
  2

  9
$UCSNAME
  2

  9
$UCSORG
 10
0.0
 20
0.0
 30
0.0
  9
$UCSXDIR
 10
1.0
 20
0.0
 30
0.0
  9
$UCSYDIR
 10
0.0
 20
1.0
 30
0.0
  9
$UCSORTHOREF
  2

  9
$UCSORTHOVIEW
 70
     0
  9
$UCSORGTOP
 10
0.0
 20
0.0
 30
0.0
  9
$UCSORGBOTTOM
 10
0.0
 20
0.0
 30
0.0
  9
$UCSORGLEFT
 10
0.0
 20
0.0
 30
0.0
  9
$UCSORGRIGHT
 10
0.0
 20
0.0
 30
0.0
  9
$UCSORGFRONT
 10
0.0
 20
0.0
 30
0.0
  9
$UCSORGBACK
 10
0.0
 20
0.0
 30
0.0
  9
$PUCSBASE
  2

  9
$PUCSNAME
  2

  9
$PUCSORG
 10
0.0
 20
0.0
 30
0.0
  9
$PUCSXDIR
 10
1.0
 20
0.0
 30
0.0
  9
$PUCSYDIR
 10
0.0
 20
1.0
 30
0.0
  9
$PUCSORTHOREF
  2

  9
$PUCSORTHOVIEW
 70
     0
  9
$PUCSORGTOP
 10
0.0
 20
0.0
 30
0.0
  9
$PUCSORGBOTTOM
 10
0.0
 20
0.0
 30
0.0
  9
$PUCSORGLEFT
 10
0.0
 20
0.0
 30
0.0
  9
$PUCSORGRIGHT
 10
0.0
 20
0.0
 30
0.0
  9
$PUCSORGFRONT
 10
0.0
 20
0.0
 30
0.0
  9
$PUCSORGBACK
 10
0.0
 20
0.0
 30
0.0
  9
$USERI1
 70
     0
  9
$USERI2
 70
     0
  9
$USERI3
 70
     0
  9
$USERI4
 70
     0
  9
$USERI5
 70
     0
  9
$USERR1
 40
0.0
  9
$USERR2
 40
0.0
  9
$USERR3
 40
0.0
  9
$USERR4
 40
0.0
  9
$USERR5
 40
0.0
  9
$WORLDVIEW
 70
     1
  9
$SHADEDGE
 70
     3
  9
$SHADEDIF
 70
    70
  9
$TILEMODE
 70
     1
  9
$MAXACTVP
 70
    64
  9
$PINSBASE
 10
0.0
 20
0.0
 30
0.0
  9
$PLIMCHECK
 70
     0
  9
$PEXTMIN
 10
1.0000000000E+20
 20
1.0000000000E+20
 30
1.0000000000E+20
  9
$PEXTMAX
 10
-1.0000000000E+20
 20
-1.0000000000E+20
 30
-1.0000000000E+20
  9
$PLIMMIN
 10
0.0
 20
0.0
  9
$PLIMMAX
 10
420.0
 20
297.0
  9
$UNITMODE
 70
     0
  9
$VISRETAIN
 70
     1
  9
$PLINEGEN
 70
     0
  9
$PSLTSCALE
 70
     1
  9
$TREEDEPTH
 70
  3020
  9
$CMLSTYLE
  2
Standard
  9
$CMLJUST
 70
     0
  9
$CMLSCALE
 40
20.0
  9
$PROXYGRAPHICS
 70
     1
  9
$MEASUREMENT
 70
     1
  9
$CELWEIGHT
370
    -1
  9
$ENDCAPS
280
     0
  9
$JOINSTYLE
280
     0
  9
$LWDISPLAY
290
     1
  9
$INSUNITS
 70
     4
  9
$HYPERLINKBASE
  1

  9
$STYLESHEET
  1

  9
$XEDIT
290
     1
  9
$CEPSNTYPE
380
     0
  9
$PSTYLEMODE
290
     1
  9
$FINGERPRINTGUID
  2
{e9354ba9-b366-43c2-a508-4d2716724ad2}
  9
$VERSIONGUID
  2
{FAEB1C32-E019-11D5-929B-00C0DF256EC4}
  9
$EXTNAMES
290
     1
  9
$PSVPSCALE
 40
0.0
  9
$OLESTARTUP
290
     0
  0
ENDSEC
  0
SECTION
  2
CLASSES
  0
CLASS
  1
ACDBDICTIONARYWDFLT
  2
AcDbDictionaryWithDefault
  3
ObjectDBX Classes
 90
        0
280
     0
281
     0
  0
CLASS
  1
VISUALSTYLE
  2
AcDbVisualStyle
  3
ObjectDBX Classes
 90
     4095
280
     0
281
     0
  0
CLASS
  1
MATERIAL
  2
AcDbMaterial
  3
ObjectDBX Classes
 90
     1153
280
     0
281
     0
  0
CLASS
  1
SCALE
  2
AcDbScale
  3
ObjectDBX Classes
 90
     1153
280
     0
281
     0
  0
CLASS
  1
TABLESTYLE
  2
AcDbTableStyle
  3
ObjectDBX Classes
 90
     4095
280
     0
281
     0
  0
CLASS
  1
MLEADERSTYLE
  2
AcDbMLeaderStyle
  3
ACDB_MLEADERSTYLE_CLASS
 90
     4095
280
     0
281
     0
  0
CLASS
  1
SUN
  2
AcDbSun
  3
SCENEOE
 90
     1153
280
     0
281
     0
  0
CLASS
  1
ACDBPLACEHOLDER
  2
AcDbPlaceHolder
  3
ObjectDBX Classes
 90
        0
280
     0
281
     0
  0
CLASS
  1
LAYOUT
  2
AcDbLayout
  3
ObjectDBX Classes
 90
        0
280
     0
281
     0
  0
ENDSEC
  0
SECTION
  2
TABLES
  0
TABLE
  2
VPORT
  5
8
330
0
100
AcDbSymbolTable
 70
     1
  0
VPORT
  5
29
330
8
100
AcDbSymbolTableRecord
100
AcDbViewportTableRecord
  2
*Active
 70
     0
 10
0.0
 20
0.0
 11
1.0
 21
1.0
 12
3310.2458753572
 22
7305.2677068665
 13
0.0
 23
0.0
 14
10.0
 24
10.0
 15
10.0
 25
10.0
 16
0.0
 26
0.0
 36
1.0
 17
0.0
 27
0.0
 37
0.0
 40
3507.0897379937
 41
0.9796120685
 42
50.0
 43
0.0
 44
0.0
 50
0.0
 51
0.0
 71
     0
 72
   100
 73
     1
 74
     3
 75
     0
 76
     0
 77
     0
 78
     0
281
     0
 65
     1
110
0.0
120
0.0
130
0.0
111
1.0
121
0.0
131
0.0
112
0.0
122
1.0
132
0.0
 79
     0
146
0.0
  0
ENDTAB
  0
TABLE
  2
LTYPE
  5
5
330
0
100
AcDbSymbolTable
 70
     6
  0
LTYPE
  5
14
330
5
100
AcDbSymbolTableRecord
100
AcDbLinetypeTableRecord
  2
ByBlock
 70
     0
  3

 72
    65
 73
     0
 40
0.0
  0
LTYPE
  5
15
330
5
100
AcDbSymbolTableRecord
100
AcDbLinetypeTableRecord
  2
ByLayer
 70
     0
  3

 72
    65
 73
     0
 40
0.0
  0
LTYPE
  5
16
330
5
100
AcDbSymbolTableRecord
100
AcDbLinetypeTableRecord
  2
Continuous
 70
     0
  3
Solid line
 72
    65
 73
     0
 40
0.0
  0
LTYPE
  5
6E
330
5
100
AcDbSymbolTableRecord
100
AcDbLinetypeTableRecord
  2
HIDDEN
 70
     0
  3
Hidden __ __ __ __ __ __ __ __ __ __ __ __ __ __
 72
    65
 73
     2
 40
1.905
 49
1.27
 74
     0
 49
-0.635
 74
     0
  0
LTYPE
  5
6F
330
5
100
AcDbSymbolTableRecord
100
AcDbLinetypeTableRecord
  2
PHANTOM
 70
     0
  3
Phantom ______  __  __  ______  __  __  ______
 72
    65
 73
     6
 40
12.7
 49
6.35
 74
     0
 49
-1.27
 74
     0
 49
1.27
 74
     0
 49
-1.27
 74
     0
 49
1.27
 74
     0
 49
-1.27
 74
     0
  0
LTYPE
  5
70
330
5
100
AcDbSymbolTableRecord
100
AcDbLinetypeTableRecord
  2
CENTER
 70
     0
  3
Center ____ _ ____ _ ____ _ ____ _ ____ _ ____
 72
    65
 73
     4
 40
10.16
 49
6.35
 74
     0
 49
-1.27
 74
     0
 49
1.27
 74
     0
 49
-1.27
 74
     0
  0
LTYPE
  5
71
330
5
100
AcDbSymbolTableRecord
100
AcDbLinetypeTableRecord
  2
CENTERX2
 70
     0
  3
Center (2x) ________  __  ________  __  _____
 72
    65
 73
     4
 40
20.32
 49
12.7
 74
     0
 49
-2.54
 74
     0
 49
2.54
 74
     0
 49
-2.54
 74
     0
  0
LTYPE
  5
72
330
5
100
AcDbSymbolTableRecord
100
AcDbLinetypeTableRecord
  2
DOT2
 70
     0
  3
Dot (.5x) ........................................
 72
    65
 73
     2
 40
0.635
 49
0.0
 74
     0
 49
-0.635
 74
     0
  0
ENDTAB
  0
TABLE
  2
LAYER
  5
2
330
0
100
AcDbSymbolTable
 70
     1
  0
LAYER
  5
10
330
2
100
AcDbSymbolTableRecord
100
AcDbLayerTableRecord
  2
0
 70
     0
 62
     7
  6
Continuous
370
    -3
390
F
  0
ENDTAB
  0
TABLE
  2
STYLE
  5
3
330
0
100
AcDbSymbolTable
 70
     1
  0
STYLE
  5
11
330
3
100
AcDbSymbolTableRecord
100
AcDbTextStyleTableRecord
  2
Standard
 70
     0
 40
0.0
 41
1.0
 50
0.0
 71
     0
 42
3.5
  3
txt
  4

  0
ENDTAB
  0
TABLE
  2
VIEW
  5
6
330
0
100
AcDbSymbolTable
 70
     0
  0
ENDTAB
  0
TABLE
  2
UCS
  5
7
330
0
100
AcDbSymbolTable
 70
     0
  0
ENDTAB
  0
TABLE
  2
APPID
  5
9
330
0
100
AcDbSymbolTable
 70
     1
  0
APPID
  5
12
330
9
100
AcDbSymbolTableRecord
100
AcDbRegAppTableRecord
  2
ACAD
 70
     0
  0
ENDTAB
  0
TABLE
  2
DIMSTYLE
  5
A
330
0
100
AcDbSymbolTable
 70
     1
100
AcDbDimStyleTable
  0
DIMSTYLE
105
27
330
A
100
AcDbSymbolTableRecord
100
AcDbDimStyleTableRecord
  2
ISO-25
 70
     0
 41
2.5
 42
0.625
 43
3.75
 44
1.25
 73
     0
 74
     0
 77
     1
 78
     8
140
2.5
141
2.5
143
0.0393700787
147
0.625
171
     3
172
     1
178
     0
271
     2
272
     2
274
     3
278
    44
283
     0
284
     8
340
11
  0
ENDTAB
  0
TABLE
  2
BLOCK_RECORD
  5
1
330
0
100
AcDbSymbolTable
 70
     1
  0
BLOCK_RECORD
  5
1F
330
1
100
AcDbSymbolTableRecord
100
AcDbBlockTableRecord
  2
*Model_Space
340
22
  0
BLOCK_RECORD
  5
1B
330
1
100
AcDbSymbolTableRecord
100
AcDbBlockTableRecord
  2
*Paper_Space
340
1E
  0
BLOCK_RECORD
  5
23
330
1
100
AcDbSymbolTableRecord
100
AcDbBlockTableRecord
  2
*Paper_Space0
340
26
  0
ENDTAB
  0
ENDSEC
  0
SECTION
  2
BLOCKS
  0
BLOCK
  5
20
330
1F
100
AcDbEntity
  8
0
100
AcDbBlockBegin
  2
*Model_Space
 70
     0
 10
0.0
 20
0.0
 30
0.0
  3
*Model_Space
  1

  0
ENDBLK
  5
21
330
1F
100
AcDbEntity
  8
0
100
AcDbBlockEnd
  0
BLOCK
  5
1C
330
1B
100
AcDbEntity
 67
     1
  8
0
100
AcDbBlockBegin
  2
*Paper_Space
 70
     0
 10
0.0
 20
0.0
 30
0.0
  3
*Paper_Space
  1

  0
ENDBLK
  5
1D
330
1B
100
AcDbEntity
 67
     1
  8
0
100
AcDbBlockEnd
  0
BLOCK
  5
24
330
23
100
AcDbEntity
  8
0
100
AcDbBlockBegin
  2
*Paper_Space0
 70
     0
 10
0.0
 20
0.0
 30
0.0
  3
*Paper_Space0
  1

  0
ENDBLK
  5
25
330
23
100
AcDbEntity
  8
0
100
AcDbBlockEnd
  0
ENDSEC
  0
SECTION
  2
ENTITIES
  0
ARC
  5
73
330
1F
100
AcDbEntity
  8
0
  6
Continuous
 62
     7
100
AcDbCircle
 10
1631.1343888262
 20
5984.0350027832
 30
0.0
 40
5.000000000000684
100
AcDbArc
 50
134.9999999995
 51
179.9999999992
  0
ARC
  5
74
330
1F
100
AcDbEntity
  8
0
  6
Continuous
 62
     7
100
AcDbCircle
 10
2261.1343888262
 20
5984.0350027832
 30
0.0
 40
5.000000000000844
100
AcDbArc
 50
0.0000000008
 51
45.0000000005
  0
ARC
  5
75
330
1F
100
AcDbEntity
  8
0
  6
Continuous
 62
     7
100
AcDbCircle
 10
1648.205456638
 20
6001.1060705951
 30
0.0
 40
4.999999999999091
100
AcDbArc
 50
89.9999999985
 51
134.9999999989
  0
ARC
  5
76
330
1F
100
AcDbEntity
  8
0
  6
Continuous
 62
     7
100
AcDbCircle
 10
2244.0633210144
 20
6001.1060705951
 30
0.0
 40
4.999999999999236
100
AcDbArc
 50
45.0000000011
 51
90.0000000015
  0
CIRCLE
  5
77
330
1F
100
AcDbEntity
  8
0
  6
Continuous
 62
     7
100
AcDbCircle
 10
1976.1343888262
 20
5766.1060705951
 30
0.0
 40
32.5
  0
CIRCLE
  5
78
330
1F
100
AcDbEntity
  8
0
  6
Continuous
 62
     7
100
AcDbCircle
 10
1976.1343888262
 20
5766.1060705951
 30
0.0
 40
49.95999999999981
  0
CIRCLE
  5
79
330
1F
100
AcDbEntity
  8
0
  6
Continuous
 62
     7
100
AcDbCircle
 10
1976.1343888262
 20
5766.1060705951
 30
0.0
 40
75.0
  0
CIRCLE
  5
7A
330
1F
100
AcDbEntity
  8
0
  6
Continuous
 62
     7
100
AcDbCircle
 10
1976.1343888262
 20
5766.1060705951
 30
0.0
 40
52.5
  0
ARC
  5
7B
330
1F
100
AcDbEntity
  8
0
  6
Continuous
 62
     7
100
AcDbCircle
 10
1976.1343888262
 20
5766.1060705951
 30
0.0
 40
85.00000000000054
100
AcDbArc
 50
118.0724869359
 51
121.9275130641
  0
ARC
  5
7C
330
1F
100
AcDbEntity
  8
0
  6
Continuous
 62
     7
100
AcDbCircle
 10
1976.1343888262
 20
5766.1060705951
 30
0.0
 40
85.00000000000112
100
AcDbArc
 50
58.0724869359
 51
61.9275130641
  0
ARC
  5
7D
330
1F
100
AcDbEntity
  8
0
  6
Continuous
 62
     7
100
AcDbCircle
 10
1976.1343888262
 20
5766.1060705951
 30
0.0
 40
85.00000000000159
100
AcDbArc
 50
178.0724869359
 51
181.9275130641
  0
ARC
  5
7E
330
1F
100
AcDbEntity
  8
0
  6
Continuous
 62
     7
100
AcDbCircle
 10
1976.1343888262
 20
5766.1060705951
 30
0.0
 40
85.0
100
AcDbArc
 50
238.0724869359
 51
241.9275130641
  0
ARC
  5
7F
330
1F
100
AcDbEntity
  8
0
  6
Continuous
 62
     7
100
AcDbCircle
 10
1976.1343888262
 20
5766.1060705951
 30
0.0
 40
84.99999999999909
100
AcDbArc
 50
298.0724869359
 51
301.9275130641
  0
ARC
  5
80
330
1F
100
AcDbEntity
  8
0
  6
Continuous
 62
     7
100
AcDbCircle
 10
1976.1343888262
 20
5766.1060705951
 30
0.0
 40
84.99999999999886
100
AcDbArc
 50
358.0724869359
 51
1.9275130641
  0
ARC
  5
81
330
1F
100
AcDbEntity
  8
0
  6
Continuous
 62
     7
100
AcDbCircle
 10
1949.3461995416
 20
7756.9969080484
 30
0.0
 40
41.31275445339208
100
AcDbArc
 50
299.6528990196
 51
2.910402829
  0
ARC
  5
82
330
1F
100
AcDbEntity
  8
0
  6
Continuous
 62
     7
100
AcDbCircle
 10
1862.9225781108
 20
7756.9969080484
 30
0.0
 40
41.31275445339196
100
AcDbArc
 50
177.089597171
 51
240.3471009805
  0
ARC
  5
83
330
1F
100
AcDbEntity
  8
0
  6
Continuous
 62
     7
100
AcDbCircle
 10
1927.0931888262
 20
8998.7020035941
 30
0.0
 40
25.95880000000079
100
AcDbArc
 50
97.6569701229
 51
180.0000000001
  0
ARC
  5
84
330
1F
100
AcDbEntity
  8
0
  6
Continuous
 62
     7
100
AcDbCircle
 10
2025.1755888262
 20
8998.7020035941
 30
0.0
 40
25.95880000000056
100
AcDbArc
 50
359.9999999999
 51
82.3430298771
  0
ARC
  5
85
330
1F
100
AcDbEntity
  8
0
  6
Continuous
 62
     7
100
AcDbCircle
 10
2206.1343888262
 20
8004.4293431379
 30
0.0
 40
20.0
100
AcDbArc
 50
360.0
 51
89.9999988448
  0
ARC
  5
86
330
1F
100
AcDbEntity
  8
0
  6
Continuous
 62
     7
100
AcDbCircle
 10
1686.1343888262
 20
8004.4293431379
 30
0.0
 40
20.0
100
AcDbArc
 50
360.0
 51
89.9999988448
  0
ARC
  5
87
330
1F
100
AcDbEntity
  8
0
  6
Continuous
 62
     7
100
AcDbCircle
 10
1686.1343888262
 20
8754.4293431379
 30
0.0
 40
20.0
100
AcDbArc
 50
360.0
 51
89.9999988448
  0
ARC
  5
88
330
1F
100
AcDbEntity
  8
0
  6
Continuous
 62
     7
100
AcDbCircle
 10
2206.1343888262
 20
8754.4293431379
 30
0.0
 40
19.99999999999955
100
AcDbArc
 50
360.0
 51
89.9999988448
  0
ARC
  5
89
330
1F
100
AcDbEntity
  8
0
  6
Continuous
 62
     7
100
AcDbCircle
 10
1686.1343888262
 20
8754.4293431379
 30
0.0
 40
60.00000000001501
100
AcDbArc
 50
90.0
 51
180.0
  0
ARC
  5
8A
330
1F
100
AcDbEntity
  8
0
  6
Continuous
 62
     7
100
AcDbCircle
 10
2206.1343888262
 20
8754.4293431379
 30
0.0
 40
59.99999999999818
100
AcDbArc
 50
360.0
 51
90.0
  0
ARC
  5
8B
330
1F
100
AcDbEntity
  8
0
  6
Continuous
 62
     7
100
AcDbCircle
 10
2206.1343888262
 20
8004.4293431379
 30
0.0
 40
60.0
100
AcDbArc
 50
270.0
 51
0.0
  0
CIRCLE
  5
8C
330
1F
100
AcDbEntity
  8
0
  6
Continuous
 62
     7
100
AcDbCircle
 10
1686.1343888262
 20
8004.4293431379
 30
0.0
 40
29.9999999999859
  0
CIRCLE
  5
8D
330
1F
100
AcDbEntity
  8
0
  6
Continuous
 62
     7
100
AcDbCircle
 10
2206.1343888262
 20
8754.4293431379
 30
0.0
 40
29.99999999998454
  0
CIRCLE
  5
8E
330
1F
100
AcDbEntity
  8
0
  6
Continuous
 62
     7
100
AcDbCircle
 10
1686.1343888262
 20
8754.4293431379
 30
0.0
 40
29.99999999998499
  0
CIRCLE
  5
8F
330
1F
100
AcDbEntity
  8
0
  6
Continuous
 62
     7
100
AcDbCircle
 10
2206.1343888262
 20
8004.4293431379
 30
0.0
 40
29.99999999998545
  0
CIRCLE
  5
90
330
1F
100
AcDbEntity
  8
0
  6
Continuous
 62
     7
100
AcDbCircle
 10
2131.1343888262
 20
8014.4293431379
 30
0.0
 40
15.00000000000091
  0
CIRCLE
  5
91
330
1F
100
AcDbEntity
  8
0
  6
Continuous
 62
     7
100
AcDbCircle
 10
1761.1343888262
 20
8754.4293431379
 30
0.0
 40
14.99999999999977
  0
ARC
  5
92
330
1F
100
AcDbEntity
  8
0
  6
Continuous
 62
     7
100
AcDbCircle
 10
1686.1343888262
 20
8004.4293431379
 30
0.0
 40
60.00000000001501
100
AcDbArc
 50
180.0
 51
270.0
  0
ARC
  5
93
330
1F
100
AcDbEntity
  8
0
  6
Continuous
 62
     7
100
AcDbCircle
 10
4837.5691726037
 20
7756.9969080484
 30
0.0
 40
41.31275445339077
100
AcDbArc
 50
299.6528990196
 51
2.910402829
  0
ARC
  5
94
330
1F
100
AcDbEntity
  8
0
  6
Continuous
 62
     7
100
AcDbCircle
 10
4751.145551173
 20
7756.9969080484
 30
0.0
 40
41.3127544533919
100
AcDbArc
 50
177.0895971709
 51
240.3471009803
  0
ARC
  5
95
330
1F
100
AcDbEntity
  8
0
  6
Continuous
 62
     7
100
AcDbCircle
 10
4765.3161618883
 20
8998.7020035941
 30
0.0
 40
25.95880000000034
100
AcDbArc
 50
97.6569701229
 51
180.0000000001
  0
ARC
  5
96
330
1F
100
AcDbEntity
  8
0
  6
Continuous
 62
     7
100
AcDbCircle
 10
4863.3985618883
 20
8998.7020035941
 30
0.0
 40
25.95879999999943
100
AcDbArc
 50
359.9999999999
 51
82.3430298771
  0
ARC
  5
97
330
1F
100
AcDbEntity
  8
0
  6
Continuous
 62
     7
100
AcDbCircle
 10
4596.4284297003
 20
7949.4293431379
 30
0.0
 40
5.000000000001487
100
AcDbArc
 50
224.9999999995
 51
269.9999999992
  0
ARC
  5
98
330
1F
100
AcDbEntity
  8
0
  6
Continuous
 62
     7
100
AcDbCircle
 10
4596.4284297003
 20
8809.4293431379
 30
0.0
 40
5.0
100
AcDbArc
 50
90.0000000007
 51
135.0000000005
  0
ARC
  5
99
330
1F
100
AcDbEntity
  8
0
  6
Continuous
 62
     7
100
AcDbCircle
 10
4579.3573618883
 20
7966.5004109498
 30
0.0
 40
5.000000000000201
100
AcDbArc
 50
179.9999999996
 51
225.0000000005
  0
ARC
  5
9A
330
1F
100
AcDbEntity
  8
0
  6
Continuous
 62
     7
100
AcDbCircle
 10
4579.3573618883
 20
8792.358275326
 30
0.0
 40
4.999999999999558
100
AcDbArc
 50
134.9999999995
 51
180.0000000004
  0
LINE
  5
9B
330
1F
100
AcDbEntity
  8
0
  6
Continuous
 62
     7
100
AcDbLine
 10
2206.1343888262
 20
5984.0350027833
 30
0.0
 11
1686.1343888262
 21
5984.0350027833
 31
0.0
  0
LINE
  5
9C
330
1F
100
AcDbEntity
  8
0
  6
Continuous
 62
     7
100
AcDbLine
 10
1686.1343888262
 20
5984.0350027833
 30
0.0
 11
1686.1343888262
 21
5987.5705366892
 31
0.0
  0
LINE
  5
9D
330
1F
100
AcDbEntity
  8
0
  6
Continuous
 62
     7
100
AcDbLine
 10
1686.1343888262
 20
5987.5705366892
 30
0.0
 11
2206.1343888262
 21
5987.5705366892
 31
0.0
  0
LINE
  5
9E
330
1F
100
AcDbEntity
  8
0
  6
Continuous
 62
     7
100
AcDbLine
 10
2206.1343888262
 20
5984.0350027833
 30
0.0
 11
2206.1343888262
 21
5987.5705366892
 31
0.0
  0
LINE
  5
9F
330
1F
100
AcDbEntity
  8
0
  6
Continuous
 62
     7
100
AcDbLine
 10
1686.1343888262
 20
5984.0350027833
 30
0.0
 11
1686.1343888262
 21
5886.1060705951
 31
0.0
  0
LINE
  5
A0
330
1F
100
AcDbEntity
  8
0
  6
Continuous
 62
     7
100
AcDbLine
 10
2206.1343888262
 20
5886.1060705951
 30
0.0
 11
2206.1343888262
 21
5984.0350027833
 31
0.0
  0
LINE
  5
A1
330
1F
100
AcDbEntity
  8
0
  6
Continuous
 62
     7
100
AcDbLine
 10
2206.1343888262
 20
5886.1060705951
 30
0.0
 11
1686.1343888262
 21
5886.1060705951
 31
0.0
  0
LINE
  5
A2
330
1F
100
AcDbEntity
  8
0
  6
Continuous
 62
     7
100
AcDbLine
 10
1626.1343888262
 20
5886.1060705951
 30
0.0
 11
1626.1343888262
 21
5984.0350027833
 31
0.0
  0
LINE
  5
A3
330
1F
100
AcDbEntity
  8
0
  6
Continuous
 62
     7
100
AcDbLine
 10
1686.1343888262
 20
5984.0350027833
 30
0.0
 11
1626.1343888262
 21
5984.0350027833
 31
0.0
  0
LINE
  5
A4
330
1F
100
AcDbEntity
  8
0
  6
Continuous
 62
     7
100
AcDbLine
 10
1686.1343888262
 20
5886.1060705951
 30
0.0
 11
1626.1343888262
 21
5886.1060705951
 31
0.0
  0
LINE
  5
A5
330
1F
100
AcDbEntity
  8
0
  6
Continuous
 62
     7
100
AcDbLine
 10
1627.5988549203
 20
5987.5705366892
 30
0.0
 11
1686.1343888262
 21
5987.5705366892
 31
0.0
  0
LINE
  5
A6
330
1F
100
AcDbEntity
  8
0
  6
Continuous
 62
     7
100
AcDbLine
 10
2266.1343888262
 20
5984.0350027833
 30
0.0
 11
2206.1343888262
 21
5984.0350027833
 31
0.0
  0
LINE
  5
A7
330
1F
100
AcDbEntity
  8
0
  6
Continuous
 62
     7
100
AcDbLine
 10
2266.1343888262
 20
5984.0350027833
 30
0.0
 11
2266.1343888262
 21
5886.1060705951
 31
0.0
  0
LINE
  5
A8
330
1F
100
AcDbEntity
  8
0
  6
Continuous
 62
     7
100
AcDbLine
 10
2266.1343888262
 20
5886.1060705951
 30
0.0
 11
2206.1343888262
 21
5886.1060705951
 31
0.0
  0
LINE
  5
A9
330
1F
100
AcDbEntity
  8
0
  6
Continuous
 62
     7
100
AcDbLine
 10
2206.1343888262
 20
5987.5705366892
 30
0.0
 11
2264.6699227321
 21
5987.5705366892
 31
0.0
  0
LINE
  5
AA
330
1F
100
AcDbEntity
  8
0
  6
Continuous
 62
     7
100
AcDbLine
 10
1686.1343888262
 20
6004.6416045011
 30
0.0
 11
1686.1343888262
 21
5987.5705366892
 31
0.0
  0
LINE
  5
AB
330
1F
100
AcDbEntity
  8
0
  6
Continuous
 62
     7
100
AcDbLine
 10
2206.1343888262
 20
6004.6416045011
 30
0.0
 11
1686.1343888262
 21
6004.6416045011
 31
0.0
  0
LINE
  5
AC
330
1F
100
AcDbEntity
  8
0
  6
Continuous
 62
     7
100
AcDbLine
 10
2206.1343888262
 20
6004.6416045011
 30
0.0
 11
2206.1343888262
 21
5987.5705366892
 31
0.0
  0
LINE
  5
AD
330
1F
100
AcDbEntity
  8
0
  6
Continuous
 62
     7
100
AcDbLine
 10
1644.6699227322
 20
6004.641604501
 30
0.0
 11
1627.5988549203
 21
5987.5705366892
 31
0.0
  0
LINE
  5
AE
330
1F
100
AcDbEntity
  8
0
  6
Continuous
 62
     7
100
AcDbLine
 10
1686.1343888262
 20
6004.6416045011
 30
0.0
 11
1644.6699227322
 21
6004.641604501
 31
0.0
  0
LINE
  5
AF
330
1F
100
AcDbEntity
  8
0
  6
Continuous
 62
     7
100
AcDbLine
 10
2247.5988549203
 20
6004.6416045011
 30
0.0
 11
2206.1343888262
 21
6004.6416045011
 31
0.0
  0
LINE
  5
B0
330
1F
100
AcDbEntity
  8
0
  6
Continuous
 62
     7
100
AcDbLine
 10
2264.6699227321
 20
5987.5705366892
 30
0.0
 11
2247.5988549203
 21
6004.6416045011
 31
0.0
  0
LINE
  5
B1
330
1F
100
AcDbEntity
  8
0
  6
Continuous
 62
     7
100
AcDbLine
 10
1686.1343888262
 20
6004.6416045011
 30
0.0
 11
1686.1343888262
 21
6006.1060705951
 31
0.0
  0
LINE
  5
B2
330
1F
100
AcDbEntity
  8
0
  6
Continuous
 62
     7
100
AcDbLine
 10
1686.1343888262
 20
6006.1060705951
 30
0.0
 11
2206.1343888262
 21
6006.1060705951
 31
0.0
  0
LINE
  5
B3
330
1F
100
AcDbEntity
  8
0
  6
Continuous
 62
     7
100
AcDbLine
 10
2206.1343888262
 20
6004.6416045011
 30
0.0
 11
2206.1343888262
 21
6006.1060705951
 31
0.0
  0
LINE
  5
B4
330
1F
100
AcDbEntity
  8
0
  6
Continuous
 62
     7
100
AcDbLine
 10
1648.2054566382
 20
6006.1060705951
 30
0.0
 11
1686.1343888262
 21
6006.1060705951
 31
0.0
  0
LINE
  5
B5
330
1F
100
AcDbEntity
  8
0
  6
Continuous
 62
     7
100
AcDbLine
 10
2206.1343888262
 20
6006.1060705951
 30
0.0
 11
2244.0633210143
 21
6006.1060705951
 31
0.0
  0
LINE
  5
B6
330
1F
100
AcDbEntity
  8
0
  6
Continuous
 62
     7
100
AcDbLine
 10
1686.1343888262
 20
5886.1060705951
 30
0.0
 11
1686.1343888262
 21
5586.1060705951
 31
0.0
  0
LINE
  5
B7
330
1F
100
AcDbEntity
  8
0
  6
Continuous
 62
     7
100
AcDbLine
 10
1626.1343888262
 20
5586.1060705951
 30
0.0
 11
1626.1343888262
 21
5886.1060705951
 31
0.0
  0
LINE
  5
B8
330
1F
100
AcDbEntity
  8
0
  6
Continuous
 62
     7
100
AcDbLine
 10
1686.1343888262
 20
5586.1060705951
 30
0.0
 11
1626.1343888262
 21
5586.1060705951
 31
0.0
  0
LINE
  5
B9
330
1F
100
AcDbEntity
  8
0
  6
Continuous
 62
     7
100
AcDbLine
 10
2206.1343888262
 20
5586.1060705951
 30
0.0
 11
2206.1343888262
 21
5886.1060705951
 31
0.0
  0
LINE
  5
BA
330
1F
100
AcDbEntity
  8
0
  6
Continuous
 62
     7
100
AcDbLine
 10
1686.1343888262
 20
5586.1060705951
 30
0.0
 11
2206.1343888262
 21
5586.1060705951
 31
0.0
  0
LINE
  5
BB
330
1F
100
AcDbEntity
  8
0
  6
Continuous
 62
     7
100
AcDbLine
 10
2266.1343888262
 20
5886.1060705951
 30
0.0
 11
2266.1343888262
 21
5586.1060705951
 31
0.0
  0
LINE
  5
BC
330
1F
100
AcDbEntity
  8
0
  6
Continuous
 62
     7
100
AcDbLine
 10
2266.1343888262
 20
5586.1060705951
 30
0.0
 11
2206.1343888262
 21
5586.1060705951
 31
0.0
  0
LINE
  5
BD
330
1F
100
AcDbEntity
  8
0
  6
Continuous
 62
     7
100
AcDbLine
 10
1814.4447753183
 20
7763.7429100298
 30
0.0
 11
1821.6631107119
 21
7759.0945330116
 31
0.0
  0
LINE
  5
BE
330
1F
100
AcDbEntity
  8
0
  6
Continuous
 62
     7
100
AcDbLine
 10
1990.6056669405
 20
7759.0945330116
 30
0.0
 11
1997.8240023341
 21
7763.7429100298
 31
0.0
  0
LINE
  5
BF
330
1F
100
AcDbEntity
  8
0
  6
Continuous
 62
     7
100
AcDbLine
 10
1981.1343888262
 20
7891.4156400201
 30
0.0
 11
1981.1343888262
 21
7893.1788314044
 31
0.0
  0
LINE
  5
C0
330
1F
100
AcDbEntity
  8
0
  6
Continuous
 62
     7
100
AcDbLine
 10
1981.1343888262
 20
7877.3039849851
 30
0.0
 11
1981.1343888262
 21
7879.0674523376
 31
0.0
  0
LINE
  5
C1
330
1F
100
AcDbEntity
  8
0
  6
Continuous
 62
     7
100
AcDbLine
 10
1981.1343888262
 20
7863.1921058336
 30
0.0
 11
1981.1343888262
 21
7864.9560285159
 31
0.0
  0
LINE
  5
C2
330
1F
100
AcDbEntity
  8
0
  6
Continuous
 62
     7
100
AcDbLine
 10
1981.1343888262
 20
7849.0945330116
 30
0.0
 11
1981.1343888262
 21
7850.8445062777
 31
0.0
  0
LINE
  5
C3
330
1F
100
AcDbEntity
  8
0
  6
Continuous
 62
     7
100
AcDbLine
 10
1831.1343888262
 20
7857.9001416271
 30
0.0
 11
1831.1343888262
 21
7856.1362998515
 31
0.0
  0
LINE
  5
C4
330
1F
100
AcDbEntity
  8
0
  6
Continuous
 62
     7
100
AcDbLine
 10
1831.1343888262
 20
7872.0114976729
 30
0.0
 11
1831.1343888262
 21
7870.2461856563
 31
0.0
  0
LINE
  5
C5
330
1F
100
AcDbEntity
  8
0
  6
Continuous
 62
     7
100
AcDbLine
 10
1831.1343888262
 20
7886.1231850076
 30
0.0
 11
1831.1343888262
 21
7884.359847692
 31
0.0
  0
LINE
  5
C6
330
1F
100
AcDbEntity
  8
0
  6
Continuous
 62
     7
100
AcDbLine
 10
1981.0436872096
 20
7893.2836162398
 30
0.0
 11
1979.6410065425
 21
7894.0945330116
 31
0.0
  0
LINE
  5
C7
330
1F
100
AcDbEntity
  8
0
  6
Continuous
 62
     7
100
AcDbLine
 10
1838.6093368801
 20
7894.0945330116
 30
0.0
 11
1838.7722523641
 21
7894.0003335566
 31
0.0
  0
LINE
  5
C8
330
1F
100
AcDbEntity
  8
0
  6
Continuous
 62
     7
100
AcDbLine
 10
1842.4833230549
 20
7721.0945330116
 30
0.0
 11
1846.6343888262
 21
7701.0945330116
 31
0.0
  0
LINE
  5
C9
330
1F
100
AcDbEntity
  8
0
  6
Continuous
 62
     7
100
AcDbLine
 10
1965.6343888262
 20
7701.0945330116
 30
0.0
 11
1969.7854545975
 21
7721.0945330116
 31
0.0
  0
LINE
  5
CA
330
1F
100
AcDbEntity
  8
0
  6
Continuous
 62
     7
100
AcDbLine
 10
1891.1343888262
 20
8864.4293431379
 30
0.0
 11
1891.1343888262
 21
8814.4293431379
 31
0.0
  0
LINE
  5
CB
330
1F
100
AcDbEntity
  8
0
  6
Continuous
 62
     7
100
AcDbLine
 10
2061.1343888262
 20
8814.4293431379
 30
0.0
 11
2061.1343888262
 21
8864.4293431379
 31
0.0
  0
LINE
  5
CC
330
1F
100
AcDbEntity
  8
0
  6
Continuous
 62
     7
100
AcDbLine
 10
1901.1343888262
 20
8998.7020035941
 30
0.0
 11
1901.1343888262
 21
8974.4293431379
 31
0.0
  0
LINE
  5
CD
330
1F
100
AcDbEntity
  8
0
  6
Continuous
 62
     7
100
AcDbLine
 10
2051.1343888262
 20
8974.4293431379
 30
0.0
 11
2051.1343888262
 21
8998.7020035941
 31
0.0
  0
LINE
  5
CE
330
1F
100
AcDbEntity
  8
0
  6
Continuous
 62
     7
100
AcDbLine
 10
1913.6343888262
 20
8894.4293431379
 30
0.0
 11
1919.6343888262
 21
8888.0793431379
 31
0.0
  0
LINE
  5
CF
330
1F
100
AcDbEntity
  8
0
  6
Continuous
 62
     7
100
AcDbLine
 10
2032.6343888262
 20
8888.0793431379
 30
0.0
 11
2038.6343888262
 21
8894.4293431379
 31
0.0
  0
LINE
  5
D0
330
1F
100
AcDbEntity
  8
0
  6
Continuous
 62
     7
100
AcDbLine
 10
1913.6343888262
 20
8881.7293431379
 30
0.0
 11
1913.6343888262
 21
8864.4293431379
 31
0.0
  0
LINE
  5
D1
330
1F
100
AcDbEntity
  8
0
  6
Continuous
 62
     7
100
AcDbLine
 10
2038.6343888262
 20
8864.4293431379
 30
0.0
 11
2038.6343888262
 21
8881.7293431379
 31
0.0
  0
LINE
  5
D2
330
1F
100
AcDbEntity
  8
0
  6
Continuous
 62
     7
100
AcDbLine
 10
2038.6343888262
 20
8881.7293431379
 30
0.0
 11
2032.6343888262
 21
8888.0793431379
 31
0.0
  0
LINE
  5
D3
330
1F
100
AcDbEntity
  8
0
  6
Continuous
 62
     7
100
AcDbLine
 10
1919.6343888262
 20
8888.0793431379
 30
0.0
 11
1913.6343888262
 21
8881.7293431379
 31
0.0
  0
LINE
  5
D4
330
1F
100
AcDbEntity
  8
0
  6
Continuous
 62
     7
100
AcDbLine
 10
1901.1343888262
 20
8974.4293431379
 30
0.0
 11
1891.1343888262
 21
8968.655840446
 31
0.0
  0
LINE
  5
D5
330
1F
100
AcDbEntity
  8
0
  6
Continuous
 62
     7
100
AcDbLine
 10
2061.1343888262
 20
8968.655840446
 30
0.0
 11
2051.1343888262
 21
8974.4293431379
 31
0.0
  0
LINE
  5
D6
330
1F
100
AcDbEntity
  8
0
  6
Continuous
 62
     7
100
AcDbLine
 10
1891.1343888262
 20
8968.655840446
 30
0.0
 11
1891.1343888262
 21
8894.4293431379
 31
0.0
  0
LINE
  5
D7
330
1F
100
AcDbEntity
  8
0
  6
Continuous
 62
     7
100
AcDbLine
 10
2061.1343888262
 20
8894.4293431379
 30
0.0
 11
2061.1343888262
 21
8968.655840446
 31
0.0
  0
LINE
  5
D8
330
1F
100
AcDbEntity
  8
0
  6
Continuous
 62
     7
100
AcDbLine
 10
1917.883440995
 20
7894.0945330116
 30
0.0
 11
1917.883440995
 21
7944.4293431379
 31
0.0
  0
LINE
  5
D9
330
1F
100
AcDbEntity
  8
0
  6
Continuous
 62
     7
100
AcDbLine
 10
1917.883440995
 20
7894.0945330116
 30
0.0
 11
1897.883440995
 21
7894.0945330116
 31
0.0
  0
LINE
  5
DA
330
1F
100
AcDbEntity
  8
0
  6
Continuous
 62
     7
100
AcDbLine
 10
1897.883440995
 20
7894.0945330116
 30
0.0
 11
1897.883440995
 21
7944.4293431379
 31
0.0
  0
LINE
  5
DB
330
1F
100
AcDbEntity
  8
0
  6
Continuous
 62
     7
100
AcDbLine
 10
1917.883440995
 20
7849.0945330116
 30
0.0
 11
1897.883440995
 21
7849.0945330116
 31
0.0
  0
LINE
  5
DC
330
1F
100
AcDbEntity
  8
0
  6
Continuous
 62
     7
100
AcDbLine
 10
1917.883440995
 20
7769.0945330116
 30
0.0
 11
1917.883440995
 21
7849.0945330116
 31
0.0
  0
LINE
  5
DD
330
1F
100
AcDbEntity
  8
0
  6
Continuous
 62
     7
100
AcDbLine
 10
1917.883440995
 20
7769.0945330116
 30
0.0
 11
1897.883440995
 21
7769.0945330116
 31
0.0
  0
LINE
  5
DE
330
1F
100
AcDbEntity
  8
0
  6
Continuous
 62
     7
100
AcDbLine
 10
1897.883440995
 20
7769.0945330116
 30
0.0
 11
1897.883440995
 21
7849.0945330116
 31
0.0
  0
LINE
  5
DF
330
1F
100
AcDbEntity
  8
0
  6
Continuous
 62
     7
100
AcDbLine
 10
1824.2210725511
 20
7769.0945330116
 30
0.0
 11
1814.4447753183
 21
7769.0945330116
 31
0.0
  0
LINE
  5
E0
330
1F
100
AcDbEntity
  8
0
  6
Continuous
 62
     7
100
AcDbLine
 10
1997.8240023341
 20
7769.0945330116
 30
0.0
 11
1988.0477051013
 21
7769.0945330116
 31
0.0
  0
LINE
  5
E1
330
1F
100
AcDbEntity
  8
0
  6
Continuous
 62
     7
100
AcDbLine
 10
1990.6056669405
 20
7759.0945330116
 30
0.0
 11
1821.6631107119
 21
7759.0945330116
 31
0.0
  0
LINE
  5
E2
330
1F
100
AcDbEntity
  8
0
  6
Continuous
 62
     7
100
AcDbLine
 10
1824.2210725511
 20
7894.0945330116
 30
0.0
 11
1824.2210725511
 21
7944.4293431379
 31
0.0
  0
LINE
  5
E3
330
1F
100
AcDbEntity
  8
0
  6
Continuous
 62
     7
100
AcDbLine
 10
1824.2210725511
 20
7894.0945330116
 30
0.0
 11
1897.883440995
 21
7894.0945330116
 31
0.0
  0
LINE
  5
E4
330
1F
100
AcDbEntity
  8
0
  6
Continuous
 62
     7
100
AcDbLine
 10
1824.2210725511
 20
7769.0945330116
 30
0.0
 11
1824.2210725511
 21
7849.0945330116
 31
0.0
  0
LINE
  5
E5
330
1F
100
AcDbEntity
  8
0
  6
Continuous
 62
     7
100
AcDbLine
 10
1897.883440995
 20
7849.0945330116
 30
0.0
 11
1824.2210725511
 21
7849.0945330116
 31
0.0
  0
LINE
  5
E6
330
1F
100
AcDbEntity
  8
0
  6
Continuous
 62
     7
100
AcDbLine
 10
1988.0477051013
 20
7894.0945330116
 30
0.0
 11
1988.0477051013
 21
7944.4293431379
 31
0.0
  0
LINE
  5
E7
330
1F
100
AcDbEntity
  8
0
  6
Continuous
 62
     7
100
AcDbLine
 10
1917.883440995
 20
7894.0945330116
 30
0.0
 11
1988.0477051013
 21
7894.0945330116
 31
0.0
  0
LINE
  5
E8
330
1F
100
AcDbEntity
  8
0
  6
Continuous
 62
     7
100
AcDbLine
 10
1988.0477051013
 20
7769.0945330116
 30
0.0
 11
1988.0477051013
 21
7849.0945330116
 31
0.0
  0
LINE
  5
E9
330
1F
100
AcDbEntity
  8
0
  6
Continuous
 62
     7
100
AcDbLine
 10
1988.0477051013
 20
7849.0945330116
 30
0.0
 11
1917.883440995
 21
7849.0945330116
 31
0.0
  0
LINE
  5
EA
330
1F
100
AcDbEntity
  8
0
  6
Continuous
 62
     7
100
AcDbLine
 10
1969.7854545975
 20
7721.0945330116
 30
0.0
 11
1842.4833230549
 21
7721.0945330116
 31
0.0
  0
LINE
  5
EB
330
1F
100
AcDbEntity
  8
0
  6
Continuous
 62
     7
100
AcDbLine
 10
1981.0940866266
 20
7850.9148062536
 30
0.0
 11
1981.0162727912
 21
7850.9506183608
 31
0.0
  0
LINE
  5
EC
330
1F
100
AcDbEntity
  8
0
  6
Continuous
 62
     7
100
AcDbLine
 10
1981.0973749034
 20
7893.2468685667
 30
0.0
 11
1981.0144940223
 21
7893.2851651623
 31
0.0
  0
LINE
  5
ED
330
1F
100
AcDbEntity
  8
0
  6
Continuous
 62
     7
100
AcDbLine
 10
1965.6343888262
 20
7701.0945330116
 30
0.0
 11
1846.6343888262
 21
7701.0945330116
 31
0.0
  0
LINE
  5
EE
330
1F
100
AcDbEntity
  8
0
  6
Continuous
 62
     7
100
AcDbLine
 10
1997.8240023341
 20
7769.0945330116
 30
0.0
 11
1997.8240023341
 21
7849.0945330116
 31
0.0
  0
LINE
  5
EF
330
1F
100
AcDbEntity
  8
0
  6
Continuous
 62
     7
100
AcDbLine
 10
1997.8240023341
 20
7849.0945330116
 30
0.0
 11
1988.0477051013
 21
7849.0945330116
 31
0.0
  0
LINE
  5
F0
330
1F
100
AcDbEntity
  8
0
  6
Continuous
 62
     7
100
AcDbLine
 10
1997.8240023341
 20
7894.0945330116
 30
0.0
 11
1997.8240023341
 21
7944.4293431379
 31
0.0
  0
LINE
  5
F1
330
1F
100
AcDbEntity
  8
0
  6
Continuous
 62
     7
100
AcDbLine
 10
1997.8240023341
 20
7894.0945330116
 30
0.0
 11
1988.0477051013
 21
7894.0945330116
 31
0.0
  0
LINE
  5
F2
330
1F
100
AcDbEntity
  8
0
  6
Continuous
 62
     7
100
AcDbLine
 10
1814.4447753183
 20
7769.0945330116
 30
0.0
 11
1814.4447753183
 21
7849.0945330116
 31
0.0
  0
LINE
  5
F3
330
1F
100
AcDbEntity
  8
0
  6
Continuous
 62
     7
100
AcDbLine
 10
1824.2210725511
 20
7849.0945330116
 30
0.0
 11
1814.4447753183
 21
7849.0945330116
 31
0.0
  0
LINE
  5
F4
330
1F
100
AcDbEntity
  8
0
  6
Continuous
 62
     7
100
AcDbLine
 10
1814.4447753183
 20
7894.0945330116
 30
0.0
 11
1814.4447753183
 21
7944.4293431379
 31
0.0
  0
LINE
  5
F5
330
1F
100
AcDbEntity
  8
0
  6
Continuous
 62
     7
100
AcDbLine
 10
1824.2210725511
 20
7894.0945330116
 30
0.0
 11
1814.4447753183
 21
7894.0945330116
 31
0.0
  0
LINE
  5
F6
330
1F
100
AcDbEntity
  8
0
  6
Continuous
 62
     7
100
AcDbLine
 10
2016.1343888262
 20
8864.4293431379
 30
0.0
 11
2016.1343888262
 21
8814.4293431379
 31
0.0
  0
LINE
  5
F7
330
1F
100
AcDbEntity
  8
0
  6
Continuous
 62
     7
100
AcDbLine
 10
1936.1343888262
 20
8864.4293431379
 30
0.0
 11
1936.1343888262
 21
8814.4293431379
 31
0.0
  0
LINE
  5
F8
330
1F
100
AcDbEntity
  8
0
  6
Continuous
 62
     7
100
AcDbLine
 10
2016.1343888262
 20
8864.4293431379
 30
0.0
 11
1936.1343888262
 21
8864.4293431379
 31
0.0
  0
LINE
  5
F9
330
1F
100
AcDbEntity
  8
0
  6
Continuous
 62
     7
100
AcDbLine
 10
2021.08629411
 20
8864.4293431379
 30
0.0
 11
2021.08629411
 21
8814.4293431379
 31
0.0
  0
LINE
  5
FA
330
1F
100
AcDbEntity
  8
0
  6
Continuous
 62
     7
100
AcDbLine
 10
2016.1343888262
 20
8864.4293431379
 30
0.0
 11
2021.08629411
 21
8864.4293431379
 31
0.0
  0
LINE
  5
FB
330
1F
100
AcDbEntity
  8
0
  6
Continuous
 62
     7
100
AcDbLine
 10
1931.1824835424
 20
8864.4293431379
 30
0.0
 11
1931.1824835424
 21
8814.4293431379
 31
0.0
  0
LINE
  5
FC
330
1F
100
AcDbEntity
  8
0
  6
Continuous
 62
     7
100
AcDbLine
 10
1931.1824835424
 20
8864.4293431379
 30
0.0
 11
1936.1343888262
 21
8864.4293431379
 31
0.0
  0
LINE
  5
FD
330
1F
100
AcDbEntity
  8
0
  6
Continuous
 62
     7
100
AcDbLine
 10
2061.08629411
 20
8864.4293431379
 30
0.0
 11
2061.08629411
 21
8814.4293431379
 31
0.0
  0
LINE
  5
FE
330
1F
100
AcDbEntity
  8
0
  6
Continuous
 62
     7
100
AcDbLine
 10
2061.08629411
 20
8864.4293431379
 30
0.0
 11
2021.08629411
 21
8864.4293431379
 31
0.0
  0
LINE
  5
FF
330
1F
100
AcDbEntity
  8
0
  6
Continuous
 62
     7
100
AcDbLine
 10
1891.1824835424
 20
8864.4293431379
 30
0.0
 11
1891.1824835424
 21
8814.4293431379
 31
0.0
  0
LINE
  5
100
330
1F
100
AcDbEntity
  8
0
  6
Continuous
 62
     7
100
AcDbLine
 10
1931.1824835424
 20
8864.4293431379
 30
0.0
 11
1891.1824835424
 21
8864.4293431379
 31
0.0
  0
LINE
  5
101
330
1F
100
AcDbEntity
  8
0
  6
Continuous
 62
     7
100
AcDbLine
 10
1891.1343888262
 20
8864.4293431379
 30
0.0
 11
1891.1824835424
 21
8864.4293431379
 31
0.0
  0
LINE
  5
102
330
1F
100
AcDbEntity
  8
0
  6
Continuous
 62
     7
100
AcDbLine
 10
2061.08629411
 20
8864.4293431379
 30
0.0
 11
2061.1343888262
 21
8864.4293431379
 31
0.0
  0
LINE
  5
103
330
1F
100
AcDbEntity
  8
0
  6
Continuous
 62
     7
100
AcDbLine
 10
1936.1343888262
 20
8968.655840446
 30
0.0
 11
1936.1343888262
 21
8894.4293431379
 31
0.0
  0
LINE
  5
104
330
1F
100
AcDbEntity
  8
0
  6
Continuous
 62
     7
100
AcDbLine
 10
2016.1343888262
 20
8968.655840446
 30
0.0
 11
2016.1343888262
 21
8894.4293431379
 31
0.0
  0
LINE
  5
105
330
1F
100
AcDbEntity
  8
0
  6
Continuous
 62
     7
100
AcDbLine
 10
1936.1343888262
 20
8894.4293431379
 30
0.0
 11
2016.1343888262
 21
8894.4293431379
 31
0.0
  0
LINE
  5
106
330
1F
100
AcDbEntity
  8
0
  6
Continuous
 62
     7
100
AcDbLine
 10
1976.1343888262
 20
8974.4293431379
 30
0.0
 11
2041.08629411
 21
8974.4293431379
 31
0.0
  0
LINE
  5
107
330
1F
100
AcDbEntity
  8
0
  6
Continuous
 62
     7
100
AcDbLine
 10
1911.1824835424
 20
8974.4293431379
 30
0.0
 11
1976.1343888262
 21
8974.4293431379
 31
0.0
  0
LINE
  5
108
330
1F
100
AcDbEntity
  8
0
  6
Continuous
 62
     7
100
AcDbLine
 10
1901.1343888262
 20
8974.4293431379
 30
0.0
 11
1911.1824835424
 21
8974.4293431379
 31
0.0
  0
LINE
  5
109
330
1F
100
AcDbEntity
  8
0
  6
Continuous
 62
     7
100
AcDbLine
 10
2041.08629411
 20
8974.4293431379
 30
0.0
 11
2051.1343888262
 21
8974.4293431379
 31
0.0
  0
LINE
  5
10A
330
1F
100
AcDbEntity
  8
0
  6
Continuous
 62
     7
100
AcDbLine
 10
2021.6007225249
 20
9024.4293431379
 30
0.0
 11
2028.6343888262
 21
9024.4293431379
 31
0.0
  0
LINE
  5
10B
330
1F
100
AcDbEntity
  8
0
  6
Continuous
 62
     7
100
AcDbLine
 10
1923.6343888262
 20
9024.4293431379
 30
0.0
 11
2021.6007225249
 21
9024.4293431379
 31
0.0
  0
LINE
  5
10C
330
1F
100
AcDbEntity
  8
0
  6
Continuous
 62
     7
100
AcDbLine
 10
2016.1343888262
 20
8968.655840446
 30
0.0
 11
2021.08629411
 21
8968.655840446
 31
0.0
  0
LINE
  5
10D
330
1F
100
AcDbEntity
  8
0
  6
Continuous
 62
     7
100
AcDbLine
 10
1931.1824835424
 20
8968.655840446
 30
0.0
 11
1936.1343888262
 21
8968.655840446
 31
0.0
  0
LINE
  5
10E
330
1F
100
AcDbEntity
  8
0
  6
Continuous
 62
     7
100
AcDbLine
 10
2032.6343888262
 20
8888.0793431379
 30
0.0
 11
1919.6343888262
 21
8888.0793431379
 31
0.0
  0
LINE
  5
10F
330
1F
100
AcDbEntity
  8
0
  6
Continuous
 62
     7
100
AcDbLine
 10
2038.6343888262
 20
8881.7293431379
 30
0.0
 11
1913.6343888262
 21
8881.7293431379
 31
0.0
  0
LINE
  5
110
330
1F
100
AcDbEntity
  8
0
  6
Continuous
 62
     7
100
AcDbLine
 10
2021.08629411
 20
8968.655840446
 30
0.0
 11
2021.08629411
 21
8894.4293431379
 31
0.0
  0
LINE
  5
111
330
1F
100
AcDbEntity
  8
0
  6
Continuous
 62
     7
100
AcDbLine
 10
2016.1343888262
 20
8894.4293431379
 30
0.0
 11
2021.08629411
 21
8894.4293431379
 31
0.0
  0
LINE
  5
112
330
1F
100
AcDbEntity
  8
0
  6
Continuous
 62
     7
100
AcDbLine
 10
1931.1824835424
 20
8968.655840446
 30
0.0
 11
1931.1824835424
 21
8894.4293431379
 31
0.0
  0
LINE
  5
113
330
1F
100
AcDbEntity
  8
0
  6
Continuous
 62
     7
100
AcDbLine
 10
1931.1824835424
 20
8894.4293431379
 30
0.0
 11
1936.1343888262
 21
8894.4293431379
 31
0.0
  0
LINE
  5
114
330
1F
100
AcDbEntity
  8
0
  6
Continuous
 62
     7
100
AcDbLine
 10
2061.08629411
 20
8968.655840446
 30
0.0
 11
2061.08629411
 21
8894.4293431379
 31
0.0
  0
LINE
  5
115
330
1F
100
AcDbEntity
  8
0
  6
Continuous
 62
     7
100
AcDbLine
 10
2021.08629411
 20
8894.4293431379
 30
0.0
 11
2061.08629411
 21
8894.4293431379
 31
0.0
  0
LINE
  5
116
330
1F
100
AcDbEntity
  8
0
  6
Continuous
 62
     7
100
AcDbLine
 10
1891.1824835424
 20
8968.655840446
 30
0.0
 11
1891.1824835424
 21
8894.4293431379
 31
0.0
  0
LINE
  5
117
330
1F
100
AcDbEntity
  8
0
  6
Continuous
 62
     7
100
AcDbLine
 10
1891.1824835424
 20
8894.4293431379
 30
0.0
 11
1931.1824835424
 21
8894.4293431379
 31
0.0
  0
LINE
  5
118
330
1F
100
AcDbEntity
  8
0
  6
Continuous
 62
     7
100
AcDbLine
 10
1891.1343888262
 20
8968.655840446
 30
0.0
 11
1891.1824835424
 21
8968.655840446
 31
0.0
  0
LINE
  5
119
330
1F
100
AcDbEntity
  8
0
  6
Continuous
 62
     7
100
AcDbLine
 10
2061.08629411
 20
8968.655840446
 30
0.0
 11
2061.1343888262
 21
8968.655840446
 31
0.0
  0
LINE
  5
11A
330
1F
100
AcDbEntity
  8
0
  6
Continuous
 62
     7
100
AcDbLine
 10
1891.1343888262
 20
8894.4293431379
 30
0.0
 11
1891.1824835424
 21
8894.4293431379
 31
0.0
  0
LINE
  5
11B
330
1F
100
AcDbEntity
  8
0
  6
Continuous
 62
     7
100
AcDbLine
 10
2061.08629411
 20
8894.4293431379
 30
0.0
 11
2061.1343888262
 21
8894.4293431379
 31
0.0
  0
LINE
  5
11C
330
1F
100
AcDbEntity
  8
0
  6
Continuous
 62
     7
100
AcDbLine
 10
1686.1343888262
 20
8814.4293431379
 30
0.0
 11
2206.1343888262
 21
8814.4293431379
 31
0.0
  0
LINE
  5
11D
330
1F
100
AcDbEntity
  8
0
  6
Continuous
 62
     7
100
AcDbLine
 10
2266.1343888262
 20
8754.4293431379
 30
0.0
 11
2266.1343888262
 21
8004.4293431379
 31
0.0
  0
LINE
  5
11E
330
1F
100
AcDbEntity
  8
0
  6
Continuous
 62
     7
100
AcDbLine
 10
2206.1343888262
 20
7944.4293431379
 30
0.0
 11
1686.1343888262
 21
7944.4293431379
 31
0.0
  0
LINE
  5
11F
330
1F
100
AcDbEntity
  8
0
  6
Continuous
 62
     7
100
AcDbLine
 10
1626.1343888262
 20
8004.4293431379
 30
0.0
 11
1626.1343888262
 21
8754.4293431379
 31
0.0
  0
LINE
  5
120
330
1F
100
AcDbEntity
  8
0
  6
Continuous
 62
     7
100
AcDbLine
 10
2041.08629411
 20
8998.7020035941
 30
0.0
 11
1901.1343888262
 21
8998.7020035941
 31
0.0
  0
LINE
  5
121
330
1F
100
AcDbEntity
  8
0
  6
Continuous
 62
     7
100
AcDbLine
 10
2051.1343888262
 20
8998.7020035941
 30
0.0
 11
2041.08629411
 21
8998.7020035941
 31
0.0
  0
LINE
  5
122
330
1F
100
AcDbEntity
  8
0
  6
Continuous
 62
     7
100
AcDbLine
 10
4694.3573618883
 20
7769.0945330116
 30
0.0
 11
4709.8860837741
 21
7759.0945330116
 31
0.0
  0
LINE
  5
123
330
1F
100
AcDbEntity
  8
0
  6
Continuous
 62
     7
100
AcDbLine
 10
4878.8286400026
 20
7759.0945330116
 30
0.0
 11
4894.3573618883
 21
7769.0945330116
 31
0.0
  0
LINE
  5
124
330
1F
100
AcDbEntity
  8
0
  6
Continuous
 62
     7
100
AcDbLine
 10
4869.3573618883
 20
7887.8876768776
 30
0.0
 11
4869.3573618883
 21
7889.6510168042
 31
0.0
  0
LINE
  5
125
330
1F
100
AcDbEntity
  8
0
  6
Continuous
 62
     7
100
AcDbLine
 10
4869.3573618883
 20
7873.7763106939
 30
0.0
 11
4869.3573618883
 21
7875.5395936065
 31
0.0
  0
LINE
  5
126
330
1F
100
AcDbEntity
  8
0
  6
Continuous
 62
     7
100
AcDbLine
 10
4869.3573618883
 20
7859.6642028327
 30
0.0
 11
4869.3573618883
 21
7861.4281578703
 31
0.0
  0
LINE
  5
127
330
1F
100
AcDbEntity
  8
0
  6
Continuous
 62
     7
100
AcDbLine
 10
4719.3573618883
 20
7854.3723216918
 30
0.0
 11
4719.3573618883
 21
7852.6084047918
 31
0.0
  0
LINE
  5
128
330
1F
100
AcDbEntity
  8
0
  6
Continuous
 62
     7
100
AcDbLine
 10
4719.3573618883
 20
7868.4834094068
 30
0.0
 11
4719.3573618883
 21
7866.7200911128
 31
0.0
  0
LINE
  5
129
330
1F
100
AcDbEntity
  8
0
  6
Continuous
 62
     7
100
AcDbLine
 10
4719.3573618883
 20
7882.5944962365
 30
0.0
 11
4719.3573618883
 21
7880.831294963
 31
0.0
  0
LINE
  5
12A
330
1F
100
AcDbEntity
  8
0
  6
Continuous
 62
     7
100
AcDbLine
 10
4861.7194989856
 20
7894.0598107701
 30
0.0
 11
4861.7194984118
 21
7894.0945330116
 31
0.0
  0
LINE
  5
12B
330
1F
100
AcDbEntity
  8
0
  6
Continuous
 62
     7
100
AcDbLine
 10
4860.4515822412
 20
7893.6320455385
 30
0.0
 11
4860.4541885213
 21
7894.0945330116
 31
0.0
  0
LINE
  5
12C
330
1F
100
AcDbEntity
  8
0
  6
Continuous
 62
     7
100
AcDbLine
 10
4730.706296117
 20
7721.0945330116
 30
0.0
 11
4734.8573618883
 21
7701.0945330116
 31
0.0
  0
LINE
  5
12D
330
1F
100
AcDbEntity
  8
0
  6
Continuous
 62
     7
100
AcDbLine
 10
4853.8573618883
 20
7701.0945330116
 30
0.0
 11
4858.0084276596
 21
7721.0945330116
 31
0.0
  0
LINE
  5
12E
330
1F
100
AcDbEntity
  8
0
  6
Continuous
 62
     7
100
AcDbLine
 10
4894.3573618883
 20
7769.0945330116
 30
0.0
 11
4894.3573618883
 21
7849.0945330116
 31
0.0
  0
LINE
  5
12F
330
1F
100
AcDbEntity
  8
0
  6
Continuous
 62
     7
100
AcDbLine
 10
4694.3573618883
 20
7944.4293431379
 30
0.0
 11
4694.3573618883
 21
7894.0945330116
 31
0.0
  0
LINE
  5
130
330
1F
100
AcDbEntity
  8
0
  6
Continuous
 62
     7
100
AcDbLine
 10
4694.3573618883
 20
7849.0945330116
 30
0.0
 11
4694.3573618883
 21
7769.0945330116
 31
0.0
  0
LINE
  5
131
330
1F
100
AcDbEntity
  8
0
  6
Continuous
 62
     7
100
AcDbLine
 10
4894.3573618883
 20
7894.0945330116
 30
0.0
 11
4894.3573618883
 21
7944.4293431379
 31
0.0
  0
LINE
  5
132
330
1F
100
AcDbEntity
  8
0
  6
Continuous
 62
     7
100
AcDbLine
 10
4739.3573618883
 20
8998.7020035941
 30
0.0
 11
4739.3573618883
 21
8974.4293431379
 31
0.0
  0
LINE
  5
133
330
1F
100
AcDbEntity
  8
0
  6
Continuous
 62
     7
100
AcDbLine
 10
4889.3573618883
 20
8974.4293431379
 30
0.0
 11
4889.3573618883
 21
8998.7020035941
 31
0.0
  0
LINE
  5
134
330
1F
100
AcDbEntity
  8
0
  6
Continuous
 62
     7
100
AcDbLine
 10
4751.8573618883
 20
8881.7293431379
 30
0.0
 11
4751.8573618883
 21
8864.4293431379
 31
0.0
  0
LINE
  5
135
330
1F
100
AcDbEntity
  8
0
  6
Continuous
 62
     7
100
AcDbLine
 10
4876.8573618883
 20
8864.4293431379
 30
0.0
 11
4876.8573618883
 21
8881.7293431379
 31
0.0
  0
LINE
  5
136
330
1F
100
AcDbEntity
  8
0
  6
Continuous
 62
     7
100
AcDbLine
 10
4876.8573618883
 20
8881.7293431379
 30
0.0
 11
4870.8573618883
 21
8888.0793431379
 31
0.0
  0
LINE
  5
137
330
1F
100
AcDbEntity
  8
0
  6
Continuous
 62
     7
100
AcDbLine
 10
4757.8573618883
 20
8888.0793431379
 30
0.0
 11
4751.8573618883
 21
8881.7293431379
 31
0.0
  0
LINE
  5
138
330
1F
100
AcDbEntity
  8
0
  6
Continuous
 62
     7
100
AcDbLine
 10
4751.8573618883
 20
8894.4293431379
 30
0.0
 11
4757.8573618883
 21
8888.0793431379
 31
0.0
  0
LINE
  5
139
330
1F
100
AcDbEntity
  8
0
  6
Continuous
 62
     7
100
AcDbLine
 10
4870.8573618883
 20
8888.0793431379
 30
0.0
 11
4876.8573618883
 21
8894.4293431379
 31
0.0
  0
LINE
  5
13A
330
1F
100
AcDbEntity
  8
0
  6
Continuous
 62
     7
100
AcDbLine
 10
4592.8928957943
 20
7945.893809232
 30
0.0
 11
4592.8928957943
 21
8004.4293431379
 31
0.0
  0
LINE
  5
13B
330
1F
100
AcDbEntity
  8
0
  6
Continuous
 62
     7
100
AcDbLine
 10
4592.8928957943
 20
8004.4293431379
 30
0.0
 11
4596.4284297002
 21
8004.4293431379
 31
0.0
  0
LINE
  5
13C
330
1F
100
AcDbEntity
  8
0
  6
Continuous
 62
     7
100
AcDbLine
 10
4596.4284297002
 20
8004.4293431379
 30
0.0
 11
4596.4284297002
 21
7944.4293431379
 31
0.0
  0
LINE
  5
13D
330
1F
100
AcDbEntity
  8
0
  6
Continuous
 62
     7
100
AcDbLine
 10
4592.8928957943
 20
8004.4293431379
 30
0.0
 11
4592.8928957943
 21
8754.4293431379
 31
0.0
  0
LINE
  5
13E
330
1F
100
AcDbEntity
  8
0
  6
Continuous
 62
     7
100
AcDbLine
 10
4592.8928957943
 20
8754.4293431379
 30
0.0
 11
4596.4284297002
 21
8754.4293431379
 31
0.0
  0
LINE
  5
13F
330
1F
100
AcDbEntity
  8
0
  6
Continuous
 62
     7
100
AcDbLine
 10
4596.4284297002
 20
8754.4293431379
 30
0.0
 11
4596.4284297002
 21
8004.4293431379
 31
0.0
  0
LINE
  5
140
330
1F
100
AcDbEntity
  8
0
  6
Continuous
 62
     7
100
AcDbLine
 10
4694.3573618883
 20
8004.4293431379
 30
0.0
 11
4694.3573618883
 21
7944.4293431379
 31
0.0
  0
LINE
  5
141
330
1F
100
AcDbEntity
  8
0
  6
Continuous
 62
     7
100
AcDbLine
 10
4694.3573618883
 20
7944.4293431379
 30
0.0
 11
4596.4284297002
 21
7944.4293431379
 31
0.0
  0
LINE
  5
142
330
1F
100
AcDbEntity
  8
0
  6
Continuous
 62
     7
100
AcDbLine
 10
4596.4284297002
 20
8004.4293431379
 30
0.0
 11
4694.3573618883
 21
8004.4293431379
 31
0.0
  0
LINE
  5
143
330
1F
100
AcDbEntity
  8
0
  6
Continuous
 62
     7
100
AcDbLine
 10
4694.3573618883
 20
8754.4293431379
 30
0.0
 11
4694.3573618883
 21
8004.4293431379
 31
0.0
  0
LINE
  5
144
330
1F
100
AcDbEntity
  8
0
  6
Continuous
 62
     7
100
AcDbLine
 10
4694.3573618883
 20
8754.4293431379
 30
0.0
 11
4596.4284297002
 21
8754.4293431379
 31
0.0
  0
LINE
  5
145
330
1F
100
AcDbEntity
  8
0
  6
Continuous
 62
     7
100
AcDbLine
 10
4596.4284297002
 20
8814.4293431379
 30
0.0
 11
4596.4284297002
 21
8754.4293431379
 31
0.0
  0
LINE
  5
146
330
1F
100
AcDbEntity
  8
0
  6
Continuous
 62
     7
100
AcDbLine
 10
4596.4284297002
 20
8814.4293431379
 30
0.0
 11
4694.3573618883
 21
8814.4293431379
 31
0.0
  0
LINE
  5
147
330
1F
100
AcDbEntity
  8
0
  6
Continuous
 62
     7
100
AcDbLine
 10
4694.3573618883
 20
8814.4293431379
 30
0.0
 11
4694.3573618883
 21
8754.4293431379
 31
0.0
  0
LINE
  5
148
330
1F
100
AcDbEntity
  8
0
  6
Continuous
 62
     7
100
AcDbLine
 10
4592.8928957943
 20
8754.4293431379
 30
0.0
 11
4592.8928957943
 21
8812.9648770438
 31
0.0
  0
LINE
  5
149
330
1F
100
AcDbEntity
  8
0
  6
Continuous
 62
     7
100
AcDbLine
 10
4592.8928957943
 20
7945.893809232
 30
0.0
 11
4575.8218279824
 21
7962.9648770438
 31
0.0
  0
LINE
  5
14A
330
1F
100
AcDbEntity
  8
0
  6
Continuous
 62
     7
100
AcDbLine
 10
4575.8218279824
 20
8004.4293431379
 30
0.0
 11
4575.8218279824
 21
7962.9648770438
 31
0.0
  0
LINE
  5
14B
330
1F
100
AcDbEntity
  8
0
  6
Continuous
 62
     7
100
AcDbLine
 10
4575.8218279824
 20
8004.4293431379
 30
0.0
 11
4592.8928957943
 21
8004.4293431379
 31
0.0
  0
LINE
  5
14C
330
1F
100
AcDbEntity
  8
0
  6
Continuous
 62
     7
100
AcDbLine
 10
4575.8218279824
 20
8754.4293431379
 30
0.0
 11
4575.8218279824
 21
8004.4293431379
 31
0.0
  0
LINE
  5
14D
330
1F
100
AcDbEntity
  8
0
  6
Continuous
 62
     7
100
AcDbLine
 10
4575.8218279824
 20
8754.4293431379
 30
0.0
 11
4592.8928957943
 21
8754.4293431379
 31
0.0
  0
LINE
  5
14E
330
1F
100
AcDbEntity
  8
0
  6
Continuous
 62
     7
100
AcDbLine
 10
4575.8218279824
 20
8795.893809232
 30
0.0
 11
4575.8218279824
 21
8754.4293431379
 31
0.0
  0
LINE
  5
14F
330
1F
100
AcDbEntity
  8
0
  6
Continuous
 62
     7
100
AcDbLine
 10
4575.8218279824
 20
8795.893809232
 30
0.0
 11
4592.8928957943
 21
8812.9648770438
 31
0.0
  0
LINE
  5
150
330
1F
100
AcDbEntity
  8
0
  6
Continuous
 62
     7
100
AcDbLine
 10
4574.3573618883
 20
7966.5004109498
 30
0.0
 11
4574.3573618883
 21
8004.4293431379
 31
0.0
  0
LINE
  5
151
330
1F
100
AcDbEntity
  8
0
  6
Continuous
 62
     7
100
AcDbLine
 10
4575.8218279824
 20
8004.4293431379
 30
0.0
 11
4574.3573618883
 21
8004.4293431379
 31
0.0
  0
LINE
  5
152
330
1F
100
AcDbEntity
  8
0
  6
Continuous
 62
     7
100
AcDbLine
 10
4574.3573618883
 20
8004.4293431379
 30
0.0
 11
4574.3573618883
 21
8754.4293431379
 31
0.0
  0
LINE
  5
153
330
1F
100
AcDbEntity
  8
0
  6
Continuous
 62
     7
100
AcDbLine
 10
4575.8218279824
 20
8754.4293431379
 30
0.0
 11
4574.3573618883
 21
8754.4293431379
 31
0.0
  0
LINE
  5
154
330
1F
100
AcDbEntity
  8
0
  6
Continuous
 62
     7
100
AcDbLine
 10
4574.3573618883
 20
8754.4293431379
 30
0.0
 11
4574.3573618883
 21
8792.358275326
 31
0.0
  0
LINE
  5
155
330
1F
100
AcDbEntity
  8
0
  6
Continuous
 62
     7
100
AcDbLine
 10
4754.4447727118
 20
7769.0945330116
 30
0.0
 11
4736.9970217846
 21
7769.0945330116
 31
0.0
  0
LINE
  5
156
330
1F
100
AcDbEntity
  8
0
  6
Continuous
 62
     7
100
AcDbLine
 10
4851.7177019921
 20
7769.0945330116
 30
0.0
 11
4834.2699510649
 21
7769.0945330116
 31
0.0
  0
LINE
  5
157
330
1F
100
AcDbEntity
  8
0
  6
Continuous
 62
     7
100
AcDbLine
 10
4894.3573618883
 20
7769.0945330116
 30
0.0
 11
4894.0163898782
 21
7769.0945330116
 31
0.0
  0
LINE
  5
158
330
1F
100
AcDbEntity
  8
0
  6
Continuous
 62
     7
100
AcDbLine
 10
4694.6983338985
 20
7769.0945330116
 30
0.0
 11
4694.3573618883
 21
7769.0945330116
 31
0.0
  0
LINE
  5
159
330
1F
100
AcDbEntity
  8
0
  6
Continuous
 62
     7
100
AcDbLine
 10
4878.8286400026
 20
7759.0945330116
 30
0.0
 11
4709.8860837741
 21
7759.0945330116
 31
0.0
  0
LINE
  5
15A
330
1F
100
AcDbEntity
  8
0
  6
Continuous
 62
     7
100
AcDbLine
 10
4754.4447727118
 20
7769.0945330116
 30
0.0
 11
4754.4447727118
 21
7849.0945330116
 31
0.0
  0
LINE
  5
15B
330
1F
100
AcDbEntity
  8
0
  6
Continuous
 62
     7
100
AcDbLine
 10
4834.2699510649
 20
7849.0945330116
 30
0.0
 11
4754.4447727118
 21
7849.0945330116
 31
0.0
  0
LINE
  5
15C
330
1F
100
AcDbEntity
  8
0
  6
Continuous
 62
     7
100
AcDbLine
 10
4834.2699510649
 20
7769.0945330116
 30
0.0
 11
4834.2699510649
 21
7849.0945330116
 31
0.0
  0
LINE
  5
15D
330
1F
100
AcDbEntity
  8
0
  6
Continuous
 62
     7
100
AcDbLine
 10
4754.4447727118
 20
7894.0945330116
 30
0.0
 11
4754.4447727118
 21
7944.4293431379
 31
0.0
  0
LINE
  5
15E
330
1F
100
AcDbEntity
  8
0
  6
Continuous
 62
     7
100
AcDbLine
 10
4736.9970217846
 20
7894.0945330116
 30
0.0
 11
4736.9970217846
 21
7944.4293431379
 31
0.0
  0
LINE
  5
15F
330
1F
100
AcDbEntity
  8
0
  6
Continuous
 62
     7
100
AcDbLine
 10
4754.4447727118
 20
7894.0945330116
 30
0.0
 11
4736.9970217846
 21
7894.0945330116
 31
0.0
  0
LINE
  5
160
330
1F
100
AcDbEntity
  8
0
  6
Continuous
 62
     7
100
AcDbLine
 10
4754.4447727118
 20
7849.0945330116
 30
0.0
 11
4736.9970217846
 21
7849.0945330116
 31
0.0
  0
LINE
  5
161
330
1F
100
AcDbEntity
  8
0
  6
Continuous
 62
     7
100
AcDbLine
 10
4736.9970217846
 20
7769.0945330116
 30
0.0
 11
4736.9970217846
 21
7849.0945330116
 31
0.0
  0
LINE
  5
162
330
1F
100
AcDbEntity
  8
0
  6
Continuous
 62
     7
100
AcDbLine
 10
4834.2699510649
 20
7894.0945330116
 30
0.0
 11
4834.2699510649
 21
7944.4293431379
 31
0.0
  0
LINE
  5
163
330
1F
100
AcDbEntity
  8
0
  6
Continuous
 62
     7
100
AcDbLine
 10
4754.4447727118
 20
7894.0945330116
 30
0.0
 11
4834.2699510649
 21
7894.0945330116
 31
0.0
  0
LINE
  5
164
330
1F
100
AcDbEntity
  8
0
  6
Continuous
 62
     7
100
AcDbLine
 10
4851.7177019921
 20
7849.0945330116
 30
0.0
 11
4834.2699510649
 21
7849.0945330116
 31
0.0
  0
LINE
  5
165
330
1F
100
AcDbEntity
  8
0
  6
Continuous
 62
     7
100
AcDbLine
 10
4851.7177019921
 20
7769.0945330116
 30
0.0
 11
4851.7177019921
 21
7849.0945330116
 31
0.0
  0
LINE
  5
166
330
1F
100
AcDbEntity
  8
0
  6
Continuous
 62
     7
100
AcDbLine
 10
4851.7177019921
 20
7894.0945330116
 30
0.0
 11
4851.7177019921
 21
7944.4293431379
 31
0.0
  0
LINE
  5
167
330
1F
100
AcDbEntity
  8
0
  6
Continuous
 62
     7
100
AcDbLine
 10
4851.7177019921
 20
7894.0945330116
 30
0.0
 11
4834.2699510649
 21
7894.0945330116
 31
0.0
  0
LINE
  5
168
330
1F
100
AcDbEntity
  8
0
  6
Continuous
 62
     7
100
AcDbLine
 10
4858.0084276596
 20
7721.0945330116
 30
0.0
 11
4730.706296117
 21
7721.0945330116
 31
0.0
  0
LINE
  5
169
330
1F
100
AcDbEntity
  8
0
  6
Continuous
 62
     7
100
AcDbLine
 10
4894.0163898782
 20
7894.0945330116
 30
0.0
 11
4894.0163898782
 21
7944.4293431379
 31
0.0
  0
LINE
  5
16A
330
1F
100
AcDbEntity
  8
0
  6
Continuous
 62
     7
100
AcDbLine
 10
4851.7177019921
 20
7894.0945330116
 30
0.0
 11
4894.0163898782
 21
7894.0945330116
 31
0.0
  0
LINE
  5
16B
330
1F
100
AcDbEntity
  8
0
  6
Continuous
 62
     7
100
AcDbLine
 10
4694.6983338985
 20
7894.0945330116
 30
0.0
 11
4694.6983338985
 21
7944.4293431379
 31
0.0
  0
LINE
  5
16C
330
1F
100
AcDbEntity
  8
0
  6
Continuous
 62
     7
100
AcDbLine
 10
4694.6983338985
 20
7894.0945330116
 30
0.0
 11
4736.9970217846
 21
7894.0945330116
 31
0.0
  0
LINE
  5
16D
330
1F
100
AcDbEntity
  8
0
  6
Continuous
 62
     7
100
AcDbLine
 10
4894.0163898782
 20
7769.0945330116
 30
0.0
 11
4894.0163898782
 21
7849.0945330116
 31
0.0
  0
LINE
  5
16E
330
1F
100
AcDbEntity
  8
0
  6
Continuous
 62
     7
100
AcDbLine
 10
4894.0163898782
 20
7849.0945330116
 30
0.0
 11
4851.7177019921
 21
7849.0945330116
 31
0.0
  0
LINE
  5
16F
330
1F
100
AcDbEntity
  8
0
  6
Continuous
 62
     7
100
AcDbLine
 10
4694.6983338985
 20
7769.0945330116
 30
0.0
 11
4694.6983338985
 21
7849.0945330116
 31
0.0
  0
LINE
  5
170
330
1F
100
AcDbEntity
  8
0
  6
Continuous
 62
     7
100
AcDbLine
 10
4736.9970217846
 20
7849.0945330116
 30
0.0
 11
4694.6983338985
 21
7849.0945330116
 31
0.0
  0
LINE
  5
171
330
1F
100
AcDbEntity
  8
0
  6
Continuous
 62
     7
100
AcDbLine
 10
4719.5821853792
 20
7866.6121031988
 30
0.0
 11
4719.3670196354
 21
7866.6852251087
 31
0.0
  0
LINE
  5
172
330
1F
100
AcDbEntity
  8
0
  6
Continuous
 62
     7
100
AcDbLine
 10
4719.5271191044
 20
7880.7238191114
 30
0.0
 11
4719.3969935361
 21
7880.7608539906
 31
0.0
  0
LINE
  5
173
330
1F
100
AcDbEntity
  8
0
  6
Continuous
 62
     7
100
AcDbLine
 10
4853.8573618883
 20
7701.0945330116
 30
0.0
 11
4734.8573618883
 21
7701.0945330116
 31
0.0
  0
LINE
  5
174
330
1F
100
AcDbEntity
  8
0
  6
Continuous
 62
     7
100
AcDbLine
 10
4894.3573618883
 20
7849.0945330116
 30
0.0
 11
4894.0163898782
 21
7849.0945330116
 31
0.0
  0
LINE
  5
175
330
1F
100
AcDbEntity
  8
0
  6
Continuous
 62
     7
100
AcDbLine
 10
4694.6983338985
 20
7894.0945330116
 30
0.0
 11
4694.3573618883
 21
7894.0945330116
 31
0.0
  0
LINE
  5
176
330
1F
100
AcDbEntity
  8
0
  6
Continuous
 62
     7
100
AcDbLine
 10
4694.6983338985
 20
7849.0945330116
 30
0.0
 11
4694.3573618883
 21
7849.0945330116
 31
0.0
  0
LINE
  5
177
330
1F
100
AcDbEntity
  8
0
  6
Continuous
 62
     7
100
AcDbLine
 10
4894.3573618883
 20
7894.0945330116
 30
0.0
 11
4894.0163898782
 21
7894.0945330116
 31
0.0
  0
LINE
  5
178
330
1F
100
AcDbEntity
  8
0
  6
Continuous
 62
     7
100
AcDbLine
 10
4886.4983780397
 20
8864.4293431379
 30
0.0
 11
4886.4983780397
 21
8814.4293431379
 31
0.0
  0
LINE
  5
179
330
1F
100
AcDbEntity
  8
0
  6
Continuous
 62
     7
100
AcDbLine
 10
4817.216345737
 20
8864.4293431379
 30
0.0
 11
4817.216345737
 21
8814.4293431379
 31
0.0
  0
LINE
  5
17A
330
1F
100
AcDbEntity
  8
0
  6
Continuous
 62
     7
100
AcDbLine
 10
4886.4983780397
 20
8864.4293431379
 30
0.0
 11
4817.216345737
 21
8864.4293431379
 31
0.0
  0
LINE
  5
17B
330
1F
100
AcDbEntity
  8
0
  6
Continuous
 62
     7
100
AcDbLine
 10
4811.4983780397
 20
8864.4293431379
 30
0.0
 11
4811.4983780397
 21
8814.4293431379
 31
0.0
  0
LINE
  5
17C
330
1F
100
AcDbEntity
  8
0
  6
Continuous
 62
     7
100
AcDbLine
 10
4811.4983780397
 20
8864.4293431379
 30
0.0
 11
4817.216345737
 21
8864.4293431379
 31
0.0
  0
LINE
  5
17D
330
1F
100
AcDbEntity
  8
0
  6
Continuous
 62
     7
100
AcDbLine
 10
4742.216345737
 20
8864.4293431379
 30
0.0
 11
4742.216345737
 21
8814.4293431379
 31
0.0
  0
LINE
  5
17E
330
1F
100
AcDbEntity
  8
0
  6
Continuous
 62
     7
100
AcDbLine
 10
4811.4983780397
 20
8864.4293431379
 30
0.0
 11
4742.216345737
 21
8864.4293431379
 31
0.0
  0
LINE
  5
17F
330
1F
100
AcDbEntity
  8
0
  6
Continuous
 62
     7
100
AcDbLine
 10
4889.3573618883
 20
8864.4293431379
 30
0.0
 11
4889.3573618883
 21
8814.4293431379
 31
0.0
  0
LINE
  5
180
330
1F
100
AcDbEntity
  8
0
  6
Continuous
 62
     7
100
AcDbLine
 10
4886.4983780397
 20
8864.4293431379
 30
0.0
 11
4889.3573618883
 21
8864.4293431379
 31
0.0
  0
LINE
  5
181
330
1F
100
AcDbEntity
  8
0
  6
Continuous
 62
     7
100
AcDbLine
 10
4739.3573618883
 20
8864.4293431379
 30
0.0
 11
4739.3573618883
 21
8814.4293431379
 31
0.0
  0
LINE
  5
182
330
1F
100
AcDbEntity
  8
0
  6
Continuous
 62
     7
100
AcDbLine
 10
4739.3573618883
 20
8864.4293431379
 30
0.0
 11
4742.216345737
 21
8864.4293431379
 31
0.0
  0
LINE
  5
183
330
1F
100
AcDbEntity
  8
0
  6
Continuous
 62
     7
100
AcDbLine
 10
4817.216345737
 20
8968.655840446
 30
0.0
 11
4817.216345737
 21
8894.4293431379
 31
0.0
  0
LINE
  5
184
330
1F
100
AcDbEntity
  8
0
  6
Continuous
 62
     7
100
AcDbLine
 10
4886.4983780397
 20
8968.655840446
 30
0.0
 11
4886.4983780397
 21
8894.4293431379
 31
0.0
  0
LINE
  5
185
330
1F
100
AcDbEntity
  8
0
  6
Continuous
 62
     7
100
AcDbLine
 10
4817.216345737
 20
8894.4293431379
 30
0.0
 11
4886.4983780397
 21
8894.4293431379
 31
0.0
  0
LINE
  5
186
330
1F
100
AcDbEntity
  8
0
  6
Continuous
 62
     7
100
AcDbLine
 10
4851.8573618883
 20
8974.4293431379
 30
0.0
 11
4889.3573618883
 21
8974.4293431379
 31
0.0
  0
LINE
  5
187
330
1F
100
AcDbEntity
  8
0
  6
Continuous
 62
     7
100
AcDbLine
 10
4776.8573618883
 20
8974.4293431379
 30
0.0
 11
4851.8573618883
 21
8974.4293431379
 31
0.0
  0
LINE
  5
188
330
1F
100
AcDbEntity
  8
0
  6
Continuous
 62
     7
100
AcDbLine
 10
4739.3573618883
 20
8974.4293431379
 30
0.0
 11
4776.8573618883
 21
8974.4293431379
 31
0.0
  0
LINE
  5
189
330
1F
100
AcDbEntity
  8
0
  6
Continuous
 62
     7
100
AcDbLine
 10
4761.8573618883
 20
9024.4293431379
 30
0.0
 11
4866.8573618883
 21
9024.4293431379
 31
0.0
  0
LINE
  5
18A
330
1F
100
AcDbEntity
  8
0
  6
Continuous
 62
     7
100
AcDbLine
 10
4811.4983780397
 20
8968.655840446
 30
0.0
 11
4817.216345737
 21
8968.655840446
 31
0.0
  0
LINE
  5
18B
330
1F
100
AcDbEntity
  8
0
  6
Continuous
 62
     7
100
AcDbLine
 10
4811.4983780397
 20
8968.655840446
 30
0.0
 11
4811.4983780397
 21
8894.4293431379
 31
0.0
  0
LINE
  5
18C
330
1F
100
AcDbEntity
  8
0
  6
Continuous
 62
     7
100
AcDbLine
 10
4811.4983780397
 20
8894.4293431379
 30
0.0
 11
4817.216345737
 21
8894.4293431379
 31
0.0
  0
LINE
  5
18D
330
1F
100
AcDbEntity
  8
0
  6
Continuous
 62
     7
100
AcDbLine
 10
4783.1073618883
 20
8881.7293431379
 30
0.0
 11
4751.8573618883
 21
8881.7293431379
 31
0.0
  0
LINE
  5
18E
330
1F
100
AcDbEntity
  8
0
  6
Continuous
 62
     7
100
AcDbLine
 10
4876.8573618883
 20
8881.7293431379
 30
0.0
 11
4783.1073618883
 21
8881.7293431379
 31
0.0
  0
LINE
  5
18F
330
1F
100
AcDbEntity
  8
0
  6
Continuous
 62
     7
100
AcDbLine
 10
4786.1073618883
 20
8888.0793431379
 30
0.0
 11
4757.8573618883
 21
8888.0793431379
 31
0.0
  0
LINE
  5
190
330
1F
100
AcDbEntity
  8
0
  6
Continuous
 62
     7
100
AcDbLine
 10
4870.8573618883
 20
8888.0793431379
 30
0.0
 11
4786.1073618883
 21
8888.0793431379
 31
0.0
  0
LINE
  5
191
330
1F
100
AcDbEntity
  8
0
  6
Continuous
 62
     7
100
AcDbLine
 10
4742.216345737
 20
8968.655840446
 30
0.0
 11
4742.216345737
 21
8894.4293431379
 31
0.0
  0
LINE
  5
192
330
1F
100
AcDbEntity
  8
0
  6
Continuous
 62
     7
100
AcDbLine
 10
4742.216345737
 20
8894.4293431379
 30
0.0
 11
4811.4983780397
 21
8894.4293431379
 31
0.0
  0
LINE
  5
193
330
1F
100
AcDbEntity
  8
0
  6
Continuous
 62
     7
100
AcDbLine
 10
4886.4983780397
 20
8968.655840446
 30
0.0
 11
4889.3573618883
 21
8968.655840446
 31
0.0
  0
LINE
  5
194
330
1F
100
AcDbEntity
  8
0
  6
Continuous
 62
     7
100
AcDbLine
 10
4739.3573618883
 20
8968.655840446
 30
0.0
 11
4742.216345737
 21
8968.655840446
 31
0.0
  0
LINE
  5
195
330
1F
100
AcDbEntity
  8
0
  6
Continuous
 62
     7
100
AcDbLine
 10
4889.3573618883
 20
8968.655840446
 30
0.0
 11
4889.3573618883
 21
8894.4293431379
 31
0.0
  0
LINE
  5
196
330
1F
100
AcDbEntity
  8
0
  6
Continuous
 62
     7
100
AcDbLine
 10
4886.4983780397
 20
8894.4293431379
 30
0.0
 11
4889.3573618883
 21
8894.4293431379
 31
0.0
  0
LINE
  5
197
330
1F
100
AcDbEntity
  8
0
  6
Continuous
 62
     7
100
AcDbLine
 10
4739.3573618883
 20
8968.655840446
 30
0.0
 11
4739.3573618883
 21
8894.4293431379
 31
0.0
  0
LINE
  5
198
330
1F
100
AcDbEntity
  8
0
  6
Continuous
 62
     7
100
AcDbLine
 10
4739.3573618883
 20
8894.4293431379
 30
0.0
 11
4742.216345737
 21
8894.4293431379
 31
0.0
  0
LINE
  5
199
330
1F
100
AcDbEntity
  8
0
  6
Continuous
 62
     7
100
AcDbLine
 10
4694.3573618883
 20
8004.4293431379
 30
0.0
 11
4994.3573618883
 21
8004.4293431379
 31
0.0
  0
LINE
  5
19A
330
1F
100
AcDbEntity
  8
0
  6
Continuous
 62
     7
100
AcDbLine
 10
4994.3573618883
 20
8004.4293431379
 30
0.0
 11
4994.3573618883
 21
7944.4293431379
 31
0.0
  0
LINE
  5
19B
330
1F
100
AcDbEntity
  8
0
  6
Continuous
 62
     7
100
AcDbLine
 10
4994.3573618883
 20
7944.4293431379
 30
0.0
 11
4694.3573618883
 21
7944.4293431379
 31
0.0
  0
LINE
  5
19C
330
1F
100
AcDbEntity
  8
0
  6
Continuous
 62
     7
100
AcDbLine
 10
4994.3573618883
 20
8754.4293431379
 30
0.0
 11
4694.3573618883
 21
8754.4293431379
 31
0.0
  0
LINE
  5
19D
330
1F
100
AcDbEntity
  8
0
  6
Continuous
 62
     7
100
AcDbLine
 10
4994.3573618883
 20
8004.4293431379
 30
0.0
 11
4994.3573618883
 21
8754.4293431379
 31
0.0
  0
LINE
  5
19E
330
1F
100
AcDbEntity
  8
0
  6
Continuous
 62
     7
100
AcDbLine
 10
4694.3573618883
 20
8814.4293431379
 30
0.0
 11
4994.3573618883
 21
8814.4293431379
 31
0.0
  0
LINE
  5
19F
330
1F
100
AcDbEntity
  8
0
  6
Continuous
 62
     7
100
AcDbLine
 10
4994.3573618883
 20
8814.4293431379
 30
0.0
 11
4994.3573618883
 21
8754.4293431379
 31
0.0
  0
LINE
  5
1A0
330
1F
100
AcDbEntity
  8
0
  6
Continuous
 62
     7
100
AcDbLine
 10
4889.3573618883
 20
8998.7020035941
 30
0.0
 11
4739.3573618883
 21
8998.7020035941
 31
0.0
  0
LINE
  5
1A1
330
1F
100
AcDbEntity
  8
0
  6
Continuous
 62
     7
100
AcDbLine
 10
1936.1343383789
 20
5841.1060705951
 30
0.0
 11
1976.1343888262
 21
5841.1060705951
 31
0.0
  0
LWPOLYLINE
  5
1A2
330
1F
100
AcDbEntity
  8
0
  6
Continuous
 62
     7
100
AcDbPolyline
 90
        3
 70
   128
 43
0.0
 10
1911.1824035645
 20
5803.6060705951
 10
1922.456635656
 20
5823.1334748683
 10
1931.1824835424
 20
5838.2470867465
  0
LINE
  5
1A3
330
1F
100
AcDbEntity
  8
0
  6
Continuous
 62
     7
100
AcDbLine
 10
1976.1343002319
 20
5841.1060705951
 30
0.0
 11
2016.1343888263
 21
5841.1060705951
 31
0.0
  0
LWPOLYLINE
  5
1A4
330
1F
100
AcDbEntity
  8
0
  6
Continuous
 62
     7
100
AcDbPolyline
 90
        3
 70
   128
 43
0.0
 10
2021.0857391357
 20
5838.2470867465
 10
2032.19105399
 20
5819.0130784286
 10
2041.08629411
 20
5803.6060705951
  0
LWPOLYLINE
  5
1A5
330
1F
100
AcDbEntity
  8
0
  6
Continuous
 62
     7
100
AcDbPolyline
 90
        3
 70
   128
 43
0.0
 10
1911.1824035645
 20
5728.6060705951
 10
1899.8855141568
 20
5748.1729955425
 10
1891.1824835424
 20
5763.2470867465
  0
LWPOLYLINE
  5
1A6
330
1F
100
AcDbEntity
  8
0
  6
Continuous
 62
     7
100
AcDbPolyline
 90
        3
 70
   128
 43
0.0
 10
1891.1819458008
 20
5768.9650544437
 10
1902.2894993797
 20
5788.2029701944
 10
1911.1824835424
 20
5803.6060705951
  0
LINE
  5
1A7
330
1F
100
AcDbEntity
  8
0
  6
Continuous
 62
     7
100
AcDbLine
 10
1976.1343002319
 20
5691.1060705951
 30
0.0
 11
1936.1343888261
 21
5691.1060705951
 31
0.0
  0
LWPOLYLINE
  5
1A8
330
1F
100
AcDbEntity
  8
0
  6
Continuous
 62
     7
100
AcDbPolyline
 90
        3
 70
   128
 43
0.0
 10
1931.1819076538
 20
5693.9650544437
 10
1920.0777236624
 20
5713.1990627617
 10
1911.1824835424
 20
5728.6060705951
  0
LWPOLYLINE
  5
1A9
330
1F
100
AcDbEntity
  8
0
  6
Continuous
 62
     7
100
AcDbPolyline
 90
        3
 70
   128
 43
0.0
 10
2041.0861968994
 20
5728.6060705951
 10
2029.7872384719
 20
5709.0355321523
 10
2021.08629411
 20
5693.9650544437
  0
LINE
  5
1AA
330
1F
100
AcDbEntity
  8
0
  6
Continuous
 62
     7
100
AcDbLine
 10
2016.134262085
 20
5691.1060705951
 30
0.0
 11
1976.1343888262
 21
5691.1060705951
 31
0.0
  0
LWPOLYLINE
  5
1AB
330
1F
100
AcDbEntity
  8
0
  6
Continuous
 62
     7
100
AcDbPolyline
 90
        3
 70
   128
 43
0.0
 10
2061.0847473145
 20
5763.2470867465
 10
2049.9647068371
 20
5743.9839325289
 10
2041.08629411
 20
5728.6060705951
  0
LWPOLYLINE
  5
1AC
330
1F
100
AcDbEntity
  8
0
  6
Continuous
 62
     7
100
AcDbPolyline
 90
        3
 70
   128
 43
0.0
 10
2041.0861968994
 20
5803.6060705951
 10
2052.3832634956
 20
5784.0391456477
 10
2061.08629411
 20
5768.9650544437
  0
LWPOLYLINE
  5
1AD
330
1F
100
AcDbEntity
  8
0
  6
Continuous
 62
     7
100
AcDbPolyline
 90
        3
 70
   128
 43
0.0
 10
1981.0428619385
 20
7850.9502829065
 10
1976.8172187998
 20
7853.3937001835
 10
1973.4965257653
 20
7855.3137333028
  0
LWPOLYLINE
  5
1AE
330
1F
100
AcDbEntity
  8
0
  6
Continuous
 62
     7
100
AcDbPolyline
 90
        3
 70
   128
 43
0.0
 10
1981.0428619385
 20
7865.0613940176
 10
1976.8172219605
 20
7867.5048121617
 10
1973.4965255683
 20
7869.4248445997
  0
LWPOLYLINE
  5
1AF
330
1F
100
AcDbEntity
  8
0
  6
Continuous
 62
     7
100
AcDbPolyline
 90
        3
 70
   128
 43
0.0
 10
1981.0428619385
 20
7879.1725051287
 10
1976.8172243438
 20
7881.6159231897
 10
1973.4965252928
 20
7883.5359559043
  0
LWPOLYLINE
  5
1B0
330
1F
100
AcDbEntity
  8
0
  6
Continuous
 62
     7
100
AcDbPolyline
 90
        3
 70
   128
 43
0.0
 10
1838.8729095459
 20
7862.4277495728
 10
1834.5903920988
 20
7859.9513655142
 10
1831.2250980547
 20
7858.0058429414
  0
LWPOLYLINE
  5
1B1
330
1F
100
AcDbEntity
  8
0
  6
Continuous
 62
     7
100
AcDbPolyline
 90
        3
 70
   128
 43
0.0
 10
1838.8729095459
 20
7876.5388606839
 10
1834.5903888016
 20
7874.0624773945
 10
1831.2250980547
 20
7872.1169540525
  0
LWPOLYLINE
  5
1B2
330
1F
100
AcDbEntity
  8
0
  6
Continuous
 62
     7
100
AcDbPolyline
 90
        3
 70
   128
 43
0.0
 10
1838.8729095459
 20
7890.649971795
 10
1834.5903862467
 20
7888.1735883088
 10
1831.2250980547
 20
7886.2280651636
  0
LWPOLYLINE
  5
1B3
330
1F
100
AcDbEntity
  8
0
  6
Continuous
 62
     7
100
AcDbPolyline
 90
        3
 70
   128
 43
0.0
 10
1973.3953475952
 20
7858.6640993529
 10
1977.6783742541
 20
7861.1404964799
 10
1981.0436880322
 20
7863.0860057846
  0
LWPOLYLINE
  5
1B4
330
1F
100
AcDbEntity
  8
0
  6
Continuous
 62
     7
100
AcDbPolyline
 90
        3
 70
   128
 43
0.0
 10
1973.3953475952
 20
7872.775210464
 10
1977.6783677923
 20
7875.2516135226
 10
1981.0436880322
 20
7877.1971168957
  0
LWPOLYLINE
  5
1B5
330
1F
100
AcDbEntity
  8
0
  6
Continuous
 62
     7
100
AcDbPolyline
 90
        3
 70
   128
 43
0.0
 10
1973.3953475952
 20
7886.8863215751
 10
1977.6783608145
 20
7889.3627316619
 10
1981.0436880322
 20
7891.3082280068
  0
LWPOLYLINE
  5
1B6
330
1F
100
AcDbEntity
  8
0
  6
Continuous
 62
     7
100
AcDbPolyline
 90
        3
 70
   128
 43
0.0
 10
1831.2244415283
 20
7856.0304467139
 10
1835.4515748901
 20
7853.58703961
 10
1838.7722517697
 20
7851.6669997882
  0
LWPOLYLINE
  5
1B7
330
1F
100
AcDbEntity
  8
0
  6
Continuous
 62
     7
100
AcDbPolyline
 90
        3
 70
   128
 43
0.0
 10
1831.2244415283
 20
7870.1415578251
 10
1835.451580792
 20
7867.6981555881
 10
1838.772251889
 20
7865.7781110524
  0
LWPOLYLINE
  5
1B8
330
1F
100
AcDbEntity
  8
0
  6
Continuous
 62
     7
100
AcDbPolyline
 90
        3
 70
   128
 43
0.0
 10
1831.2244415283
 20
7884.2526689362
 10
1835.4515872841
 20
7881.8092726234
 10
1838.7722520871
 20
7879.8892223086
  0
LWPOLYLINE
  5
1B9
330
1F
100
AcDbEntity
  8
0
  6
Continuous
 62
     7
100
AcDbPolyline
 90
        3
 70
   128
 43
0.0
 10
1973.4964370728
 20
7855.2542571179
 10
1973.4965224236
 20
7857.1965043703
 10
1973.4965257652
 20
7858.7225555749
  0
LWPOLYLINE
  5
1BA
330
1F
100
AcDbEntity
  8
0
  6
Continuous
 62
     7
100
AcDbPolyline
 90
        3
 70
   128
 43
0.0
 10
1973.4964370728
 20
7869.365368229
 10
1973.4965155622
 20
7871.307615968
 10
1973.4965255678
 20
7872.8336668318
  0
LWPOLYLINE
  5
1BB
330
1F
100
AcDbEntity
  8
0
  6
Continuous
 62
     7
100
AcDbPolyline
 90
        3
 70
   128
 43
0.0
 10
1973.4964370728
 20
7883.4764793401
 10
1973.496507517
 20
7885.4187278704
 10
1973.4965252916
 20
7886.9447780807
  0
LWPOLYLINE
  5
1BC
330
1F
100
AcDbEntity
  8
0
  6
Continuous
 62
     7
100
AcDbPolyline
 90
        3
 70
   128
 43
0.0
 10
1838.7718200684
 20
7851.7264831442
 10
1838.7722527417
 20
7850.2525910811
 10
1838.7722523389
 20
7849.0945330116
  0
LWPOLYLINE
  5
1BD
330
1F
100
AcDbEntity
  8
0
  6
Continuous
 62
     7
100
AcDbPolyline
 90
        3
 70
   128
 43
0.0
 10
1838.7718200684
 20
7865.8375942553
 10
1838.7722552623
 20
7863.8953434001
 10
1838.7722518888
 20
7862.3692889487
  0
LWPOLYLINE
  5
1BE
330
1F
100
AcDbEntity
  8
0
  6
Continuous
 62
     7
100
AcDbPolyline
 90
        3
 70
   128
 43
0.0
 10
1838.7718200684
 20
7879.9487053664
 10
1838.772262155
 20
7878.0064550201
 10
1838.7722520865
 20
7876.4804002456
  0
LWPOLYLINE
  5
1BF
330
1F
100
AcDbEntity
  8
0
  6
Continuous
 62
     7
100
AcDbPolyline
 90
        3
 70
   128
 43
0.0
 10
1838.7718200684
 20
7894.0598164775
 10
1838.7722702201
 20
7892.1175669536
 10
1838.7722523628
 20
7890.5915115502
  0
LWPOLYLINE
  5
1C0
330
1F
100
AcDbEntity
  8
0
  6
Continuous
 62
     7
100
AcDbPolyline
 90
        8
 70
   128
 43
0.0
 10
2216.1083221436
 20
7993.7856250239
 10
2205.7723271648
 20
7987.4226148553
 10
2193.8351000744
 20
7991.089964823
 10
2188.2905609014
 20
7998.8224986217
 10
2187.4213685893
 20
8008.3171542931
 10
2199.0027894397
 20
8022.7383700038
 10
2217.4540398646
 20
8020.8201610413
 10
2226.1343888262
 20
8004.4293431379
  0
LWPOLYLINE
  5
1C1
330
1F
100
AcDbEntity
  8
0
  6
Continuous
 62
     7
100
AcDbPolyline
 90
        3
 70
   128
 43
0.0
 10
2205.659866333
 20
7989.8496665191
 10
2211.9142398966
 20
7991.0302641478
 10
2216.1094471216
 20
7993.7856250239
  0
LWPOLYLINE
  5
1C2
330
1F
100
AcDbEntity
  8
0
  6
Continuous
 62
     7
100
AcDbPolyline
 90
       15
 70
   128
 43
0.0
 10
2206.1328887939
 20
8024.4293431379
 10
2194.8788518724
 20
8020.9395803671
 10
2187.6018492654
 20
8011.6526431677
 10
2186.9053136736
 20
7999.881465439
 10
2193.0776805256
 20
7989.8375913543
 10
2203.9140892028
 20
7985.2039779995
 10
2215.4152074323
 20
7987.7588390267
 10
2223.1859487054
 20
7996.6081608673
 10
2224.1018475911
 20
8008.343653291
 10
2214.27384137
 20
8020.2709983223
 10
2198.86087747
 20
8019.9276552769
 10
2191.5788130231
 20
8012.4019357467
 10
2190.3108097405
 20
8002.0183827453
 10
2195.7721833591
 20
7993.1203738093
 10
2205.6615749343
 20
7989.8496665191
  0
LWPOLYLINE
  5
1C3
330
1F
100
AcDbEntity
  8
0
  6
Continuous
 62
     7
100
AcDbPolyline
 90
        3
 70
   128
 43
0.0
 10
2199.0299224854
 20
8023.0162995368
 10
2197.6551460698
 20
8022.5027549914
 10
2196.725671499
 20
8021.7342477517
  0
LWPOLYLINE
  5
1C4
330
1F
100
AcDbEntity
  8
0
  6
Continuous
 62
     7
100
AcDbPolyline
 90
        5
 70
   128
 43
0.0
 10
2186.7733001709
 20
8001.2120679444
 10
2193.8721721026
 20
7988.6543554189
 10
2207.7857681637
 20
7984.4982497027
 10
2220.8556458089
 20
7990.8827676466
 10
2226.1343888262
 20
8004.4293431379
  0
LWPOLYLINE
  5
1C5
330
1F
100
AcDbEntity
  8
0
  6
Continuous
 62
     7
100
AcDbPolyline
 90
        8
 70
   128
 43
0.0
 10
1696.1088180542
 20
7993.7856250239
 10
1685.7723271648
 20
7987.4226148553
 10
1673.8351000744
 20
7991.089964823
 10
1668.2905609014
 20
7998.8224986217
 10
1667.4213685893
 20
8008.3171542931
 10
1679.0027894397
 20
8022.7383700038
 10
1697.4540398646
 20
8020.8201610413
 10
1706.1343888262
 20
8004.4293431379
  0
LWPOLYLINE
  5
1C6
330
1F
100
AcDbEntity
  8
0
  6
Continuous
 62
     7
100
AcDbPolyline
 90
        3
 70
   128
 43
0.0
 10
1685.661315918
 20
7989.8496665191
 10
1691.9142398966
 20
7991.0302641478
 10
1696.1094471216
 20
7993.7856250239
  0
LWPOLYLINE
  5
1C7
330
1F
100
AcDbEntity
  8
0
  6
Continuous
 62
     7
100
AcDbPolyline
 90
       15
 70
   128
 43
0.0
 10
1686.1343383789
 20
8024.4293431379
 10
1674.8788518724
 20
8020.9395803671
 10
1667.6018492654
 20
8011.6526431677
 10
1666.9053136736
 20
7999.881465439
 10
1673.0776805256
 20
7989.8375913543
 10
1683.9140892028
 20
7985.2039779995
 10
1695.4152074323
 20
7987.7588390267
 10
1703.1859487054
 20
7996.6081608673
 10
1704.1018475911
 20
8008.343653291
 10
1694.27384137
 20
8020.2709983223
 10
1678.86087747
 20
8019.9276552769
 10
1671.5788130231
 20
8012.4019357467
 10
1670.3108097405
 20
8002.0183827453
 10
1675.7721833591
 20
7993.1203738093
 10
1685.6615749343
 20
7989.8496665191
  0
LWPOLYLINE
  5
1C8
330
1F
100
AcDbEntity
  8
0
  6
Continuous
 62
     7
100
AcDbPolyline
 90
        3
 70
   128
 43
0.0
 10
1679.030418396
 20
8023.0162995368
 10
1677.6551460698
 20
8022.5027549914
 10
1676.725671499
 20
8021.7342477517
  0
LWPOLYLINE
  5
1C9
330
1F
100
AcDbEntity
  8
0
  6
Continuous
 62
     7
100
AcDbPolyline
 90
        5
 70
   128
 43
0.0
 10
1666.7737960815
 20
8001.2120679444
 10
1673.8721721026
 20
7988.6543554189
 10
1687.7857681637
 20
7984.4982497027
 10
1700.8556458089
 20
7990.8827676466
 10
1706.1343888262
 20
8004.4293431379
  0
LWPOLYLINE
  5
1CA
330
1F
100
AcDbEntity
  8
0
  6
Continuous
 62
     7
100
AcDbPolyline
 90
        8
 70
   128
 43
0.0
 10
1696.1088180542
 20
8743.7856250239
 10
1685.7723271648
 20
8737.4226148553
 10
1673.8351000744
 20
8741.089964823
 10
1668.2905609014
 20
8748.8224986217
 10
1667.4213685893
 20
8758.3171542931
 10
1679.0027894397
 20
8772.7383700038
 10
1697.4540398646
 20
8770.8201610413
 10
1706.1343888262
 20
8754.4293431379
  0
LWPOLYLINE
  5
1CB
330
1F
100
AcDbEntity
  8
0
  6
Continuous
 62
     7
100
AcDbPolyline
 90
        3
 70
   128
 43
0.0
 10
1685.661315918
 20
8739.8496665191
 10
1691.9142398966
 20
8741.0302641478
 10
1696.1094471216
 20
8743.7856250239
  0
LWPOLYLINE
  5
1CC
330
1F
100
AcDbEntity
  8
0
  6
Continuous
 62
     7
100
AcDbPolyline
 90
       15
 70
   128
 43
0.0
 10
1686.1343383789
 20
8774.4293431379
 10
1674.8788518724
 20
8770.9395803671
 10
1667.6018492654
 20
8761.6526431677
 10
1666.9053136736
 20
8749.881465439
 10
1673.0776805256
 20
8739.8375913543
 10
1683.9140892028
 20
8735.2039779995
 10
1695.4152074323
 20
8737.7588390267
 10
1703.1859487054
 20
8746.6081608673
 10
1704.1018475911
 20
8758.343653291
 10
1694.27384137
 20
8770.2709983223
 10
1678.86087747
 20
8769.9276552769
 10
1671.5788130231
 20
8762.4019357467
 10
1670.3108097405
 20
8752.0183827453
 10
1675.7721833591
 20
8743.1203738093
 10
1685.6615749343
 20
8739.8496665191
  0
LWPOLYLINE
  5
1CD
330
1F
100
AcDbEntity
  8
0
  6
Continuous
 62
     7
100
AcDbPolyline
 90
        3
 70
   128
 43
0.0
 10
1679.030418396
 20
8773.0162995368
 10
1677.6551460698
 20
8772.5027549914
 10
1676.725671499
 20
8771.7342477517
  0
LWPOLYLINE
  5
1CE
330
1F
100
AcDbEntity
  8
0
  6
Continuous
 62
     7
100
AcDbPolyline
 90
        5
 70
   128
 43
0.0
 10
1666.7737960815
 20
8751.2120679444
 10
1673.8721721026
 20
8738.6543554189
 10
1687.7857681637
 20
8734.4982497027
 10
1700.8556458089
 20
8740.8827676466
 10
1706.1343888262
 20
8754.4293431379
  0
LWPOLYLINE
  5
1CF
330
1F
100
AcDbEntity
  8
0
  6
Continuous
 62
     7
100
AcDbPolyline
 90
        8
 70
   128
 43
0.0
 10
2216.1083221436
 20
8743.7856250239
 10
2205.7723271648
 20
8737.4226148553
 10
2193.8351000744
 20
8741.089964823
 10
2188.2905609014
 20
8748.8224986217
 10
2187.4213685893
 20
8758.3171542931
 10
2199.0027894397
 20
8772.7383700038
 10
2217.4540398646
 20
8770.8201610413
 10
2226.1343888262
 20
8754.4293431379
  0
LWPOLYLINE
  5
1D0
330
1F
100
AcDbEntity
  8
0
  6
Continuous
 62
     7
100
AcDbPolyline
 90
        3
 70
   128
 43
0.0
 10
2205.659866333
 20
8739.8496665191
 10
2211.9142398966
 20
8741.0302641478
 10
2216.1094471216
 20
8743.7856250239
  0
LWPOLYLINE
  5
1D1
330
1F
100
AcDbEntity
  8
0
  6
Continuous
 62
     7
100
AcDbPolyline
 90
       15
 70
   128
 43
0.0
 10
2206.1328887939
 20
8774.4293431379
 10
2194.8788518724
 20
8770.9395803671
 10
2187.6018492654
 20
8761.6526431677
 10
2186.9053136736
 20
8749.881465439
 10
2193.0776805256
 20
8739.8375913543
 10
2203.9140892028
 20
8735.2039779995
 10
2215.4152074323
 20
8737.7588390267
 10
2223.1859487054
 20
8746.6081608673
 10
2224.1018475911
 20
8758.343653291
 10
2214.27384137
 20
8770.2709983223
 10
2198.86087747
 20
8769.9276552769
 10
2191.5788130231
 20
8762.4019357467
 10
2190.3108097405
 20
8752.0183827453
 10
2195.7721833591
 20
8743.1203738093
 10
2205.6615749343
 20
8739.8496665191
  0
LWPOLYLINE
  5
1D2
330
1F
100
AcDbEntity
  8
0
  6
Continuous
 62
     7
100
AcDbPolyline
 90
        3
 70
   128
 43
0.0
 10
2199.0299224854
 20
8773.0162995368
 10
2197.6551460698
 20
8772.5027549914
 10
2196.725671499
 20
8771.7342477517
  0
LWPOLYLINE
  5
1D3
330
1F
100
AcDbEntity
  8
0
  6
Continuous
 62
     7
100
AcDbPolyline
 90
        5
 70
   128
 43
0.0
 10
2186.7733001709
 20
8751.2120679444
 10
2193.8721721026
 20
8738.6543554189
 10
2207.7857681637
 20
8734.4982497027
 10
2220.8556458089
 20
8740.8827676466
 10
2226.1343888262
 20
8754.4293431379
  0
LWPOLYLINE
  5
1D4
330
1F
100
AcDbEntity
  8
0
  6
Continuous
 62
     7
100
AcDbPolyline
 90
       10
 70
   128
 43
0.0
 10
1814.4445419312
 20
7763.9924386135
 10
1814.4447753183
 20
7763.7123960647
 10
1814.4447753183
 20
7763.7099180018
 10
1814.4447753183
 20
7763.7098296948
 10
1814.4447753183
 20
7763.709827013
 10
1814.4447753183
 20
7763.7098409018
 10
1814.4447753183
 20
7763.7102711674
 10
1814.4447753183
 20
7763.7224618858
 10
1814.4447753183
 20
7763.8150170159
 10
1814.4447753183
 20
7769.0945330116
  0
LWPOLYLINE
  5
1D5
330
1F
100
AcDbEntity
  8
0
  6
Continuous
 62
     7
100
AcDbPolyline
 90
        3
 70
   128
 43
0.0
 10
1824.2206573486
 20
7769.0945330116
 10
1865.5340335721
 20
7763.0300590299
 10
1897.883440995
 20
7769.0945330116
  0
LWPOLYLINE
  5
1D6
330
1F
100
AcDbEntity
  8
0
  6
Continuous
 62
     7
100
AcDbPolyline
 90
        3
 70
   128
 43
0.0
 10
1917.8829193115
 20
7769.0945330116
 10
1957.2321659099
 20
7763.4868933185
 10
1988.0477051013
 20
7769.0945330116
  0
LWPOLYLINE
  5
1D7
330
1F
100
AcDbEntity
  8
0
  6
Continuous
 62
     7
100
AcDbPolyline
 90
       10
 70
   128
 43
0.0
 10
1997.82371521
 20
7769.0945330116
 10
1997.8240023341
 20
7763.8401495098
 10
1997.8240023341
 20
7763.7576223347
 10
1997.8240023341
 20
7763.7505821866
 10
1997.8240023341
 20
7763.7503260644
 10
1997.8240023341
 20
7763.7503162227
 10
1997.8240023341
 20
7763.7503620286
 10
1997.8240023341
 20
7763.7517499191
 10
1997.8240023341
 20
7763.756627267
 10
1997.8240023341
 20
7764.0540315651
  0
LWPOLYLINE
  5
1D8
330
1F
100
AcDbEntity
  8
0
  6
Continuous
 62
     7
100
AcDbPolyline
 90
       13
 70
   128
 43
0.0
 10
1831.3837051392
 20
7856.0284765852
 10
1831.2021993585
 20
7856.0900911935
 10
1831.1432031138
 20
7856.1206786564
 10
1831.1206835682
 20
7856.1510207401
 10
1831.142278387
 20
7856.1912342029
 10
1831.2302380021
 20
7856.2449550132
 10
1835.6686615455
 20
7856.9183658911
 10
1904.2831885814
 20
7859.6108974963
 10
1975.2418685914
 20
7862.2955350151
 10
1980.7917854702
 20
7862.9747729625
 10
1981.0270730616
 20
7863.0568762544
 10
1981.1253953393
 20
7863.138237817
 10
1981.1098730039
 20
7863.1921058336
  0
LWPOLYLINE
  5
1D9
330
1F
100
AcDbEntity
  8
0
  6
Continuous
 62
     7
100
AcDbPolyline
 90
       11
 70
   128
 43
0.0
 10
1831.4180374146
 20
7870.2461856563
 10
1831.4195672144
 20
7870.353039025
 10
1831.5427400112
 20
7870.4606050691
 10
1836.8468360992
 20
7871.1293288116
 10
1906.1382285246
 20
7873.7762055179
 10
1975.4274135869
 20
7876.4212740098
 10
1980.7741907509
 20
7877.0896964002
 10
1981.0762570824
 20
7877.2105090716
 10
1981.0857234513
 20
7877.2305456576
 10
1981.0809365571
 20
7877.2505776715
 10
1981.0271104745
 20
7877.3039849851
  0
LWPOLYLINE
  5
1DA
330
1F
100
AcDbEntity
  8
0
  6
Continuous
 62
     7
100
AcDbPolyline
 90
       10
 70
   128
 43
0.0
 10
1831.2702178955
 20
7884.359847692
 10
1831.2790580752
 20
7884.4667633842
 10
1831.4749477729
 20
7884.5741923134
 10
1836.8453783428
 20
7885.2392992448
 10
1906.1358062927
 20
7887.8876892969
 10
1975.4261525089
 20
7890.5321682081
 10
1980.7760420355
 20
7891.2008538281
 10
1981.0321034678
 20
7891.3085389752
 10
1981.0520184135
 20
7891.3621205667
 10
1981.0341876928
 20
7891.4156400201
  0
LWPOLYLINE
  5
1DB
330
1F
100
AcDbEntity
  8
0
  6
Continuous
 62
     7
100
AcDbPolyline
 90
        5
 70
   128
 43
0.0
 10
1959.5108032227
 20
7849.0945330116
 10
1979.7172785048
 20
7850.415393055
 10
1981.0563927421
 20
7850.7397555137
 10
1981.1097197212
 20
7850.7923338528
 10
1981.1017292335
 20
7850.8445062777
  0
LWPOLYLINE
  5
1DC
330
1F
100
AcDbEntity
  8
0
  6
Continuous
 62
     7
100
AcDbPolyline
 90
       11
 70
   128
 43
0.0
 10
1831.1672210693
 20
7857.9001416272
 10
1831.157171506
 20
7857.9528033749
 10
1831.4977115258
 20
7858.1130909566
 10
1836.8403990753
 20
7858.782158868
 10
1906.1317652638
 20
7861.4280317086
 10
1975.4266177994
 20
7864.0730408689
 10
1980.7702750184
 20
7864.7427229747
 10
1981.0153140411
 20
7864.8232586252
 10
1981.0923406401
 20
7864.863207305
 10
1981.1245017724
 20
7864.9030276484
 10
1981.0894490362
 20
7864.9560285159
  0
LWPOLYLINE
  5
1DD
330
1F
100
AcDbEntity
  8
0
  6
Continuous
 62
     7
100
AcDbPolyline
 90
       13
 70
   128
 43
0.0
 10
1831.2606811523
 20
7872.0114976729
 10
1831.2002454597
 20
7872.0646061451
 10
1831.1908343628
 20
7872.0845228371
 10
1831.194227596
 20
7872.1044406554
 10
1831.4731566819
 20
7872.2244653324
 10
1836.8448893534
 20
7872.893455683
 10
1906.1444036107
 20
7875.5398690883
 10
1975.4269389864
 20
7878.1838798436
 10
1980.7734516359
 20
7878.8542369443
 10
1981.0710331177
 20
7878.9744877538
 10
1981.0809736891
 20
7878.9944278313
 10
1981.0780793638
 20
7879.0143541472
 10
1981.034060472
 20
7879.0674523376
  0
LWPOLYLINE
  5
1DE
330
1F
100
AcDbEntity
  8
0
  6
Continuous
 62
     7
100
AcDbPolyline
 90
       10
 70
   128
 43
0.0
 10
1831.1643600464
 20
7886.1231850076
 10
1831.2208992703
 20
7886.2294127176
 10
1831.494410113
 20
7886.3353831247
 10
1836.8434207169
 20
7887.0043420476
 10
1906.1341622807
 20
7889.6511403532
 10
1975.4253565451
 20
7892.2945934102
 10
1980.7731675675
 20
7892.9651261208
 10
1981.0551741611
 20
7893.0724077532
 10
1981.1054745691
 20
7893.125701838
 10
1981.0989878832
 20
7893.1788314044
  0
LWPOLYLINE
  5
1DF
330
1F
100
AcDbEntity
  8
0
  6
Continuous
 62
     7
100
AcDbPolyline
 90
        5
 70
   128
 43
0.0
 10
1844.386100769
 20
7849.0945330116
 10
1890.1594986106
 20
7851.1967850033
 10
1930.1183777112
 20
7852.5418296387
 10
1961.5999056039
 20
7853.8902107577
 10
1973.4675021987
 20
7855.2546623081
  0
LWPOLYLINE
  5
1E0
330
1F
100
AcDbEntity
  8
0
  6
Continuous
 62
     7
100
AcDbPolyline
 90
        5
 70
   128
 43
0.0
 10
1839.1227722168
 20
7862.4287772236
 10
1875.8206808035
 20
7864.7847991756
 10
1920.3407131532
 20
7866.3066422048
 10
1958.5577086974
 20
7867.8327386929
 10
1973.4678422452
 20
7869.3658776822
  0
LWPOLYLINE
  5
1E1
330
1F
100
AcDbEntity
  8
0
  6
Continuous
 62
     7
100
AcDbPolyline
 90
        5
 70
   128
 43
0.0
 10
1839.1227722168
 20
7876.5399223174
 10
1875.8222553163
 20
7878.8959706471
 10
1920.342899571
 20
7880.4178280125
 10
1958.5594068288
 20
7881.9439382217
 10
1973.468182318
 20
7883.4770930645
  0
LWPOLYLINE
  5
1E2
330
1F
100
AcDbEntity
  8
0
  6
Continuous
 62
     7
100
AcDbPolyline
 90
        3
 70
   128
 43
0.0
 10
1839.1227722168
 20
7890.651067398
 10
1864.9139881184
 20
7892.5724893797
 10
1907.1841660909
 20
7894.0945330116
  0
LWPOLYLINE
  5
1E3
330
1F
100
AcDbEntity
  8
0
  6
Continuous
 62
     7
100
AcDbPolyline
 90
        9
 70
   128
 43
0.0
 10
1838.8624191284
 20
7851.7257211176
 10
1838.7220899414
 20
7851.7788187076
 10
1838.6729199381
 20
7851.8318910095
 10
1838.6817567454
 20
7851.8584299563
 10
1838.7114734906
 20
7851.8849779914
 10
1838.8293429901
 20
7851.9381230002
 10
1843.7767883313
 20
7852.5924394793
 10
1904.3091358032
 20
7855.1950556492
 10
1973.0750337252
 20
7858.6621036955
  0
LWPOLYLINE
  5
1E4
330
1F
100
AcDbEntity
  8
0
  6
Continuous
 62
     7
100
AcDbPolyline
 90
        9
 70
   128
 43
0.0
 10
1838.8624191284
 20
7865.8368323813
 10
1838.7220892015
 20
7865.8899302072
 10
1838.6729197939
 20
7865.943002745
 10
1838.6817571717
 20
7865.9695418099
 10
1838.7114746497
 20
7865.9960899633
 10
1838.8293460436
 20
7866.0492352099
 10
1843.7768325437
 20
7866.7035547132
 10
1904.3096023669
 20
7869.3061818989
 10
1973.0751329955
 20
7872.7732452443
  0
LWPOLYLINE
  5
1E5
330
1F
100
AcDbEntity
  8
0
  6
Continuous
 62
     7
100
AcDbPolyline
 90
        9
 70
   128
 43
0.0
 10
1838.8624191284
 20
7879.9479436745
 10
1838.7220884013
 20
7880.001041736
 10
1838.6729196285
 20
7880.0541145096
 10
1838.6817575965
 20
7880.0806536925
 10
1838.711475827
 20
7880.1072019643
 10
1838.8293491539
 20
7880.1603474484
 10
1843.7768770646
 20
7880.8146699755
 10
1904.3100695237
 20
7883.4173081678
 10
1973.0752322964
 20
7886.8843868024
  0
LWPOLYLINE
  5
1E6
330
1F
100
AcDbEntity
  8
0
  6
Continuous
 62
     7
100
AcDbPolyline
 90
        3
 70
   128
 43
0.0
 10
1976.1343002319
 20
8974.4293431379
 10
1953.540450055
 20
8972.5092389909
 10
1936.1343888262
 20
8968.655840446
  0
LWPOLYLINE
  5
1E7
330
1F
100
AcDbEntity
  8
0
  6
Continuous
 62
     7
100
AcDbPolyline
 90
        3
 70
   128
 43
0.0
 10
2016.134262085
 20
8968.655840446
 10
1993.9248690663
 20
8973.2035681196
 10
1976.1343888262
 20
8974.4293431379
  0
LWPOLYLINE
  5
1E8
330
1F
100
AcDbEntity
  8
0
  6
Continuous
 62
     7
100
AcDbPolyline
 90
        3
 70
   128
 43
0.0
 10
2041.0861968994
 20
8974.4293431379
 10
2029.7872384719
 20
8972.5406510817
 10
2021.08629411
 20
8968.655840446
  0
LWPOLYLINE
  5
1E9
330
1F
100
AcDbEntity
  8
0
  6
Continuous
 62
     7
100
AcDbPolyline
 90
        3
 70
   128
 43
0.0
 10
1931.1819076538
 20
8968.655840446
 10
1920.0777236624
 20
8973.2035681196
 10
1911.1824835424
 20
8974.4293431379
  0
LWPOLYLINE
  5
1EA
330
1F
100
AcDbEntity
  8
0
  6
Continuous
 62
     7
100
AcDbPolyline
 90
        3
 70
   128
 43
0.0
 10
2061.0847473145
 20
8968.655840446
 10
2049.9647068371
 20
8973.2206528937
 10
2041.08629411
 20
8974.4293431379
  0
LWPOLYLINE
  5
1EB
330
1F
100
AcDbEntity
  8
0
  6
Continuous
 62
     7
100
AcDbPolyline
 90
        3
 70
   128
 43
0.0
 10
1911.1824035645
 20
8974.4293431379
 10
1899.8855141568
 20
8972.5092389909
 10
1891.1824835424
 20
8968.655840446
  0
LWPOLYLINE
  5
1EC
330
1F
100
AcDbEntity
  8
0
  6
Continuous
 62
     7
100
AcDbPolyline
 90
        3
 70
   128
 43
0.0
 10
4692.9397583008
 20
7990.0974026149
 10
4694.7364495962
 20
7987.0317758564
 10
4696.1436133647
 20
7984.6199010184
  0
LWPOLYLINE
  5
1ED
330
1F
100
AcDbEntity
  8
0
  6
Continuous
 62
     7
100
AcDbPolyline
 90
        3
 70
   128
 43
0.0
 10
4865.4174804688
 20
7849.0945330116
 10
4863.0642186392
 20
7850.4793770741
 10
4861.2207160943
 20
7851.5671275242
  0
LWPOLYLINE
  5
1EE
330
1F
100
AcDbEntity
  8
0
  6
Continuous
 62
     7
100
AcDbPolyline
 90
        3
 70
   128
 43
0.0
 10
4867.6338195801
 20
7861.9018878784
 10
4864.035402092
 20
7864.0170402653
 10
4861.2203035497
 20
7865.6781068366
  0
LWPOLYLINE
  5
1EF
330
1F
100
AcDbEntity
  8
0
  6
Continuous
 62
     7
100
AcDbPolyline
 90
        3
 70
   128
 43
0.0
 10
4867.6338195801
 20
7876.0129989895
 10
4864.0330474073
 20
7878.1282383711
 10
4861.2198901877
 20
7879.7890858878
  0
LWPOLYLINE
  5
1F0
330
1F
100
AcDbEntity
  8
0
  6
Continuous
 62
     7
100
AcDbPolyline
 90
        3
 70
   128
 43
0.0
 10
4867.6338195801
 20
7890.1241101006
 10
4864.0306918636
 20
7892.2394354174
 10
4861.2194760069
 20
7893.9000646775
  0
LWPOLYLINE
  5
1F1
330
1F
100
AcDbEntity
  8
0
  6
Continuous
 62
     7
100
AcDbPolyline
 90
        3
 70
   128
 43
0.0
 10
4727.0927429199
 20
7858.899969398
 10
4722.8133612194
 20
7856.4235854379
 10
4719.4480673114
 20
7854.4780629243
  0
LWPOLYLINE
  5
1F2
330
1F
100
AcDbEntity
  8
0
  6
Continuous
 62
     7
100
AcDbPolyline
 90
        3
 70
   128
 43
0.0
 10
4727.0927429199
 20
7873.0110805091
 10
4722.8133579147
 20
7870.5346973218
 10
4719.4480673114
 20
7868.5891740354
  0
LWPOLYLINE
  5
1F3
330
1F
100
AcDbEntity
  8
0
  6
Continuous
 62
     7
100
AcDbPolyline
 90
        3
 70
   128
 43
0.0
 10
4727.0927429199
 20
7887.1221916202
 10
4722.8133553523
 20
7884.6458082397
 10
4719.4480673114
 20
7882.7002851465
  0
LWPOLYLINE
  5
1F4
330
1F
100
AcDbEntity
  8
0
  6
Continuous
 62
     7
100
AcDbPolyline
 90
        3
 70
   128
 43
0.0
 10
4860.1379394531
 20
7854.7750777441
 10
4864.3391343457
 20
7857.2477645511
 10
4867.6362097328
 20
7859.1902091286
  0
LWPOLYLINE
  5
1F5
330
1F
100
AcDbEntity
  8
0
  6
Continuous
 62
     7
100
AcDbPolyline
 90
        3
 70
   128
 43
0.0
 10
4860.1379394531
 20
7868.8861888552
 10
4864.3415996229
 20
7871.3590682792
 10
4867.6362097328
 20
7873.3013202397
  0
LWPOLYLINE
  5
1F6
330
1F
100
AcDbEntity
  8
0
  6
Continuous
 62
     7
100
AcDbPolyline
 90
        3
 70
   128
 43
0.0
 10
4860.1379394531
 20
7882.9972999663
 10
4864.3440643378
 20
7885.4703731336
 10
4867.6362097328
 20
7887.4124313508
  0
LWPOLYLINE
  5
1F7
330
1F
100
AcDbEntity
  8
0
  6
Continuous
 62
     7
100
AcDbPolyline
 90
        3
 70
   128
 43
0.0
 10
4719.4442749023
 20
7852.502670694
 10
4722.7492943725
 20
7850.5942089691
 10
4725.3430175944
 20
7849.0945330116
  0
LWPOLYLINE
  5
1F8
330
1F
100
AcDbEntity
  8
0
  6
Continuous
 62
     7
100
AcDbPolyline
 90
        3
 70
   128
 43
0.0
 10
4719.4442749023
 20
7866.6137818051
 10
4723.6745525393
 20
7864.1703786132
 10
4726.9952249502
 20
7862.2503333136
  0
LWPOLYLINE
  5
1F9
330
1F
100
AcDbEntity
  8
0
  6
Continuous
 62
     7
100
AcDbPolyline
 90
        3
 70
   128
 43
0.0
 10
4719.4442749023
 20
7880.7248929162
 10
4723.6745590313
 20
7878.2814956551
 10
4726.9952251479
 20
7876.3614445702
  0
LWPOLYLINE
  5
1FA
330
1F
100
AcDbEntity
  8
0
  6
Continuous
 62
     7
100
AcDbPolyline
 90
        3
 70
   128
 43
0.0
 10
4720.7298278809
 20
7894.0945330116
 10
4724.2388863289
 20
7892.0663390017
 10
4726.9952254245
 20
7890.4725558187
  0
LWPOLYLINE
  5
1FB
330
1F
100
AcDbEntity
  8
0
  6
Continuous
 62
     7
100
AcDbPolyline
 90
        3
 70
   128
 43
0.0
 10
4861.7172241211
 20
7851.7264774368
 10
4861.7194955348
 20
7853.7020331108
 10
4861.7194989856
 20
7855.2542552146
  0
LWPOLYLINE
  5
1FC
330
1F
100
AcDbEntity
  8
0
  6
Continuous
 62
     7
100
AcDbPolyline
 90
        3
 70
   128
 43
0.0
 10
4861.7172241211
 20
7865.8375885479
 10
4861.7194886989
 20
7867.8131446329
 10
4861.7194989856
 20
7869.3653663257
  0
LWPOLYLINE
  5
1FD
330
1F
100
AcDbEntity
  8
0
  6
Continuous
 62
     7
100
AcDbPolyline
 90
        3
 70
   128
 43
0.0
 10
4861.7172241211
 20
7879.948699659
 10
4861.7194806971
 20
7881.9242564693
 10
4861.7194989856
 20
7883.4764774368
  0
LWPOLYLINE
  5
1FE
330
1F
100
AcDbEntity
  8
0
  6
Continuous
 62
     7
100
AcDbPolyline
 90
        3
 70
   128
 43
0.0
 10
4860.4507446289
 20
7851.2987122052
 10
4860.4540218292
 20
7853.2742677835
 10
4860.4515822412
 20
7854.826489983
  0
LWPOLYLINE
  5
1FF
330
1F
100
AcDbEntity
  8
0
  6
Continuous
 62
     7
100
AcDbPolyline
 90
        3
 70
   128
 43
0.0
 10
4860.4507446289
 20
7865.4098233163
 10
4860.4564591163
 20
7867.3853790534
 10
4860.4515822412
 20
7868.9376010941
  0
LWPOLYLINE
  5
200
330
1F
100
AcDbEntity
  8
0
  6
Continuous
 62
     7
100
AcDbPolyline
 90
        3
 70
   128
 43
0.0
 10
4860.4507446289
 20
7879.5209344274
 10
4860.4588941027
 20
7881.4964905955
 10
4860.4515822412
 20
7883.0487122052
  0
LWPOLYLINE
  5
201
330
1F
100
AcDbEntity
  8
0
  6
Continuous
 62
     7
100
AcDbPolyline
 90
        3
 70
   128
 43
0.0
 10
4726.993560791
 20
7862.3098145759
 10
4726.9952283076
 20
7860.3675647603
 10
4726.9952249501
 20
7858.8415111257
  0
LWPOLYLINE
  5
202
330
1F
100
AcDbEntity
  8
0
  6
Continuous
 62
     7
100
AcDbPolyline
 90
        3
 70
   128
 43
0.0
 10
4726.993560791
 20
7876.4209256871
 10
4726.995235184
 20
7874.4786763803
 10
4726.9952251474
 20
7872.9526224226
  0
LWPOLYLINE
  5
203
330
1F
100
AcDbEntity
  8
0
  6
Continuous
 62
     7
100
AcDbPolyline
 90
        3
 70
   128
 43
0.0
 10
4726.993560791
 20
7890.5320367982
 10
4726.9952432381
 20
7888.5897883138
 10
4726.9952254233
 20
7887.0637337273
  0
LWPOLYLINE
  5
204
330
1F
100
AcDbEntity
  8
0
  6
Continuous
 62
     7
100
AcDbPolyline
 90
        3
 70
   128
 43
0.0
 10
4754.4441223145
 20
7769.0945330116
 10
4799.2036261844
 20
7763.8256558442
 10
4834.2699510649
 20
7769.0945330116
  0
LWPOLYLINE
  5
205
330
1F
100
AcDbEntity
  8
0
  6
Continuous
 62
     7
100
AcDbPolyline
 90
        3
 70
   128
 43
0.0
 10
4851.7150878906
 20
7769.0945330116
 10
4875.4405890074
 20
7763.0300590299
 10
4894.0163898782
 20
7769.0945330116
  0
LWPOLYLINE
  5
206
330
1F
100
AcDbEntity
  8
0
  6
Continuous
 62
     7
100
AcDbPolyline
 90
        3
 70
   128
 43
0.0
 10
4694.6983337402
 20
7769.0945330116
 10
4718.4212209138
 20
7763.0300590299
 10
4736.9970217846
 20
7769.0945330116
  0
LWPOLYLINE
  5
207
330
1F
100
AcDbEntity
  8
0
  6
Continuous
 62
     7
100
AcDbPolyline
 90
       10
 70
   128
 43
0.0
 10
4719.3565368652
 20
7852.6084047918
 10
4719.3399314187
 20
7852.6349405465
 10
4719.3423748523
 20
7852.6615783581
 10
4719.7122814479
 20
7852.8234277673
 10
4725.0696442601
 20
7853.4912722818
 10
4794.367639044
 20
7856.1365872169
 10
4863.6438225808
 20
7858.7820214461
 10
4869.0262102675
 20
7859.4503869124
 10
4869.3560726366
 20
7859.6111970802
 10
4869.3406750895
 20
7859.6642028327
  0
LWPOLYLINE
  5
208
330
1F
100
AcDbEntity
  8
0
  6
Continuous
 62
     7
100
AcDbPolyline
 90
       10
 70
   128
 43
0.0
 10
4719.4290161133
 20
7866.7200911128
 10
4720.7668977048
 20
7867.1518910333
 10
4725.0753511295
 20
7867.6006974402
 10
4794.3654501532
 20
7870.2459509699
 10
4863.6466068136
 20
7872.8934658086
 10
4869.0223527041
 20
7873.5616369082
 10
4869.3233624202
 20
7873.6824740897
 10
4869.3243401287
 20
7873.7025670768
 10
4869.3072351381
 20
7873.7226689131
 10
4869.2035248108
 20
7873.7763106939
  0
LWPOLYLINE
  5
209
330
1F
100
AcDbEntity
  8
0
  6
Continuous
 62
     7
100
AcDbPolyline
 90
       10
 70
   128
 43
0.0
 10
4719.4480895996
 20
7880.831294963
 10
4719.491753958
 20
7880.9373316973
 10
4719.6963598135
 20
7881.0448849069
 10
4725.0680396504
 20
7881.7132732667
 10
4794.3638153203
 20
7884.3600026929
 10
4863.6499860577
 20
7887.0044828861
 10
4868.9973126602
 20
7887.6730916233
 10
4869.2626912606
 20
7887.7806999046
 10
4869.284996454
 20
7887.8342190735
 10
4869.2649243324
 20
7887.8876768776
  0
LWPOLYLINE
  5
20A
330
1F
100
AcDbEntity
  8
0
  6
Continuous
 62
     7
100
AcDbPolyline
 90
        9
 70
   128
 43
0.0
 10
4719.3565368652
 20
7854.3723216918
 10
4719.7185829766
 20
7854.5852184871
 10
4725.0633231634
 20
7855.2544363593
 10
4794.3557995796
 20
7857.9001119763
 10
4863.6492493461
 20
7860.5453385675
 10
4868.9907445069
 20
7861.2150115444
 10
4869.355701277
 20
7861.3751618147
 10
4869.3517703568
 20
7861.4016642337
 10
4869.325422067
 20
7861.4281578703
  0
LWPOLYLINE
  5
20B
330
1F
100
AcDbEntity
  8
0
  6
Continuous
 62
     7
100
AcDbPolyline
 90
       12
 70
   128
 43
0.0
 10
4719.367980957
 20
7868.4834094068
 10
4719.4436514296
 20
7868.5889065123
 10
4719.7194119075
 20
7868.6962582088
 10
4725.06396
 20
7869.3654512093
 10
4794.3571270368
 20
7872.0118147733
 10
4863.6508164397
 20
7874.6562434581
 10
4868.9944657034
 20
7875.3265572502
 10
4869.2330967868
 20
7875.4068114726
 10
4869.30024622
 20
7875.4467091979
 10
4869.3146199113
 20
7875.4666276151
 10
4869.314830494
 20
7875.4865351535
 10
4869.2727771715
 20
7875.5395936065
  0
LWPOLYLINE
  5
20C
330
1F
100
AcDbEntity
  8
0
  6
Continuous
 62
     7
100
AcDbPolyline
 90
       11
 70
   128
 43
0.0
 10
4719.409942627
 20
7882.5944962365
 10
4719.3904318676
 20
7882.6470735713
 10
4719.4136234334
 20
7882.6867402959
 10
4719.4793820169
 20
7882.7266895372
 10
4719.713412272
 20
7882.8074283544
 10
4725.0680476834
 20
7883.4767276387
 10
4794.3633710597
 20
7886.1234389724
 10
4863.6488263773
 20
7888.7669159984
 10
4868.9947186512
 20
7889.4374158825
 10
4869.3346729221
 20
7889.5978767211
 10
4869.323329356
 20
7889.6510168042
  0
LWPOLYLINE
  5
20D
330
1F
100
AcDbEntity
  8
0
  6
Continuous
 62
     7
100
AcDbPolyline
 90
        3
 70
   128
 43
0.0
 10
4820.3735351562
 20
7849.0945330116
 10
4852.9490159745
 20
7850.5611070897
 10
4861.7194989856
 20
7851.7264774368
  0
LWPOLYLINE
  5
20E
330
1F
100
AcDbEntity
  8
0
  6
Continuous
 62
     7
100
AcDbPolyline
 90
        5
 70
   128
 43
0.0
 10
4727.3635864258
 20
7858.9012893675
 10
4764.0372351854
 20
7861.2568036135
 10
4808.5548922143
 20
7862.7787389133
 10
4846.7719856854
 20
7864.3047234192
 10
4861.7194989856
 20
7865.8375885479
  0
LWPOLYLINE
  5
20F
330
1F
100
AcDbEntity
  8
0
  6
Continuous
 62
     7
100
AcDbPolyline
 90
        5
 70
   128
 43
0.0
 10
4727.3635864258
 20
7873.0124334727
 10
4764.0378264567
 20
7875.3679373936
 10
4808.5553238024
 20
7876.8898647778
 10
4846.7721241688
 20
7878.4158417158
 10
4861.7194989856
 20
7879.948699659
  0
LWPOLYLINE
  5
210
330
1F
100
AcDbEntity
  8
0
  6
Continuous
 62
     7
100
AcDbPolyline
 90
        5
 70
   128
 43
0.0
 10
4727.3635864258
 20
7887.1235775658
 10
4764.0384175135
 20
7889.4790711653
 10
4808.5557552313
 20
7891.0009906369
 10
4846.7722626007
 20
7892.5269600098
 10
4861.7194989856
 20
7894.0598107701
  0
LWPOLYLINE
  5
211
330
1F
100
AcDbEntity
  8
0
  6
Continuous
 62
     7
100
AcDbPolyline
 90
        5
 70
   128
 43
0.0
 10
4732.593536377
 20
7849.0945330116
 10
4773.612226937
 20
7851.0285919674
 10
4810.5521244433
 20
7852.2641573536
 10
4842.6064625174
 20
7853.5195410723
 10
4860.0771485304
 20
7854.7766856659
  0
LWPOLYLINE
  5
212
330
1F
100
AcDbEntity
  8
0
  6
Continuous
 62
     7
100
AcDbPolyline
 90
        8
 70
   128
 43
0.0
 10
4727.0545959473
 20
7862.3092738835
 10
4726.9236225444
 20
7862.3596280319
 10
4726.8756159589
 20
7862.4099235847
 10
4726.8923496592
 20
7862.4476311822
 10
4726.9508173857
 20
7862.4853469605
 10
4728.0031240008
 20
7862.7128334355
 10
4744.2270786035
 20
7863.9571800073
 10
4860.0775570938
 20
7868.8878411858
  0
LWPOLYLINE
  5
213
330
1F
100
AcDbEntity
  8
0
  6
Continuous
 62
     7
100
AcDbPolyline
 90
        8
 70
   128
 43
0.0
 10
4727.0545959473
 20
7876.4203851238
 10
4726.923621674
 20
7876.4707396044
 10
4726.8756157606
 20
7876.5210354888
 10
4726.8923506012
 20
7876.5587433353
 10
4726.9508199433
 20
7876.5964593632
 10
4728.0031426841
 20
7876.8239473685
 10
4744.2272987529
 20
7878.0683017355
 10
4860.0779658884
 20
7882.9989967309
  0
LWPOLYLINE
  5
214
330
1F
100
AcDbEntity
  8
0
  6
Continuous
 62
     7
100
AcDbPolyline
 90
        8
 70
   128
 43
0.0
 10
4727.0545959473
 20
7890.5314963851
 10
4726.9162634059
 20
7890.5861234056
 10
4726.8837872913
 20
7890.6134093498
 10
4726.8755896668
 20
7890.6406853026
 10
4726.92730234
 20
7890.6952348114
 10
4727.0619463288
 20
7890.7498270855
 10
4732.2686152664
 20
7891.4228896422
 10
4795.4421799125
 20
7894.0945330116
  0
LWPOLYLINE
  5
215
330
1F
100
AcDbEntity
  8
0
  6
Continuous
 62
     7
100
AcDbPolyline
 90
        3
 70
   128
 43
0.0
 10
4851.8562316895
 20
8974.4293431379
 10
4832.2904369409
 20
8972.5092389909
 10
4817.216345737
 20
8968.655840446
  0
LWPOLYLINE
  5
216
330
1F
100
AcDbEntity
  8
0
  6
Continuous
 62
     7
100
AcDbPolyline
 90
        3
 70
   128
 43
0.0
 10
4886.4974975586
 20
8968.655840446
 10
4867.2643697218
 20
8973.2035681196
 10
4851.8573618883
 20
8974.4293431379
  0
LWPOLYLINE
  5
217
330
1F
100
AcDbEntity
  8
0
  6
Continuous
 62
     7
100
AcDbPolyline
 90
        3
 70
   128
 43
0.0
 10
4811.4967346191
 20
8968.655840446
 10
4792.2604622891
 20
8973.2456083251
 10
4776.8573618883
 20
8974.4293431379
  0
LWPOLYLINE
  5
218
330
1F
100
AcDbEntity
  8
0
  6
Continuous
 62
     7
100
AcDbPolyline
 90
        3
 70
   128
 43
0.0
 10
4776.85546875
 20
8974.4293431379
 10
4757.3299576152
 20
8972.4554763347
 10
4742.216345737
 20
8968.655840446
  0
LWPOLYLINE
  5
219
330
1F
100
AcDbEntity
  8
0
  6
Continuous
 62
     7
100
AcDbPolyline
 90
        3
 70
   128
 43
0.0
 10
4889.3547058105
 20
8974.4293431379
 10
4889.3573618883
 20
8972.5092389909
 10
4889.3573618883
 20
8968.655840446
  0
LWPOLYLINE
  5
21A
330
1F
100
AcDbEntity
  8
0
  6
Continuous
 62
     7
100
AcDbPolyline
 90
        3
 70
   128
 43
0.0
 10
4739.3569946289
 20
8968.655840446
 10
4739.3573618883
 20
8973.2035681196
 10
4739.3573618883
 20
8974.4293431379
  0
ENDSEC
  0
SECTION
  2
OBJECTS
  0
DICTIONARY
  5
C
330
0
100
AcDbDictionary
281
     1
  3
ACAD_GROUP
350
D
  3
ACAD_LAYOUT
350
1A
  3
ACAD_MLINESTYLE
350
17
  3
ACAD_PLOTSETTINGS
350
19
  3
ACAD_PLOTSTYLENAME
350
E
  3
ACAD_SCALELIST
350
47
  3
DWGPROPS
350
21B
  0
DICTIONARY
  5
D
102
{ACAD_REACTORS
330
C
102
}
330
C
100
AcDbDictionary
281
     1
  0
DICTIONARY
  5
1A
102
{ACAD_REACTORS
330
C
102
}
330
C
100
AcDbDictionary
281
     1
  3
Layout1
350
1E
  3
Layout2
350
26
  3
Model
350
22
  0
DICTIONARY
  5
17
102
{ACAD_REACTORS
330
C
102
}
330
C
100
AcDbDictionary
281
     1
  3
Standard
350
18
  0
DICTIONARY
  5
19
102
{ACAD_REACTORS
330
C
102
}
330
C
100
AcDbDictionary
281
     1
  0
ACDBDICTIONARYWDFLT
  5
E
102
{ACAD_REACTORS
330
C
102
}
330
C
100
AcDbDictionary
281
     1
  3
Normal
350
F
100
AcDbDictionaryWithDefault
340
F
  0
DICTIONARY
  5
47
102
{ACAD_REACTORS
330
C
102
}
330
C
100
AcDbDictionary
281
     1
  3
A0
350
48
  3
A1
350
49
  3
A2
350
4A
  3
A3
350
4B
  3
A4
350
4C
  3
A5
350
4D
  3
A6
350
4E
  3
A7
350
4F
  3
A8
350
50
  3
A9
350
51
  3
B0
350
52
  3
B1
350
53
  3
B2
350
54
  3
B3
350
55
  3
B4
350
56
  3
B5
350
57
  3
B6
350
58
  3
B7
350
59
  3
B8
350
5A
  3
B9
350
5B
  3
C0
350
5C
  3
C1
350
5D
  3
C2
350
5E
  3
C3
350
5F
  3
C4
350
60
  3
C5
350
61
  3
C6
350
62
  3
C7
350
63
  3
C8
350
64
  3
C9
350
65
  3
D0
350
66
  3
D1
350
67
  3
D2
350
68
  0
XRECORD
  5
21B
102
{ACAD_REACTORS
330
C
102
}
330
C
100
AcDbXrecord
280
     1
  1
DWGPROPS COOKIE
  2

  3

  4

  6

  7

  8
radek.stransky
  9

300
=
301
=
302
=
303
=
304
=
305
=
306
=
307
=
308
=
309
=
 40
0.0
 41
2459104.361798842
 42
2459104.361841342
  1

 90
        0
  0
LAYOUT
  5
1E
102
{ACAD_REACTORS
330
1A
102
}
330
1A
100
AcDbPlotSettings
  1

  2
none_device
  4

  6

 40
0.0
 41
0.0
 42
0.0
 43
0.0
 44
0.0
 45
0.0
 46
0.0
 47
0.0
 48
0.0
 49
0.0
140
0.0
141
0.0
142
1.0
143
1.0
 70
   688
 72
     1
 73
     0
 74
     5
  7

 75
    16
147
1.0
148
0.0
149
0.0
100
AcDbLayout
  1
Layout1
 70
     1
 71
     1
 10
0.0
 20
0.0
 11
420.0
 21
297.0
 12
0.0
 22
0.0
 32
0.0
 14
1.0000000000E+20
 24
1.0000000000E+20
 34
1.0000000000E+20
 15
-1.0000000000E+20
 25
-1.0000000000E+20
 35
-1.0000000000E+20
146
0.0
 13
0.0
 23
0.0
 33
0.0
 16
1.0
 26
0.0
 36
0.0
 17
0.0
 27
1.0
 37
0.0
 76
     0
330
1B
  0
LAYOUT
  5
26
102
{ACAD_REACTORS
330
1A
102
}
330
1A
100
AcDbPlotSettings
  1

  2
none_device
  4

  6

 40
0.0
 41
0.0
 42
0.0
 43
0.0
 44
0.0
 45
0.0
 46
0.0
 47
0.0
 48
0.0
 49
0.0
140
0.0
141
0.0
142
1.0
143
1.0
 70
   688
 72
     1
 73
     0
 74
     5
  7

 75
    16
147
1.0
148
0.0
149
0.0
100
AcDbLayout
  1
Layout2
 70
     1
 71
     2
 10
0.0
 20
0.0
 11
0.0
 21
0.0
 12
0.0
 22
0.0
 32
0.0
 14
0.0
 24
0.0
 34
0.0
 15
0.0
 25
0.0
 35
0.0
146
0.0
 13
0.0
 23
0.0
 33
0.0
 16
1.0
 26
0.0
 36
0.0
 17
0.0
 27
1.0
 37
0.0
 76
     0
330
23
  0
LAYOUT
  5
22
102
{ACAD_REACTORS
330
1A
102
}
330
1A
100
AcDbPlotSettings
  1

  2
none_device
  4
ANSI_A_(11.00_x_8.50_Inches)
  6

 40
6.35
 41
19.05
 42
6.35000508
 43
19.05000254
 44
279.4
 45
215.9
 46
-72.4291592862
 47
-365.2269408171
 48
0.0
 49
0.0
140
0.0
141
0.0
142
0.0024474139
143
1.0
 70
  1696
 72
     0
 73
     0
 74
     0
  7

 75
     0
147
0.0179189148
148
-1300.4909072572
149
0.0
100
AcDbLayout
  1
Model
 70
     1
 71
     0
 10
0.0
 20
0.0
 11
420.0
 21
297.0
 12
0.0
 22
0.0
 32
0.0
 14
1626.1343888262
 24
5586.1060705951
 34
0.0
 15
4994.3573618883
 25
9024.4293431379
 35
0.0
146
0.0
 13
0.0
 23
0.0
 33
0.0
 16
1.0
 26
0.0
 36
0.0
 17
0.0
 27
1.0
 37
0.0
 76
     0
330
1F
331
29
  0
MLINESTYLE
  5
18
102
{ACAD_REACTORS
330
17
102
}
330
17
100
AcDbMlineStyle
  2
Standard
 70
     0
  3

 62
   256
 51
90.0
 52
90.0
 71
     2
 49
0.5
 62
   256
  6
BYLAYER
 49
-0.5
 62
   256
  6
BYLAYER
  0
ACDBPLACEHOLDER
  5
F
102
{ACAD_REACTORS
330
E
102
}
330
E
  0
SCALE
  5
48
102
{ACAD_REACTORS
330
47
102
}
330
47
100
AcDbScale
 70
     0
300
1:1
140
1.0
141
1.0
290
     1
  0
SCALE
  5
49
102
{ACAD_REACTORS
330
47
102
}
330
47
100
AcDbScale
 70
     0
300
1:2
140
1.0
141
2.0
290
     0
  0
SCALE
  5
4A
102
{ACAD_REACTORS
330
47
102
}
330
47
100
AcDbScale
 70
     0
300
1:4
140
1.0
141
4.0
290
     0
  0
SCALE
  5
4B
102
{ACAD_REACTORS
330
47
102
}
330
47
100
AcDbScale
 70
     0
300
1:5
140
1.0
141
5.0
290
     0
  0
SCALE
  5
4C
102
{ACAD_REACTORS
330
47
102
}
330
47
100
AcDbScale
 70
     0
300
1:8
140
1.0
141
8.0
290
     0
  0
SCALE
  5
4D
102
{ACAD_REACTORS
330
47
102
}
330
47
100
AcDbScale
 70
     0
300
1:10
140
1.0
141
10.0
290
     0
  0
SCALE
  5
4E
102
{ACAD_REACTORS
330
47
102
}
330
47
100
AcDbScale
 70
     0
300
1:16
140
1.0
141
16.0
290
     0
  0
SCALE
  5
4F
102
{ACAD_REACTORS
330
47
102
}
330
47
100
AcDbScale
 70
     0
300
1:20
140
1.0
141
20.0
290
     0
  0
SCALE
  5
50
102
{ACAD_REACTORS
330
47
102
}
330
47
100
AcDbScale
 70
     0
300
1:30
140
1.0
141
30.0
290
     0
  0
SCALE
  5
51
102
{ACAD_REACTORS
330
47
102
}
330
47
100
AcDbScale
 70
     0
300
1:40
140
1.0
141
40.0
290
     0
  0
SCALE
  5
52
102
{ACAD_REACTORS
330
47
102
}
330
47
100
AcDbScale
 70
     0
300
1:50
140
1.0
141
50.0
290
     0
  0
SCALE
  5
53
102
{ACAD_REACTORS
330
47
102
}
330
47
100
AcDbScale
 70
     0
300
1:100
140
1.0
141
100.0
290
     0
  0
SCALE
  5
54
102
{ACAD_REACTORS
330
47
102
}
330
47
100
AcDbScale
 70
     0
300
2:1
140
2.0
141
1.0
290
     0
  0
SCALE
  5
55
102
{ACAD_REACTORS
330
47
102
}
330
47
100
AcDbScale
 70
     0
300
4:1
140
4.0
141
1.0
290
     0
  0
SCALE
  5
56
102
{ACAD_REACTORS
330
47
102
}
330
47
100
AcDbScale
 70
     0
300
8:1
140
8.0
141
1.0
290
     0
  0
SCALE
  5
57
102
{ACAD_REACTORS
330
47
102
}
330
47
100
AcDbScale
 70
     0
300
10:1
140
10.0
141
1.0
290
     0
  0
SCALE
  5
58
102
{ACAD_REACTORS
330
47
102
}
330
47
100
AcDbScale
 70
     0
300
100:1
140
100.0
141
1.0
290
     0
  0
SCALE
  5
59
102
{ACAD_REACTORS
330
47
102
}
330
47
100
AcDbScale
 70
     0
300
1/128" = 1'-0"
140
0.0078125
141
12.0
290
     0
  0
SCALE
  5
5A
102
{ACAD_REACTORS
330
47
102
}
330
47
100
AcDbScale
 70
     0
300
1/64" = 1'-0"
140
0.015625
141
12.0
290
     0
  0
SCALE
  5
5B
102
{ACAD_REACTORS
330
47
102
}
330
47
100
AcDbScale
 70
     0
300
1/32" = 1'-0"
140
0.03125
141
12.0
290
     0
  0
SCALE
  5
5C
102
{ACAD_REACTORS
330
47
102
}
330
47
100
AcDbScale
 70
     0
300
1/16" = 1'-0"
140
0.0625
141
12.0
290
     0
  0
SCALE
  5
5D
102
{ACAD_REACTORS
330
47
102
}
330
47
100
AcDbScale
 70
     0
300
3/32" = 1'-0"
140
0.09375
141
12.0
290
     0
  0
SCALE
  5
5E
102
{ACAD_REACTORS
330
47
102
}
330
47
100
AcDbScale
 70
     0
300
1/8" = 1'-0"
140
0.125
141
12.0
290
     0
  0
SCALE
  5
5F
102
{ACAD_REACTORS
330
47
102
}
330
47
100
AcDbScale
 70
     0
300
3/16" = 1'-0"
140
0.1875
141
12.0
290
     0
  0
SCALE
  5
60
102
{ACAD_REACTORS
330
47
102
}
330
47
100
AcDbScale
 70
     0
300
1/4" = 1'-0"
140
0.25
141
12.0
290
     0
  0
SCALE
  5
61
102
{ACAD_REACTORS
330
47
102
}
330
47
100
AcDbScale
 70
     0
300
3/8" = 1'-0"
140
0.375
141
12.0
290
     0
  0
SCALE
  5
62
102
{ACAD_REACTORS
330
47
102
}
330
47
100
AcDbScale
 70
     0
300
1/2" = 1'-0"
140
0.5
141
12.0
290
     0
  0
SCALE
  5
63
102
{ACAD_REACTORS
330
47
102
}
330
47
100
AcDbScale
 70
     0
300
3/4" = 1'-0"
140
0.75
141
12.0
290
     0
  0
SCALE
  5
64
102
{ACAD_REACTORS
330
47
102
}
330
47
100
AcDbScale
 70
     0
300
1" = 1'-0"
140
1.0
141
12.0
290
     0
  0
SCALE
  5
65
102
{ACAD_REACTORS
330
47
102
}
330
47
100
AcDbScale
 70
     0
300
1-1/2" = 1'-0"
140
1.5
141
12.0
290
     0
  0
SCALE
  5
66
102
{ACAD_REACTORS
330
47
102
}
330
47
100
AcDbScale
 70
     0
300
3" = 1'-0"
140
3.0
141
12.0
290
     0
  0
SCALE
  5
67
102
{ACAD_REACTORS
330
47
102
}
330
47
100
AcDbScale
 70
     0
300
6" = 1'-0"
140
6.0
141
12.0
290
     0
  0
SCALE
  5
68
102
{ACAD_REACTORS
330
47
102
}
330
47
100
AcDbScale
 70
     0
300
1'-0" = 1'-0"
140
12.0
141
12.0
290
     0
  0
ENDSEC
  0
EOF
