  0
SECTION
  2
HEADER
  9
$ACADVER
  1
AC1015
  9
$ACADMAINTVER
 70
     6
  9
$DWGCODEPAGE
  3
ANSI_1250
  9
$INSBASE
 10
0.0
 20
0.0
 30
0.0
  9
$EXTMIN
 10
6189.018754442
 20
4830.9684563298
 30
0.0
  9
$EXTMAX
 10
6634.2100567571
 20
5278.9516432864
 30
0.0
  9
$LIMMIN
 10
0.0
 20
0.0
  9
$LIMMAX
 10
420.0
 20
297.0
  9
$ORTHOMODE
 70
     0
  9
$REGENMODE
 70
     1
  9
$FILLMODE
 70
     1
  9
$QTEXTMODE
 70
     0
  9
$MIRRTEXT
 70
     1
  9
$LTSCALE
 40
1.0
  9
$ATTMODE
 70
     1
  9
$TEXTSIZE
 40
3.5
  9
$TRACEWID
 40
1.0
  9
$TEXTSTYLE
  7
Standard
  9
$CLAYER
  8
0
  9
$CELTYPE
  6
ByLayer
  9
$CECOLOR
 62
   256
  9
$CELTSCALE
 40
1.0
  9
$DISPSILH
 70
     0
  9
$DIMSCALE
 40
1.0
  9
$DIMASZ
 40
3.302
  9
$DIMEXO
 40
0.0
  9
$DIMDLI
 40
3.75
  9
$DIMRND
 40
0.0
  9
$DIMDLE
 40
0.0
  9
$DIMEXE
 40
1.0
  9
$DIMTP
 40
0.0
  9
$DIMTM
 40
0.0
  9
$DIMTXT
 40
3.5
  9
$DIMCEN
 40
2.5
  9
$DIMTSZ
 40
0.0
  9
$DIMTOL
 70
     0
  9
$DIMLIM
 70
     0
  9
$DIMTIH
 70
     1
  9
$DIMTOH
 70
     1
  9
$DIMSE1
 70
     0
  9
$DIMSE2
 70
     0
  9
$DIMTAD
 70
     1
  9
$DIMZIN
 70
     0
  9
$DIMBLK
  1

  9
$DIMASO
 70
     1
  9
$DIMSHO
 70
     1
  9
$DIMPOST
  1

  9
$DIMAPOST
  1

  9
$DIMALT
 70
     0
  9
$DIMALTD
 70
     3
  9
$DIMALTF
 40
0.0393700787
  9
$DIMLFAC
 40
1.0
  9
$DIMTOFL
 70
     1
  9
$DIMTVP
 40
0.0
  9
$DIMTIX
 70
     0
  9
$DIMSOXD
 70
     0
  9
$DIMSAH
 70
     0
  9
$DIMBLK1
  1

  9
$DIMBLK2
  1

  9
$DIMSTYLE
  2
ISO-25
  9
$DIMCLRD
 70
     0
  9
$DIMCLRE
 70
     0
  9
$DIMCLRT
 70
     0
  9
$DIMTFAC
 40
1.0
  9
$DIMGAP
 40
1.524
  9
$DIMJUST
 70
     0
  9
$DIMSD1
 70
     0
  9
$DIMSD2
 70
     0
  9
$DIMTOLJ
 70
     0
  9
$DIMTZIN
 70
     0
  9
$DIMALTZ
 70
     0
  9
$DIMALTTZ
 70
     0
  9
$DIMUPT
 70
     0
  9
$DIMDEC
 70
     2
  9
$DIMTDEC
 70
     2
  9
$DIMALTU
 70
     2
  9
$DIMALTTD
 70
     3
  9
$DIMTXSTY
  7
Standard
  9
$DIMAUNIT
 70
     0
  9
$DIMADEC
 70
     2
  9
$DIMALTRND
 40
0.0
  9
$DIMAZIN
 70
     0
  9
$DIMDSEP
 70
    44
  9
$DIMATFIT
 70
     3
  9
$DIMFRAC
 70
     0
  9
$DIMLDRBLK
  1

  9
$DIMLUNIT
 70
     2
  9
$DIMLWD
 70
    -2
  9
$DIMLWE
 70
    -2
  9
$DIMTMOVE
 70
     0
  9
$LUNITS
 70
     2
  9
$LUPREC
 70
     2
  9
$SKETCHINC
 40
1.0
  9
$FILLETRAD
 40
10.0
  9
$AUNITS
 70
     0
  9
$AUPREC
 70
     2
  9
$MENU
  1
.
  9
$ELEVATION
 40
0.0
  9
$PELEVATION
 40
0.0
  9
$THICKNESS
 40
0.0
  9
$LIMCHECK
 70
     0
  9
$CHAMFERA
 40
0.0
  9
$CHAMFERB
 40
0.0
  9
$CHAMFERC
 40
0.0
  9
$CHAMFERD
 40
0.0
  9
$SKPOLY
 70
     0
  9
$TDCREATE
 40
2459104.429278993
  9
$TDUCREATE
 40
2459104.34594566
  9
$TDUPDATE
 40
2459104.429310937
  9
$TDUUPDATE
 40
2459104.345977604
  9
$TDINDWG
 40
0.0000000116
  9
$TDUSRTIMER
 40
0.0000000116
  9
$USRTIMER
 70
     1
  9
$ANGBASE
 50
0.0
  9
$ANGDIR
 70
     0
  9
$PDMODE
 70
     0
  9
$PDSIZE
 40
-1.0
  9
$PLINEWID
 40
0.0
  9
$SPLFRAME
 70
     0
  9
$SPLINETYPE
 70
     6
  9
$SPLINESEGS
 70
     8
  9
$HANDSEED
  5
2AD
  9
$SURFTAB1
 70
     6
  9
$SURFTAB2
 70
     6
  9
$SURFTYPE
 70
     6
  9
$SURFU
 70
     6
  9
$SURFV
 70
     6
  9
$UCSBASE
  2

  9
$UCSNAME
  2

  9
$UCSORG
 10
0.0
 20
0.0
 30
0.0
  9
$UCSXDIR
 10
1.0
 20
0.0
 30
0.0
  9
$UCSYDIR
 10
0.0
 20
1.0
 30
0.0
  9
$UCSORTHOREF
  2

  9
$UCSORTHOVIEW
 70
     0
  9
$UCSORGTOP
 10
0.0
 20
0.0
 30
0.0
  9
$UCSORGBOTTOM
 10
0.0
 20
0.0
 30
0.0
  9
$UCSORGLEFT
 10
0.0
 20
0.0
 30
0.0
  9
$UCSORGRIGHT
 10
0.0
 20
0.0
 30
0.0
  9
$UCSORGFRONT
 10
0.0
 20
0.0
 30
0.0
  9
$UCSORGBACK
 10
0.0
 20
0.0
 30
0.0
  9
$PUCSBASE
  2

  9
$PUCSNAME
  2

  9
$PUCSORG
 10
0.0
 20
0.0
 30
0.0
  9
$PUCSXDIR
 10
1.0
 20
0.0
 30
0.0
  9
$PUCSYDIR
 10
0.0
 20
1.0
 30
0.0
  9
$PUCSORTHOREF
  2

  9
$PUCSORTHOVIEW
 70
     0
  9
$PUCSORGTOP
 10
0.0
 20
0.0
 30
0.0
  9
$PUCSORGBOTTOM
 10
0.0
 20
0.0
 30
0.0
  9
$PUCSORGLEFT
 10
0.0
 20
0.0
 30
0.0
  9
$PUCSORGRIGHT
 10
0.0
 20
0.0
 30
0.0
  9
$PUCSORGFRONT
 10
0.0
 20
0.0
 30
0.0
  9
$PUCSORGBACK
 10
0.0
 20
0.0
 30
0.0
  9
$USERI1
 70
     0
  9
$USERI2
 70
     0
  9
$USERI3
 70
     0
  9
$USERI4
 70
     0
  9
$USERI5
 70
     0
  9
$USERR1
 40
0.0
  9
$USERR2
 40
0.0
  9
$USERR3
 40
0.0
  9
$USERR4
 40
0.0
  9
$USERR5
 40
0.0
  9
$WORLDVIEW
 70
     1
  9
$SHADEDGE
 70
     3
  9
$SHADEDIF
 70
    70
  9
$TILEMODE
 70
     1
  9
$MAXACTVP
 70
    64
  9
$PINSBASE
 10
0.0
 20
0.0
 30
0.0
  9
$PLIMCHECK
 70
     0
  9
$PEXTMIN
 10
1.0000000000E+20
 20
1.0000000000E+20
 30
1.0000000000E+20
  9
$PEXTMAX
 10
-1.0000000000E+20
 20
-1.0000000000E+20
 30
-1.0000000000E+20
  9
$PLIMMIN
 10
0.0
 20
0.0
  9
$PLIMMAX
 10
420.0
 20
297.0
  9
$UNITMODE
 70
     0
  9
$VISRETAIN
 70
     1
  9
$PLINEGEN
 70
     0
  9
$PSLTSCALE
 70
     1
  9
$TREEDEPTH
 70
  3020
  9
$CMLSTYLE
  2
Standard
  9
$CMLJUST
 70
     0
  9
$CMLSCALE
 40
20.0
  9
$PROXYGRAPHICS
 70
     1
  9
$MEASUREMENT
 70
     1
  9
$CELWEIGHT
370
    -1
  9
$ENDCAPS
280
     0
  9
$JOINSTYLE
280
     0
  9
$LWDISPLAY
290
     1
  9
$INSUNITS
 70
     4
  9
$HYPERLINKBASE
  1

  9
$STYLESHEET
  1

  9
$XEDIT
290
     1
  9
$CEPSNTYPE
380
     0
  9
$PSTYLEMODE
290
     1
  9
$FINGERPRINTGUID
  2
{72e4fc10-9754-49c0-81e4-ae67476a86d4}
  9
$VERSIONGUID
  2
{FAEB1C32-E019-11D5-929B-00C0DF256EC4}
  9
$EXTNAMES
290
     1
  9
$PSVPSCALE
 40
0.0
  9
$OLESTARTUP
290
     0
  0
ENDSEC
  0
SECTION
  2
CLASSES
  0
CLASS
  1
ACDBDICTIONARYWDFLT
  2
AcDbDictionaryWithDefault
  3
ObjectDBX Classes
 90
        0
280
     0
281
     0
  0
CLASS
  1
VISUALSTYLE
  2
AcDbVisualStyle
  3
ObjectDBX Classes
 90
     4095
280
     0
281
     0
  0
CLASS
  1
MATERIAL
  2
AcDbMaterial
  3
ObjectDBX Classes
 90
     1153
280
     0
281
     0
  0
CLASS
  1
SCALE
  2
AcDbScale
  3
ObjectDBX Classes
 90
     1153
280
     0
281
     0
  0
CLASS
  1
TABLESTYLE
  2
AcDbTableStyle
  3
ObjectDBX Classes
 90
     4095
280
     0
281
     0
  0
CLASS
  1
MLEADERSTYLE
  2
AcDbMLeaderStyle
  3
ACDB_MLEADERSTYLE_CLASS
 90
     4095
280
     0
281
     0
  0
CLASS
  1
SUN
  2
AcDbSun
  3
SCENEOE
 90
     1153
280
     0
281
     0
  0
CLASS
  1
ACDBPLACEHOLDER
  2
AcDbPlaceHolder
  3
ObjectDBX Classes
 90
        0
280
     0
281
     0
  0
CLASS
  1
LAYOUT
  2
AcDbLayout
  3
ObjectDBX Classes
 90
        0
280
     0
281
     0
  0
ENDSEC
  0
SECTION
  2
TABLES
  0
TABLE
  2
VPORT
  5
8
330
0
100
AcDbSymbolTable
 70
     1
  0
VPORT
  5
29
330
8
100
AcDbSymbolTableRecord
100
AcDbViewportTableRecord
  2
*Active
 70
     0
 10
0.0
 20
0.0
 11
1.0
 21
1.0
 12
6411.6144055996
 22
5054.9600498081
 13
0.0
 23
0.0
 14
10.0
 24
10.0
 15
10.0
 25
10.0
 16
0.0
 26
0.0
 36
1.0
 17
0.0
 27
0.0
 37
0.0
 40
456.9428506957
 41
0.9937678808
 42
50.0
 43
0.0
 44
0.0
 50
0.0
 51
0.0
 71
     0
 72
   100
 73
     1
 74
     3
 75
     0
 76
     0
 77
     0
 78
     0
281
     0
 65
     1
110
0.0
120
0.0
130
0.0
111
1.0
121
0.0
131
0.0
112
0.0
122
1.0
132
0.0
 79
     0
146
0.0
  0
ENDTAB
  0
TABLE
  2
LTYPE
  5
5
330
0
100
AcDbSymbolTable
 70
     6
  0
LTYPE
  5
14
330
5
100
AcDbSymbolTableRecord
100
AcDbLinetypeTableRecord
  2
ByBlock
 70
     0
  3

 72
    65
 73
     0
 40
0.0
  0
LTYPE
  5
15
330
5
100
AcDbSymbolTableRecord
100
AcDbLinetypeTableRecord
  2
ByLayer
 70
     0
  3

 72
    65
 73
     0
 40
0.0
  0
LTYPE
  5
16
330
5
100
AcDbSymbolTableRecord
100
AcDbLinetypeTableRecord
  2
Continuous
 70
     0
  3
Solid line
 72
    65
 73
     0
 40
0.0
  0
LTYPE
  5
6E
330
5
100
AcDbSymbolTableRecord
100
AcDbLinetypeTableRecord
  2
HIDDEN
 70
     0
  3
Hidden __ __ __ __ __ __ __ __ __ __ __ __ __ __
 72
    65
 73
     2
 40
1.905
 49
1.27
 74
     0
 49
-0.635
 74
     0
  0
LTYPE
  5
6F
330
5
100
AcDbSymbolTableRecord
100
AcDbLinetypeTableRecord
  2
PHANTOM
 70
     0
  3
Phantom ______  __  __  ______  __  __  ______
 72
    65
 73
     6
 40
12.7
 49
6.35
 74
     0
 49
-1.27
 74
     0
 49
1.27
 74
     0
 49
-1.27
 74
     0
 49
1.27
 74
     0
 49
-1.27
 74
     0
  0
LTYPE
  5
70
330
5
100
AcDbSymbolTableRecord
100
AcDbLinetypeTableRecord
  2
CENTER
 70
     0
  3
Center ____ _ ____ _ ____ _ ____ _ ____ _ ____
 72
    65
 73
     4
 40
10.16
 49
6.35
 74
     0
 49
-1.27
 74
     0
 49
1.27
 74
     0
 49
-1.27
 74
     0
  0
LTYPE
  5
71
330
5
100
AcDbSymbolTableRecord
100
AcDbLinetypeTableRecord
  2
CENTERX2
 70
     0
  3
Center (2x) ________  __  ________  __  _____
 72
    65
 73
     4
 40
20.32
 49
12.7
 74
     0
 49
-2.54
 74
     0
 49
2.54
 74
     0
 49
-2.54
 74
     0
  0
LTYPE
  5
72
330
5
100
AcDbSymbolTableRecord
100
AcDbLinetypeTableRecord
  2
DOT2
 70
     0
  3
Dot (.5x) ........................................
 72
    65
 73
     2
 40
0.635
 49
0.0
 74
     0
 49
-0.635
 74
     0
  0
ENDTAB
  0
TABLE
  2
LAYER
  5
2
330
0
100
AcDbSymbolTable
 70
     1
  0
LAYER
  5
10
330
2
100
AcDbSymbolTableRecord
100
AcDbLayerTableRecord
  2
0
 70
     0
 62
     7
  6
Continuous
370
    -3
390
F
  0
ENDTAB
  0
TABLE
  2
STYLE
  5
3
330
0
100
AcDbSymbolTable
 70
     1
  0
STYLE
  5
11
330
3
100
AcDbSymbolTableRecord
100
AcDbTextStyleTableRecord
  2
Standard
 70
     0
 40
0.0
 41
1.0
 50
0.0
 71
     0
 42
3.5
  3
txt
  4

  0
ENDTAB
  0
TABLE
  2
VIEW
  5
6
330
0
100
AcDbSymbolTable
 70
     0
  0
ENDTAB
  0
TABLE
  2
UCS
  5
7
330
0
100
AcDbSymbolTable
 70
     0
  0
ENDTAB
  0
TABLE
  2
APPID
  5
9
330
0
100
AcDbSymbolTable
 70
     1
  0
APPID
  5
12
330
9
100
AcDbSymbolTableRecord
100
AcDbRegAppTableRecord
  2
ACAD
 70
     0
  0
ENDTAB
  0
TABLE
  2
DIMSTYLE
  5
A
330
0
100
AcDbSymbolTable
 70
     1
100
AcDbDimStyleTable
  0
DIMSTYLE
105
27
330
A
100
AcDbSymbolTableRecord
100
AcDbDimStyleTableRecord
  2
ISO-25
 70
     0
 41
2.5
 42
0.625
 43
3.75
 44
1.25
 73
     0
 74
     0
 77
     1
 78
     8
140
2.5
141
2.5
143
0.0393700787
147
0.625
171
     3
172
     1
178
     0
271
     2
272
     2
274
     3
278
    44
283
     0
284
     8
340
11
  0
ENDTAB
  0
TABLE
  2
BLOCK_RECORD
  5
1
330
0
100
AcDbSymbolTable
 70
     1
  0
BLOCK_RECORD
  5
1F
330
1
100
AcDbSymbolTableRecord
100
AcDbBlockTableRecord
  2
*Model_Space
340
22
  0
BLOCK_RECORD
  5
1B
330
1
100
AcDbSymbolTableRecord
100
AcDbBlockTableRecord
  2
*Paper_Space
340
1E
  0
BLOCK_RECORD
  5
23
330
1
100
AcDbSymbolTableRecord
100
AcDbBlockTableRecord
  2
*Paper_Space0
340
26
  0
ENDTAB
  0
ENDSEC
  0
SECTION
  2
BLOCKS
  0
BLOCK
  5
20
330
1F
100
AcDbEntity
  8
0
100
AcDbBlockBegin
  2
*Model_Space
 70
     0
 10
0.0
 20
0.0
 30
0.0
  3
*Model_Space
  1

  0
ENDBLK
  5
21
330
1F
100
AcDbEntity
  8
0
100
AcDbBlockEnd
  0
BLOCK
  5
1C
330
1B
100
AcDbEntity
 67
     1
  8
0
100
AcDbBlockBegin
  2
*Paper_Space
 70
     0
 10
0.0
 20
0.0
 30
0.0
  3
*Paper_Space
  1

  0
ENDBLK
  5
1D
330
1B
100
AcDbEntity
 67
     1
  8
0
100
AcDbBlockEnd
  0
BLOCK
  5
24
330
23
100
AcDbEntity
  8
0
100
AcDbBlockBegin
  2
*Paper_Space0
 70
     0
 10
0.0
 20
0.0
 30
0.0
  3
*Paper_Space0
  1

  0
ENDBLK
  5
25
330
23
100
AcDbEntity
  8
0
100
AcDbBlockEnd
  0
ENDSEC
  0
SECTION
  2
ENTITIES
  0
CIRCLE
  5
73
330
1F
100
AcDbEntity
  8
0
  6
Continuous
 62
     7
100
AcDbCircle
 10
6274.0187553361
 20
5193.9516397101
 30
0.0
 40
70.5
  0
CIRCLE
  5
74
330
1F
100
AcDbEntity
  8
0
  6
Continuous
 62
     7
100
AcDbCircle
 10
6274.0187553361
 20
5193.9516397101
 30
0.0
 40
72.38561808316445
  0
ARC
  5
75
330
1F
100
AcDbEntity
  8
0
  6
Continuous
 62
     7
100
AcDbCircle
 10
6281.0187552243
 20
5201.9516393748
 30
0.0
 40
2.000000000000091
100
AcDbArc
 50
89.9999906064
 51
179.9999827111
  0
ARC
  5
76
330
1F
100
AcDbEntity
  8
0
  6
Continuous
 62
     7
100
AcDbCircle
 10
6293.018755053
 20
5205.9516393748
 30
0.0
 40
2.000000000000027
100
AcDbArc
 50
269.9999906092
 51
0.0000360734
  0
ARC
  5
77
330
1F
100
AcDbEntity
  8
0
  6
Continuous
 62
     7
100
AcDbCircle
 10
6293.018755053
 20
5213.9516404105
 30
0.0
 40
1.999999999999117
100
AcDbArc
 50
359.9999906063
 51
90.0000093908
  0
ARC
  5
78
330
1F
100
AcDbEntity
  8
0
  6
Continuous
 62
     7
100
AcDbCircle
 10
6255.0187556192
 20
5213.9516404105
 30
0.0
 40
1.999999999999117
100
AcDbArc
 50
89.9999906092
 51
180.0000093937
  0
ARC
  5
79
330
1F
100
AcDbEntity
  8
0
  6
Continuous
 62
     7
100
AcDbCircle
 10
6255.0187556192
 20
5205.9516393748
 30
0.0
 40
2.000000000000027
100
AcDbArc
 50
179.9999639266
 51
270.0000093908
  0
ARC
  5
7A
330
1F
100
AcDbEntity
  8
0
  6
Continuous
 62
     7
100
AcDbCircle
 10
6267.0187554479
 20
5201.9516393748
 30
0.0
 40
2.000000000000091
100
AcDbArc
 50
0.0000172889
 51
90.0000093936
  0
ARC
  5
7B
330
1F
100
AcDbEntity
  8
0
  6
Continuous
 62
     7
100
AcDbCircle
 10
6271.0187554479
 20
5165.9516393376
 30
0.0
 40
2.000000000000027
100
AcDbArc
 50
179.9999906092
 51
269.9999960495
  0
ARC
  5
7C
330
1F
100
AcDbEntity
  8
0
  6
Continuous
 62
     7
100
AcDbCircle
 10
6277.0187552243
 20
5165.9516393376
 30
0.0
 40
2.000000000000027
100
AcDbArc
 50
270.0000039506
 51
0.0000093908
  0
CIRCLE
  5
7D
330
1F
100
AcDbEntity
  8
0
  6
Continuous
 62
     7
100
AcDbCircle
 10
6274.0187553361
 20
5193.9516397101
 30
0.0
 40
73.32842712474576
  0
ARC
  5
7E
330
1F
100
AcDbEntity
  8
0
  6
Continuous
 62
     7
100
AcDbCircle
 10
6329.0187521771
 20
5248.9516392333
 30
0.0
 40
28.00000000000106
100
AcDbArc
 50
359.9999982314
 51
89.9999941456
  0
ARC
  5
7F
330
1F
100
AcDbEntity
  8
0
  6
Continuous
 62
     7
100
AcDbCircle
 10
6329.0187521771
 20
5248.9516392333
 30
0.0
 40
30.00000405310143
100
AcDbArc
 50
359.9999983493
 51
89.9999945359
  0
ARC
  5
80
330
1F
100
AcDbEntity
  8
0
  6
Continuous
 62
     7
100
AcDbCircle
 10
6329.0187521771
 20
5138.9516381008
 30
0.0
 40
28.00000000000015
100
AcDbArc
 50
270.0000058544
 51
0.0000017684
  0
ARC
  5
81
330
1F
100
AcDbEntity
  8
0
  6
Continuous
 62
     7
100
AcDbCircle
 10
6219.0187584951
 20
5138.9516381008
 30
0.0
 40
28.00000000000106
100
AcDbArc
 50
179.9999982316
 51
269.9999941456
  0
ARC
  5
82
330
1F
100
AcDbEntity
  8
0
  6
Continuous
 62
     7
100
AcDbCircle
 10
6219.0187584951
 20
5248.9516392333
 30
0.0
 40
28.00000000000015
100
AcDbArc
 50
90.0000058544
 51
180.0000017686
  0
ARC
  5
83
330
1F
100
AcDbEntity
  8
0
  6
Continuous
 62
     7
100
AcDbCircle
 10
6219.0187584951
 20
5248.9516392333
 30
0.0
 40
30.00000405310052
100
AcDbArc
 50
90.0000054641
 51
180.0000016507
  0
ARC
  5
84
330
1F
100
AcDbEntity
  8
0
  6
Continuous
 62
     7
100
AcDbCircle
 10
6329.0187521771
 20
5138.9516381008
 30
0.0
 40
30.00000405310052
100
AcDbArc
 50
270.0000054641
 51
0.0000016505
  0
ARC
  5
85
330
1F
100
AcDbEntity
  8
0
  6
Continuous
 62
     7
100
AcDbCircle
 10
6219.0187584951
 20
5138.9516381008
 30
0.0
 40
30.00000405310143
100
AcDbArc
 50
179.9999983495
 51
269.9999945359
  0
ARC
  5
86
330
1F
100
AcDbEntity
  8
0
  6
Continuous
 62
     7
100
AcDbCircle
 10
6276.9187553942
 20
5166.0516391677
 30
0.0
 40
2.000000000000027
100
AcDbArc
 50
269.9999972785
 51
0.0000093908
  0
ARC
  5
87
330
1F
100
AcDbEntity
  8
0
  6
Continuous
 62
     7
100
AcDbCircle
 10
6271.118755278
 20
5166.0516391677
 30
0.0
 40
1.999999999999093
100
AcDbArc
 50
179.9999906092
 51
270.0000027216
  0
ARC
  5
88
330
1F
100
AcDbEntity
  8
0
  6
Continuous
 62
     7
100
AcDbCircle
 10
6267.118755278
 20
5202.0516401363
 30
0.0
 40
2.000000000000027
100
AcDbArc
 50
359.9999906092
 51
89.9999960523
  0
ARC
  5
89
330
1F
100
AcDbEntity
  8
0
  6
Continuous
 62
     7
100
AcDbCircle
 10
6255.1187554493
 20
5206.0516401363
 30
0.0
 40
2.000000000000027
100
AcDbArc
 50
179.9999906092
 51
270.0000093936
  0
ARC
  5
8A
330
1F
100
AcDbEntity
  8
0
  6
Continuous
 62
     7
100
AcDbCircle
 10
6255.1187554493
 20
5213.8516405803
 30
0.0
 40
2.000000000000936
100
AcDbArc
 50
89.9999906064
 51
180.0000093908
  0
ARC
  5
8B
330
1F
100
AcDbEntity
  8
0
  6
Continuous
 62
     7
100
AcDbCircle
 10
6280.9187553942
 20
5202.0516401363
 30
0.0
 40
2.000000000000027
100
AcDbArc
 50
90.0000039477
 51
180.0000093908
  0
ARC
  5
8C
330
1F
100
AcDbEntity
  8
0
  6
Continuous
 62
     7
100
AcDbCircle
 10
6292.9187552229
 20
5206.0516401363
 30
0.0
 40
2.000000000000027
100
AcDbArc
 50
269.9999906064
 51
0.0000093908
  0
ARC
  5
8D
330
1F
100
AcDbEntity
  8
0
  6
Continuous
 62
     7
100
AcDbCircle
 10
6292.9187552229
 20
5213.8516405803
 30
0.0
 40
2.000000000000027
100
AcDbArc
 50
359.9999906092
 51
90.0000093936
  0
ARC
  5
8E
330
1F
100
AcDbEntity
  8
0
  6
Continuous
 62
     7
100
AcDbCircle
 10
6595.0038083198
 20
5260.3516399962
 30
0.0
 40
0.8000000000013362
100
AcDbArc
 50
0.000097331
 51
90.0001694737
  0
ARC
  5
8F
330
1F
100
AcDbEntity
  8
0
  6
Continuous
 62
     7
100
AcDbCircle
 10
6583.4038083913
 20
5260.3516399962
 30
0.0
 40
0.8000000000013362
100
AcDbArc
 50
90.000097324
 51
179.9999026688
  0
ARC
  5
90
330
1F
100
AcDbEntity
  8
0
  6
Continuous
 62
     7
100
AcDbCircle
 10
6633.2038067761
 20
5120.6232125854
 30
0.0
 40
1.000000000001819
100
AcDbArc
 50
109.4712206345
 51
179.9999999972
  0
ARC
  5
91
330
1F
100
AcDbEntity
  8
0
  6
Continuous
 62
     7
100
AcDbCircle
 10
6633.2038067761
 20
5267.2800668348
 30
0.0
 40
1.000000000001819
100
AcDbArc
 50
180.0000000027
 51
250.5287793655
  0
ARC
  5
92
330
1F
100
AcDbEntity
  8
0
  6
Continuous
 62
     7
100
AcDbCircle
 10
6632.2038068841
 20
5264.4516396719
 30
0.0
 40
2.00000000000172
100
AcDbArc
 50
359.9999020553
 51
70.5287826472
  0
ARC
  5
93
330
1F
100
AcDbEntity
  8
0
  6
Continuous
 62
     7
100
AcDbCircle
 10
6632.2038068841
 20
5123.4516397483
 30
0.0
 40
2.000000000000612
100
AcDbArc
 50
289.4712173528
 51
0.0000381795
  0
CIRCLE
  5
94
330
1F
100
AcDbEntity
  8
0
  6
Continuous
 62
     7
100
AcDbCircle
 10
6242.0187553361
 20
4875.9747063108
 30
0.0
 40
3.999999999999564
  0
ARC
  5
95
330
1F
100
AcDbEntity
  8
0
  6
Continuous
 62
     7
100
AcDbCircle
 10
6630.2038067891
 20
5110.9516414982
 30
0.0
 40
1.999999999999247
100
AcDbArc
 50
269.9999989457
 51
359.9999026717
  0
ARC
  5
96
330
1F
100
AcDbEntity
  8
0
  6
Continuous
 62
     7
100
AcDbCircle
 10
6630.2038067891
 20
5276.9516432864
 30
0.0
 40
1.999999999999559
100
AcDbArc
 50
359.9998838872
 51
90.0000010543
  0
ARC
  5
97
330
1F
100
AcDbEntity
  8
0
  6
Continuous
 62
     7
100
AcDbCircle
 10
6200.6903282114
 20
4831.9747064213
 30
0.0
 40
1.000000000002067
100
AcDbArc
 50
19.4712206345
 51
89.9999999973
  0
ARC
  5
98
330
1F
100
AcDbEntity
  8
0
  6
Continuous
 62
     7
100
AcDbCircle
 10
6347.3471824608
 20
4831.9747064213
 30
0.0
 40
1.000000000002067
100
AcDbArc
 50
90.0000000028
 51
160.5287793655
  0
ARC
  5
99
330
1F
100
AcDbEntity
  8
0
  6
Continuous
 62
     7
100
AcDbCircle
 10
6344.5187552979
 20
4832.9747063132
 30
0.0
 40
2.000000000001365
100
AcDbArc
 50
270.0000386608
 51
340.5287826502
  0
ARC
  5
9A
330
1F
100
AcDbEntity
  8
0
  6
Continuous
 62
     7
100
AcDbCircle
 10
6203.5187553743
 20
4832.9747063132
 30
0.0
 40
1.999999999999546
100
AcDbArc
 50
199.4712173498
 51
269.9999613391
  0
CIRCLE
  5
9B
330
1F
100
AcDbEntity
  8
0
  6
Continuous
 62
     7
100
AcDbCircle
 10
6242.0187553361
 20
4875.9747063108
 30
0.0
 40
5.800000000000182
  0
CIRCLE
  5
9C
330
1F
100
AcDbEntity
  8
0
  6
Continuous
 62
     7
100
AcDbCircle
 10
6242.0187553361
 20
4875.9747063108
 30
0.0
 40
6.600000000000364
  0
ARC
  5
9D
330
1F
100
AcDbEntity
  8
0
  6
Continuous
 62
     7
100
AcDbCircle
 10
6191.018754442
 20
4834.9747062977
 30
0.0
 40
2.0
100
AcDbArc
 50
179.9999989456
 51
270.0001161128
  0
ARC
  5
9E
330
1F
100
AcDbEntity
  8
0
  6
Continuous
 62
     7
100
AcDbCircle
 10
6357.0187562302
 20
4834.9747062977
 30
0.0
 40
2.0
100
AcDbArc
 50
269.9998838873
 51
0.0000010544
  0
LINE
  5
9F
330
1F
100
AcDbEntity
  8
0
  6
Continuous
 62
     7
100
AcDbLine
 10
6278.5202713355
 20
5240.4090559763
 30
0.0
 11
6278.4419987954
 21
5240.4090559763
 31
0.0
  0
LINE
  5
A0
330
1F
100
AcDbEntity
  8
0
  6
Continuous
 62
     7
100
AcDbLine
 10
6277.4965266369
 20
5239.3690853101
 30
0.0
 11
6277.4873626556
 21
5238.6522314233
 31
0.0
  0
LINE
  5
A1
330
1F
100
AcDbEntity
  8
0
  6
Continuous
 62
     7
100
AcDbLine
 10
6277.4873626556
 20
5238.6522314233
 30
0.0
 11
6277.1332069904
 21
5238.6522314233
 31
0.0
  0
LINE
  5
A2
330
1F
100
AcDbEntity
  8
0
  6
Continuous
 62
     7
100
AcDbLine
 10
6277.1332069904
 20
5238.6522314233
 30
0.0
 11
6277.0337126356
 21
5238.651508717
 31
0.0
  0
LINE
  5
A3
330
1F
100
AcDbEntity
  8
0
  6
Continuous
 62
     7
100
AcDbLine
 10
6277.0337126356
 20
5238.651508717
 30
0.0
 11
6277.1338959362
 21
5238.3438965959
 31
0.0
  0
LINE
  5
A4
330
1F
100
AcDbEntity
  8
0
  6
Continuous
 62
     7
100
AcDbLine
 10
6277.1338959362
 20
5238.3438965959
 30
0.0
 11
6277.2185764413
 21
5238.0814461691
 31
0.0
  0
LINE
  5
A5
330
1F
100
AcDbEntity
  8
0
  6
Continuous
 62
     7
100
AcDbLine
 10
6277.2185764413
 20
5238.0814461691
 30
0.0
 11
6277.4633848246
 21
5238.0920222682
 31
0.0
  0
LINE
  5
A6
330
1F
100
AcDbEntity
  8
0
  6
Continuous
 62
     7
100
AcDbLine
 10
6277.4633848246
 20
5238.0920222682
 30
0.0
 11
6277.4626958787
 21
5236.2349799556
 31
0.0
  0
LINE
  5
A7
330
1F
100
AcDbEntity
  8
0
  6
Continuous
 62
     7
100
AcDbLine
 10
6277.4626958787
 20
5236.2349799556
 30
0.0
 11
6278.0193543665
 21
5236.2357026619
 31
0.0
  0
LINE
  5
A8
330
1F
100
AcDbEntity
  8
0
  6
Continuous
 62
     7
100
AcDbLine
 10
6278.0193543665
 20
5236.2357026619
 30
0.0
 11
6278.0235574253
 21
5238.078622399
 31
0.0
  0
LINE
  5
A9
330
1F
100
AcDbEntity
  8
0
  6
Continuous
 62
     7
100
AcDbLine
 10
6278.0235574253
 20
5238.078622399
 30
0.0
 11
6278.4737624831
 21
5238.0793115777
 31
0.0
  0
LINE
  5
AA
330
1F
100
AcDbEntity
  8
0
  6
Continuous
 62
     7
100
AcDbLine
 10
6278.4737624831
 20
5238.0793115777
 30
0.0
 11
6278.9062598392
 21
5238.080034284
 31
0.0
  0
LINE
  5
AB
330
1F
100
AcDbEntity
  8
0
  6
Continuous
 62
     7
100
AcDbLine
 10
6278.9062598392
 20
5238.080034284
 30
0.0
 11
6278.9090845406
 21
5236.2371145469
 31
0.0
  0
LINE
  5
AC
330
1F
100
AcDbEntity
  8
0
  6
Continuous
 62
     7
100
AcDbLine
 10
6278.9090845406
 20
5236.2371145469
 30
0.0
 11
6279.4727712542
 21
5236.2378037256
 31
0.0
  0
LINE
  5
AD
330
1F
100
AcDbEntity
  8
0
  6
Continuous
 62
     7
100
AcDbLine
 10
6279.4727712542
 20
5236.2378037256
 30
0.0
 11
6279.4784211226
 21
5239.4318564517
 31
0.0
  0
LINE
  5
AE
330
1F
100
AcDbEntity
  8
0
  6
Continuous
 62
     7
100
AcDbLine
 10
6269.0609345816
 20
5240.4055094999
 30
0.0
 11
6269.01153211
 21
5240.4013073725
 31
0.0
  0
LINE
  5
AF
330
1F
100
AcDbEntity
  8
0
  6
Continuous
 62
     7
100
AcDbLine
 10
6269.01153211
 20
5240.4013073725
 30
0.0
 11
6268.9798028812
 21
5240.4013073725
 31
0.0
  0
LINE
  5
B0
330
1F
100
AcDbEntity
  8
0
  6
Continuous
 62
     7
100
AcDbLine
 10
6268.0385682404
 20
5239.3648161275
 30
0.0
 11
6268.0287153132
 21
5238.6486812216
 31
0.0
  0
LINE
  5
B1
330
1F
100
AcDbEntity
  8
0
  6
Continuous
 62
     7
100
AcDbLine
 10
6268.0287153132
 20
5238.6486812216
 30
0.0
 11
6267.5644542694
 21
5238.6479920429
 31
0.0
  0
LINE
  5
B2
330
1F
100
AcDbEntity
  8
0
  6
Continuous
 62
     7
100
AcDbLine
 10
6267.5644542694
 20
5238.6479920429
 30
0.0
 11
6267.753521134
 21
5238.0778996927
 31
0.0
  0
LINE
  5
B3
330
1F
100
AcDbEntity
  8
0
  6
Continuous
 62
     7
100
AcDbLine
 10
6267.753521134
 20
5238.0778996927
 30
0.0
 11
6268.0011886775
 21
5238.0743867439
 31
0.0
  0
LINE
  5
B4
330
1F
100
AcDbEntity
  8
0
  6
Continuous
 62
     7
100
AcDbLine
 10
6268.0011886775
 20
5238.0743867439
 30
0.0
 11
6268.0040138446
 21
5236.2237146777
 31
0.0
  0
LINE
  5
B5
330
1F
100
AcDbEntity
  8
0
  6
Continuous
 62
     7
100
AcDbLine
 10
6268.0040138446
 20
5236.2237146777
 30
0.0
 11
6268.5500957675
 21
5236.2314670068
 31
0.0
  0
LINE
  5
B6
330
1F
100
AcDbEntity
  8
0
  6
Continuous
 62
     7
100
AcDbLine
 10
6268.5500957675
 20
5236.2314670068
 30
0.0
 11
6268.5472710662
 21
5238.0680127722
 31
0.0
  0
LINE
  5
B7
330
1F
100
AcDbEntity
  8
0
  6
Continuous
 62
     7
100
AcDbLine
 10
6268.5472710662
 20
5238.0680127722
 30
0.0
 11
6269.0157696277
 21
5238.0722484273
 31
0.0
  0
LINE
  5
B8
330
1F
100
AcDbEntity
  8
0
  6
Continuous
 62
     7
100
AcDbLine
 10
6269.0157696277
 20
5238.0722484273
 30
0.0
 11
6269.4475778051
 21
5238.0764878077
 31
0.0
  0
LINE
  5
B9
330
1F
100
AcDbEntity
  8
0
  6
Continuous
 62
     7
100
AcDbLine
 10
6269.4475778051
 20
5238.0764878077
 30
0.0
 11
6269.4433402874
 21
5236.2258157415
 31
0.0
  0
LINE
  5
BA
330
1F
100
AcDbEntity
  8
0
  6
Continuous
 62
     7
100
AcDbLine
 10
6269.4433402874
 20
5236.2258157415
 30
0.0
 11
6270.0035471141
 21
5236.2335680706
 31
0.0
  0
LINE
  5
BB
330
1F
100
AcDbEntity
  8
0
  6
Continuous
 62
     7
100
AcDbLine
 10
6270.0035471141
 20
5236.2335680706
 30
0.0
 11
6270.0056831025
 21
5239.4283435029
 31
0.0
  0
LINE
  5
BC
330
1F
100
AcDbEntity
  8
0
  6
Continuous
 62
     7
100
AcDbLine
 10
6265.1528531358
 20
5236.8361486775
 30
0.0
 11
6266.3508850753
 21
5236.8382497412
 31
0.0
  0
LINE
  5
BD
330
1F
100
AcDbEntity
  8
0
  6
Continuous
 62
     7
100
AcDbLine
 10
6265.1535767734
 20
5236.2159623486
 30
0.0
 11
6265.1528531358
 21
5236.8361486775
 31
0.0
  0
LINE
  5
BE
330
1F
100
AcDbEntity
  8
0
  6
Continuous
 62
     7
100
AcDbLine
 10
6266.4052137777
 20
5236.2180634123
 30
0.0
 11
6265.1535767734
 21
5236.2159623486
 31
0.0
  0
LINE
  5
BF
330
1F
100
AcDbEntity
  8
0
  6
Continuous
 62
     7
100
AcDbLine
 10
6269.01153211
 20
5240.7315171045
 30
0.0
 11
6266.731188786
 21
5240.7315171045
 31
0.0
  0
LINE
  5
C0
330
1F
100
AcDbEntity
  8
0
  6
Continuous
 62
     7
100
AcDbLine
 10
6272.8046166383
 20
5240.7336181683
 30
0.0
 11
6269.01153211
 21
5240.7315171045
 31
0.0
  0
LINE
  5
C1
330
1F
100
AcDbEntity
  8
0
  6
Continuous
 62
     7
100
AcDbLine
 10
6277.1296928775
 20
5240.7399586124
 30
0.0
 11
6272.8046166383
 21
5240.7336181683
 31
0.0
  0
LINE
  5
C2
330
1F
100
AcDbEntity
  8
0
  6
Continuous
 62
     7
100
AcDbLine
 10
6278.4702486031
 20
5240.7385802549
 30
0.0
 11
6277.1296928775
 21
5240.7399586124
 31
0.0
  0
LINE
  5
C3
330
1F
100
AcDbEntity
  8
0
  6
Continuous
 62
     7
100
AcDbLine
 10
6279.6753427617
 20
5240.7406813187
 30
0.0
 11
6278.4702486031
 21
5240.7385802549
 31
0.0
  0
LINE
  5
C4
330
1F
100
AcDbEntity
  8
0
  6
Continuous
 62
     7
100
AcDbLine
 10
6279.6745851308
 20
5241.3502915484
 30
0.0
 11
6279.6753427617
 21
5240.7406813187
 31
0.0
  0
LINE
  5
C5
330
1F
100
AcDbEntity
  8
0
  6
Continuous
 62
     7
100
AcDbLine
 10
6278.4687324099
 20
5241.3481569571
 30
0.0
 11
6279.6745851308
 21
5241.3502915484
 31
0.0
  0
LINE
  5
C6
330
1F
100
AcDbEntity
  8
0
  6
Continuous
 62
     7
100
AcDbLine
 10
6277.1289350137
 20
5241.346745072
 30
0.0
 11
6278.4687324099
 21
5241.3481569571
 31
0.0
  0
LINE
  5
C7
330
1F
100
AcDbEntity
  8
0
  6
Continuous
 62
     7
100
AcDbLine
 10
6272.8038932335
 20
5241.3396819216
 30
0.0
 11
6277.1289350137
 21
5241.346745072
 31
0.0
  0
LINE
  5
C8
330
1F
100
AcDbEntity
  8
0
  6
Continuous
 62
     7
100
AcDbLine
 10
6269.0101197593
 20
5241.3305177075
 30
0.0
 11
6272.8038932335
 21
5241.3396819216
 31
0.0
  0
LINE
  5
C9
330
1F
100
AcDbEntity
  8
0
  6
Continuous
 62
     7
100
AcDbLine
 10
6266.6881598204
 20
5241.3270047587
 30
0.0
 11
6269.0101197593
 21
5241.3305177075
 31
0.0
  0
LINE
  5
CA
330
1F
100
AcDbEntity
  8
0
  6
Continuous
 62
     7
100
AcDbLine
 10
6275.1590294436
 20
5238.0891984982
 30
0.0
 11
6273.907426207
 21
5238.0941270572
 31
0.0
  0
LINE
  5
CB
330
1F
100
AcDbEntity
  8
0
  6
Continuous
 62
     7
100
AcDbLine
 10
6274.962934586
 20
5238.680446772
 30
0.0
 11
6275.1590294436
 21
5238.0891984982
 31
0.0
  0
LINE
  5
CC
330
1F
100
AcDbEntity
  8
0
  6
Continuous
 62
     7
100
AcDbLine
 10
6273.9454600094
 20
5238.679034887
 30
0.0
 11
6274.962934586
 21
5238.680446772
 31
0.0
  0
LINE
  5
CD
330
1F
100
AcDbEntity
  8
0
  6
Continuous
 62
     7
100
AcDbLine
 10
6273.9440820085
 20
5239.73243895
 30
0.0
 11
6273.9454600094
 21
5238.679034887
 31
0.0
  0
LINE
  5
CE
330
1F
100
AcDbEntity
  8
0
  6
Continuous
 62
     7
100
AcDbLine
 10
6274.9897374094
 20
5239.7338545603
 30
0.0
 11
6273.9440820085
 21
5239.73243895
 31
0.0
  0
LINE
  5
CF
330
1F
100
AcDbEntity
  8
0
  6
Continuous
 62
     7
100
AcDbLine
 10
6274.9889794293
 20
5240.3293384892
 30
0.0
 11
6274.9897374094
 21
5239.7338545603
 31
0.0
  0
LINE
  5
D0
330
1F
100
AcDbEntity
  8
0
  6
Continuous
 62
     7
100
AcDbLine
 10
6273.3796376058
 20
5240.3265147192
 30
0.0
 11
6274.9889794293
 21
5240.3293384892
 31
0.0
  0
LINE
  5
D1
330
1F
100
AcDbEntity
  8
0
  6
Continuous
 62
     7
100
AcDbLine
 10
6273.3824625982
 20
5238.6677696091
 30
0.0
 11
6273.3796376058
 21
5240.3265147192
 31
0.0
  0
LINE
  5
D2
330
1F
100
AcDbEntity
  8
0
  6
Continuous
 62
     7
100
AcDbLine
 10
6272.9351513924
 20
5238.6670431775
 30
0.0
 11
6273.3824625982
 21
5238.6677696091
 31
0.0
  0
LINE
  5
D3
330
1F
100
AcDbEntity
  8
0
  6
Continuous
 62
     7
100
AcDbLine
 10
6272.9295014076
 20
5240.3258255405
 30
0.0
 11
6272.9351513924
 21
5238.6670431775
 31
0.0
  0
LINE
  5
D4
330
1F
100
AcDbEntity
  8
0
  6
Continuous
 62
     7
100
AcDbLine
 10
6272.8053055841
 20
5240.3258255405
 30
0.0
 11
6272.9295014076
 21
5240.3258255405
 31
0.0
  0
LINE
  5
D5
330
1F
100
AcDbEntity
  8
0
  6
Continuous
 62
     7
100
AcDbLine
 10
6272.2768624451
 20
5240.3250991088
 30
0.0
 11
6272.8053055841
 21
5240.3258255405
 31
0.0
  0
LINE
  5
D6
330
1F
100
AcDbEntity
  8
0
  6
Continuous
 62
     7
100
AcDbLine
 10
6272.2789639745
 20
5238.9245650453
 30
0.0
 11
6272.2768624451
 21
5240.3250991088
 31
0.0
  0
LINE
  5
D7
330
1F
100
AcDbEntity
  8
0
  6
Continuous
 62
     7
100
AcDbLine
 10
6270.4579210047
 20
5240.3751930875
 30
0.0
 11
6272.2789639745
 21
5238.9245650453
 31
0.0
  0
LINE
  5
D8
330
1F
100
AcDbEntity
  8
0
  6
Continuous
 62
     7
100
AcDbLine
 10
6270.4685317956
 20
5236.2237146777
 30
0.0
 11
6270.4579210047
 21
5240.3751930875
 31
0.0
  0
LINE
  5
D9
330
1F
100
AcDbEntity
  8
0
  6
Continuous
 62
     7
100
AcDbLine
 10
6271.052716919
 20
5236.2251265627
 30
0.0
 11
6270.4685317956
 21
5236.2237146777
 31
0.0
  0
LINE
  5
DA
330
1F
100
AcDbEntity
  8
0
  6
Continuous
 62
     7
100
AcDbLine
 10
6271.0562307991
 20
5239.007832734
 30
0.0
 11
6271.052716919
 21
5236.2251265627
 31
0.0
  0
LINE
  5
DB
330
1F
100
AcDbEntity
  8
0
  6
Continuous
 62
     7
100
AcDbLine
 10
6272.2909530064
 20
5238.0701473636
 30
0.0
 11
6271.0562307991
 21
5239.007832734
 31
0.0
  0
LINE
  5
DC
330
1F
100
AcDbEntity
  8
0
  6
Continuous
 62
     7
100
AcDbLine
 10
6272.293778057
 20
5236.2166515273
 30
0.0
 11
6272.2909530064
 21
5238.0701473636
 31
0.0
  0
LINE
  5
DD
330
1F
100
AcDbEntity
  8
0
  6
Continuous
 62
     7
100
AcDbLine
 10
6272.810955569
 20
5236.2237146777
 30
0.0
 11
6272.293778057
 21
5236.2166515273
 31
0.0
  0
LINE
  5
DE
330
1F
100
AcDbEntity
  8
0
  6
Continuous
 62
     7
100
AcDbLine
 10
6272.9252640063
 20
5236.2279503328
 30
0.0
 11
6272.810955569
 21
5236.2237146777
 31
0.0
  0
LINE
  5
DF
330
1F
100
AcDbEntity
  8
0
  6
Continuous
 62
     7
100
AcDbLine
 10
6272.9118623909
 20
5238.0821353478
 30
0.0
 11
6272.9252640063
 21
5236.2279503328
 31
0.0
  0
LINE
  5
E0
330
1F
100
AcDbEntity
  8
0
  6
Continuous
 62
     7
100
AcDbLine
 10
6273.3972763897
 20
5238.0828617794
 30
0.0
 11
6272.9118623909
 21
5238.0821353478
 31
0.0
  0
LINE
  5
E1
330
1F
100
AcDbEntity
  8
0
  6
Continuous
 62
     7
100
AcDbLine
 10
6273.4001013821
 20
5236.2392528636
 30
0.0
 11
6273.3972763897
 21
5238.0828617794
 31
0.0
  0
LINE
  5
E2
330
1F
100
AcDbEntity
  8
0
  6
Continuous
 62
     7
100
AcDbLine
 10
6274.9671375866
 20
5236.2413539273
 30
0.0
 11
6273.4001013821
 21
5236.2392528636
 31
0.0
  0
LINE
  5
E3
330
1F
100
AcDbEntity
  8
0
  6
Continuous
 62
     7
100
AcDbLine
 10
6274.9657595784
 20
5236.8410772366
 30
0.0
 11
6274.9671375866
 21
5236.2413539273
 31
0.0
  0
LINE
  5
E4
330
1F
100
AcDbEntity
  8
0
  6
Continuous
 62
     7
100
AcDbLine
 10
6273.9094932047
 20
5236.8389724475
 30
0.0
 11
6274.9657595784
 21
5236.8410772366
 31
0.0
  0
LINE
  5
E5
330
1F
100
AcDbEntity
  8
0
  6
Continuous
 62
     7
100
AcDbLine
 10
6273.907426207
 20
5238.0941270572
 30
0.0
 11
6273.9094932047
 21
5236.8389724475
 31
0.0
  0
LINE
  5
E6
330
1F
100
AcDbEntity
  8
0
  6
Continuous
 62
     7
100
AcDbLine
 10
6275.9746901363
 20
5240.3307503742
 30
0.0
 11
6275.9768261246
 21
5236.7535701675
 31
0.0
  0
LINE
  5
E7
330
1F
100
AcDbEntity
  8
0
  6
Continuous
 62
     7
100
AcDbLine
 10
6275.3686290605
 20
5240.3265147192
 30
0.0
 11
6275.9746901363
 21
5240.3307503742
 31
0.0
  0
LINE
  5
E8
330
1F
100
AcDbEntity
  8
0
  6
Continuous
 62
     7
100
AcDbLine
 10
6275.3819269499
 20
5236.2349799556
 30
0.0
 11
6275.3686290605
 21
5240.3265147192
 31
0.0
  0
LINE
  5
E9
330
1F
100
AcDbEntity
  8
0
  6
Continuous
 62
     7
100
AcDbLine
 10
6277.1366519526
 20
5236.2342907769
 30
0.0
 11
6275.3819269499
 21
5236.2349799556
 31
0.0
  0
LINE
  5
EA
330
1F
100
AcDbEntity
  8
0
  6
Continuous
 62
     7
100
AcDbLine
 10
6277.2319434814
 20
5236.2342907769
 30
0.0
 11
6277.1366519526
 21
5236.2342907769
 31
0.0
  0
LINE
  5
EB
330
1F
100
AcDbEntity
  8
0
  6
Continuous
 62
     7
100
AcDbLine
 10
6277.2347684156
 20
5236.7592214328
 30
0.0
 11
6277.2319434814
 21
5236.2342907769
 31
0.0
  0
LINE
  5
EC
330
1F
100
AcDbEntity
  8
0
  6
Continuous
 62
     7
100
AcDbLine
 10
6277.1360316917
 20
5236.7585322541
 30
0.0
 11
6277.2347684156
 21
5236.7592214328
 31
0.0
  0
LINE
  5
ED
330
1F
100
AcDbEntity
  8
0
  6
Continuous
 62
     7
100
AcDbLine
 10
6275.9768261246
 20
5236.7535701675
 30
0.0
 11
6277.1360316917
 21
5236.7585322541
 31
0.0
  0
LINE
  5
EE
330
1F
100
AcDbEntity
  8
0
  6
Continuous
 62
     7
100
AcDbLine
 10
6284.484006618
 20
5241.9603823406
 30
0.0
 11
6284.4806994915
 21
5241.9603823406
 31
0.0
  0
LINE
  5
EF
330
1F
100
AcDbEntity
  8
0
  6
Continuous
 62
     7
100
AcDbLine
 10
6284.4820778489
 20
5241.0384437722
 30
0.0
 11
6284.4855228111
 21
5241.0384437722
 31
0.0
  0
LINE
  5
F0
330
1F
100
AcDbEntity
  8
0
  6
Continuous
 62
     7
100
AcDbLine
 10
6282.6939357117
 20
5239.5929156524
 30
0.0
 11
6282.6903529137
 21
5239.5893319232
 31
0.0
  0
LINE
  5
F1
330
1F
100
AcDbEntity
  8
0
  6
Continuous
 62
     7
100
AcDbLine
 10
6282.6128380045
 20
5239.4892855269
 30
0.0
 11
6282.5096232489
 21
5239.5773774666
 31
0.0
  0
LINE
  5
F2
330
1F
100
AcDbEntity
  8
0
  6
Continuous
 62
     7
100
AcDbLine
 10
6283.4083104178
 20
5239.9341149909
 30
0.0
 11
6283.4178881392
 21
5239.9303971511
 31
0.0
  0
LINE
  5
F3
330
1F
100
AcDbEntity
  8
0
  6
Continuous
 62
     7
100
AcDbLine
 10
6283.4178881392
 20
5239.9303971511
 30
0.0
 11
6283.4220222801
 21
5239.9282588345
 31
0.0
  0
LINE
  5
F4
330
1F
100
AcDbEntity
  8
0
  6
Continuous
 62
     7
100
AcDbLine
 10
6283.4220222801
 20
5239.9282588345
 30
0.0
 11
6283.4258118316
 21
5239.936182527
 31
0.0
  0
LINE
  5
F5
330
1F
100
AcDbEntity
  8
0
  6
Continuous
 62
     7
100
AcDbLine
 10
6281.8296301782
 20
5241.3749939484
 30
0.0
 11
6281.808270295
 21
5241.3712723834
 31
0.0
  0
LINE
  5
F6
330
1F
100
AcDbEntity
  8
0
  6
Continuous
 62
     7
100
AcDbLine
 10
6281.5215007074
 20
5241.3495353145
 30
0.0
 11
6281.4928373925
 21
5241.3707918209
 31
0.0
  0
LINE
  5
F7
330
1F
100
AcDbEntity
  8
0
  6
Continuous
 62
     7
100
AcDbLine
 10
6280.1095625989
 20
5241.9396101219
 30
0.0
 11
6280.1095625989
 21
5241.9289297146
 31
0.0
  0
LINE
  5
F8
330
1F
100
AcDbEntity
  8
0
  6
Continuous
 62
     7
100
AcDbLine
 10
6280.1095625989
 20
5241.9289297146
 30
0.0
 11
6280.1098382704
 21
5241.7445837242
 31
0.0
  0
LINE
  5
F9
330
1F
100
AcDbEntity
  8
0
  6
Continuous
 62
     7
100
AcDbLine
 10
6280.2675549544
 20
5240.0912477357
 30
0.0
 11
6280.2485378131
 21
5240.0566919428
 31
0.0
  0
LINE
  5
FA
330
1F
100
AcDbEntity
  8
0
  6
Continuous
 62
     7
100
AcDbLine
 10
6280.2933931023
 20
5240.0035357756
 30
0.0
 11
6280.3086202264
 21
5240.0015725476
 31
0.0
  0
LINE
  5
FB
330
1F
100
AcDbEntity
  8
0
  6
Continuous
 62
     7
100
AcDbLine
 10
6281.8381052136
 20
5235.7520109696
 30
0.0
 11
6281.8773101687
 21
5235.7520817501
 31
0.0
  0
LINE
  5
FC
330
1F
100
AcDbEntity
  8
0
  6
Continuous
 62
     7
100
AcDbLine
 10
6283.6150854498
 20
5237.6550494415
 30
0.0
 11
6283.6149476141
 21
5237.7650498134
 31
0.0
  0
LINE
  5
FD
330
1F
100
AcDbEntity
  8
0
  6
Continuous
 62
     7
100
AcDbLine
 10
6279.0187552243
 20
5165.9516396654
 30
0.0
 11
6279.0187552243
 21
5201.9516399783
 31
0.0
  0
LINE
  5
FE
330
1F
100
AcDbEntity
  8
0
  6
Continuous
 62
     7
100
AcDbLine
 10
6281.0187555522
 20
5203.9516393748
 30
0.0
 11
6293.0187547252
 21
5203.9516393748
 31
0.0
  0
LINE
  5
FF
330
1F
100
AcDbEntity
  8
0
  6
Continuous
 62
     7
100
AcDbLine
 10
6295.018755053
 20
5205.951640634
 30
0.0
 11
6295.018755053
 21
5213.9516400826
 31
0.0
  0
LINE
  5
100
330
1F
100
AcDbEntity
  8
0
  6
Continuous
 62
     7
100
AcDbLine
 10
6293.0187547252
 20
5215.9516404105
 30
0.0
 11
6255.018755947
 21
5215.9516404105
 31
0.0
  0
LINE
  5
101
330
1F
100
AcDbEntity
  8
0
  6
Continuous
 62
     7
100
AcDbLine
 10
6253.0187556192
 20
5213.9516400826
 30
0.0
 11
6253.0187556192
 21
5205.951640634
 31
0.0
  0
LINE
  5
102
330
1F
100
AcDbEntity
  8
0
  6
Continuous
 62
     7
100
AcDbLine
 10
6255.018755947
 20
5203.9516393748
 30
0.0
 11
6267.01875512
 21
5203.9516393748
 31
0.0
  0
LINE
  5
103
330
1F
100
AcDbEntity
  8
0
  6
Continuous
 62
     7
100
AcDbLine
 10
6269.0187554479
 20
5201.9516399783
 30
0.0
 11
6269.0187554479
 21
5165.9516396654
 31
0.0
  0
LINE
  5
104
330
1F
100
AcDbEntity
  8
0
  6
Continuous
 62
     7
100
AcDbLine
 10
6271.01875531
 20
5163.9516393376
 30
0.0
 11
6277.0187553622
 21
5163.9516393376
 31
0.0
  0
LINE
  5
105
330
1F
100
AcDbEntity
  8
0
  6
Continuous
 62
     7
100
AcDbLine
 10
6284.4990968376
 20
5241.5278165323
 30
0.0
 11
6284.4920001596
 21
5241.5278165323
 31
0.0
  0
LINE
  5
106
330
1F
100
AcDbEntity
  8
0
  6
Continuous
 62
     7
100
AcDbLine
 10
6284.4920001596
 20
5241.5278165323
 30
0.0
 11
6284.3819634661
 21
5241.5276786965
 31
0.0
  0
LINE
  5
107
330
1F
100
AcDbEntity
  8
0
  6
Continuous
 62
     7
100
AcDbLine
 10
6284.3819634661
 20
5241.5276786965
 30
0.0
 11
6284.3817567125
 21
5241.6660359782
 31
0.0
  0
LINE
  5
108
330
1F
100
AcDbEntity
  8
0
  6
Continuous
 62
     7
100
AcDbLine
 10
6284.3817567125
 20
5241.6660359782
 30
0.0
 11
6284.491793406
 21
5241.666173814
 31
0.0
  0
LINE
  5
109
330
1F
100
AcDbEntity
  8
0
  6
Continuous
 62
     7
100
AcDbLine
 10
6284.491793406
 20
5241.666173814
 30
0.0
 11
6284.5130145222
 21
5241.6662408692
 31
0.0
  0
LINE
  5
10A
330
1F
100
AcDbEntity
  8
0
  6
Continuous
 62
     7
100
AcDbLine
 10
6284.6016913325
 20
5241.5990962369
 30
0.0
 11
6284.5912186101
 21
5241.5598577541
 31
0.0
  0
LINE
  5
10B
330
1F
100
AcDbEntity
  8
0
  6
Continuous
 62
     7
100
AcDbLine
 10
6284.5912186101
 20
5241.5598577541
 30
0.0
 11
6284.5593860045
 21
5241.5348796827
 31
0.0
  0
LINE
  5
10C
330
1F
100
AcDbEntity
  8
0
  6
Continuous
 62
     7
100
AcDbLine
 10
6284.5770932406
 20
5241.4641177935
 30
0.0
 11
6284.5416778371
 21
5241.481961934
 31
0.0
  0
LINE
  5
10D
330
1F
100
AcDbEntity
  8
0
  6
Continuous
 62
     7
100
AcDbLine
 10
6284.6943644479
 20
5241.2941365224
 30
0.0
 11
6284.6232579693
 21
5241.411062209
 31
0.0
  0
LINE
  5
10E
330
1F
100
AcDbEntity
  8
0
  6
Continuous
 62
     7
100
AcDbLine
 10
6284.6270475209
 20
5241.2940694672
 30
0.0
 11
6284.6943644479
 21
5241.2941365224
 31
0.0
  0
LINE
  5
10F
330
1F
100
AcDbEntity
  8
0
  6
Continuous
 62
     7
100
AcDbLine
 10
6284.5701343983
 20
5241.382470606
 30
0.0
 11
6284.6270475209
 21
5241.2940694672
 31
0.0
  0
LINE
  5
110
330
1F
100
AcDbEntity
  8
0
  6
Continuous
 62
     7
100
AcDbLine
 10
6284.4991657555
 20
5241.4674258513
 30
0.0
 11
6284.527484481
 21
5241.4392105025
 31
0.0
  0
LINE
  5
111
330
1F
100
AcDbEntity
  8
0
  6
Continuous
 62
     7
100
AcDbLine
 10
6284.4920690775
 20
5241.4710766358
 30
0.0
 11
6284.4991657555
 21
5241.4674258513
 31
0.0
  0
LINE
  5
112
330
1F
100
AcDbEntity
  8
0
  6
Continuous
 62
     7
100
AcDbLine
 10
6284.4742230743
 20
5241.4782068414
 30
0.0
 11
6284.4920690775
 21
5241.4710766358
 31
0.0
  0
LINE
  5
113
330
1F
100
AcDbEntity
  8
0
  6
Continuous
 62
     7
100
AcDbLine
 10
6284.4459043488
 20
5241.4781397862
 30
0.0
 11
6284.4742230743
 21
5241.4782068414
 31
0.0
  0
LINE
  5
114
330
1F
100
AcDbEntity
  8
0
  6
Continuous
 62
     7
100
AcDbLine
 10
6284.382032384
 20
5241.4780690056
 30
0.0
 11
6284.4459043488
 21
5241.4781397862
 31
0.0
  0
LINE
  5
115
330
1F
100
AcDbEntity
  8
0
  6
Continuous
 62
     7
100
AcDbLine
 10
6284.3823080555
 20
5241.2937230152
 30
0.0
 11
6284.382032384
 21
5241.4780690056
 31
0.0
  0
LINE
  5
116
330
1F
100
AcDbEntity
  8
0
  6
Continuous
 62
     7
100
AcDbLine
 10
6284.3258084401
 20
5241.29365596
 30
0.0
 11
6284.3823080555
 21
5241.2937230152
 31
0.0
  0
LINE
  5
117
330
1F
100
AcDbEntity
  8
0
  6
Continuous
 62
     7
100
AcDbLine
 10
6284.3251192614
 20
5241.7155078334
 30
0.0
 11
6284.3258084401
 21
5241.29365596
 31
0.0
  0
LINE
  5
118
330
1F
100
AcDbEntity
  8
0
  6
Continuous
 62
     7
100
AcDbLine
 10
6284.491793406
 20
5241.7157835049
 30
0.0
 11
6284.3251192614
 21
5241.7155078334
 31
0.0
  0
LINE
  5
119
330
1F
100
AcDbEntity
  8
0
  6
Continuous
 62
     7
100
AcDbLine
 10
6284.5094317242
 20
5241.7157835049
 30
0.0
 11
6284.491793406
 21
5241.7157835049
 31
0.0
  0
LINE
  5
11A
330
1F
100
AcDbEntity
  8
0
  6
Continuous
 62
     7
100
AcDbLine
 10
6280.3082071848
 20
5240.1170863492
 30
0.0
 11
6280.3060711965
 21
5240.1158122999
 31
0.0
  0
LINE
  5
11B
330
1F
100
AcDbEntity
  8
0
  6
Continuous
 62
     7
100
AcDbLine
 10
6282.4228752077
 20
5240.7659685892
 30
0.0
 11
6282.4403766215
 21
5240.7801619453
 31
0.0
  0
LINE
  5
11C
330
1F
100
AcDbEntity
  8
0
  6
Continuous
 62
     7
100
AcDbLine
 10
6281.870075655
 20
5240.4603196961
 30
0.0
 11
6281.83100807
 21
5240.4602526409
 31
0.0
  0
LINE
  5
11D
330
1F
100
AcDbEntity
  8
0
  6
Continuous
 62
     7
100
AcDbLine
 10
6281.8308702342
 20
5240.5630520267
 30
0.0
 11
6281.8735206172
 21
5240.5595390779
 31
0.0
  0
LINE
  5
11E
330
1F
100
AcDbEntity
  8
0
  6
Continuous
 62
     7
100
AcDbLine
 10
6282.4221171111
 20
5241.2551401836
 30
0.0
 11
6282.3901466697
 21
5241.2657162828
 31
0.0
  0
LINE
  5
11F
330
1F
100
AcDbEntity
  8
0
  6
Continuous
 62
     7
100
AcDbLine
 10
6282.5001144454
 20
5241.2162444276
 30
0.0
 11
6282.4824751958
 21
5241.2269918901
 31
0.0
  0
LINE
  5
120
330
1F
100
AcDbEntity
  8
0
  6
Continuous
 62
     7
100
AcDbLine
 10
6282.3901466697
 20
5241.2657162828
 30
0.0
 11
6282.4220491245
 21
5241.294207303
 31
0.0
  0
LINE
  5
121
330
1F
100
AcDbEntity
  8
0
  6
Continuous
 62
     7
100
AcDbLine
 10
6281.9528264597
 20
5239.6306044144
 30
0.0
 11
6282.0344755098
 21
5239.6307422501
 31
0.0
  0
LINE
  5
122
330
1F
100
AcDbEntity
  8
0
  6
Continuous
 62
     7
100
AcDbLine
 10
6282.0343376741
 20
5239.7160439474
 30
0.0
 11
6281.8321102902
 21
5239.7156974954
 31
0.0
  0
LINE
  5
123
330
1F
100
AcDbEntity
  8
0
  6
Continuous
 62
     7
100
AcDbLine
 10
6281.8321102902
 20
5239.7156974954
 30
0.0
 11
6281.70822483
 21
5239.7154553515
 31
0.0
  0
LINE
  5
124
330
1F
100
AcDbEntity
  8
0
  6
Continuous
 62
     7
100
AcDbLine
 10
6281.7083626658
 20
5239.6301573795
 30
0.0
 11
6281.7864284523
 21
5239.6302952153
 31
0.0
  0
LINE
  5
125
330
1F
100
AcDbEntity
  8
0
  6
Continuous
 62
     7
100
AcDbLine
 10
6281.8227397881
 20
5241.3182167989
 30
0.0
 11
6281.8297680139
 21
5241.3182167989
 31
0.0
  0
LINE
  5
126
330
1F
100
AcDbEntity
  8
0
  6
Continuous
 62
     7
100
AcDbLine
 10
6282.4333488613
 20
5240.8438644094
 30
0.0
 11
6282.4227373719
 21
5240.8333553654
 31
0.0
  0
LINE
  5
127
330
1F
100
AcDbEntity
  8
0
  6
Continuous
 62
     7
100
AcDbLine
 10
6281.8734516993
 20
5240.6127995533
 30
0.0
 11
6281.8308013163
 21
5240.6162454468
 31
0.0
  0
LINE
  5
128
330
1F
100
AcDbEntity
  8
0
  6
Continuous
 62
     7
100
AcDbLine
 10
6282.2956137031
 20
5240.3686812801
 30
0.0
 11
6282.2994032547
 21
5240.3687483353
 31
0.0
  0
LINE
  5
129
330
1F
100
AcDbEntity
  8
0
  6
Continuous
 62
     7
100
AcDbLine
 10
6282.2998167619
 20
5240.1277295035
 30
0.0
 11
6282.2960272103
 21
5240.1276624483
 31
0.0
  0
LINE
  5
12A
330
1F
100
AcDbEntity
  8
0
  6
Continuous
 62
     7
100
AcDbLine
 10
6280.5404753096
 20
5240.7276614291
 30
0.0
 11
6280.4976181731
 21
5240.6673378033
 31
0.0
  0
LINE
  5
12B
330
1F
100
AcDbEntity
  8
0
  6
Continuous
 62
     7
100
AcDbLine
 10
6281.8395515576
 20
5237.2410840077
 30
0.0
 11
6281.8359687597
 21
5237.2161767167
 31
0.0
  0
LINE
  5
12C
330
1F
100
AcDbEntity
  8
0
  6
Continuous
 62
     7
100
AcDbLine
 10
6281.8326616332
 20
5239.3469012064
 30
0.0
 11
6281.8576732323
 21
5239.343559621
 31
0.0
  0
LINE
  5
12D
330
1F
100
AcDbEntity
  8
0
  6
Continuous
 62
     7
100
AcDbLine
 10
6278.9407797761
 20
5238.8744747919
 30
0.0
 11
6278.9407797761
 21
5238.6656312925
 31
0.0
  0
LINE
  5
12E
330
1F
100
AcDbEntity
  8
0
  6
Continuous
 62
     7
100
AcDbLine
 10
6278.9407797761
 20
5238.6656312925
 30
0.0
 11
6278.4730043866
 21
5238.6649085862
 31
0.0
  0
LINE
  5
12F
330
1F
100
AcDbEntity
  8
0
  6
Continuous
 62
     7
100
AcDbLine
 10
6278.4730043866
 20
5238.6649085862
 30
0.0
 11
6278.0010264039
 21
5238.6642194075
 31
0.0
  0
LINE
  5
130
330
1F
100
AcDbEntity
  8
0
  6
Continuous
 62
     7
100
AcDbLine
 10
6278.0010264039
 20
5238.6642194075
 30
0.0
 11
6278.0010264039
 21
5238.8659997565
 31
0.0
  0
LINE
  5
131
330
1F
100
AcDbEntity
  8
0
  6
Continuous
 62
     7
100
AcDbLine
 10
6278.4709373161
 20
5239.8453375978
 30
0.0
 11
6278.6197654575
 21
5239.8382744474
 31
0.0
  0
LINE
  5
132
330
1F
100
AcDbEntity
  8
0
  6
Continuous
 62
     7
100
AcDbLine
 10
6278.4320769504
 20
5239.8453375978
 30
0.0
 11
6278.4709373161
 21
5239.8453375978
 31
0.0
  0
LINE
  5
133
330
1F
100
AcDbEntity
  8
0
  6
Continuous
 62
     7
100
AcDbLine
 10
6282.4849562392
 20
5239.54303029
 30
0.0
 11
6282.4875741869
 21
5239.5467146021
 31
0.0
  0
LINE
  5
134
330
1F
100
AcDbEntity
  8
0
  6
Continuous
 62
     7
100
AcDbLine
 10
6282.2827288553
 20
5237.3302786333
 30
0.0
 11
6282.3041576564
 21
5237.327041356
 31
0.0
  0
LINE
  5
135
330
1F
100
AcDbEntity
  8
0
  6
Continuous
 62
     7
100
AcDbLine
 10
6281.5047573902
 20
5235.8471995873
 30
0.0
 11
6281.5012435101
 21
5235.8508503718
 31
0.0
  0
LINE
  5
136
330
1F
100
AcDbEntity
  8
0
  6
Continuous
 62
     7
100
AcDbLine
 10
6269.4821322009
 20
5238.8709245903
 30
0.0
 11
6269.4786178552
 21
5238.6613956374
 31
0.0
  0
LINE
  5
137
330
1F
100
AcDbEntity
  8
0
  6
Continuous
 62
     7
100
AcDbLine
 10
6269.4786178552
 20
5238.6613956374
 30
0.0
 11
6269.0143568113
 21
5238.6606729311
 31
0.0
  0
LINE
  5
138
330
1F
100
AcDbEntity
  8
0
  6
Continuous
 62
     7
100
AcDbLine
 10
6269.0143568113
 20
5238.6606729311
 30
0.0
 11
6268.5430680074
 21
5238.6599837524
 31
0.0
  0
LINE
  5
139
330
1F
100
AcDbEntity
  8
0
  6
Continuous
 62
     7
100
AcDbLine
 10
6268.5430680074
 20
5238.6599837524
 30
0.0
 11
6268.5423443697
 21
5238.8624868077
 31
0.0
  0
LINE
  5
13A
330
1F
100
AcDbEntity
  8
0
  6
Continuous
 62
     7
100
AcDbLine
 10
6269.0129444607
 20
5239.8382744474
 30
0.0
 11
6269.1611178823
 21
5239.8312112969
 31
0.0
  0
LINE
  5
13B
330
1F
100
AcDbEntity
  8
0
  6
Continuous
 62
     7
100
AcDbLine
 10
6268.9804915942
 20
5239.8417873961
 30
0.0
 11
6269.0129444607
 21
5239.8382744474
 31
0.0
  0
LINE
  5
13C
330
1F
100
AcDbEntity
  8
0
  6
Continuous
 62
     7
100
AcDbLine
 10
6329.0187550381
 20
5276.9516392333
 30
0.0
 11
6329.0187550381
 21
5278.9516432864
 31
0.0
  0
LINE
  5
13D
330
1F
100
AcDbEntity
  8
0
  6
Continuous
 62
     7
100
AcDbLine
 10
6357.0187521771
 20
5248.951638369
 30
0.0
 11
6359.0187562302
 21
5248.951638369
 31
0.0
  0
LINE
  5
13E
330
1F
100
AcDbEntity
  8
0
  6
Continuous
 62
     7
100
AcDbLine
 10
6357.0187521771
 20
5138.951638965
 30
0.0
 11
6357.0187521771
 21
5248.951638369
 31
0.0
  0
LINE
  5
13F
330
1F
100
AcDbEntity
  8
0
  6
Continuous
 62
     7
100
AcDbLine
 10
6219.0187556341
 20
5110.9516381008
 30
0.0
 11
6329.0187550381
 21
5110.9516381008
 31
0.0
  0
LINE
  5
140
330
1F
100
AcDbEntity
  8
0
  6
Continuous
 62
     7
100
AcDbLine
 10
6191.0187584951
 20
5248.951638369
 30
0.0
 11
6191.0187584951
 21
5138.951638965
 31
0.0
  0
LINE
  5
141
330
1F
100
AcDbEntity
  8
0
  6
Continuous
 62
     7
100
AcDbLine
 10
6329.0187550381
 20
5276.9516392333
 30
0.0
 11
6219.0187556341
 21
5276.9516392333
 31
0.0
  0
LINE
  5
142
330
1F
100
AcDbEntity
  8
0
  6
Continuous
 62
     7
100
AcDbLine
 10
6219.0187556341
 20
5276.9516392333
 30
0.0
 11
6219.0187556341
 21
5278.9516432864
 31
0.0
  0
LINE
  5
143
330
1F
100
AcDbEntity
  8
0
  6
Continuous
 62
     7
100
AcDbLine
 10
6219.0187556341
 20
5278.9516432864
 30
0.0
 11
6329.0187550381
 21
5278.9516432864
 31
0.0
  0
LINE
  5
144
330
1F
100
AcDbEntity
  8
0
  6
Continuous
 62
     7
100
AcDbLine
 10
6359.0187562302
 20
5248.951638369
 30
0.0
 11
6359.0187562302
 21
5138.951638965
 31
0.0
  0
LINE
  5
145
330
1F
100
AcDbEntity
  8
0
  6
Continuous
 62
     7
100
AcDbLine
 10
6357.0187521771
 20
5138.951638965
 30
0.0
 11
6359.0187562302
 21
5138.951638965
 31
0.0
  0
LINE
  5
146
330
1F
100
AcDbEntity
  8
0
  6
Continuous
 62
     7
100
AcDbLine
 10
6189.018754442
 20
5248.951638369
 30
0.0
 11
6191.0187584951
 21
5248.951638369
 31
0.0
  0
LINE
  5
147
330
1F
100
AcDbEntity
  8
0
  6
Continuous
 62
     7
100
AcDbLine
 10
6189.018754442
 20
5138.951638965
 30
0.0
 11
6189.018754442
 21
5248.951638369
 31
0.0
  0
LINE
  5
148
330
1F
100
AcDbEntity
  8
0
  6
Continuous
 62
     7
100
AcDbLine
 10
6189.018754442
 20
5138.951638965
 30
0.0
 11
6191.0187584951
 21
5138.951638965
 31
0.0
  0
LINE
  5
149
330
1F
100
AcDbEntity
  8
0
  6
Continuous
 62
     7
100
AcDbLine
 10
6329.0187550381
 20
5108.9516340477
 30
0.0
 11
6329.0187550381
 21
5110.9516381008
 31
0.0
  0
LINE
  5
14A
330
1F
100
AcDbEntity
  8
0
  6
Continuous
 62
     7
100
AcDbLine
 10
6329.0187550381
 20
5108.9516340477
 30
0.0
 11
6219.0187556341
 21
5108.9516340477
 31
0.0
  0
LINE
  5
14B
330
1F
100
AcDbEntity
  8
0
  6
Continuous
 62
     7
100
AcDbLine
 10
6219.0187556341
 20
5108.9516340477
 30
0.0
 11
6219.0187556341
 21
5110.9516381008
 31
0.0
  0
LINE
  5
14C
330
1F
100
AcDbEntity
  8
0
  6
Continuous
 62
     7
100
AcDbLine
 10
6278.9187553942
 20
5166.0516394955
 30
0.0
 11
6278.9187553942
 21
5202.0516398085
 31
0.0
  0
LINE
  5
14D
330
1F
100
AcDbEntity
  8
0
  6
Continuous
 62
     7
100
AcDbLine
 10
6269.118755278
 20
5202.0516398085
 30
0.0
 11
6269.118755278
 21
5166.0516394955
 31
0.0
  0
LINE
  5
14E
330
1F
100
AcDbEntity
  8
0
  6
Continuous
 62
     7
100
AcDbLine
 10
6255.1187557772
 20
5204.0516401363
 30
0.0
 11
6267.1187554158
 21
5204.0516401363
 31
0.0
  0
LINE
  5
14F
330
1F
100
AcDbEntity
  8
0
  6
Continuous
 62
     7
100
AcDbLine
 10
6292.918754895
 20
5215.8516405803
 30
0.0
 11
6255.1187557772
 21
5215.8516405803
 31
0.0
  0
LINE
  5
150
330
1F
100
AcDbEntity
  8
0
  6
Continuous
 62
     7
100
AcDbLine
 10
6294.9187552229
 20
5206.0516404641
 30
0.0
 11
6294.9187552229
 21
5213.8516402525
 31
0.0
  0
LINE
  5
151
330
1F
100
AcDbEntity
  8
0
  6
Continuous
 62
     7
100
AcDbLine
 10
6253.1187554493
 20
5213.8516402525
 30
0.0
 11
6253.1187554493
 21
5206.0516404641
 31
0.0
  0
LINE
  5
152
330
1F
100
AcDbEntity
  8
0
  6
Continuous
 62
     7
100
AcDbLine
 10
6271.118755373
 20
5164.0516391677
 30
0.0
 11
6276.9187552992
 21
5164.0516391677
 31
0.0
  0
LINE
  5
153
330
1F
100
AcDbEntity
  8
0
  6
Continuous
 62
     7
100
AcDbLine
 10
6280.9187552564
 20
5204.0516401363
 30
0.0
 11
6292.918754895
 21
5204.0516401363
 31
0.0
  0
LINE
  5
154
330
1F
100
AcDbEntity
  8
0
  6
Continuous
 62
     7
100
AcDbLine
 10
6551.7038031402
 20
5128.4516400379
 30
0.0
 11
6621.3038069117
 21
5128.4516400379
 31
0.0
  0
LINE
  5
155
330
1F
100
AcDbEntity
  8
0
  6
Continuous
 62
     7
100
AcDbLine
 10
6621.3038069117
 20
5259.4516410214
 30
0.0
 11
6551.7038031402
 21
5259.4516410214
 31
0.0
  0
LINE
  5
156
330
1F
100
AcDbEntity
  8
0
  6
Continuous
 62
     7
100
AcDbLine
 10
6595.8038083198
 20
5259.4516410214
 30
0.0
 11
6595.8038083198
 21
5260.3516413552
 31
0.0
  0
LINE
  5
157
330
1F
100
AcDbEntity
  8
0
  6
Continuous
 62
     7
100
AcDbLine
 10
6582.6038083913
 20
5260.3516413552
 30
0.0
 11
6582.6038083913
 21
5259.4516410214
 31
0.0
  0
LINE
  5
158
330
1F
100
AcDbEntity
  8
0
  6
Continuous
 62
     7
100
AcDbLine
 10
6624.1391248922
 20
5130.3682273907
 30
0.0
 11
6624.2038066419
 21
5130.4791143817
 31
0.0
  0
LINE
  5
159
330
1F
100
AcDbEntity
  8
0
  6
Continuous
 62
     7
100
AcDbLine
 10
6621.3448409843
 20
5134.5282553417
 30
0.0
 11
6621.2860484528
 21
5134.4274154586
 31
0.0
  0
LINE
  5
15A
330
1F
100
AcDbEntity
  8
0
  6
Continuous
 62
     7
100
AcDbLine
 10
6621.3038069117
 20
5257.3968304974
 30
0.0
 11
6621.2241648617
 21
5257.5334517938
 31
0.0
  0
LINE
  5
15B
330
1F
100
AcDbEntity
  8
0
  6
Continuous
 62
     7
100
AcDbLine
 10
6624.1139391358
 20
5253.9169548732
 30
0.0
 11
6624.2038066419
 21
5253.7633462531
 31
0.0
  0
LINE
  5
15C
330
1F
100
AcDbEntity
  8
0
  6
Continuous
 62
     7
100
AcDbLine
 10
6634.2100567571
 20
5240.048686294
 30
0.0
 11
6634.2038068841
 21
5240.048686294
 31
0.0
  0
LINE
  5
15D
330
1F
100
AcDbEntity
  8
0
  6
Continuous
 62
     7
100
AcDbLine
 10
6634.2038068841
 20
5240.1264554543
 30
0.0
 11
6634.2100567571
 21
5240.1264554543
 31
0.0
  0
LINE
  5
15E
330
1F
100
AcDbEntity
  8
0
  6
Continuous
 62
     7
100
AcDbLine
 10
6634.2038068841
 20
5235.7520109696
 30
0.0
 11
6634.2100567571
 21
5235.7520109696
 31
0.0
  0
LINE
  5
15F
330
1F
100
AcDbEntity
  8
0
  6
Continuous
 62
     7
100
AcDbLine
 10
6634.2038068841
 20
5235.8088887018
 30
0.0
 11
6634.2100567571
 21
5235.8088887018
 31
0.0
  0
LINE
  5
160
330
1F
100
AcDbEntity
  8
0
  6
Continuous
 62
     7
100
AcDbLine
 10
6634.2038068841
 20
5240.1276624483
 30
0.0
 11
6634.2100567571
 21
5240.1276624483
 31
0.0
  0
LINE
  5
161
330
1F
100
AcDbEntity
  8
0
  6
Continuous
 62
     7
100
AcDbLine
 10
6634.2100567571
 20
5240.0108038169
 30
0.0
 11
6634.2038068841
 21
5240.0108038169
 31
0.0
  0
LINE
  5
162
330
1F
100
AcDbEntity
  8
0
  6
Continuous
 62
     7
100
AcDbLine
 10
6634.2100567571
 20
5241.9069505018
 30
0.0
 11
6634.2038068841
 21
5241.9069505018
 31
0.0
  0
LINE
  5
163
330
1F
100
AcDbEntity
  8
0
  6
Continuous
 62
     7
100
AcDbLine
 10
6621.3038069117
 20
5123.9516420943
 30
0.0
 11
6624.2038066419
 21
5123.9516420943
 31
0.0
  0
LINE
  5
164
330
1F
100
AcDbEntity
  8
0
  6
Continuous
 62
     7
100
AcDbLine
 10
6621.3038069117
 20
5123.9516420943
 30
0.0
 11
6621.3038069117
 21
5143.0741793198
 31
0.0
  0
LINE
  5
165
330
1F
100
AcDbEntity
  8
0
  6
Continuous
 62
     7
100
AcDbLine
 10
6621.3038069117
 20
5143.0741793198
 30
0.0
 11
6624.2038066419
 21
5143.0741793198
 31
0.0
  0
LINE
  5
166
330
1F
100
AcDbEntity
  8
0
  6
Continuous
 62
     7
100
AcDbLine
 10
6621.3038069117
 20
5244.8291017396
 30
0.0
 11
6624.2038066419
 21
5244.8291017396
 31
0.0
  0
LINE
  5
167
330
1F
100
AcDbEntity
  8
0
  6
Continuous
 62
     7
100
AcDbLine
 10
6621.3038069117
 20
5143.0741793198
 30
0.0
 11
6621.3038069117
 21
5244.8291017396
 31
0.0
  0
LINE
  5
168
330
1F
100
AcDbEntity
  8
0
  6
Continuous
 62
     7
100
AcDbLine
 10
6621.3038069117
 20
5263.9516426903
 30
0.0
 11
6624.2038066419
 21
5263.9516426903
 31
0.0
  0
LINE
  5
169
330
1F
100
AcDbEntity
  8
0
  6
Continuous
 62
     7
100
AcDbLine
 10
6621.3038069117
 20
5263.9516426903
 30
0.0
 11
6621.3038069117
 21
5244.8291017396
 31
0.0
  0
LINE
  5
16A
330
1F
100
AcDbEntity
  8
0
  6
Continuous
 62
     7
100
AcDbLine
 10
6551.7038031402
 20
5135.2800673527
 30
0.0
 11
6551.7038031402
 21
5128.4516400379
 31
0.0
  0
LINE
  5
16B
330
1F
100
AcDbEntity
  8
0
  6
Continuous
 62
     7
100
AcDbLine
 10
6621.3038069117
 20
5135.2800673527
 30
0.0
 11
6551.7038031402
 21
5135.2800673527
 31
0.0
  0
LINE
  5
16C
330
1F
100
AcDbEntity
  8
0
  6
Continuous
 62
     7
100
AcDbLine
 10
6621.3038069117
 20
5139.5227073413
 30
0.0
 11
6551.7038031402
 21
5139.5227073413
 31
0.0
  0
LINE
  5
16D
330
1F
100
AcDbEntity
  8
0
  6
Continuous
 62
     7
100
AcDbLine
 10
6621.3038069117
 20
5144.9369213266
 30
0.0
 11
6551.7038031402
 21
5144.9369213266
 31
0.0
  0
LINE
  5
16E
330
1F
100
AcDbEntity
  8
0
  6
Continuous
 62
     7
100
AcDbLine
 10
6551.7038031402
 20
5144.9369213266
 30
0.0
 11
6551.7038031402
 21
5139.5227073413
 31
0.0
  0
LINE
  5
16F
330
1F
100
AcDbEntity
  8
0
  6
Continuous
 62
     7
100
AcDbLine
 10
6621.3038069117
 20
5242.9663597328
 30
0.0
 11
6551.7038031402
 21
5242.9663597328
 31
0.0
  0
LINE
  5
170
330
1F
100
AcDbEntity
  8
0
  6
Continuous
 62
     7
100
AcDbLine
 10
6551.7038031402
 20
5242.9663597328
 30
0.0
 11
6551.7038031402
 21
5144.9369213266
 31
0.0
  0
LINE
  5
171
330
1F
100
AcDbEntity
  8
0
  6
Continuous
 62
     7
100
AcDbLine
 10
6621.3038069117
 20
5248.380573718
 30
0.0
 11
6551.7038031402
 21
5248.380573718
 31
0.0
  0
LINE
  5
172
330
1F
100
AcDbEntity
  8
0
  6
Continuous
 62
     7
100
AcDbLine
 10
6551.7038031402
 20
5242.9663597328
 30
0.0
 11
6551.7038031402
 21
5248.380573718
 31
0.0
  0
LINE
  5
173
330
1F
100
AcDbEntity
  8
0
  6
Continuous
 62
     7
100
AcDbLine
 10
6621.3038069117
 20
5252.6232137066
 30
0.0
 11
6551.7038031402
 21
5252.6232137066
 31
0.0
  0
LINE
  5
174
330
1F
100
AcDbEntity
  8
0
  6
Continuous
 62
     7
100
AcDbLine
 10
6551.7038031402
 20
5252.6232137066
 30
0.0
 11
6551.7038031402
 21
5259.4516410214
 31
0.0
  0
LINE
  5
175
330
1F
100
AcDbEntity
  8
0
  6
Continuous
 62
     7
100
AcDbLine
 10
6551.7038031402
 20
5139.5227073413
 30
0.0
 11
6551.7038031402
 21
5135.2800673527
 31
0.0
  0
LINE
  5
176
330
1F
100
AcDbEntity
  8
0
  6
Continuous
 62
     7
100
AcDbLine
 10
6551.7038031402
 20
5248.380573718
 30
0.0
 11
6551.7038031402
 21
5252.6232137066
 31
0.0
  0
LINE
  5
177
330
1F
100
AcDbEntity
  8
0
  6
Continuous
 62
     7
100
AcDbLine
 10
6621.3038069117
 20
5128.4516400379
 30
0.0
 11
6551.7038031402
 21
5128.4516400379
 31
0.0
  0
LINE
  5
178
330
1F
100
AcDbEntity
  8
0
  6
Continuous
 62
     7
100
AcDbLine
 10
6595.0038059535
 20
5261.1516399962
 30
0.0
 11
6583.4038070324
 21
5261.1516399962
 31
0.0
  0
LINE
  5
179
330
1F
100
AcDbEntity
  8
0
  6
Continuous
 62
     7
100
AcDbLine
 10
6630.2038067523
 20
5138.951638965
 30
0.0
 11
6624.2038066419
 21
5138.951638965
 31
0.0
  0
LINE
  5
17A
330
1F
100
AcDbEntity
  8
0
  6
Continuous
 62
     7
100
AcDbLine
 10
6630.2038067523
 20
5108.9516414982
 30
0.0
 11
6630.2038067523
 21
5138.951638965
 31
0.0
  0
LINE
  5
17B
330
1F
100
AcDbEntity
  8
0
  6
Continuous
 62
     7
100
AcDbLine
 10
6630.2038067523
 20
5108.9516414982
 30
0.0
 11
6624.2038066419
 21
5108.9516414982
 31
0.0
  0
LINE
  5
17C
330
1F
100
AcDbEntity
  8
0
  6
Continuous
 62
     7
100
AcDbLine
 10
6624.2038066419
 20
5138.951638965
 30
0.0
 11
6624.2038066419
 21
5108.9516414982
 31
0.0
  0
LINE
  5
17D
330
1F
100
AcDbEntity
  8
0
  6
Continuous
 62
     7
100
AcDbLine
 10
6630.2038067523
 20
5248.951638369
 30
0.0
 11
6624.2038066419
 21
5248.951638369
 31
0.0
  0
LINE
  5
17E
330
1F
100
AcDbEntity
  8
0
  6
Continuous
 62
     7
100
AcDbLine
 10
6630.2038067523
 20
5138.951638965
 30
0.0
 11
6630.2038067523
 21
5248.951638369
 31
0.0
  0
LINE
  5
17F
330
1F
100
AcDbEntity
  8
0
  6
Continuous
 62
     7
100
AcDbLine
 10
6624.2038066419
 20
5248.951638369
 30
0.0
 11
6624.2038066419
 21
5138.951638965
 31
0.0
  0
LINE
  5
180
330
1F
100
AcDbEntity
  8
0
  6
Continuous
 62
     7
100
AcDbLine
 10
6630.2038067523
 20
5138.951638965
 30
0.0
 11
6632.2038067891
 21
5138.951638965
 31
0.0
  0
LINE
  5
181
330
1F
100
AcDbEntity
  8
0
  6
Continuous
 62
     7
100
AcDbLine
 10
6632.2038067891
 20
5138.951638965
 30
0.0
 11
6632.2038067891
 21
5110.9516381008
 31
0.0
  0
LINE
  5
182
330
1F
100
AcDbEntity
  8
0
  6
Continuous
 62
     7
100
AcDbLine
 10
6630.2038067523
 20
5248.951638369
 30
0.0
 11
6632.2038067891
 21
5248.951638369
 31
0.0
  0
LINE
  5
183
330
1F
100
AcDbEntity
  8
0
  6
Continuous
 62
     7
100
AcDbLine
 10
6632.2038067891
 20
5248.951638369
 30
0.0
 11
6632.2038067891
 21
5138.951638965
 31
0.0
  0
LINE
  5
184
330
1F
100
AcDbEntity
  8
0
  6
Continuous
 62
     7
100
AcDbLine
 10
6630.2038067523
 20
5278.9516432864
 30
0.0
 11
6624.2038066419
 21
5278.9516432864
 31
0.0
  0
LINE
  5
185
330
1F
100
AcDbEntity
  8
0
  6
Continuous
 62
     7
100
AcDbLine
 10
6630.2038067523
 20
5248.951638369
 30
0.0
 11
6630.2038067523
 21
5278.9516432864
 31
0.0
  0
LINE
  5
186
330
1F
100
AcDbEntity
  8
0
  6
Continuous
 62
     7
100
AcDbLine
 10
6624.2038066419
 20
5278.9516432864
 30
0.0
 11
6624.2038066419
 21
5248.951638369
 31
0.0
  0
LINE
  5
187
330
1F
100
AcDbEntity
  8
0
  6
Continuous
 62
     7
100
AcDbLine
 10
6632.2038067891
 20
5276.9516392333
 30
0.0
 11
6632.2038067891
 21
5248.951638369
 31
0.0
  0
LINE
  5
188
330
1F
100
AcDbEntity
  8
0
  6
Continuous
 62
     7
100
AcDbLine
 10
6634.2038068841
 20
5123.451641081
 30
0.0
 11
6634.2038068841
 21
5264.451636253
 31
0.0
  0
LINE
  5
189
330
1F
100
AcDbEntity
  8
0
  6
Continuous
 62
     7
100
AcDbLine
 10
6595.8038083198
 20
5260.3516413552
 30
0.0
 11
6582.6038083913
 21
5260.3516413552
 31
0.0
  0
LINE
  5
18A
330
1F
100
AcDbEntity
  8
0
  6
Continuous
 62
     7
100
AcDbLine
 10
6632.8704734428
 20
5266.3372577933
 30
0.0
 11
6632.8704734428
 21
5121.5660216269
 31
0.0
  0
LINE
  5
18B
330
1F
100
AcDbEntity
  8
0
  6
Continuous
 62
     7
100
AcDbLine
 10
6208.518756707
 20
4913.4747099467
 30
0.0
 11
6208.518756707
 21
4843.8747061752
 31
0.0
  0
LINE
  5
18C
330
1F
100
AcDbEntity
  8
0
  6
Continuous
 62
     7
100
AcDbLine
 10
6339.5187539652
 20
4843.8747061752
 30
0.0
 11
6339.5187539652
 21
4913.4747099467
 31
0.0
  0
LINE
  5
18D
330
1F
100
AcDbEntity
  8
0
  6
Continuous
 62
     7
100
AcDbLine
 10
6284.0238792494
 20
4830.9747062027
 30
0.0
 11
6284.0238792494
 21
4830.9684563298
 31
0.0
  0
LINE
  5
18E
330
1F
100
AcDbEntity
  8
0
  6
Continuous
 62
     7
100
AcDbLine
 10
6284.0774163276
 20
4830.9747062027
 30
0.0
 11
6284.0774163276
 21
4830.9684563298
 31
0.0
  0
LINE
  5
18F
330
1F
100
AcDbEntity
  8
0
  6
Continuous
 62
     7
100
AcDbLine
 10
6284.8927333623
 20
4830.9684563298
 30
0.0
 11
6284.8927333623
 21
4830.9747062027
 31
0.0
  0
LINE
  5
190
330
1F
100
AcDbEntity
  8
0
  6
Continuous
 62
     7
100
AcDbLine
 10
6282.1786870852
 20
4830.9747062027
 30
0.0
 11
6282.1786870852
 21
4830.9684563298
 31
0.0
  0
LINE
  5
191
330
1F
100
AcDbEntity
  8
0
  6
Continuous
 62
     7
100
AcDbLine
 10
6282.4164677083
 20
4830.9684563298
 30
0.0
 11
6282.4164677083
 21
4830.9747062027
 31
0.0
  0
LINE
  5
192
330
1F
100
AcDbEntity
  8
0
  6
Continuous
 62
     7
100
AcDbLine
 10
6281.6150702208
 20
4830.9684563298
 30
0.0
 11
6281.6150702208
 21
4830.9747062027
 31
0.0
  0
LINE
  5
193
330
1F
100
AcDbEntity
  8
0
  6
Continuous
 62
     7
100
AcDbLine
 10
6281.5856297173
 20
4830.9684563298
 30
0.0
 11
6281.5856297173
 21
4830.9747062027
 31
0.0
  0
LINE
  5
194
330
1F
100
AcDbEntity
  8
0
  6
Continuous
 62
     7
100
AcDbLine
 10
6281.5036533073
 20
4830.9747062027
 30
0.0
 11
6281.5036533073
 21
4830.9684563298
 31
0.0
  0
LINE
  5
195
330
1F
100
AcDbEntity
  8
0
  6
Continuous
 62
     7
100
AcDbLine
 10
6281.5157069497
 20
4830.9684563298
 30
0.0
 11
6281.5157069497
 21
4830.9747062027
 31
0.0
  0
LINE
  5
196
330
1F
100
AcDbEntity
  8
0
  6
Continuous
 62
     7
100
AcDbLine
 10
6283.6150873125
 20
4830.9684563298
 30
0.0
 11
6283.6150873125
 21
4830.9747062027
 31
0.0
  0
LINE
  5
197
330
1F
100
AcDbEntity
  8
0
  6
Continuous
 62
     7
100
AcDbLine
 10
6281.8351771355
 20
4830.9747062027
 30
0.0
 11
6281.8351771355
 21
4830.9684563298
 31
0.0
  0
LINE
  5
198
330
1F
100
AcDbEntity
  8
0
  6
Continuous
 62
     7
100
AcDbLine
 10
6281.8738242283
 20
4830.9684563298
 30
0.0
 11
6281.8738242283
 21
4830.9747062027
 31
0.0
  0
LINE
  5
199
330
1F
100
AcDbEntity
  8
0
  6
Continuous
 62
     7
100
AcDbLine
 10
6204.0187550381
 20
4843.8747061752
 30
0.0
 11
6204.0187550381
 21
4840.9747064449
 31
0.0
  0
LINE
  5
19A
330
1F
100
AcDbEntity
  8
0
  6
Continuous
 62
     7
100
AcDbLine
 10
6223.1412959889
 20
4843.8747061752
 30
0.0
 11
6204.0187550381
 21
4843.8747061752
 31
0.0
  0
LINE
  5
19B
330
1F
100
AcDbEntity
  8
0
  6
Continuous
 62
     7
100
AcDbLine
 10
6223.1412959889
 20
4843.8747061752
 30
0.0
 11
6223.1412959889
 21
4840.9747064449
 31
0.0
  0
LINE
  5
19C
330
1F
100
AcDbEntity
  8
0
  6
Continuous
 62
     7
100
AcDbLine
 10
6223.1412959889
 20
4843.8747061752
 30
0.0
 11
6324.8962146833
 21
4843.8747061752
 31
0.0
  0
LINE
  5
19D
330
1F
100
AcDbEntity
  8
0
  6
Continuous
 62
     7
100
AcDbLine
 10
6324.8962146833
 20
4843.8747061752
 30
0.0
 11
6324.8962146833
 21
4840.9747064449
 31
0.0
  0
LINE
  5
19E
330
1F
100
AcDbEntity
  8
0
  6
Continuous
 62
     7
100
AcDbLine
 10
6344.0187556341
 20
4843.8747061752
 30
0.0
 11
6344.0187556341
 21
4840.9747064449
 31
0.0
  0
LINE
  5
19F
330
1F
100
AcDbEntity
  8
0
  6
Continuous
 62
     7
100
AcDbLine
 10
6324.8962146833
 20
4843.8747061752
 30
0.0
 11
6344.0187556341
 21
4843.8747061752
 31
0.0
  0
LINE
  5
1A0
330
1F
100
AcDbEntity
  8
0
  6
Continuous
 62
     7
100
AcDbLine
 10
6225.0040379956
 20
4843.8747061752
 30
0.0
 11
6225.0040379956
 21
4913.4747099467
 31
0.0
  0
LINE
  5
1A1
330
1F
100
AcDbEntity
  8
0
  6
Continuous
 62
     7
100
AcDbLine
 10
6323.0334726766
 20
4913.4747099467
 30
0.0
 11
6225.0040379956
 21
4913.4747099467
 31
0.0
  0
LINE
  5
1A2
330
1F
100
AcDbEntity
  8
0
  6
Continuous
 62
     7
100
AcDbLine
 10
6323.0334726766
 20
4843.8747061752
 30
0.0
 11
6323.0334726766
 21
4913.4747099467
 31
0.0
  0
LINE
  5
1A3
330
1F
100
AcDbEntity
  8
0
  6
Continuous
 62
     7
100
AcDbLine
 10
6219.5898240104
 20
4913.4747099467
 30
0.0
 11
6225.0040379956
 21
4913.4747099467
 31
0.0
  0
LINE
  5
1A4
330
1F
100
AcDbEntity
  8
0
  6
Continuous
 62
     7
100
AcDbLine
 10
6219.5898240104
 20
4843.8747061752
 30
0.0
 11
6219.5898240104
 21
4913.4747099467
 31
0.0
  0
LINE
  5
1A5
330
1F
100
AcDbEntity
  8
0
  6
Continuous
 62
     7
100
AcDbLine
 10
6328.4476866618
 20
4913.4747099467
 30
0.0
 11
6323.0334726766
 21
4913.4747099467
 31
0.0
  0
LINE
  5
1A6
330
1F
100
AcDbEntity
  8
0
  6
Continuous
 62
     7
100
AcDbLine
 10
6328.4476866618
 20
4843.8747061752
 30
0.0
 11
6328.4476866618
 21
4913.4747099467
 31
0.0
  0
LINE
  5
1A7
330
1F
100
AcDbEntity
  8
0
  6
Continuous
 62
     7
100
AcDbLine
 10
6215.3471840218
 20
4843.8747061752
 30
0.0
 11
6215.3471840218
 21
4913.4747099467
 31
0.0
  0
LINE
  5
1A8
330
1F
100
AcDbEntity
  8
0
  6
Continuous
 62
     7
100
AcDbLine
 10
6208.518756707
 20
4913.4747099467
 30
0.0
 11
6215.3471840218
 21
4913.4747099467
 31
0.0
  0
LINE
  5
1A9
330
1F
100
AcDbEntity
  8
0
  6
Continuous
 62
     7
100
AcDbLine
 10
6332.6903266504
 20
4843.8747061752
 30
0.0
 11
6332.6903266504
 21
4913.4747099467
 31
0.0
  0
LINE
  5
1AA
330
1F
100
AcDbEntity
  8
0
  6
Continuous
 62
     7
100
AcDbLine
 10
6339.5187539652
 20
4913.4747099467
 30
0.0
 11
6332.6903266504
 21
4913.4747099467
 31
0.0
  0
LINE
  5
1AB
330
1F
100
AcDbEntity
  8
0
  6
Continuous
 62
     7
100
AcDbLine
 10
6215.3471840218
 20
4913.4747099467
 30
0.0
 11
6219.5898240104
 21
4913.4747099467
 31
0.0
  0
LINE
  5
1AC
330
1F
100
AcDbEntity
  8
0
  6
Continuous
 62
     7
100
AcDbLine
 10
6332.6903266504
 20
4913.4747099467
 30
0.0
 11
6328.4476866618
 21
4913.4747099467
 31
0.0
  0
LINE
  5
1AD
330
1F
100
AcDbEntity
  8
0
  6
Continuous
 62
     7
100
AcDbLine
 10
6208.518756707
 20
4843.8747061752
 30
0.0
 11
6208.518756707
 21
4913.4747099467
 31
0.0
  0
LINE
  5
1AE
330
1F
100
AcDbEntity
  8
0
  6
Continuous
 62
     7
100
AcDbLine
 10
6339.5187539652
 20
4843.8747061752
 30
0.0
 11
6339.5187539652
 21
4913.4747099467
 31
0.0
  0
LINE
  5
1AF
330
1F
100
AcDbEntity
  8
0
  6
Continuous
 62
     7
100
AcDbLine
 10
6329.0187550381
 20
4840.9747064449
 30
0.0
 11
6219.0187556341
 21
4840.9747064449
 31
0.0
  0
LINE
  5
1B0
330
1F
100
AcDbEntity
  8
0
  6
Continuous
 62
     7
100
AcDbLine
 10
6329.0187550381
 20
4834.9747063345
 30
0.0
 11
6329.0187550381
 21
4840.9747064449
 31
0.0
  0
LINE
  5
1B1
330
1F
100
AcDbEntity
  8
0
  6
Continuous
 62
     7
100
AcDbLine
 10
6219.0187556341
 20
4834.9747063345
 30
0.0
 11
6329.0187550381
 21
4834.9747063345
 31
0.0
  0
LINE
  5
1B2
330
1F
100
AcDbEntity
  8
0
  6
Continuous
 62
     7
100
AcDbLine
 10
6219.0187556341
 20
4834.9747063345
 30
0.0
 11
6219.0187556341
 21
4840.9747064449
 31
0.0
  0
LINE
  5
1B3
330
1F
100
AcDbEntity
  8
0
  6
Continuous
 62
     7
100
AcDbLine
 10
6219.0187556341
 20
4840.9747064449
 30
0.0
 11
6189.018754442
 21
4840.9747064449
 31
0.0
  0
LINE
  5
1B4
330
1F
100
AcDbEntity
  8
0
  6
Continuous
 62
     7
100
AcDbLine
 10
6189.018754442
 20
4834.9747063345
 30
0.0
 11
6219.0187556341
 21
4834.9747063345
 31
0.0
  0
LINE
  5
1B5
330
1F
100
AcDbEntity
  8
0
  6
Continuous
 62
     7
100
AcDbLine
 10
6189.018754442
 20
4834.9747063345
 30
0.0
 11
6189.018754442
 21
4840.9747064449
 31
0.0
  0
LINE
  5
1B6
330
1F
100
AcDbEntity
  8
0
  6
Continuous
 62
     7
100
AcDbLine
 10
6329.0187550381
 20
4832.9747062977
 30
0.0
 11
6219.0187556341
 21
4832.9747062977
 31
0.0
  0
LINE
  5
1B7
330
1F
100
AcDbEntity
  8
0
  6
Continuous
 62
     7
100
AcDbLine
 10
6219.0187556341
 20
4832.9747062977
 30
0.0
 11
6219.0187556341
 21
4834.9747063345
 31
0.0
  0
LINE
  5
1B8
330
1F
100
AcDbEntity
  8
0
  6
Continuous
 62
     7
100
AcDbLine
 10
6329.0187550381
 20
4832.9747062977
 30
0.0
 11
6329.0187550381
 21
4834.9747063345
 31
0.0
  0
LINE
  5
1B9
330
1F
100
AcDbEntity
  8
0
  6
Continuous
 62
     7
100
AcDbLine
 10
6219.0187556341
 20
4832.9747062977
 30
0.0
 11
6191.0187584951
 21
4832.9747062977
 31
0.0
  0
LINE
  5
1BA
330
1F
100
AcDbEntity
  8
0
  6
Continuous
 62
     7
100
AcDbLine
 10
6359.0187562302
 20
4834.9747063345
 30
0.0
 11
6359.0187562302
 21
4840.9747064449
 31
0.0
  0
LINE
  5
1BB
330
1F
100
AcDbEntity
  8
0
  6
Continuous
 62
     7
100
AcDbLine
 10
6329.0187550381
 20
4834.9747063345
 30
0.0
 11
6359.0187562302
 21
4834.9747063345
 31
0.0
  0
LINE
  5
1BC
330
1F
100
AcDbEntity
  8
0
  6
Continuous
 62
     7
100
AcDbLine
 10
6359.0187562302
 20
4840.9747064449
 30
0.0
 11
6329.0187550381
 21
4840.9747064449
 31
0.0
  0
LINE
  5
1BD
330
1F
100
AcDbEntity
  8
0
  6
Continuous
 62
     7
100
AcDbLine
 10
6357.0187521771
 20
4832.9747062977
 30
0.0
 11
6329.0187550381
 21
4832.9747062977
 31
0.0
  0
LINE
  5
1BE
330
1F
100
AcDbEntity
  8
0
  6
Continuous
 62
     7
100
AcDbLine
 10
6344.5187566474
 20
4830.9747063132
 30
0.0
 11
6203.5187540248
 21
4830.9747063132
 31
0.0
  0
LINE
  5
1BF
330
1F
100
AcDbEntity
  8
0
  6
Continuous
 62
     7
100
AcDbLine
 10
6274.0187553361
 20
4832.3080397546
 30
0.0
 11
6201.6331372529
 21
4832.3080397546
 31
0.0
  0
LINE
  5
1C0
330
1F
100
AcDbEntity
  8
0
  6
Continuous
 62
     7
100
AcDbLine
 10
6346.4043734193
 20
4832.3080397546
 30
0.0
 11
6274.0187553361
 21
4832.3080397546
 31
0.0
  0
LWPOLYLINE
  5
1C1
330
1F
100
AcDbEntity
  8
0
  6
Continuous
 62
     7
100
AcDbPolyline
 90
        3
 70
   128
 43
0.0
 10
6279.4761657715
 20
5239.4318564517
 10
6279.1430243941
 20
5240.1936645046
 10
6278.5202713355
 20
5240.4090559763
  0
LWPOLYLINE
  5
1C2
330
1F
100
AcDbEntity
  8
0
  6
Continuous
 62
     7
100
AcDbPolyline
 90
        3
 70
   128
 43
0.0
 10
6278.4385681152
 20
5240.4090559763
 10
6277.7033923202
 20
5240.0075845856
 10
6277.4965266369
 20
5239.3690853101
  0
LWPOLYLINE
  5
1C3
330
1F
100
AcDbEntity
  8
0
  6
Continuous
 62
     7
100
AcDbPolyline
 90
        3
 70
   128
 43
0.0
 10
6270.0042724609
 20
5239.4283435029
 10
6269.6780746512
 20
5240.1874695776
 10
6269.0609345816
 20
5240.4055094999
  0
LWPOLYLINE
  5
1C4
330
1F
100
AcDbEntity
  8
0
  6
Continuous
 62
     7
100
AcDbPolyline
 90
        3
 70
   128
 43
0.0
 10
6268.9781188965
 20
5240.4013073725
 10
6268.243501619
 20
5240.0019121509
 10
6268.0385682404
 20
5239.3648161275
  0
LWPOLYLINE
  5
1C5
330
1F
100
AcDbEntity
  8
0
  6
Continuous
 62
     7
100
AcDbPolyline
 90
        3
 70
   128
 43
0.0
 10
6266.902923584
 20
5237.4810001535
 10
6266.5174302763
 20
5238.1696866142
 10
6266.096878019
 20
5238.6388278288
  0
LWPOLYLINE
  5
1C6
330
1F
100
AcDbEntity
  8
0
  6
Continuous
 62
     7
100
AcDbPolyline
 90
        3
 70
   128
 43
0.0
 10
6266.3497924805
 20
5236.8382497412
 10
6266.8227109262
 20
5237.0608643192
 10
6266.9033405043
 20
5237.4810001535
  0
LWPOLYLINE
  5
1C7
330
1F
100
AcDbEntity
  8
0
  6
Continuous
 62
     7
100
AcDbPolyline
 90
        3
 70
   128
 43
0.0
 10
6267.5285339355
 20
5237.1804511828
 10
6267.0548273699
 20
5236.455360618
 10
6266.4052137777
 20
5236.2180634123
  0
LWPOLYLINE
  5
1C8
330
1F
100
AcDbEntity
  8
0
  6
Continuous
 62
     7
100
AcDbPolyline
 90
        3
 70
   128
 43
0.0
 10
6267.1775817871
 20
5238.3961214406
 10
6267.5163308529
 20
5237.7532992284
 10
6267.5312777653
 20
5237.1804511828
  0
LWPOLYLINE
  5
1C9
330
1F
100
AcDbEntity
  8
0
  6
Continuous
 62
     7
100
AcDbPolyline
 90
        3
 70
   128
 43
0.0
 10
6266.5977478027
 20
5239.0261946899
 10
6266.9392872821
 20
5238.6873495338
 10
6267.1785002246
 20
5238.3961214406
  0
LWPOLYLINE
  5
1CA
330
1F
100
AcDbEntity
  8
0
  6
Continuous
 62
     7
100
AcDbPolyline
 90
        3
 70
   128
 43
0.0
 10
6266.0026550293
 20
5240.1451973898
 10
6266.2068127122
 20
5239.4491271126
 10
6266.5992417976
 20
5239.0261946899
  0
LWPOLYLINE
  5
1CB
330
1F
100
AcDbEntity
  8
0
  6
Continuous
 62
     7
100
AcDbPolyline
 90
        3
 70
   128
 43
0.0
 10
6266.7274475098
 20
5240.7315171045
 10
6266.1774399146
 20
5240.559568789
 10
6266.0058933914
 20
5240.1451973898
  0
LWPOLYLINE
  5
1CC
330
1F
100
AcDbEntity
  8
0
  6
Continuous
 62
     7
100
AcDbPolyline
 90
        3
 70
   128
 43
0.0
 10
6265.3617858887
 20
5240.1868126077
 10
6265.8750264062
 20
5241.1016029835
 10
6266.6881598204
 20
5241.3270047587
  0
LWPOLYLINE
  5
1CD
330
1F
100
AcDbEntity
  8
0
  6
Continuous
 62
     7
100
AcDbPolyline
 90
        3
 70
   128
 43
0.0
 10
6266.0942077637
 20
5238.6388278288
 10
6265.4830018584
 20
5239.4207520295
 10
6265.3638302952
 20
5240.1868126077
  0
LWPOLYLINE
  5
1CE
330
1F
100
AcDbEntity
  8
0
  6
Continuous
 62
     7
100
AcDbPolyline
 90
        3
 70
   128
 43
0.0
 10
6284.9426269531
 20
5241.4966060502
 10
6284.7770606599
 20
5241.8521821749
 10
6284.484006618
 20
5241.9603823406
  0
LWPOLYLINE
  5
1CF
330
1F
100
AcDbEntity
  8
0
  6
Continuous
 62
     7
100
AcDbPolyline
 90
        3
 70
   128
 43
0.0
 10
6284.4772338867
 20
5241.9603823406
 10
6284.1267023578
 20
5241.7899167597
 10
6284.0238801807
 20
5241.4952612204
  0
LWPOLYLINE
  5
1D0
330
1F
100
AcDbEntity
  8
0
  6
Continuous
 62
     7
100
AcDbPolyline
 90
        3
 70
   128
 43
0.0
 10
6284.0232849121
 20
5241.4952612204
 10
6284.1904333648
 20
5241.1422822743
 10
6284.4820778489
 20
5241.0384437722
  0
LWPOLYLINE
  5
1D1
330
1F
100
AcDbEntity
  8
0
  6
Continuous
 62
     7
100
AcDbPolyline
 90
        3
 70
   128
 43
0.0
 10
6284.4848632812
 20
5241.0384437722
 10
6284.8396134951
 20
5241.2052058593
 10
6284.9459258512
 20
5241.4966060502
  0
LWPOLYLINE
  5
1D2
330
1F
100
AcDbEntity
  8
0
  6
Continuous
 62
     7
100
AcDbPolyline
 90
        3
 70
   128
 43
0.0
 10
6283.6112976074
 20
5237.7650498134
 10
6283.2848843858
 20
5238.8819285686
 10
6282.6939357117
 20
5239.5929156524
  0
LWPOLYLINE
  5
1D3
330
1F
100
AcDbEntity
  8
0
  6
Continuous
 62
     7
100
AcDbPolyline
 90
        3
 70
   128
 43
0.0
 10
6282.6881408691
 20
5239.5893319232
 10
6282.6429024165
 20
5239.5364248452
 10
6282.6128380045
 20
5239.4892855269
  0
LWPOLYLINE
  5
1D4
330
1F
100
AcDbEntity
  8
0
  6
Continuous
 62
     7
100
AcDbPolyline
 90
        3
 70
   128
 43
0.0
 10
6282.5088500977
 20
5239.5773774666
 10
6282.6032270274
 20
5239.6887612599
 10
6282.6900772422
 20
5239.7630347592
  0
LWPOLYLINE
  5
1D5
330
1F
100
AcDbEntity
  8
0
  6
Continuous
 62
     7
100
AcDbPolyline
 90
        3
 70
   128
 43
0.0
 10
6282.6881408691
 20
5239.7630347592
 10
6283.079873036
 20
5239.9104643712
 10
6283.4083104178
 20
5239.9341149909
  0
LWPOLYLINE
  5
1D6
330
1F
100
AcDbEntity
  8
0
  6
Continuous
 62
     7
100
AcDbPolyline
 90
        3
 70
   128
 43
0.0
 10
6283.4243774414
 20
5239.936182527
 10
6283.4370812935
 20
5240.0485755323
 10
6283.4058303058
 20
5240.1327958984
  0
LWPOLYLINE
  5
1D7
330
1F
100
AcDbEntity
  8
0
  6
Continuous
 62
     7
100
AcDbPolyline
 90
        3
 70
   128
 43
0.0
 10
6283.4053039551
 20
5240.1327958984
 10
6283.3043252202
 20
5240.4207927193
 10
6283.1851375893
 20
5240.6287512464
  0
LWPOLYLINE
  5
1D8
330
1F
100
AcDbEntity
  8
0
  6
Continuous
 62
     7
100
AcDbPolyline
 90
        3
 70
   128
 43
0.0
 10
6283.1840515137
 20
5240.6287512464
 10
6283.5055901801
 20
5241.3420781517
 10
6283.58015154
 20
5241.9518067223
  0
LWPOLYLINE
  5
1D9
330
1F
100
AcDbEntity
  8
0
  6
Continuous
 62
     7
100
AcDbPolyline
 90
        3
 70
   128
 43
0.0
 10
6283.576965332
 20
5241.9518067223
 10
6283.0716031513
 20
5241.8631456258
 10
6282.6870457873
 20
5241.7342832965
  0
LWPOLYLINE
  5
1DA
330
1F
100
AcDbEntity
  8
0
  6
Continuous
 62
     7
100
AcDbPolyline
 90
        3
 70
   128
 43
0.0
 10
6282.6843261719
 20
5241.7342832965
 10
6282.5708614389
 20
5241.6831015426
 10
6282.4817180306
 20
5241.6383347196
  0
LWPOLYLINE
  5
1DB
330
1F
100
AcDbEntity
  8
0
  6
Continuous
 62
     7
100
AcDbPolyline
 90
        3
 70
   128
 43
0.0
 10
6282.4783325195
 20
5241.6383347196
 10
6282.4477831651
 20
5241.6188126494
 10
6282.4216356173
 20
5241.6026091856
  0
LWPOLYLINE
  5
1DC
330
1F
100
AcDbEntity
  8
0
  6
Continuous
 62
     7
100
AcDbPolyline
 90
        3
 70
   128
 43
0.0
 10
6282.4211120605
 20
5241.6026091856
 10
6282.3511793034
 20
5241.5604943345
 10
6282.2977492258
 20
5241.5243743641
  0
LWPOLYLINE
  5
1DD
330
1F
100
AcDbEntity
  8
0
  6
Continuous
 62
     7
100
AcDbPolyline
 90
        3
 70
   128
 43
0.0
 10
6282.2952270508
 20
5241.5243743641
 10
6282.1746467243
 20
5241.4338743969
 10
6282.0851180375
 20
5241.3539088053
  0
LWPOLYLINE
  5
1DE
330
1F
100
AcDbEntity
  8
0
  6
Continuous
 62
     7
100
AcDbPolyline
 90
        3
 70
   128
 43
0.0
 10
6282.0816040039
 20
5241.3539088053
 10
6281.9426534282
 20
5241.3731494874
 10
6281.8296301782
 20
5241.3749939484
  0
LWPOLYLINE
  5
1DF
330
1F
100
AcDbEntity
  8
0
  6
Continuous
 62
     7
100
AcDbPolyline
 90
        3
 70
   128
 43
0.0
 10
6281.8069458008
 20
5241.3712723834
 10
6281.6471500959
 20
5241.3648887997
 10
6281.5215007074
 20
5241.3495353145
  0
LWPOLYLINE
  5
1E0
330
1F
100
AcDbEntity
  8
0
  6
Continuous
 62
     7
100
AcDbPolyline
 90
        3
 70
   128
 43
0.0
 10
6281.4903259277
 20
5241.3707918209
 10
6281.1064383348
 20
5241.6126777844
 10
6280.7831477046
 20
5241.7668050808
  0
LWPOLYLINE
  5
1E1
330
1F
100
AcDbEntity
  8
0
  6
Continuous
 62
     7
100
AcDbPolyline
 90
        3
 70
   128
 43
0.0
 10
6280.7807922363
 20
5241.7668050808
 10
6280.4118170119
 20
5241.8873115821
 10
6280.1095625989
 20
5241.9396101219
  0
LWPOLYLINE
  5
1E2
330
1F
100
AcDbEntity
  8
0
  6
Continuous
 62
     7
100
AcDbPolyline
 90
        3
 70
   128
 43
0.0
 10
6280.1094055176
 20
5241.7445837242
 10
6280.2458762076
 20
5241.0939004193
 10
6280.4659234032
 20
5240.621136753
  0
LWPOLYLINE
  5
1E3
330
1F
100
AcDbEntity
  8
0
  6
Continuous
 62
     7
100
AcDbPolyline
 90
        3
 70
   128
 43
0.0
 10
6280.4641723633
 20
5240.621136753
 10
6280.3360845742
 20
5240.331154125
 10
6280.2675549544
 20
5240.0912477357
  0
LWPOLYLINE
  5
1E4
330
1F
100
AcDbEntity
  8
0
  6
Continuous
 62
     7
100
AcDbPolyline
 90
        3
 70
   128
 43
0.0
 10
6280.2467346191
 20
5240.0566919428
 10
6280.2394415911
 20
5240.0312631708
 10
6280.2330350175
 20
5240.011113016
  0
LWPOLYLINE
  5
1E5
330
1F
100
AcDbEntity
  8
0
  6
Continuous
 62
     7
100
AcDbPolyline
 90
        3
 70
   128
 43
0.0
 10
6280.2314758301
 20
5240.011113016
 10
6280.2668567222
 20
5240.0070375998
 10
6280.2933931023
 20
5240.0035357756
  0
LWPOLYLINE
  5
1E6
330
1F
100
AcDbEntity
  8
0
  6
Continuous
 62
     7
100
AcDbPolyline
 90
        3
 70
   128
 43
0.0
 10
6280.3077697754
 20
5240.0015725476
 10
6280.5807518388
 20
5239.9446475274
 10
6280.7860417895
 20
5239.8701405806
  0
LWPOLYLINE
  5
1E7
330
1F
100
AcDbEntity
  8
0
  6
Continuous
 62
     7
100
AcDbPolyline
 90
        3
 70
   128
 43
0.0
 10
6280.7846069336
 20
5239.8701405806
 10
6281.1368337618
 20
5239.5401041675
 10
6281.1240746312
 20
5239.1614860577
  0
LWPOLYLINE
  5
1E8
330
1F
100
AcDbEntity
  8
0
  6
Continuous
 62
     7
100
AcDbPolyline
 90
        3
 70
   128
 43
0.0
 10
6281.120300293
 20
5239.1614860577
 10
6280.9493919035
 20
5238.7773230355
 10
6280.78810886
 20
5238.4876592738
  0
LWPOLYLINE
  5
1E9
330
1F
100
AcDbEntity
  8
0
  6
Continuous
 62
     7
100
AcDbPolyline
 90
        3
 70
   128
 43
0.0
 10
6280.7846069336
 20
5238.4876592738
 10
6280.5773858386
 20
5237.9666154521
 10
6280.4598600276
 20
5237.5403254015
  0
LWPOLYLINE
  5
1EA
330
1F
100
AcDbEntity
  8
0
  6
Continuous
 62
     7
100
AcDbPolyline
 90
        3
 70
   128
 43
0.0
 10
6280.4565429688
 20
5237.5403254015
 10
6280.4733726018
 20
5236.7345997654
 10
6280.79162274
 20
5236.1828892213
  0
LWPOLYLINE
  5
1EB
330
1F
100
AcDbEntity
  8
0
  6
Continuous
 62
     7
100
AcDbPolyline
 90
        3
 70
   128
 43
0.0
 10
6280.7884216309
 20
5236.1828892213
 10
6281.160973909
 20
5235.9088528268
 10
6281.5013813458
 20
5235.7870845777
  0
LWPOLYLINE
  5
1EC
330
1F
100
AcDbEntity
  8
0
  6
Continuous
 62
     7
100
AcDbPolyline
 90
        3
 70
   128
 43
0.0
 10
6281.4979553223
 20
5235.7870845777
 10
6281.6890392252
 20
5235.7581805906
 10
6281.8381052136
 20
5235.7520109696
  0
LWPOLYLINE
  5
1ED
330
1F
100
AcDbEntity
  8
0
  6
Continuous
 62
     7
100
AcDbPolyline
 90
        3
 70
   128
 43
0.0
 10
6281.8756103516
 20
5235.7520817501
 10
6282.1194656992
 20
5235.7741281232
 10
6282.3064310148
 20
5235.8133329732
  0
LWPOLYLINE
  5
1EE
330
1F
100
AcDbEntity
  8
0
  6
Continuous
 62
     7
100
AcDbPolyline
 90
        3
 70
   128
 43
0.0
 10
6282.3028564453
 20
5235.8133329732
 10
6282.376308345
 20
5235.831484096
 10
6282.4303853929
 20
5235.8486114723
  0
LWPOLYLINE
  5
1EF
330
1F
100
AcDbEntity
  8
0
  6
Continuous
 62
     7
100
AcDbPolyline
 90
        3
 70
   128
 43
0.0
 10
6282.4287414551
 20
5235.8486114723
 10
6282.46418429
 20
5235.8603330125
 10
6282.490536724
 20
5235.8701101226
  0
LWPOLYLINE
  5
1F0
330
1F
100
AcDbEntity
  8
0
  6
Continuous
 62
     7
100
AcDbPolyline
 90
        3
 70
   128
 43
0.0
 10
6282.4897766113
 20
5235.8701101226
 10
6282.6064279506
 20
5235.9198702606
 10
6282.6958644807
 20
5235.9625420255
  0
LWPOLYLINE
  5
1F1
330
1F
100
AcDbEntity
  8
0
  6
Continuous
 62
     7
100
AcDbPolyline
 90
        3
 70
   128
 43
0.0
 10
6282.6957702637
 20
5235.9625420255
 10
6283.3884818599
 20
5236.6718403966
 10
6283.6012357518
 20
5237.4318076951
  0
LWPOLYLINE
  5
1F2
330
1F
100
AcDbEntity
  8
0
  6
Continuous
 62
     7
100
AcDbPolyline
 90
        3
 70
   128
 43
0.0
 10
6283.5998535156
 20
5237.4318076951
 10
6283.6115911526
 20
5237.5566707014
 10
6283.6150854498
 20
5237.6550494415
  0
LWPOLYLINE
  5
1F3
330
1F
100
AcDbEntity
  8
0
  6
Continuous
 62
     7
100
AcDbPolyline
 90
        3
 70
   128
 43
0.0
 10
6284.5573425293
 20
5241.5348796827
 10
6284.5258233349
 20
5241.529225128
 10
6284.4990968376
 20
5241.5278165323
  0
LWPOLYLINE
  5
1F4
330
1F
100
AcDbEntity
  8
0
  6
Continuous
 62
     7
100
AcDbPolyline
 90
        3
 70
   128
 43
0.0
 10
6284.5115661621
 20
5241.6662408692
 10
6284.5524500434
 20
5241.6617272042
 10
6284.5804012984
 20
5241.6484637839
  0
LWPOLYLINE
  5
1F5
330
1F
100
AcDbEntity
  8
0
  6
Continuous
 62
     7
100
AcDbPolyline
 90
        3
 70
   128
 43
0.0
 10
6284.5802307129
 20
5241.6484637839
 10
6284.5977978331
 20
5241.6230346233
 10
6284.6016913325
 20
5241.5990962369
  0
LWPOLYLINE
  5
1F6
330
1F
100
AcDbEntity
  8
0
  6
Continuous
 62
     7
100
AcDbPolyline
 90
        3
 70
   128
 43
0.0
 10
6284.5268249512
 20
5241.4392105025
 10
6284.5522990851
 20
5241.4081376062
 10
6284.5701343983
 20
5241.382470606
  0
LWPOLYLINE
  5
1F7
330
1F
100
AcDbEntity
  8
0
  6
Continuous
 62
     7
100
AcDbPolyline
 90
        3
 70
   128
 43
0.0
 10
6284.5916748047
 20
5241.7017950398
 10
6284.5475697621
 20
5241.7134017191
 10
6284.5094317242
 20
5241.7157835049
  0
LWPOLYLINE
  5
1F8
330
1F
100
AcDbEntity
  8
0
  6
Continuous
 62
     7
100
AcDbPolyline
 90
        3
 70
   128
 43
0.0
 10
6284.6412658691
 20
5241.6627279204
 10
6284.6194061499
 20
5241.6883890477
 10
6284.5946635723
 20
5241.7017950398
  0
LWPOLYLINE
  5
1F9
330
1F
100
AcDbEntity
  8
0
  6
Continuous
 62
     7
100
AcDbPolyline
 90
        3
 70
   128
 43
0.0
 10
6284.6603393555
 20
5241.5991670174
 10
6284.6561331902
 20
5241.6359307793
 10
6284.644411099
 20
5241.6627279204
  0
LWPOLYLINE
  5
1FA
330
1F
100
AcDbEntity
  8
0
  6
Continuous
 62
     7
100
AcDbPolyline
 90
        3
 70
   128
 43
0.0
 10
6284.6298217773
 20
5241.5208241624
 10
6284.6562215824
 20
5241.561620755
 10
6284.6620494172
 20
5241.5991670174
  0
LWPOLYLINE
  5
1FB
330
1F
100
AcDbEntity
  8
0
  6
Continuous
 62
     7
100
AcDbPolyline
 90
        3
 70
   128
 43
0.0
 10
6284.538269043
 20
5241.481961934
 10
6284.5943940218
 20
5241.4974279485
 10
6284.6304235652
 20
5241.5208241624
  0
LWPOLYLINE
  5
1FC
330
1F
100
AcDbEntity
  8
0
  6
Continuous
 62
     7
100
AcDbPolyline
 90
        3
 70
   128
 43
0.0
 10
6284.6221923828
 20
5241.411062209
 10
6284.5987271663
 20
5241.4419444656
 10
6284.5770932406
 20
5241.4641177935
  0
LWPOLYLINE
  5
1FD
330
1F
100
AcDbEntity
  8
0
  6
Continuous
 62
     7
100
AcDbPolyline
 90
        3
 70
   128
 43
0.0
 10
6284.4848632812
 20
5241.0917042476
 10
6284.1711511867
 20
5241.2372592494
 10
6284.0774172589
 20
5241.4953320009
  0
LWPOLYLINE
  5
1FE
330
1F
100
AcDbEntity
  8
0
  6
Continuous
 62
     7
100
AcDbPolyline
 90
        3
 70
   128
 43
0.0
 10
6284.0766906738
 20
5241.4953320009
 10
6284.2240554118
 20
5241.8122501036
 10
6284.4841444537
 20
5241.9069505018
  0
LWPOLYLINE
  5
1FF
330
1F
100
AcDbEntity
  8
0
  6
Continuous
 62
     7
100
AcDbPolyline
 90
        3
 70
   128
 43
0.0
 10
6284.481048584
 20
5241.9069505018
 10
6284.7991905919
 20
5241.7570907283
 10
6284.8927333623
 20
5241.4965352697
  0
LWPOLYLINE
  5
200
330
1F
100
AcDbEntity
  8
0
  6
Continuous
 62
     7
100
AcDbPolyline
 90
        3
 70
   128
 43
0.0
 10
6284.8892211914
 20
5241.4965352697
 10
6284.7432773837
 20
5241.1849160094
 10
6284.4853849754
 20
5241.0917042476
  0
LWPOLYLINE
  5
201
330
1F
100
AcDbEntity
  8
0
  6
Continuous
 62
     7
100
AcDbPolyline
 90
        3
 70
   128
 43
0.0
 10
6280.7846069336
 20
5240.2742861492
 10
6280.4861262438
 20
5240.1377816355
 10
6280.2549457781
 20
5240.0221734029
  0
LWPOLYLINE
  5
202
330
1F
100
AcDbEntity
  8
0
  6
Continuous
 62
     7
100
AcDbPolyline
 90
        3
 70
   128
 43
0.0
 10
6280.2543640137
 20
5240.0221734029
 10
6280.2788535943
 20
5240.0785522633
 10
6280.3082071848
 20
5240.1170863492
  0
LWPOLYLINE
  5
203
330
1F
100
AcDbEntity
  8
0
  6
Continuous
 62
     7
100
AcDbPolyline
 90
        3
 70
   128
 43
0.0
 10
6280.3039550781
 20
5240.1158122999
 10
6280.568757596
 20
5240.3423705993
 10
6280.7850080214
 20
5240.5082418305
  0
LWPOLYLINE
  5
204
330
1F
100
AcDbEntity
  8
0
  6
Continuous
 62
     7
100
AcDbPolyline
 90
        3
 70
   128
 43
0.0
 10
6281.8717956543
 20
5240.5595390779
 10
6282.1213700951
 20
5240.5847296909
 10
6282.2989897475
 20
5240.662893532
  0
LWPOLYLINE
  5
205
330
1F
100
AcDbEntity
  8
0
  6
Continuous
 62
     7
100
AcDbPolyline
 90
        3
 70
   128
 43
0.0
 10
6282.6881408691
 20
5240.6634448749
 10
6283.1284985524
 20
5240.3890055014
 10
6283.4036938518
 20
5240.0890758914
  0
LWPOLYLINE
  5
206
330
1F
100
AcDbEntity
  8
0
  6
Continuous
 62
     7
100
AcDbPolyline
 90
        3
 70
   128
 43
0.0
 10
6282.6881408691
 20
5240.3410172743
 10
6282.5746143982
 20
5240.3743178859
 10
6282.4837157175
 20
5240.3974479717
  0
LWPOLYLINE
  5
207
330
1F
100
AcDbEntity
  8
0
  6
Continuous
 62
     7
100
AcDbPolyline
 90
        3
 70
   128
 43
0.0
 10
6282.299041748
 20
5240.4290049059
 10
6282.0595205971
 20
5240.454775996
 10
6281.870075655
 20
5240.4603196961
  0
LWPOLYLINE
  5
208
330
1F
100
AcDbEntity
  8
0
  6
Continuous
 62
     7
100
AcDbPolyline
 90
        3
 70
   128
 43
0.0
 10
6282.4821472168
 20
5240.7625226957
 10
6282.5985392154
 20
5240.7075298254
 10
6282.6887678027
 20
5240.6634448749
  0
LWPOLYLINE
  5
209
330
1F
100
AcDbEntity
  8
0
  6
Continuous
 62
     7
100
AcDbPolyline
 90
        3
 70
   128
 43
0.0
 10
6282.2952270508
 20
5240.662893532
 10
6282.3696392046
 20
5240.7190923142
 10
6282.4228752077
 20
5240.7659685892
  0
LWPOLYLINE
  5
20A
330
1F
100
AcDbEntity
  8
0
  6
Continuous
 62
     7
100
AcDbPolyline
 90
        3
 70
   128
 43
0.0
 10
6283.4053039551
 20
5239.9533076865
 10
6283.0271892593
 20
5240.2102577737
 10
6282.6892502278
 20
5240.3410172743
  0
LWPOLYLINE
  5
20B
330
1F
100
AcDbEntity
  8
0
  6
Continuous
 62
     7
100
AcDbPolyline
 90
        3
 70
   128
 43
0.0
 10
6282.4821472168
 20
5240.3974479717
 10
6282.4499902953
 20
5240.403561341
 10
6282.4234265506
 20
5240.4079905433
  0
LWPOLYLINE
  5
20C
330
1F
100
AcDbEntity
  8
0
  6
Continuous
 62
     7
100
AcDbPolyline
 90
        3
 70
   128
 43
0.0
 10
6282.4211120605
 20
5240.4079905433
 10
6282.3541967032
 20
5240.4213301489
 10
6282.2993343368
 20
5240.4290049059
  0
LWPOLYLINE
  5
20D
330
1F
100
AcDbEntity
  8
0
  6
Continuous
 62
     7
100
AcDbPolyline
 90
        3
 70
   128
 43
0.0
 10
6282.4401855469
 20
5240.7801619453
 10
6282.4652177985
 20
5240.7723082739
 10
6282.4831643745
 20
5240.7625226957
  0
LWPOLYLINE
  5
20E
330
1F
100
AcDbEntity
  8
0
  6
Continuous
 62
     7
100
AcDbPolyline
 90
        3
 70
   128
 43
0.0
 10
6280.7846069336
 20
5240.5082418305
 10
6281.0628706
 20
5240.6914048416
 10
6281.2919194482
 20
5240.8175415081
  0
LWPOLYLINE
  5
20F
330
1F
100
AcDbEntity
  8
0
  6
Continuous
 62
     7
100
AcDbPolyline
 90
        3
 70
   128
 43
0.0
 10
6283.4014892578
 20
5240.0890758914
 10
6283.420199855
 20
5240.0126743461
 10
6283.4083104178
 20
5239.9533076865
  0
LWPOLYLINE
  5
210
330
1F
100
AcDbEntity
  8
0
  6
Continuous
 62
     7
100
AcDbPolyline
 90
        3
 70
   128
 43
0.0
 10
6281.494140625
 20
5240.4454371614
 10
6281.0905402446
 20
5240.3761844211
 10
6280.7854215287
 20
5240.2742861492
  0
LWPOLYLINE
  5
211
330
1F
100
AcDbEntity
  8
0
  6
Continuous
 62
     7
100
AcDbPolyline
 90
        3
 70
   128
 43
0.0
 10
6281.8298339844
 20
5240.4602526409
 10
6281.6421963262
 20
5240.4562659038
 10
6281.4942157499
 20
5240.4454371614
  0
LWPOLYLINE
  5
212
330
1F
100
AcDbEntity
  8
0
  6
Continuous
 62
     7
100
AcDbPolyline
 90
        3
 70
   128
 43
0.0
 10
6281.4903259277
 20
5240.6653037948
 10
6281.6770821996
 20
5240.5893754475
 10
6281.8308702342
 20
5240.5630520267
  0
LWPOLYLINE
  5
213
330
1F
100
AcDbEntity
  8
0
  6
Continuous
 62
     7
100
AcDbPolyline
 90
        3
 70
   128
 43
0.0
 10
6281.2881469727
 20
5240.8175415081
 10
6281.3991006814
 20
5240.7243813567
 10
6281.4938711606
 20
5240.6653037948
  0
LWPOLYLINE
  5
214
330
1F
100
AcDbEntity
  8
0
  6
Continuous
 62
     7
100
AcDbPolyline
 90
        3
 70
   128
 43
0.0
 10
6283.5388183594
 20
5241.8877280039
 10
6283.4040814289
 20
5241.1917939992
 10
6283.1531671479
 20
5240.6925878209
  0
LWPOLYLINE
  5
215
330
1F
100
AcDbEntity
  8
0
  6
Continuous
 62
     7
100
AcDbPolyline
 90
        3
 70
   128
 43
0.0
 10
6282.6843261719
 20
5241.3831225318
 10
6282.580677004
 20
5241.2918284395
 10
6282.5001144454
 20
5241.2162444276
  0
LWPOLYLINE
  5
216
330
1F
100
AcDbEntity
  8
0
  6
Continuous
 62
     7
100
AcDbPolyline
 90
        3
 70
   128
 43
0.0
 10
6282.4821472168
 20
5241.2269918901
 10
6282.4483835841
 20
5241.2421361972
 10
6282.4221171111
 20
5241.2551401836
  0
LWPOLYLINE
  5
217
330
1F
100
AcDbEntity
  8
0
  6
Continuous
 62
     7
100
AcDbPolyline
 90
        3
 70
   128
 43
0.0
 10
6282.4211120605
 20
5241.294207303
 10
6282.4562853134
 20
5241.3254783531
 10
6282.4822693735
 20
5241.3510142547
  0
LWPOLYLINE
  5
218
330
1F
100
AcDbEntity
  8
0
  6
Continuous
 62
     7
100
AcDbPolyline
 90
        3
 70
   128
 43
0.0
 10
6282.4821472168
 20
5241.3510142547
 10
6282.5958756836
 20
5241.4459853986
 10
6282.6873903766
 20
5241.5178253037
  0
LWPOLYLINE
  5
219
330
1F
100
AcDbEntity
  8
0
  6
Continuous
 62
     7
100
AcDbPolyline
 90
        3
 70
   128
 43
0.0
 10
6283.1497192383
 20
5240.6925878209
 10
6283.1160817551
 20
5240.7539239179
 10
6283.0819908202
 20
5240.798766045
  0
LWPOLYLINE
  5
21A
330
1F
100
AcDbEntity
  8
0
  6
Continuous
 62
     7
100
AcDbPolyline
 90
        3
 70
   128
 43
0.0
 10
6283.0810546875
 20
5240.798766045
 10
6283.3330741374
 20
5241.3143757613
 10
6283.4176813856
 20
5241.7565717084
  0
LWPOLYLINE
  5
21B
330
1F
100
AcDbEntity
  8
0
  6
Continuous
 62
     7
100
AcDbPolyline
 90
        3
 70
   128
 43
0.0
 10
6283.4167480469
 20
5241.7565717084
 10
6282.9865721376
 20
5241.5896134254
 10
6282.6875961989
 20
5241.3831225318
  0
LWPOLYLINE
  5
21C
330
1F
100
AcDbEntity
  8
0
  6
Continuous
 62
     7
100
AcDbPolyline
 90
        3
 70
   128
 43
0.0
 10
6282.6843261719
 20
5241.5178253037
 10
6283.1407617154
 20
5241.7845554926
 10
6283.5412911743
 20
5241.8877280039
  0
LWPOLYLINE
  5
21D
330
1F
100
AcDbEntity
  8
0
  6
Continuous
 62
     7
100
AcDbPolyline
 90
        3
 70
   128
 43
0.0
 10
6282.2952270508
 20
5241.464188574
 10
6282.366506873
 20
5241.5110714503
 10
6282.4217045352
 20
5241.5460406524
  0
LWPOLYLINE
  5
21E
330
1F
100
AcDbEntity
  8
0
  6
Continuous
 62
     7
100
AcDbPolyline
 90
        3
 70
   128
 43
0.0
 10
6282.1426391602
 20
5241.3435413224
 10
6282.2301193358
 20
5241.4118356686
 10
6282.2978181437
 20
5241.464188574
  0
LWPOLYLINE
  5
21F
330
1F
100
AcDbEntity
  8
0
  6
Continuous
 62
     7
100
AcDbPolyline
 90
        3
 70
   128
 43
0.0
 10
6282.4211120605
 20
5241.5460406524
 10
6282.4556872897
 20
5241.5654112215
 10
6282.4818558663
 20
5241.5815277678
  0
LWPOLYLINE
  5
220
330
1F
100
AcDbEntity
  8
0
  6
Continuous
 62
     7
100
AcDbPolyline
 90
        3
 70
   128
 43
0.0
 10
6282.4783325195
 20
5241.5815277678
 10
6282.5955787955
 20
5241.6399806944
 10
6282.687183623
 20
5241.6812277121
  0
LWPOLYLINE
  5
221
330
1F
100
AcDbEntity
  8
0
  6
Continuous
 62
     7
100
AcDbPolyline
 90
        3
 70
   128
 43
0.0
 10
6282.6843261719
 20
5241.6812277121
 10
6282.8498686819
 20
5241.7396141446
 10
6282.9813250944
 20
5241.773659615
  0
LWPOLYLINE
  5
222
330
1F
100
AcDbEntity
  8
0
  6
Continuous
 62
     7
100
AcDbPolyline
 90
        3
 70
   128
 43
0.0
 10
6282.9780578613
 20
5241.773659615
 10
6282.8124114912
 20
5241.6788699826
 10
6282.6872525409
 20
5241.5923087579
  0
LWPOLYLINE
  5
223
330
1F
100
AcDbEntity
  8
0
  6
Continuous
 62
     7
100
AcDbPolyline
 90
        3
 70
   128
 43
0.0
 10
6282.4783325195
 20
5241.4255312366
 10
6282.4483177765
 20
5241.3917331544
 10
6282.4219802067
 20
5241.3650027198
  0
LWPOLYLINE
  5
224
330
1F
100
AcDbEntity
  8
0
  6
Continuous
 62
     7
100
AcDbPolyline
 90
        3
 70
   128
 43
0.0
 10
6282.4211120605
 20
5241.3650027198
 10
6282.3801109351
 20
5241.3194273776
 10
6282.3474278346
 20
5241.2834225875
  0
LWPOLYLINE
  5
225
330
1F
100
AcDbEntity
  8
0
  6
Continuous
 62
     7
100
AcDbPolyline
 90
        3
 70
   128
 43
0.0
 10
6282.3448181152
 20
5241.2834225875
 10
6282.3199296141
 20
5241.2936239911
 10
6282.2980938151
 20
5241.3009910566
  0
LWPOLYLINE
  5
226
330
1F
100
AcDbEntity
  8
0
  6
Continuous
 62
     7
100
AcDbPolyline
 90
        3
 70
   128
 43
0.0
 10
6282.2952270508
 20
5241.3009910566
 10
6282.2129733252
 20
5241.3264912885
 10
6282.1452693686
 20
5241.3435413224
  0
LWPOLYLINE
  5
227
330
1F
100
AcDbEntity
  8
0
  6
Continuous
 62
     7
100
AcDbPolyline
 90
        3
 70
   128
 43
0.0
 10
6282.6843261719
 20
5241.5923087579
 10
6282.5694631277
 20
5241.5024278621
 10
6282.4820626199
 20
5241.4255312366
  0
LWPOLYLINE
  5
228
330
1F
100
AcDbEntity
  8
0
  6
Continuous
 62
     7
100
AcDbPolyline
 90
        3
 70
   128
 43
0.0
 10
6281.0668945312
 20
5239.7995165271
 10
6280.9132722373
 20
5239.8783270487
 10
6280.7859039538
 20
5239.9304642064
  0
LWPOLYLINE
  5
229
330
1F
100
AcDbEntity
  8
0
  6
Continuous
 62
     7
100
AcDbPolyline
 90
        3
 70
   128
 43
0.0
 10
6280.7846069336
 20
5239.9304642064
 10
6280.5433461909
 20
5240.0006220561
 10
6280.3465166733
 20
5240.0254106802
  0
LWPOLYLINE
  5
22A
330
1F
100
AcDbEntity
  8
0
  6
Continuous
 62
     7
100
AcDbPolyline
 90
        3
 70
   128
 43
0.0
 10
6280.345916748
 20
5240.0254106802
 10
6280.5931126633
 20
5240.0460214286
 10
6280.785766118
 20
5240.0153188688
  0
LWPOLYLINE
  5
22B
330
1F
100
AcDbEntity
  8
0
  6
Continuous
 62
     7
100
AcDbPolyline
 90
        3
 70
   128
 43
0.0
 10
6282.356262207
 20
5239.8370339257
 10
6282.3947444141
 20
5239.8544903176
 10
6282.4243224829
 20
5239.8689335865
  0
LWPOLYLINE
  5
22C
330
1F
100
AcDbEntity
  8
0
  6
Continuous
 62
     7
100
AcDbPolyline
 90
        3
 70
   128
 43
0.0
 10
6282.4821472168
 20
5239.893911658
 10
6282.5981641492
 20
5239.9373919447
 10
6282.6897326529
 20
5239.9651578349
  0
LWPOLYLINE
  5
22D
330
1F
100
AcDbEntity
  8
0
  6
Continuous
 62
     7
100
AcDbPolyline
 90
        3
 70
   128
 43
0.0
 10
6282.4821472168
 20
5239.7343015951
 10
6282.4519008576
 20
5239.7110746555
 10
6282.4245292365
 20
5239.6954393667
  0
LWPOLYLINE
  5
22E
330
1F
100
AcDbEntity
  8
0
  6
Continuous
 62
     7
100
AcDbPolyline
 90
        3
 70
   128
 43
0.0
 10
6282.299041748
 20
5239.6100706143
 10
6282.1087640236
 20
5239.5094252974
 10
6281.9390466109
 20
5239.4995859546
  0
LWPOLYLINE
  5
22F
330
1F
100
AcDbEntity
  8
0
  6
Continuous
 62
     7
100
AcDbPolyline
 90
        3
 70
   128
 43
0.0
 10
6281.7840576172
 20
5239.5029647929
 10
6281.6199972328
 20
5239.5328369218
 10
6281.4955936417
 20
5239.5804433805
  0
LWPOLYLINE
  5
230
330
1F
100
AcDbEntity
  8
0
  6
Continuous
 62
     7
100
AcDbPolyline
 90
        3
 70
   128
 43
0.0
 10
6282.299041748
 20
5239.9114838523
 10
6282.3318728396
 20
5239.8698232491
 10
6282.3566609666
 20
5239.8370339257
  0
LWPOLYLINE
  5
231
330
1F
100
AcDbEntity
  8
0
  6
Continuous
 62
     7
100
AcDbPolyline
 90
        3
 70
   128
 43
0.0
 10
6282.0320129395
 20
5239.6307422501
 10
6282.0707139658
 20
5239.6458313156
 10
6282.083947365
 20
5239.6734936816
  0
LWPOLYLINE
  5
232
330
1F
100
AcDbEntity
  8
0
  6
Continuous
 62
     7
100
AcDbPolyline
 90
        3
 70
   128
 43
0.0
 10
6282.0816040039
 20
5239.6734936816
 10
6282.0638362993
 20
5239.7064919924
 10
6282.0343376741
 20
5239.7160439474
  0
LWPOLYLINE
  5
233
330
1F
100
AcDbEntity
  8
0
  6
Continuous
 62
     7
100
AcDbPolyline
 90
        3
 70
   128
 43
0.0
 10
6282.6881408691
 20
5239.9651578349
 10
6283.038703009
 20
5240.0107543587
 10
6283.3137085333
 20
5239.9804203493
  0
LWPOLYLINE
  5
234
330
1F
100
AcDbEntity
  8
0
  6
Continuous
 62
     7
100
AcDbPolyline
 90
        3
 70
   128
 43
0.0
 10
6282.4211120605
 20
5239.8689335865
 10
6282.4576921803
 20
5239.8835935247
 10
6282.4844048962
 20
5239.893911658
  0
LWPOLYLINE
  5
235
330
1F
100
AcDbEntity
  8
0
  6
Continuous
 62
     7
100
AcDbPolyline
 90
        3
 70
   128
 43
0.0
 10
6283.3099365234
 20
5239.9804203493
 10
6282.9572657535
 20
5239.9297039755
 10
6282.6899394065
 20
5239.8376187963
  0
LWPOLYLINE
  5
236
330
1F
100
AcDbEntity
  8
0
  6
Continuous
 62
     7
100
AcDbPolyline
 90
        3
 70
   128
 43
0.0
 10
6282.6881408691
 20
5239.8376187963
 10
6282.5741809514
 20
5239.781293962
 10
6282.4846116498
 20
5239.7343015951
  0
LWPOLYLINE
  5
237
330
1F
100
AcDbEntity
  8
0
  6
Continuous
 62
     7
100
AcDbPolyline
 90
        3
 70
   128
 43
0.0
 10
6281.7077636719
 20
5239.7154553515
 10
6281.6731227161
 20
5239.6992687629
 10
6281.658477769
 20
5239.6728417558
  0
LWPOLYLINE
  5
238
330
1F
100
AcDbEntity
  8
0
  6
Continuous
 62
     7
100
AcDbPolyline
 90
        3
 70
   128
 43
0.0
 10
6281.494140625
 20
5239.5804433805
 10
6281.2557487204
 20
5239.7005078828
 10
6281.0697110042
 20
5239.7995165271
  0
LWPOLYLINE
  5
239
330
1F
100
AcDbEntity
  8
0
  6
Continuous
 62
     7
100
AcDbPolyline
 90
        3
 70
   128
 43
0.0
 10
6282.4211120605
 20
5239.6954393667
 10
6282.3551668349
 20
5239.6476133365
 10
6282.3006437764
 20
5239.6100706143
  0
LWPOLYLINE
  5
23A
330
1F
100
AcDbEntity
  8
0
  6
Continuous
 62
     7
100
AcDbPolyline
 90
        6
 70
   128
 43
0.0
 10
6281.9366455078
 20
5239.4995859546
 10
6281.9218995903
 20
5239.5098607341
 10
6281.9132345829
 20
5239.5285609865
 10
6281.9090026537
 20
5239.5695874721
 10
6281.9194705106
 20
5239.6093686305
 10
6281.9528264597
 20
5239.6306044144
  0
LWPOLYLINE
  5
23B
330
1F
100
AcDbEntity
  8
0
  6
Continuous
 62
     7
100
AcDbPolyline
 90
        7
 70
   128
 43
0.0
 10
6281.7840576172
 20
5239.6302952153
 10
6281.8048897128
 20
5239.6230173542
 10
6281.8162778634
 20
5239.6062889453
 10
6281.8236357236
 20
5239.56669139
 10
6281.816406078
 20
5239.5270699974
 10
6281.8050718785
 20
5239.5103052183
 10
6281.7866352059
 20
5239.5029647929
  0
LWPOLYLINE
  5
23C
330
1F
100
AcDbEntity
  8
0
  6
Continuous
 62
     7
100
AcDbPolyline
 90
        3
 70
   128
 43
0.0
 10
6281.6581726074
 20
5239.6728417558
 10
6281.6778265242
 20
5239.6385512376
 10
6281.7083626658
 20
5239.6301573795
  0
LWPOLYLINE
  5
23D
330
1F
100
AcDbEntity
  8
0
  6
Continuous
 62
     7
100
AcDbPolyline
 90
        3
 70
   128
 43
0.0
 10
6280.7846069336
 20
5240.0153188688
 10
6281.1408066199
 20
5239.905851252
 10
6281.41015504
 20
5239.7930755002
  0
LWPOLYLINE
  5
23E
330
1F
100
AcDbEntity
  8
0
  6
Continuous
 62
     7
100
AcDbPolyline
 90
        3
 70
   128
 43
0.0
 10
6281.4064025879
 20
5239.7930755002
 10
6281.4575682025
 20
5239.8626711022
 10
6281.4950422987
 20
5239.9172021729
  0
LWPOLYLINE
  5
23F
330
1F
100
AcDbEntity
  8
0
  6
Continuous
 62
     7
100
AcDbPolyline
 90
        3
 70
   128
 43
0.0
 10
6281.494140625
 20
5239.9172021729
 10
6281.6620072157
 20
5240.0857132603
 10
6281.8314211115
 20
5240.1588394028
  0
LWPOLYLINE
  5
240
330
1F
100
AcDbEntity
  8
0
  6
Continuous
 62
     7
100
AcDbPolyline
 90
        3
 70
   128
 43
0.0
 10
6281.8298339844
 20
5240.1588394028
 10
6282.1223970568
 20
5240.0765622986
 10
6282.3002302691
 20
5239.9114838523
  0
LWPOLYLINE
  5
241
330
1F
100
AcDbEntity
  8
0
  6
Continuous
 62
     7
100
AcDbPolyline
 90
        3
 70
   128
 43
0.0
 10
6280.3497314453
 20
5240.223953752
 10
6280.5490545262
 20
5240.6525176399
 10
6280.7844571441
 20
5240.93729469
  0
LWPOLYLINE
  5
242
330
1F
100
AcDbEntity
  8
0
  6
Continuous
 62
     7
100
AcDbPolyline
 90
        3
 70
   128
 43
0.0
 10
6280.7846069336
 20
5240.5757664425
 10
6280.5385153253
 20
5240.3843366837
 10
6280.3530620083
 20
5240.223953752
  0
LWPOLYLINE
  5
243
330
1F
100
AcDbEntity
  8
0
  6
Continuous
 62
     7
100
AcDbPolyline
 90
        3
 70
   128
 43
0.0
 10
6281.4903259277
 20
5241.2821485383
 10
6281.6769440478
 20
5241.3090160524
 10
6281.8227397881
 20
5241.3182167989
  0
LWPOLYLINE
  5
244
330
1F
100
AcDbEntity
  8
0
  6
Continuous
 62
     7
100
AcDbPolyline
 90
        3
 70
   128
 43
0.0
 10
6281.8260192871
 20
5241.3182167989
 10
6282.0952839928
 20
5241.301766803
 10
6282.298162733
 20
5241.2515229267
  0
LWPOLYLINE
  5
245
330
1F
100
AcDbEntity
  8
0
  6
Continuous
 62
     7
100
AcDbPolyline
 90
        3
 70
   128
 43
0.0
 10
6282.2952270508
 20
5241.2515229267
 10
6282.3682543686
 20
5241.2274700175
 10
6282.422186029
 20
5241.2055304927
  0
LWPOLYLINE
  5
246
330
1F
100
AcDbEntity
  8
0
  6
Continuous
 62
     7
100
AcDbPolyline
 90
        3
 70
   128
 43
0.0
 10
6282.4211120605
 20
5241.2055304927
 10
6282.4567009946
 20
5241.1912312594
 10
6282.4825441137
 20
5241.177315144
  0
LWPOLYLINE
  5
247
330
1F
100
AcDbEntity
  8
0
  6
Continuous
 62
     7
100
AcDbPolyline
 90
        3
 70
   128
 43
0.0
 10
6281.3110351562
 20
5240.8775894624
 10
6281.0085708973
 20
5240.7235523245
 10
6280.7849391036
 20
5240.5757664425
  0
LWPOLYLINE
  5
248
330
1F
100
AcDbEntity
  8
0
  6
Continuous
 62
     7
100
AcDbPolyline
 90
        3
 70
   128
 43
0.0
 10
6280.7807922363
 20
5240.93729469
 10
6281.1576028606
 20
5241.1810305419
 10
6281.4929752283
 20
5241.2821485383
  0
LWPOLYLINE
  5
249
330
1F
100
AcDbEntity
  8
0
  6
Continuous
 62
     7
100
AcDbPolyline
 90
        3
 70
   128
 43
0.0
 10
6282.4821472168
 20
5240.8227792663
 10
6282.4553942674
 20
5240.8350299075
 10
6282.4333488613
 20
5240.8438644094
  0
LWPOLYLINE
  5
24A
330
1F
100
AcDbEntity
  8
0
  6
Continuous
 62
     7
100
AcDbPolyline
 90
        3
 70
   128
 43
0.0
 10
6282.4821472168
 20
5241.177315144
 10
6282.5999902272
 20
5241.1181231133
 10
6282.6881475419
 20
5241.0642116052
  0
LWPOLYLINE
  5
24B
330
1F
100
AcDbEntity
  8
0
  6
Continuous
 62
     7
100
AcDbPolyline
 90
        3
 70
   128
 43
0.0
 10
6282.6881408691
 20
5241.0642116052
 10
6283.0825711825
 20
5240.6970042912
 10
6283.2742279068
 20
5240.3205542547
  0
LWPOLYLINE
  5
24C
330
1F
100
AcDbEntity
  8
0
  6
Continuous
 62
     7
100
AcDbPolyline
 90
        3
 70
   128
 43
0.0
 10
6283.2717895508
 20
5240.3205542547
 10
6282.9645491157
 20
5240.5764274043
 10
6282.688629967
 20
5240.7309657616
  0
LWPOLYLINE
  5
24D
330
1F
100
AcDbEntity
  8
0
  6
Continuous
 62
     7
100
AcDbPolyline
 90
        3
 70
   128
 43
0.0
 10
6282.6881408691
 20
5240.7309657616
 10
6282.5741937654
 20
5240.7839602277
 10
6282.4830265388
 20
5240.8227792663
  0
LWPOLYLINE
  5
24E
330
1F
100
AcDbEntity
  8
0
  6
Continuous
 62
     7
100
AcDbPolyline
 90
        3
 70
   128
 43
0.0
 10
6282.4211120605
 20
5240.8333553654
 10
6282.3558839712
 20
5240.7726289992
 10
6282.2988519117
 20
5240.7304144186
  0
LWPOLYLINE
  5
24F
330
1F
100
AcDbEntity
  8
0
  6
Continuous
 62
     7
100
AcDbPolyline
 90
        3
 70
   128
 43
0.0
 10
6282.2952270508
 20
5240.7304144186
 10
6282.0692484575
 20
5240.6323232087
 10
6281.8734516993
 20
5240.6127995533
  0
LWPOLYLINE
  5
250
330
1F
100
AcDbEntity
  8
0
  6
Continuous
 62
     7
100
AcDbPolyline
 90
        3
 70
   128
 43
0.0
 10
6281.8298339844
 20
5240.6162454468
 10
6281.6347850726
 20
5240.6588832484
 10
6281.4938022427
 20
5240.7291403693
  0
LWPOLYLINE
  5
251
330
1F
100
AcDbEntity
  8
0
  6
Continuous
 62
     7
100
AcDbPolyline
 90
        3
 70
   128
 43
0.0
 10
6281.4903259277
 20
5240.7291403693
 10
6281.3874690076
 20
5240.8064029745
 10
6281.3127279885
 20
5240.8775894624
  0
LWPOLYLINE
  5
252
330
1F
100
AcDbEntity
  8
0
  6
Continuous
 62
     7
100
AcDbPolyline
 90
        3
 70
   128
 43
0.0
 10
6282.299041748
 20
5240.3687483353
 10
6282.3909013391
 20
5240.324912887
 10
6282.4164677083
 20
5240.2483096999
  0
LWPOLYLINE
  5
253
330
1F
100
AcDbEntity
  8
0
  6
Continuous
 62
     7
100
AcDbPolyline
 90
        3
 70
   128
 43
0.0
 10
6282.2952270508
 20
5240.1276624483
 10
6282.2051297521
 20
5240.1720461115
 10
6282.1786870852
 20
5240.2479632479
  0
LWPOLYLINE
  5
254
330
1F
100
AcDbEntity
  8
0
  6
Continuous
 62
     7
100
AcDbPolyline
 90
        3
 70
   128
 43
0.0
 10
6282.1769714355
 20
5240.2479632479
 10
6282.2204560768
 20
5240.3404147983
 10
6282.2956137031
 20
5240.3686812801
  0
LWPOLYLINE
  5
255
330
1F
100
AcDbEntity
  8
0
  6
Continuous
 62
     7
100
AcDbPolyline
 90
        3
 70
   128
 43
0.0
 10
6282.413482666
 20
5240.2483096999
 10
6282.3742756982
 20
5240.1568894104
 10
6282.2998167619
 20
5240.1277295035
  0
LWPOLYLINE
  5
256
330
1F
100
AcDbEntity
  8
0
  6
Continuous
 62
     7
100
AcDbPolyline
 90
        5
 70
   128
 43
0.0
 10
6282.3371887207
 20
5240.2410751862
 10
6282.3259407181
 20
5240.2741456252
 10
6282.2922939283
 20
5240.2863001744
 10
6282.2586854867
 20
5240.2740336641
 10
6282.2463486016
 20
5240.2409373504
  0
LWPOLYLINE
  5
257
330
1F
100
AcDbEntity
  8
0
  6
Continuous
 62
     7
100
AcDbPolyline
 90
        5
 70
   128
 43
0.0
 10
6282.2456359863
 20
5240.2409373504
 10
6282.2588180656
 20
5240.2079373052
 10
6282.2924417133
 20
5240.1958128791
 10
6282.3260316397
 20
5240.2080185986
 10
6282.3383325383
 20
5240.2410751862
  0
LWPOLYLINE
  5
258
330
1F
100
AcDbEntity
  8
0
  6
Continuous
 62
     7
100
AcDbPolyline
 90
        5
 70
   128
 43
0.0
 10
6281.6123962402
 20
5240.2470356506
 10
6281.5788262455
 20
5240.162841672
 10
6281.4946773409
 20
5240.1264553833
 10
6281.4104557801
 20
5240.1627058084
 10
6281.3738437042
 20
5240.2467599792
  0
LWPOLYLINE
  5
259
330
1F
100
AcDbEntity
  8
0
  6
Continuous
 62
     7
100
AcDbPolyline
 90
        5
 70
   128
 43
0.0
 10
6281.4483642578
 20
5240.2397303564
 10
6281.4628663725
 20
5240.2073736318
 10
6281.4946711164
 20
5240.1946096387
 10
6281.5264356444
 20
5240.2074736729
 10
6281.5371413387
 20
5240.2398681921
  0
LWPOLYLINE
  5
25A
330
1F
100
AcDbEntity
  8
0
  6
Continuous
 62
     7
100
AcDbPolyline
 90
        3
 70
   128
 43
0.0
 10
6281.3720703125
 20
5240.2467599792
 10
6281.4189616135
 20
5240.3369049752
 10
6281.4943535857
 20
5240.3639613372
  0
LWPOLYLINE
  5
25B
330
1F
100
AcDbEntity
  8
0
  6
Continuous
 62
     7
100
AcDbPolyline
 90
        3
 70
   128
 43
0.0
 10
6281.494140625
 20
5240.3639613372
 10
6281.5861826107
 20
5240.3215921679
 10
6281.6150692895
 20
5240.2470356506
  0
LWPOLYLINE
  5
25C
330
1F
100
AcDbEntity
  8
0
  6
Continuous
 62
     7
100
AcDbPolyline
 90
        5
 70
   128
 43
0.0
 10
6281.5361022949
 20
5240.2398681921
 10
6281.5263420852
 20
5240.2722796426
 10
6281.4945170157
 20
5240.2850932163
 10
6281.4627337095
 20
5240.2721793408
 10
6281.4520473264
 20
5240.2397303564
  0
LWPOLYLINE
  5
25D
330
1F
100
AcDbEntity
  8
0
  6
Continuous
 62
     7
100
AcDbPolyline
 90
        3
 70
   128
 43
0.0
 10
6280.4946899414
 20
5240.6673378033
 10
6280.2291238997
 20
5241.3211469011
 10
6280.1733661115
 20
5241.8721562904
  0
LWPOLYLINE
  5
25E
330
1F
100
AcDbEntity
  8
0
  6
Continuous
 62
     7
100
AcDbPolyline
 90
        3
 70
   128
 43
0.0
 10
6280.1704406738
 20
5241.8721562904
 10
6280.5282186894
 20
5241.7702084692
 10
6280.7834233761
 20
5241.6319644732
  0
LWPOLYLINE
  5
25F
330
1F
100
AcDbEntity
  8
0
  6
Continuous
 62
     7
100
AcDbPolyline
 90
        3
 70
   128
 43
0.0
 10
6281.0935974121
 20
5241.2000170631
 10
6280.9256157715
 20
5241.3635225411
 10
6280.7836301297
 20
5241.4831018728
  0
LWPOLYLINE
  5
260
330
1F
100
AcDbEntity
  8
0
  6
Continuous
 62
     7
100
AcDbPolyline
 90
        3
 70
   128
 43
0.0
 10
6280.7807922363
 20
5241.4831018728
 10
6280.5042658621
 20
5241.664771484
 10
6280.2658324733
 20
5241.7730747444
  0
LWPOLYLINE
  5
261
330
1F
100
AcDbEntity
  8
0
  6
Continuous
 62
     7
100
AcDbPolyline
 90
        3
 70
   128
 43
0.0
 10
6280.2658081055
 20
5241.7730747444
 10
6280.3545523234
 20
5241.1695791282
 10
6280.5404753096
 20
5240.7276614291
  0
LWPOLYLINE
  5
262
330
1F
100
AcDbEntity
  8
0
  6
Continuous
 62
     7
100
AcDbPolyline
 90
        3
 70
   128
 43
0.0
 10
6280.7807922363
 20
5241.6319644732
 10
6281.0361652917
 20
5241.4334802166
 10
6281.213164483
 20
5241.2533110661
  0
LWPOLYLINE
  5
263
330
1F
100
AcDbEntity
  8
0
  6
Continuous
 62
     7
100
AcDbPolyline
 90
        3
 70
   128
 43
0.0
 10
6281.2118530273
 20
5241.2533110661
 10
6281.1469287983
 20
5241.2250285506
 10
6281.0961694129
 20
5241.2000170631
  0
LWPOLYLINE
  5
264
330
1F
100
AcDbEntity
  8
0
  6
Continuous
 62
     7
100
AcDbPolyline
 90
        3
 70
   128
 43
0.0
 10
6280.7807922363
 20
5241.6816412193
 10
6280.6337144758
 20
5241.7617953981
 10
6280.510434103
 20
5241.8125888986
  0
LWPOLYLINE
  5
265
330
1F
100
AcDbEntity
  8
0
  6
Continuous
 62
     7
100
AcDbPolyline
 90
        3
 70
   128
 43
0.0
 10
6280.5099487305
 20
5241.8125888986
 10
6280.6656630429
 20
5241.7731020871
 10
6280.7831477046
 20
5241.7277007085
  0
LWPOLYLINE
  5
266
330
1F
100
AcDbEntity
  8
0
  6
Continuous
 62
     7
100
AcDbPolyline
 90
        3
 70
   128
 43
0.0
 10
6280.7807922363
 20
5241.7277007085
 10
6281.1832823094
 20
5241.5268652858
 10
6281.4785057351
 20
5241.3352711779
  0
LWPOLYLINE
  5
267
330
1F
100
AcDbEntity
  8
0
  6
Continuous
 62
     7
100
AcDbPolyline
 90
        3
 70
   128
 43
0.0
 10
6281.4750671387
 20
5241.3352711779
 10
6281.3478678431
 20
5241.3058790047
 10
6281.2485803522
 20
5241.2711589319
  0
LWPOLYLINE
  5
268
330
1F
100
AcDbEntity
  8
0
  6
Continuous
 62
     7
100
AcDbPolyline
 90
        3
 70
   128
 43
0.0
 10
6281.2461853027
 20
5241.2711589319
 10
6281.0058936524
 20
5241.521651471
 10
6280.7832855403
 20
5241.6816412193
  0
LWPOLYLINE
  5
269
330
1F
100
AcDbEntity
  8
0
  6
Continuous
 62
     7
100
AcDbPolyline
 90
        3
 70
   128
 43
0.0
 10
6282.1273803711
 20
5235.8342802805
 10
6281.9868036045
 20
5235.8111764614
 10
6281.8737273708
 20
5235.805271445
  0
LWPOLYLINE
  5
26A
330
1F
100
AcDbEntity
  8
0
  6
Continuous
 62
     7
100
AcDbPolyline
 90
        3
 70
   128
 43
0.0
 10
6281.8717956543
 20
5235.805271445
 10
6281.8461138316
 20
5236.6091373006
 10
6281.8395515576
 20
5237.2410840077
  0
LWPOLYLINE
  5
26B
330
1F
100
AcDbEntity
  8
0
  6
Continuous
 62
     7
100
AcDbPolyline
 90
        3
 70
   128
 43
0.0
 10
6281.8336486816
 20
5237.2161767167
 10
6281.7923712825
 20
5236.4285017071
 10
6281.8134382039
 20
5235.8088887018
  0
LWPOLYLINE
  5
26C
330
1F
100
AcDbEntity
  8
0
  6
Continuous
 62
     7
100
AcDbPolyline
 90
        3
 70
   128
 43
0.0
 10
6281.810760498
 20
5235.8088887018
 10
6281.6736872783
 20
5235.8187951072
 10
6281.565046557
 20
5235.8366905433
  0
LWPOLYLINE
  5
26D
330
1F
100
AcDbEntity
  8
0
  6
Continuous
 62
     7
100
AcDbPolyline
 90
        3
 70
   128
 43
0.0
 10
6281.5628051758
 20
5235.8366905433
 10
6281.5824210058
 20
5237.405143746
 10
6281.4969715334
 20
5238.6339365226
  0
LWPOLYLINE
  5
26E
330
1F
100
AcDbEntity
  8
0
  6
Continuous
 62
     7
100
AcDbPolyline
 90
        3
 70
   128
 43
0.0
 10
6281.494140625
 20
5239.5024805051
 10
6281.6764481884
 20
5239.3971554544
 10
6281.8326616332
 20
5239.3469012064
  0
LWPOLYLINE
  5
26F
330
1F
100
AcDbEntity
  8
0
  6
Continuous
 62
     7
100
AcDbPolyline
 90
        3
 70
   128
 43
0.0
 10
6281.8565368652
 20
5239.343559621
 10
6282.1181033837
 20
5239.4266980085
 10
6282.3007816121
 20
5239.5428216738
  0
LWPOLYLINE
  5
270
330
1F
100
AcDbEntity
  8
0
  6
Continuous
 62
     7
100
AcDbPolyline
 90
        3
 70
   128
 43
0.0
 10
6282.299041748
 20
5239.5428216738
 10
6282.3699541541
 20
5239.5888344366
 10
6282.4246670723
 20
5239.6244353336
  0
LWPOLYLINE
  5
271
330
1F
100
AcDbEntity
  8
0
  6
Continuous
 62
     7
100
AcDbPolyline
 90
        3
 70
   128
 43
0.0
 10
6282.4211120605
 20
5239.5535356087
 10
6282.349021422
 20
5239.4278140329
 10
6282.3011262014
 20
5239.3228879851
  0
LWPOLYLINE
  5
272
330
1F
100
AcDbEntity
  8
0
  6
Continuous
 62
     7
100
AcDbPolyline
 90
        3
 70
   128
 43
0.0
 10
6282.299041748
 20
5239.3228879851
 10
6282.0711009821
 20
5237.3779078878
 10
6282.1289395586
 20
5235.8342802805
  0
LWPOLYLINE
  5
273
330
1F
100
AcDbEntity
  8
0
  6
Continuous
 62
     7
100
AcDbPolyline
 90
        3
 70
   128
 43
0.0
 10
6282.4821472168
 20
5239.6313606483
 10
6282.4504375223
 20
5239.5883436359
 10
6282.4247359902
 20
5239.5535356087
  0
LWPOLYLINE
  5
274
330
1F
100
AcDbEntity
  8
0
  6
Continuous
 62
     7
100
AcDbPolyline
 90
        3
 70
   128
 43
0.0
 10
6281.494140625
 20
5238.6339365226
 10
6281.3735435524
 20
5239.256170534
 10
6281.1445385821
 20
5239.6935469193
  0
LWPOLYLINE
  5
275
330
1F
100
AcDbEntity
  8
0
  6
Continuous
 62
     7
100
AcDbPolyline
 90
        3
 70
   128
 43
0.0
 10
6282.5317382812
 20
5239.6813167912
 10
6282.5064798987
 20
5239.6534162769
 10
6282.4848184034
 20
5239.6313606483
  0
LWPOLYLINE
  5
276
330
1F
100
AcDbEntity
  8
0
  6
Continuous
 62
     7
100
AcDbPolyline
 90
        3
 70
   128
 43
0.0
 10
6282.4211120605
 20
5239.6244353336
 10
6282.4581062926
 20
5239.6447912032
 10
6282.4847494855
 20
5239.6601608676
  0
LWPOLYLINE
  5
277
330
1F
100
AcDbEntity
  8
0
  6
Continuous
 62
     7
100
AcDbPolyline
 90
        3
 70
   128
 43
0.0
 10
6281.1431884766
 20
5239.6935469193
 10
6281.3483708647
 20
5239.6003439729
 10
6281.4957314774
 20
5239.5024805051
  0
LWPOLYLINE
  5
278
330
1F
100
AcDbEntity
  8
0
  6
Continuous
 62
     7
100
AcDbPolyline
 90
        3
 70
   128
 43
0.0
 10
6282.4821472168
 20
5239.6601608676
 10
6282.512147671
 20
5239.6727348989
 10
6282.5342213407
 20
5239.6813167912
  0
LWPOLYLINE
  5
279
330
1F
100
AcDbEntity
  8
0
  6
Continuous
 62
     7
100
AcDbPolyline
 90
        5
 70
   128
 43
0.0
 10
6278.6178588867
 20
5239.8382744474
 10
6278.7526014973
 20
5239.8060293147
 10
6278.8392294153
 20
5239.6985092403
 10
6278.9138533883
 20
5239.4316144742
 10
6278.9407797761
 20
5238.8744747919
  0
LWPOLYLINE
  5
27A
330
1F
100
AcDbEntity
  8
0
  6
Continuous
 62
     7
100
AcDbPolyline
 90
        4
 70
   128
 43
0.0
 10
6277.9998779297
 20
5238.8659997565
 10
6278.0602464663
 20
5239.4510854472
 10
6278.179317317
 20
5239.7168010919
 10
6278.4320769504
 20
5239.8453375978
  0
LWPOLYLINE
  5
27B
330
1F
100
AcDbEntity
  8
0
  6
Continuous
 62
     7
100
AcDbPolyline
 90
        3
 70
   128
 43
0.0
 10
6282.6919555664
 20
5236.0477729422
 10
6282.5820064121
 20
5235.9893799091
 10
6282.4903998196
 20
5235.9481773061
  0
LWPOLYLINE
  5
27C
330
1F
100
AcDbEntity
  8
0
  6
Continuous
 62
     7
100
AcDbPolyline
 90
        3
 70
   128
 43
0.0
 10
6282.4897766113
 20
5235.9481773061
 10
6282.4569439166
 20
5235.9337107057
 10
6282.430316475
 20
5235.923165707
  0
LWPOLYLINE
  5
27D
330
1F
100
AcDbEntity
  8
0
  6
Continuous
 62
     7
100
AcDbPolyline
 90
        3
 70
   128
 43
0.0
 10
6282.4287414551
 20
5235.923165707
 10
6282.3610269407
 20
5235.8988989736
 10
6282.306362097
 20
5235.8804813308
  0
LWPOLYLINE
  5
27E
330
1F
100
AcDbEntity
  8
0
  6
Continuous
 62
     7
100
AcDbPolyline
 90
        3
 70
   128
 43
0.0
 10
6282.1731567383
 20
5235.8412055952
 10
6282.1217096412
 20
5237.641444946
 10
6282.2659855381
 20
5239.0497944039
  0
LWPOLYLINE
  5
27F
330
1F
100
AcDbEntity
  8
0
  6
Continuous
 62
     7
100
AcDbPolyline
 90
        3
 70
   128
 43
0.0
 10
6282.2647094727
 20
5239.0497944039
 10
6282.2859208156
 20
5239.1035114347
 10
6282.3013329551
 20
5239.1458100361
  0
LWPOLYLINE
  5
280
330
1F
100
AcDbEntity
  8
0
  6
Continuous
 62
     7
100
AcDbPolyline
 90
        3
 70
   128
 43
0.0
 10
6282.299041748
 20
5239.1458100361
 10
6282.3654507038
 20
5239.3108081617
 10
6282.4249427438
 20
5239.436505614
  0
LWPOLYLINE
  5
281
330
1F
100
AcDbEntity
  8
0
  6
Continuous
 62
     7
100
AcDbPolyline
 90
        3
 70
   128
 43
0.0
 10
6282.4249267578
 20
5239.436505614
 10
6282.4571573203
 20
5239.4969517951
 10
6282.4849562392
 20
5239.54303029
  0
LWPOLYLINE
  5
282
330
1F
100
AcDbEntity
  8
0
  6
Continuous
 62
     7
100
AcDbPolyline
 90
        3
 70
   128
 43
0.0
 10
6282.4859619141
 20
5239.5467146021
 10
6282.5477580457
 20
5239.4962637887
 10
6282.5947861791
 20
5239.4563167078
  0
LWPOLYLINE
  5
283
330
1F
100
AcDbEntity
  8
0
  6
Continuous
 62
     7
100
AcDbPolyline
 90
        3
 70
   128
 43
0.0
 10
6282.4821472168
 20
5239.1884273571
 10
6282.4508616698
 20
5239.0675941906
 10
6282.4255630046
 20
5238.9721072001
  0
LWPOLYLINE
  5
284
330
1F
100
AcDbEntity
  8
0
  6
Continuous
 62
     7
100
AcDbPolyline
 90
        3
 70
   128
 43
0.0
 10
6282.3028564453
 20
5236.4653891605
 10
6282.3231811499
 20
5236.3681380698
 10
6282.3372997016
 20
5236.2917533797
  0
LWPOLYLINE
  5
285
330
1F
100
AcDbEntity
  8
0
  6
Continuous
 62
     7
100
AcDbPolyline
 90
        3
 70
   128
 43
0.0
 10
6283.5311889648
 20
5237.3394428474
 10
6283.2023929592
 20
5236.5182061307
 10
6282.695726645
 20
5236.0477729422
  0
LWPOLYLINE
  5
286
330
1F
100
AcDbEntity
  8
0
  6
Continuous
 62
     7
100
AcDbPolyline
 90
        3
 70
   128
 43
0.0
 10
6282.3028564453
 20
5235.8804813308
 10
6282.2328244431
 20
5235.8582103229
 10
6282.1748975337
 20
5235.8412055952
  0
LWPOLYLINE
  5
287
330
1F
100
AcDbEntity
  8
0
  6
Continuous
 62
     7
100
AcDbPolyline
 90
        3
 70
   128
 43
0.0
 10
6282.6919555664
 20
5237.2567600292
 10
6283.1673906548
 20
5237.271599394
 10
6283.5339877427
 20
5237.3394428474
  0
LWPOLYLINE
  5
288
330
1F
100
AcDbEntity
  8
0
  6
Continuous
 62
     7
100
AcDbPolyline
 90
        3
 70
   128
 43
0.0
 10
6282.299041748
 20
5238.3089608235
 10
6282.2374989402
 20
5237.2758515618
 10
6282.3053981781
 20
5236.4653891605
  0
LWPOLYLINE
  5
289
330
1F
100
AcDbEntity
  8
0
  6
Continuous
 62
     7
100
AcDbPolyline
 90
        3
 70
   128
 43
0.0
 10
6282.3371887207
 20
5236.2917533797
 10
6282.320397166
 20
5236.6055077398
 10
6282.3047779173
 20
5236.8518917543
  0
LWPOLYLINE
  5
28A
330
1F
100
AcDbEntity
  8
0
  6
Continuous
 62
     7
100
AcDbPolyline
 90
        3
 70
   128
 43
0.0
 10
6282.4249267578
 20
5237.2985838634
 10
6282.4619561153
 20
5237.290958761
 10
6282.4884701192
 20
5237.2846326512
  0
LWPOLYLINE
  5
28B
330
1F
100
AcDbEntity
  8
0
  6
Continuous
 62
     7
100
AcDbPolyline
 90
        3
 70
   128
 43
0.0
 10
6282.4859619141
 20
5237.2846326512
 10
6282.6032325119
 20
5237.2667741929
 10
6282.6939357117
 20
5237.2567600292
  0
LWPOLYLINE
  5
28C
330
1F
100
AcDbEntity
  8
0
  6
Continuous
 62
     7
100
AcDbPolyline
 90
        3
 70
   128
 43
0.0
 10
6282.4249267578
 20
5238.9721072001
 10
6282.346960319
 20
5238.6025283627
 10
6282.3025725454
 20
5238.3089608235
  0
LWPOLYLINE
  5
28D
330
1F
100
AcDbEntity
  8
0
  6
Continuous
 62
     7
100
AcDbPolyline
 90
        3
 70
   128
 43
0.0
 10
6282.3028564453
 20
5237.327041356
 10
6282.3733513662
 20
5237.3101333778
 10
6282.4281120345
 20
5237.2985838634
  0
LWPOLYLINE
  5
28E
330
1F
100
AcDbEntity
  8
0
  6
Continuous
 62
     7
100
AcDbPolyline
 90
        3
 70
   128
 43
0.0
 10
6282.5927734375
 20
5239.4563167078
 10
6282.5286571393
 20
5239.3083181635
 10
6282.4855765
 20
5239.1884273571
  0
LWPOLYLINE
  5
28F
330
1F
100
AcDbEntity
  8
0
  6
Continuous
 62
     7
100
AcDbPolyline
 90
        3
 70
   128
 43
0.0
 10
6282.3028564453
 20
5236.8518917543
 10
6282.2895218758
 20
5237.1196579108
 10
6282.2827288553
 20
5237.3302786333
  0
LWPOLYLINE
  5
290
330
1F
100
AcDbEntity
  8
0
  6
Continuous
 62
     7
100
AcDbPolyline
 90
        3
 70
   128
 43
0.0
 10
6280.7884216309
 20
5236.2967154664
 10
6280.5158164952
 20
5237.404161334
 10
6280.7884534493
 20
5238.2819859964
  0
LWPOLYLINE
  5
291
330
1F
100
AcDbEntity
  8
0
  6
Continuous
 62
     7
100
AcDbPolyline
 90
        3
 70
   128
 43
0.0
 10
6280.7884216309
 20
5238.2819859964
 10
6280.9585234999
 20
5238.626761713
 10
6281.0961694129
 20
5238.8956269902
  0
LWPOLYLINE
  5
292
330
1F
100
AcDbEntity
  8
0
  6
Continuous
 62
     7
100
AcDbPolyline
 90
        3
 70
   128
 43
0.0
 10
6281.494140625
 20
5238.0171960873
 10
6281.5116383725
 20
5236.8020206978
 10
6281.5047573902
 20
5235.8471995873
  0
LWPOLYLINE
  5
293
330
1F
100
AcDbEntity
  8
0
  6
Continuous
 62
     7
100
AcDbPolyline
 90
        3
 70
   128
 43
0.0
 10
6281.0935974121
 20
5238.8956269902
 10
6281.2123088967
 20
5239.181633576
 10
6281.2441016219
 20
5239.4206247014
  0
LWPOLYLINE
  5
294
330
1F
100
AcDbEntity
  8
0
  6
Continuous
 62
     7
100
AcDbPolyline
 90
        3
 70
   128
 43
0.0
 10
6281.2423706055
 20
5239.4206247014
 10
6281.4364589953
 20
5238.6433725051
 10
6281.4979363836
 20
5238.0171960873
  0
LWPOLYLINE
  5
295
330
1F
100
AcDbEntity
  8
0
  6
Continuous
 62
     7
100
AcDbPolyline
 90
        3
 70
   128
 43
0.0
 10
6281.4979553223
 20
5235.8508503718
 10
6281.073839849
 20
5236.0557240646
 10
6280.7914159864
 20
5236.2967154664
  0
LWPOLYLINE
  5
296
330
1F
100
AcDbEntity
  8
0
  6
Continuous
 62
     7
100
AcDbPolyline
 90
        3
 70
   128
 43
0.0
 10
6282.6881408691
 20
5239.1427776498
 10
6282.862171233
 20
5239.1586136803
 10
6282.9957261354
 20
5239.1786074919
  0
LWPOLYLINE
  5
297
330
1F
100
AcDbEntity
  8
0
  6
Continuous
 62
     7
100
AcDbPolyline
 90
        3
 70
   128
 43
0.0
 10
6282.4821472168
 20
5239.0077321512
 10
6282.5106222169
 20
5239.0835188693
 10
6282.5315335438
 20
5239.1425727588
  0
LWPOLYLINE
  5
298
330
1F
100
AcDbEntity
  8
0
  6
Continuous
 62
     7
100
AcDbPolyline
 90
        3
 70
   128
 43
0.0
 10
6282.4859619141
 20
5238.7665754837
 10
6282.4583784387
 20
5238.7705407195
 10
6282.4365181521
 20
5238.7736349088
  0
LWPOLYLINE
  5
299
330
1F
100
AcDbEntity
  8
0
  6
Continuous
 62
     7
100
AcDbPolyline
 90
        3
 70
   128
 43
0.0
 10
6282.9933166504
 20
5239.1786074919
 10
6283.143037027
 20
5238.9976073329
 10
6283.2338513479
 20
5238.8386784774
  0
LWPOLYLINE
  5
29A
330
1F
100
AcDbEntity
  8
0
  6
Continuous
 62
     7
100
AcDbPolyline
 90
        3
 70
   128
 43
0.0
 10
6282.6881408691
 20
5238.7420109195
 10
6282.5762588227
 20
5238.7529957591
 10
6282.4861967608
 20
5238.7665754837
  0
LWPOLYLINE
  5
29B
330
1F
100
AcDbEntity
  8
0
  6
Continuous
 62
     7
100
AcDbPolyline
 90
        3
 70
   128
 43
0.0
 10
6282.527923584
 20
5239.1425727588
 10
6282.620874081
 20
5239.1400025375
 10
6282.6910420924
 20
5239.1427776498
  0
LWPOLYLINE
  5
29C
330
1F
100
AcDbEntity
  8
0
  6
Continuous
 62
     7
100
AcDbPolyline
 90
        3
 70
   128
 43
0.0
 10
6282.4363708496
 20
5238.7736349088
 10
6282.4612157762
 20
5238.9053563949
 10
6282.4858521715
 20
5239.0077321512
  0
LWPOLYLINE
  5
29D
330
1F
100
AcDbEntity
  8
0
  6
Continuous
 62
     7
100
AcDbPolyline
 90
        3
 70
   128
 43
0.0
 10
6283.2336425781
 20
5238.8386784774
 10
6282.9354936748
 20
5238.7511676001
 10
6282.6916614219
 20
5238.7420109195
  0
LWPOLYLINE
  5
29E
330
1F
100
AcDbEntity
  8
0
  6
Continuous
 62
     7
100
AcDbPolyline
 90
        3
 70
   128
 43
0.0
 10
6282.3104858398
 20
5237.8551385087
 10
6282.3294634757
 20
5238.1031064484
 10
6282.3661688387
 20
5238.2947674674
  0
LWPOLYLINE
  5
29F
330
1F
100
AcDbEntity
  8
0
  6
Continuous
 62
     7
100
AcDbPolyline
 90
        3
 70
   128
 43
0.0
 10
6282.3638916016
 20
5238.2947674674
 10
6282.4004418447
 20
5238.2862260751
 10
6282.4267336771
 20
5238.2773368341
  0
LWPOLYLINE
  5
2A0
330
1F
100
AcDbEntity
  8
0
  6
Continuous
 62
     7
100
AcDbPolyline
 90
        3
 70
   128
 43
0.0
 10
6282.4249267578
 20
5238.2773368341
 10
6282.4603742889
 20
5238.2692009156
 10
6282.4868850082
 20
5238.2631434781
  0
LWPOLYLINE
  5
2A1
330
1F
100
AcDbEntity
  8
0
  6
Continuous
 62
     7
100
AcDbPolyline
 90
        3
 70
   128
 43
0.0
 10
6282.4859619141
 20
5238.2631434781
 10
6282.6015489701
 20
5238.2453183315
 10
6282.6924884364
 20
5238.238683222
  0
LWPOLYLINE
  5
2A2
330
1F
100
AcDbEntity
  8
0
  6
Continuous
 62
     7
100
AcDbPolyline
 90
        3
 70
   128
 43
0.0
 10
6282.6919555664
 20
5238.238683222
 10
6283.1249737574
 20
5238.2527436549
 10
6283.4508923486
 20
5238.3425182385
  0
LWPOLYLINE
  5
2A3
330
1F
100
AcDbEntity
  8
0
  6
Continuous
 62
     7
100
AcDbPolyline
 90
        3
 70
   128
 43
0.0
 10
6283.5273742676
 20
5237.8925180716
 10
6283.069284939
 20
5237.7733942713
 10
6282.6931086972
 20
5237.7777269763
  0
LWPOLYLINE
  5
2A4
330
1F
100
AcDbEntity
  8
0
  6
Continuous
 62
     7
100
AcDbPolyline
 90
        3
 70
   128
 43
0.0
 10
6282.6919555664
 20
5237.7777269763
 10
6282.5775742908
 20
5237.7926299206
 10
6282.4875741869
 20
5237.8092839104
  0
LWPOLYLINE
  5
2A5
330
1F
100
AcDbEntity
  8
0
  6
Continuous
 62
     7
100
AcDbPolyline
 90
        3
 70
   128
 43
0.0
 10
6282.4859619141
 20
5237.8092839104
 10
6282.4536023986
 20
5237.8160185088
 10
6282.4274228558
 20
5237.8234437389
  0
LWPOLYLINE
  5
2A6
330
1F
100
AcDbEntity
  8
0
  6
Continuous
 62
     7
100
AcDbPolyline
 90
        3
 70
   128
 43
0.0
 10
6282.4249267578
 20
5237.8234437389
 10
6282.3633277773
 20
5237.8398076648
 10
6282.3136655286
 20
5237.8551385087
  0
LWPOLYLINE
  5
2A7
330
1F
100
AcDbEntity
  8
0
  6
Continuous
 62
     7
100
AcDbPolyline
 90
        3
 70
   128
 43
0.0
 10
6283.447265625
 20
5238.3425182385
 10
6283.5100982757
 20
5238.0929061452
 10
6283.5295090124
 20
5237.8925180716
  0
LWPOLYLINE
  5
2A8
330
1F
100
AcDbEntity
  8
0
  6
Continuous
 62
     7
100
AcDbPolyline
 90
        5
 70
   128
 43
0.0
 10
6269.157409668
 20
5239.8312112969
 10
6269.2938744292
 20
5239.8003519754
 10
6269.3801548739
 20
5239.6930258257
 10
6269.4539346746
 20
5239.4265706424
 10
6269.4821322009
 20
5238.8709245903
  0
LWPOLYLINE
  5
2A9
330
1F
100
AcDbEntity
  8
0
  6
Continuous
 62
     7
100
AcDbPolyline
 90
        4
 70
   128
 43
0.0
 10
6268.5394287109
 20
5238.8624868077
 10
6268.6002750814
 20
5239.451013955
 10
6268.7239642213
 20
5239.7161749556
 10
6268.9804915942
 20
5239.8417873961
  0
LWPOLYLINE
  5
2AA
330
1F
100
AcDbEntity
  8
0
  6
Continuous
 62
     7
100
AcDbPolyline
 90
        3
 70
   128
 43
0.0
 10
6621.1471557617
 20
5130.3849874717
 10
6621.2355913418
 20
5130.5337583585
 10
6621.3038069117
 20
5130.6505224389
  0
LWPOLYLINE
  5
2AB
330
1F
100
AcDbEntity
  8
0
  6
Continuous
 62
     7
100
AcDbPolyline
 90
        3
 70
   128
 43
0.0
 10
6624.2027282715
 20
5134.2863536162
 10
6624.1134550708
 20
5134.131684721
 10
6624.0423707212
 20
5134.010372935
  0
ENDSEC
  0
SECTION
  2
OBJECTS
  0
DICTIONARY
  5
C
330
0
100
AcDbDictionary
281
     1
  3
ACAD_GROUP
350
D
  3
ACAD_LAYOUT
350
1A
  3
ACAD_MLINESTYLE
350
17
  3
ACAD_PLOTSETTINGS
350
19
  3
ACAD_PLOTSTYLENAME
350
E
  3
ACAD_SCALELIST
350
47
  3
DWGPROPS
350
2AC
  0
DICTIONARY
  5
D
102
{ACAD_REACTORS
330
C
102
}
330
C
100
AcDbDictionary
281
     1
  0
DICTIONARY
  5
1A
102
{ACAD_REACTORS
330
C
102
}
330
C
100
AcDbDictionary
281
     1
  3
Layout1
350
1E
  3
Layout2
350
26
  3
Model
350
22
  0
DICTIONARY
  5
17
102
{ACAD_REACTORS
330
C
102
}
330
C
100
AcDbDictionary
281
     1
  3
Standard
350
18
  0
DICTIONARY
  5
19
102
{ACAD_REACTORS
330
C
102
}
330
C
100
AcDbDictionary
281
     1
  0
ACDBDICTIONARYWDFLT
  5
E
102
{ACAD_REACTORS
330
C
102
}
330
C
100
AcDbDictionary
281
     1
  3
Normal
350
F
100
AcDbDictionaryWithDefault
340
F
  0
DICTIONARY
  5
47
102
{ACAD_REACTORS
330
C
102
}
330
C
100
AcDbDictionary
281
     1
  3
A0
350
48
  3
A1
350
49
  3
A2
350
4A
  3
A3
350
4B
  3
A4
350
4C
  3
A5
350
4D
  3
A6
350
4E
  3
A7
350
4F
  3
A8
350
50
  3
A9
350
51
  3
B0
350
52
  3
B1
350
53
  3
B2
350
54
  3
B3
350
55
  3
B4
350
56
  3
B5
350
57
  3
B6
350
58
  3
B7
350
59
  3
B8
350
5A
  3
B9
350
5B
  3
C0
350
5C
  3
C1
350
5D
  3
C2
350
5E
  3
C3
350
5F
  3
C4
350
60
  3
C5
350
61
  3
C6
350
62
  3
C7
350
63
  3
C8
350
64
  3
C9
350
65
  3
D0
350
66
  3
D1
350
67
  3
D2
350
68
  0
XRECORD
  5
2AC
102
{ACAD_REACTORS
330
C
102
}
330
C
100
AcDbXrecord
280
     1
  1
DWGPROPS COOKIE
  2

  3

  4

  6

  7

  8
radek.stransky
  9

300
=
301
=
302
=
303
=
304
=
305
=
306
=
307
=
308
=
309
=
 40
0.0
 41
2459104.34594566
 42
2459104.345977604
  1

 90
        0
  0
LAYOUT
  5
1E
102
{ACAD_REACTORS
330
1A
102
}
330
1A
100
AcDbPlotSettings
  1

  2
none_device
  4

  6

 40
0.0
 41
0.0
 42
0.0
 43
0.0
 44
0.0
 45
0.0
 46
0.0
 47
0.0
 48
0.0
 49
0.0
140
0.0
141
0.0
142
1.0
143
1.0
 70
   688
 72
     1
 73
     0
 74
     5
  7

 75
    16
147
1.0
148
0.0
149
0.0
100
AcDbLayout
  1
Layout1
 70
     1
 71
     1
 10
0.0
 20
0.0
 11
420.0
 21
297.0
 12
0.0
 22
0.0
 32
0.0
 14
1.0000000000E+20
 24
1.0000000000E+20
 34
1.0000000000E+20
 15
-1.0000000000E+20
 25
-1.0000000000E+20
 35
-1.0000000000E+20
146
0.0
 13
0.0
 23
0.0
 33
0.0
 16
1.0
 26
0.0
 36
0.0
 17
0.0
 27
1.0
 37
0.0
 76
     0
330
1B
  0
LAYOUT
  5
26
102
{ACAD_REACTORS
330
1A
102
}
330
1A
100
AcDbPlotSettings
  1

  2
none_device
  4

  6

 40
0.0
 41
0.0
 42
0.0
 43
0.0
 44
0.0
 45
0.0
 46
0.0
 47
0.0
 48
0.0
 49
0.0
140
0.0
141
0.0
142
1.0
143
1.0
 70
   688
 72
     1
 73
     0
 74
     5
  7

 75
    16
147
1.0
148
0.0
149
0.0
100
AcDbLayout
  1
Layout2
 70
     1
 71
     2
 10
0.0
 20
0.0
 11
0.0
 21
0.0
 12
0.0
 22
0.0
 32
0.0
 14
0.0
 24
0.0
 34
0.0
 15
0.0
 25
0.0
 35
0.0
146
0.0
 13
0.0
 23
0.0
 33
0.0
 16
1.0
 26
0.0
 36
0.0
 17
0.0
 27
1.0
 37
0.0
 76
     0
330
23
  0
LAYOUT
  5
22
102
{ACAD_REACTORS
330
1A
102
}
330
1A
100
AcDbPlotSettings
  1

  2
none_device
  4
ANSI_A_(11.00_x_8.50_Inches)
  6

 40
6.35
 41
19.05
 42
6.35000508
 43
19.05000254
 44
279.4
 45
215.9
 46
-2925.748903053
 47
-2322.9142109642
 48
0.0
 49
0.0
140
0.0
141
0.0
142
0.0187841871
143
1.0
 70
  1696
 72
     0
 73
     0
 74
     0
  7

 75
     0
147
0.0179189148
148
-1300.4909072572
149
0.0
100
AcDbLayout
  1
Model
 70
     1
 71
     0
 10
0.0
 20
0.0
 11
420.0
 21
297.0
 12
0.0
 22
0.0
 32
0.0
 14
6189.018754442
 24
4830.9684563298
 34
0.0
 15
6634.2100567571
 25
5278.9516432864
 35
0.0
146
0.0
 13
0.0
 23
0.0
 33
0.0
 16
1.0
 26
0.0
 36
0.0
 17
0.0
 27
1.0
 37
0.0
 76
     0
330
1F
331
29
  0
MLINESTYLE
  5
18
102
{ACAD_REACTORS
330
17
102
}
330
17
100
AcDbMlineStyle
  2
Standard
 70
     0
  3

 62
   256
 51
90.0
 52
90.0
 71
     2
 49
0.5
 62
   256
  6
BYLAYER
 49
-0.5
 62
   256
  6
BYLAYER
  0
ACDBPLACEHOLDER
  5
F
102
{ACAD_REACTORS
330
E
102
}
330
E
  0
SCALE
  5
48
102
{ACAD_REACTORS
330
47
102
}
330
47
100
AcDbScale
 70
     0
300
1:1
140
1.0
141
1.0
290
     1
  0
SCALE
  5
49
102
{ACAD_REACTORS
330
47
102
}
330
47
100
AcDbScale
 70
     0
300
1:2
140
1.0
141
2.0
290
     0
  0
SCALE
  5
4A
102
{ACAD_REACTORS
330
47
102
}
330
47
100
AcDbScale
 70
     0
300
1:4
140
1.0
141
4.0
290
     0
  0
SCALE
  5
4B
102
{ACAD_REACTORS
330
47
102
}
330
47
100
AcDbScale
 70
     0
300
1:5
140
1.0
141
5.0
290
     0
  0
SCALE
  5
4C
102
{ACAD_REACTORS
330
47
102
}
330
47
100
AcDbScale
 70
     0
300
1:8
140
1.0
141
8.0
290
     0
  0
SCALE
  5
4D
102
{ACAD_REACTORS
330
47
102
}
330
47
100
AcDbScale
 70
     0
300
1:10
140
1.0
141
10.0
290
     0
  0
SCALE
  5
4E
102
{ACAD_REACTORS
330
47
102
}
330
47
100
AcDbScale
 70
     0
300
1:16
140
1.0
141
16.0
290
     0
  0
SCALE
  5
4F
102
{ACAD_REACTORS
330
47
102
}
330
47
100
AcDbScale
 70
     0
300
1:20
140
1.0
141
20.0
290
     0
  0
SCALE
  5
50
102
{ACAD_REACTORS
330
47
102
}
330
47
100
AcDbScale
 70
     0
300
1:30
140
1.0
141
30.0
290
     0
  0
SCALE
  5
51
102
{ACAD_REACTORS
330
47
102
}
330
47
100
AcDbScale
 70
     0
300
1:40
140
1.0
141
40.0
290
     0
  0
SCALE
  5
52
102
{ACAD_REACTORS
330
47
102
}
330
47
100
AcDbScale
 70
     0
300
1:50
140
1.0
141
50.0
290
     0
  0
SCALE
  5
53
102
{ACAD_REACTORS
330
47
102
}
330
47
100
AcDbScale
 70
     0
300
1:100
140
1.0
141
100.0
290
     0
  0
SCALE
  5
54
102
{ACAD_REACTORS
330
47
102
}
330
47
100
AcDbScale
 70
     0
300
2:1
140
2.0
141
1.0
290
     0
  0
SCALE
  5
55
102
{ACAD_REACTORS
330
47
102
}
330
47
100
AcDbScale
 70
     0
300
4:1
140
4.0
141
1.0
290
     0
  0
SCALE
  5
56
102
{ACAD_REACTORS
330
47
102
}
330
47
100
AcDbScale
 70
     0
300
8:1
140
8.0
141
1.0
290
     0
  0
SCALE
  5
57
102
{ACAD_REACTORS
330
47
102
}
330
47
100
AcDbScale
 70
     0
300
10:1
140
10.0
141
1.0
290
     0
  0
SCALE
  5
58
102
{ACAD_REACTORS
330
47
102
}
330
47
100
AcDbScale
 70
     0
300
100:1
140
100.0
141
1.0
290
     0
  0
SCALE
  5
59
102
{ACAD_REACTORS
330
47
102
}
330
47
100
AcDbScale
 70
     0
300
1/128" = 1'-0"
140
0.0078125
141
12.0
290
     0
  0
SCALE
  5
5A
102
{ACAD_REACTORS
330
47
102
}
330
47
100
AcDbScale
 70
     0
300
1/64" = 1'-0"
140
0.015625
141
12.0
290
     0
  0
SCALE
  5
5B
102
{ACAD_REACTORS
330
47
102
}
330
47
100
AcDbScale
 70
     0
300
1/32" = 1'-0"
140
0.03125
141
12.0
290
     0
  0
SCALE
  5
5C
102
{ACAD_REACTORS
330
47
102
}
330
47
100
AcDbScale
 70
     0
300
1/16" = 1'-0"
140
0.0625
141
12.0
290
     0
  0
SCALE
  5
5D
102
{ACAD_REACTORS
330
47
102
}
330
47
100
AcDbScale
 70
     0
300
3/32" = 1'-0"
140
0.09375
141
12.0
290
     0
  0
SCALE
  5
5E
102
{ACAD_REACTORS
330
47
102
}
330
47
100
AcDbScale
 70
     0
300
1/8" = 1'-0"
140
0.125
141
12.0
290
     0
  0
SCALE
  5
5F
102
{ACAD_REACTORS
330
47
102
}
330
47
100
AcDbScale
 70
     0
300
3/16" = 1'-0"
140
0.1875
141
12.0
290
     0
  0
SCALE
  5
60
102
{ACAD_REACTORS
330
47
102
}
330
47
100
AcDbScale
 70
     0
300
1/4" = 1'-0"
140
0.25
141
12.0
290
     0
  0
SCALE
  5
61
102
{ACAD_REACTORS
330
47
102
}
330
47
100
AcDbScale
 70
     0
300
3/8" = 1'-0"
140
0.375
141
12.0
290
     0
  0
SCALE
  5
62
102
{ACAD_REACTORS
330
47
102
}
330
47
100
AcDbScale
 70
     0
300
1/2" = 1'-0"
140
0.5
141
12.0
290
     0
  0
SCALE
  5
63
102
{ACAD_REACTORS
330
47
102
}
330
47
100
AcDbScale
 70
     0
300
3/4" = 1'-0"
140
0.75
141
12.0
290
     0
  0
SCALE
  5
64
102
{ACAD_REACTORS
330
47
102
}
330
47
100
AcDbScale
 70
     0
300
1" = 1'-0"
140
1.0
141
12.0
290
     0
  0
SCALE
  5
65
102
{ACAD_REACTORS
330
47
102
}
330
47
100
AcDbScale
 70
     0
300
1-1/2" = 1'-0"
140
1.5
141
12.0
290
     0
  0
SCALE
  5
66
102
{ACAD_REACTORS
330
47
102
}
330
47
100
AcDbScale
 70
     0
300
3" = 1'-0"
140
3.0
141
12.0
290
     0
  0
SCALE
  5
67
102
{ACAD_REACTORS
330
47
102
}
330
47
100
AcDbScale
 70
     0
300
6" = 1'-0"
140
6.0
141
12.0
290
     0
  0
SCALE
  5
68
102
{ACAD_REACTORS
330
47
102
}
330
47
100
AcDbScale
 70
     0
300
1'-0" = 1'-0"
140
12.0
141
12.0
290
     0
  0
ENDSEC
  0
EOF
