  0
SECTION
  2
HEADER
  9
$ACADVER
  1
AC1015
  9
$ACADMAINTVER
 70
     6
  9
$DWGCODEPAGE
  3
ANSI_1250
  9
$INSBASE
 10
0.0
 20
0.0
 30
0.0
  9
$EXTMIN
 10
0.0
 20
0.0
 30
0.0
  9
$EXTMAX
 10
20000.0
 20
10000.0
 30
0.0
  9
$LIMMIN
 10
0.0
 20
0.0
  9
$LIMMAX
 10
20000.0
 20
10000.0
  9
$ORTHOMODE
 70
     0
  9
$REGENMODE
 70
     1
  9
$FILLMODE
 70
     1
  9
$QTEXTMODE
 70
     0
  9
$MIRRTEXT
 70
     1
  9
$LTSCALE
 40
1.0
  9
$ATTMODE
 70
     1
  9
$TEXTSIZE
 40
2.0
  9
$TRACEWID
 40
1.0
  9
$TEXTSTYLE
  7
Standard
  9
$CLAYER
  8
0
  9
$CELTYPE
  6
ByLayer
  9
$CECOLOR
 62
   256
  9
$CELTSCALE
 40
1.0
  9
$DISPSILH
 70
     0
  9
$DIMSCALE
 40
1.0
  9
$DIMASZ
 40
2.0
  9
$DIMEXO
 40
1.0
  9
$DIMDLI
 40
3.75
  9
$DIMRND
 40
0.0
  9
$DIMDLE
 40
0.0
  9
$DIMEXE
 40
1.0
  9
$DIMTP
 40
0.0
  9
$DIMTM
 40
0.0
  9
$DIMTXT
 40
2.0
  9
$DIMCEN
 40
2.5
  9
$DIMTSZ
 40
0.0
  9
$DIMTOL
 70
     0
  9
$DIMLIM
 70
     0
  9
$DIMTIH
 70
     1
  9
$DIMTOH
 70
     1
  9
$DIMSE1
 70
     0
  9
$DIMSE2
 70
     0
  9
$DIMTAD
 70
     1
  9
$DIMZIN
 70
     0
  9
$DIMBLK
  1

  9
$DIMASO
 70
     1
  9
$DIMSHO
 70
     1
  9
$DIMPOST
  1

  9
$DIMAPOST
  1

  9
$DIMALT
 70
     0
  9
$DIMALTD
 70
     3
  9
$DIMALTF
 40
0.0393700787
  9
$DIMLFAC
 40
1.0
  9
$DIMTOFL
 70
     1
  9
$DIMTVP
 40
0.0
  9
$DIMTIX
 70
     0
  9
$DIMSOXD
 70
     0
  9
$DIMSAH
 70
     0
  9
$DIMBLK1
  1

  9
$DIMBLK2
  1

  9
$DIMSTYLE
  2
ISO-25
  9
$DIMCLRD
 70
     0
  9
$DIMCLRE
 70
     0
  9
$DIMCLRT
 70
     0
  9
$DIMTFAC
 40
1.0
  9
$DIMGAP
 40
1.524
  9
$DIMJUST
 70
     0
  9
$DIMSD1
 70
     0
  9
$DIMSD2
 70
     0
  9
$DIMTOLJ
 70
     0
  9
$DIMTZIN
 70
     0
  9
$DIMALTZ
 70
     0
  9
$DIMALTTZ
 70
     0
  9
$DIMUPT
 70
     0
  9
$DIMDEC
 70
     2
  9
$DIMTDEC
 70
     0
  9
$DIMALTU
 70
     2
  9
$DIMALTTD
 70
     3
  9
$DIMTXSTY
  7
Standard
  9
$DIMAUNIT
 70
     0
  9
$DIMADEC
 70
     2
  9
$DIMALTRND
 40
0.0
  9
$DIMAZIN
 70
     0
  9
$DIMDSEP
 70
    44
  9
$DIMATFIT
 70
     3
  9
$DIMFRAC
 70
     0
  9
$DIMLDRBLK
  1

  9
$DIMLUNIT
 70
     2
  9
$DIMLWD
 70
    -2
  9
$DIMLWE
 70
    -2
  9
$DIMTMOVE
 70
     0
  9
$LUNITS
 70
     2
  9
$LUPREC
 70
     3
  9
$SKETCHINC
 40
1.0
  9
$FILLETRAD
 40
10.0
  9
$AUNITS
 70
     0
  9
$AUPREC
 70
     2
  9
$MENU
  1
.
  9
$ELEVATION
 40
0.0
  9
$PELEVATION
 40
0.0
  9
$THICKNESS
 40
0.0
  9
$LIMCHECK
 70
     0
  9
$CHAMFERA
 40
0.0
  9
$CHAMFERB
 40
0.0
  9
$CHAMFERC
 40
0.0
  9
$CHAMFERD
 40
0.0
  9
$SKPOLY
 70
     0
  9
$TDCREATE
 40
2460262.387236366
  9
$TDUCREATE
 40
2460262.345569699
  9
$TDUPDATE
 40
2460262.387237963
  9
$TDUUPDATE
 40
2460262.345571296
  9
$TDINDWG
 40
0.0000000116
  9
$TDUSRTIMER
 40
0.0000000116
  9
$USRTIMER
 70
     1
  9
$ANGBASE
 50
0.0
  9
$ANGDIR
 70
     0
  9
$PDMODE
 70
     0
  9
$PDSIZE
 40
-1.0
  9
$PLINEWID
 40
0.0
  9
$SPLFRAME
 70
     0
  9
$SPLINETYPE
 70
     6
  9
$SPLINESEGS
 70
     8
  9
$HANDSEED
  5
2B4
  9
$SURFTAB1
 70
     6
  9
$SURFTAB2
 70
     6
  9
$SURFTYPE
 70
     6
  9
$SURFU
 70
     6
  9
$SURFV
 70
     6
  9
$UCSBASE
  2

  9
$UCSNAME
  2

  9
$UCSORG
 10
0.0
 20
0.0
 30
0.0
  9
$UCSXDIR
 10
1.0
 20
0.0
 30
0.0
  9
$UCSYDIR
 10
0.0
 20
1.0
 30
0.0
  9
$UCSORTHOREF
  2

  9
$UCSORTHOVIEW
 70
     0
  9
$UCSORGTOP
 10
0.0
 20
0.0
 30
0.0
  9
$UCSORGBOTTOM
 10
0.0
 20
0.0
 30
0.0
  9
$UCSORGLEFT
 10
0.0
 20
0.0
 30
0.0
  9
$UCSORGRIGHT
 10
0.0
 20
0.0
 30
0.0
  9
$UCSORGFRONT
 10
0.0
 20
0.0
 30
0.0
  9
$UCSORGBACK
 10
0.0
 20
0.0
 30
0.0
  9
$PUCSBASE
  2

  9
$PUCSNAME
  2

  9
$PUCSORG
 10
0.0
 20
0.0
 30
0.0
  9
$PUCSXDIR
 10
1.0
 20
0.0
 30
0.0
  9
$PUCSYDIR
 10
0.0
 20
1.0
 30
0.0
  9
$PUCSORTHOREF
  2

  9
$PUCSORTHOVIEW
 70
     0
  9
$PUCSORGTOP
 10
0.0
 20
0.0
 30
0.0
  9
$PUCSORGBOTTOM
 10
0.0
 20
0.0
 30
0.0
  9
$PUCSORGLEFT
 10
0.0
 20
0.0
 30
0.0
  9
$PUCSORGRIGHT
 10
0.0
 20
0.0
 30
0.0
  9
$PUCSORGFRONT
 10
0.0
 20
0.0
 30
0.0
  9
$PUCSORGBACK
 10
0.0
 20
0.0
 30
0.0
  9
$USERI1
 70
     0
  9
$USERI2
 70
     0
  9
$USERI3
 70
     0
  9
$USERI4
 70
     0
  9
$USERI5
 70
     0
  9
$USERR1
 40
0.0
  9
$USERR2
 40
0.0
  9
$USERR3
 40
0.0
  9
$USERR4
 40
0.0
  9
$USERR5
 40
0.0
  9
$WORLDVIEW
 70
     1
  9
$SHADEDGE
 70
     3
  9
$SHADEDIF
 70
    70
  9
$TILEMODE
 70
     1
  9
$MAXACTVP
 70
    64
  9
$PINSBASE
 10
0.0
 20
0.0
 30
0.0
  9
$PLIMCHECK
 70
     0
  9
$PEXTMIN
 10
1.0000000000E+20
 20
1.0000000000E+20
 30
1.0000000000E+20
  9
$PEXTMAX
 10
-1.0000000000E+20
 20
-1.0000000000E+20
 30
-1.0000000000E+20
  9
$PLIMMIN
 10
0.0
 20
0.0
  9
$PLIMMAX
 10
420.0
 20
297.0
  9
$UNITMODE
 70
     0
  9
$VISRETAIN
 70
     1
  9
$PLINEGEN
 70
     0
  9
$PSLTSCALE
 70
     1
  9
$TREEDEPTH
 70
  3020
  9
$CMLSTYLE
  2
Standard
  9
$CMLJUST
 70
     0
  9
$CMLSCALE
 40
20.0
  9
$PROXYGRAPHICS
 70
     1
  9
$MEASUREMENT
 70
     1
  9
$CELWEIGHT
370
    -1
  9
$ENDCAPS
280
     0
  9
$JOINSTYLE
280
     0
  9
$LWDISPLAY
290
     1
  9
$INSUNITS
 70
     4
  9
$HYPERLINKBASE
  1

  9
$STYLESHEET
  1

  9
$XEDIT
290
     1
  9
$CEPSNTYPE
380
     0
  9
$PSTYLEMODE
290
     1
  9
$FINGERPRINTGUID
  2
{03116603-8602-4d4a-b998-c2e7e89f36e7}
  9
$VERSIONGUID
  2
{FAEB1C32-E019-11D5-929B-00C0DF256EC4}
  9
$EXTNAMES
290
     1
  9
$PSVPSCALE
 40
0.0
  9
$OLESTARTUP
290
     0
  0
ENDSEC
  0
SECTION
  2
CLASSES
  0
CLASS
  1
ACDBDICTIONARYWDFLT
  2
AcDbDictionaryWithDefault
  3
ObjectDBX Classes
 90
        0
280
     0
281
     0
  0
CLASS
  1
VISUALSTYLE
  2
AcDbVisualStyle
  3
ObjectDBX Classes
 90
     4095
280
     0
281
     0
  0
CLASS
  1
MATERIAL
  2
AcDbMaterial
  3
ObjectDBX Classes
 90
     1153
280
     0
281
     0
  0
CLASS
  1
SCALE
  2
AcDbScale
  3
ObjectDBX Classes
 90
     1153
280
     0
281
     0
  0
CLASS
  1
TABLESTYLE
  2
AcDbTableStyle
  3
ObjectDBX Classes
 90
     4095
280
     0
281
     0
  0
CLASS
  1
MLEADERSTYLE
  2
AcDbMLeaderStyle
  3
ACDB_MLEADERSTYLE_CLASS
 90
     4095
280
     0
281
     0
  0
CLASS
  1
SUN
  2
AcDbSun
  3
SCENEOE
 90
     1153
280
     0
281
     0
  0
CLASS
  1
ACDBPLACEHOLDER
  2
AcDbPlaceHolder
  3
ObjectDBX Classes
 90
        0
280
     0
281
     0
  0
CLASS
  1
LAYOUT
  2
AcDbLayout
  3
ObjectDBX Classes
 90
        0
280
     0
281
     0
  0
ENDSEC
  0
SECTION
  2
TABLES
  0
TABLE
  2
VPORT
  5
8
330
0
100
AcDbSymbolTable
 70
     1
  0
VPORT
  5
29
330
8
100
AcDbSymbolTableRecord
100
AcDbViewportTableRecord
  2
*Active
 70
     0
 10
0.0
 20
0.0
 11
1.0
 21
1.0
 12
10000.0
 22
5000.0
 13
0.0
 23
0.0
 14
10.0
 24
10.0
 15
10.0
 25
10.0
 16
0.0
 26
0.0
 36
1.0
 17
0.0
 27
0.0
 37
0.0
 40
10000.0
 41
2.0
 42
50.0
 43
0.0
 44
0.0
 50
0.0
 51
0.0
 71
     0
 72
  2000
 73
     1
 74
     3
 75
     0
 76
     0
 77
     0
 78
     0
281
     0
 65
     1
110
0.0
120
0.0
130
0.0
111
1.0
121
0.0
131
0.0
112
0.0
122
1.0
132
0.0
 79
     0
146
0.0
  0
ENDTAB
  0
TABLE
  2
LTYPE
  5
5
330
0
100
AcDbSymbolTable
 70
     6
  0
LTYPE
  5
14
330
5
100
AcDbSymbolTableRecord
100
AcDbLinetypeTableRecord
  2
ByBlock
 70
     0
  3

 72
    65
 73
     0
 40
0.0
  0
LTYPE
  5
15
330
5
100
AcDbSymbolTableRecord
100
AcDbLinetypeTableRecord
  2
ByLayer
 70
     0
  3

 72
    65
 73
     0
 40
0.0
  0
LTYPE
  5
16
330
5
100
AcDbSymbolTableRecord
100
AcDbLinetypeTableRecord
  2
Continuous
 70
     0
  3
Solid line
 72
    65
 73
     0
 40
0.0
  0
LTYPE
  5
6E
330
5
100
AcDbSymbolTableRecord
100
AcDbLinetypeTableRecord
  2
HIDDEN
 70
     0
  3
Hidden __ __ __ __ __ __ __ __ __ __ __ __ __ __
 72
    65
 73
     2
 40
1.905
 49
1.27
 74
     0
 49
-0.635
 74
     0
  0
LTYPE
  5
6F
330
5
100
AcDbSymbolTableRecord
100
AcDbLinetypeTableRecord
  2
PHANTOM
 70
     0
  3
Phantom ______  __  __  ______  __  __  ______
 72
    65
 73
     6
 40
12.7
 49
6.35
 74
     0
 49
-1.27
 74
     0
 49
1.27
 74
     0
 49
-1.27
 74
     0
 49
1.27
 74
     0
 49
-1.27
 74
     0
  0
LTYPE
  5
70
330
5
100
AcDbSymbolTableRecord
100
AcDbLinetypeTableRecord
  2
CENTER
 70
     0
  3
Center ____ _ ____ _ ____ _ ____ _ ____ _ ____
 72
    65
 73
     4
 40
10.16
 49
6.35
 74
     0
 49
-1.27
 74
     0
 49
1.27
 74
     0
 49
-1.27
 74
     0
  0
LTYPE
  5
71
330
5
100
AcDbSymbolTableRecord
100
AcDbLinetypeTableRecord
  2
CENTERX2
 70
     0
  3
Center (2x) ________  __  ________  __  _____
 72
    65
 73
     4
 40
20.32
 49
12.7
 74
     0
 49
-2.54
 74
     0
 49
2.54
 74
     0
 49
-2.54
 74
     0
  0
LTYPE
  5
72
330
5
100
AcDbSymbolTableRecord
100
AcDbLinetypeTableRecord
  2
DOT2
 70
     0
  3
Dot (.5x) ........................................
 72
    65
 73
     2
 40
0.635
 49
0.0
 74
     0
 49
-0.635
 74
     0
  0
ENDTAB
  0
TABLE
  2
LAYER
  5
2
330
0
100
AcDbSymbolTable
 70
    13
  0
LAYER
  5
10
330
2
100
AcDbSymbolTableRecord
100
AcDbLayerTableRecord
  2
0
 70
     0
 62
     7
  6
Continuous
370
    -3
390
F
  0
LAYER
  5
73
330
2
100
AcDbSymbolTableRecord
100
AcDbLayerTableRecord
  2
FORMAT
 70
     0
 62
     7
  6
Continuous
370
    -3
390
F
  0
LAYER
  5
74
330
2
100
AcDbSymbolTableRecord
100
AcDbLayerTableRecord
  2
OSA
 70
     0
 62
     7
  6
CENTER
370
    -3
390
F
  0
LAYER
  5
75
330
2
100
AcDbSymbolTableRecord
100
AcDbLayerTableRecord
  2
0_35
 70
     0
 62
     7
  6
Continuous
370
    35
390
F
  0
LAYER
  5
76
330
2
100
AcDbSymbolTableRecord
100
AcDbLayerTableRecord
  2
0_5
 70
     0
 62
     7
  6
Continuous
370
    50
390
F
  0
LAYER
  5
77
330
2
100
AcDbSymbolTableRecord
100
AcDbLayerTableRecord
  2
0_25
 70
     0
 62
     7
  6
Continuous
370
    25
390
F
  0
LAYER
  5
78
330
2
100
AcDbSymbolTableRecord
100
AcDbLayerTableRecord
  2
0_18
 70
     0
 62
     7
  6
Continuous
370
    -3
390
F
  0
LAYER
  5
79
330
2
100
AcDbSymbolTableRecord
100
AcDbLayerTableRecord
  2
SLD-0
 70
     0
 62
   179
  6
Continuous
370
    -3
390
F
  0
LAYER
  5
7A
330
2
100
AcDbSymbolTableRecord
100
AcDbLayerTableRecord
  2
KOTY
 70
     0
 62
     7
  6
Continuous
370
    -3
390
F
  0
LAYER
  5
7B
330
2
100
AcDbSymbolTableRecord
100
AcDbLayerTableRecord
  2
SILNA
 70
     0
 62
   179
  6
Continuous
370
    -3
390
F
  0
LAYER
  5
7C
330
2
100
AcDbSymbolTableRecord
100
AcDbLayerTableRecord
  2
0_18_1
 70
     0
 62
   179
  6
Continuous
370
    -3
390
F
  0
LAYER
  5
7D
330
2
100
AcDbSymbolTableRecord
100
AcDbLayerTableRecord
  2
0_35_1
 70
     0
 62
   179
  6
Continuous
370
    35
390
F
  0
LAYER
  5
7E
330
2
100
AcDbSymbolTableRecord
100
AcDbLayerTableRecord
  2
0_5_1
 70
     0
 62
   179
  6
Continuous
370
    50
390
F
  0
ENDTAB
  0
TABLE
  2
STYLE
  5
3
330
0
100
AcDbSymbolTable
 70
     1
  0
STYLE
  5
11
330
3
100
AcDbSymbolTableRecord
100
AcDbTextStyleTableRecord
  2
Standard
 70
     0
 40
0.0
 41
1.0
 50
0.0
 71
     0
 42
2.0
  3
txt
  4

  0
ENDTAB
  0
TABLE
  2
VIEW
  5
6
330
0
100
AcDbSymbolTable
 70
     0
  0
ENDTAB
  0
TABLE
  2
UCS
  5
7
330
0
100
AcDbSymbolTable
 70
     0
  0
ENDTAB
  0
TABLE
  2
APPID
  5
9
330
0
100
AcDbSymbolTable
 70
     1
  0
APPID
  5
12
330
9
100
AcDbSymbolTableRecord
100
AcDbRegAppTableRecord
  2
ACAD
 70
     0
  0
ENDTAB
  0
TABLE
  2
DIMSTYLE
  5
A
330
0
100
AcDbSymbolTable
 70
     1
100
AcDbDimStyleTable
  0
DIMSTYLE
105
27
330
A
100
AcDbSymbolTableRecord
100
AcDbDimStyleTableRecord
  2
ISO-25
 70
     0
 41
2.5
 42
0.625
 43
3.75
 44
1.25
 73
     0
 74
     0
 77
     1
 78
     8
140
2.5
141
2.5
143
0.0393700787
147
0.625
171
     3
172
     1
178
     0
271
     2
272
     2
274
     3
278
    44
283
     0
284
     8
340
11
  0
ENDTAB
  0
TABLE
  2
BLOCK_RECORD
  5
1
330
0
100
AcDbSymbolTable
 70
     1
  0
BLOCK_RECORD
  5
1F
330
1
100
AcDbSymbolTableRecord
100
AcDbBlockTableRecord
  2
*Model_Space
340
22
  0
BLOCK_RECORD
  5
1B
330
1
100
AcDbSymbolTableRecord
100
AcDbBlockTableRecord
  2
*Paper_Space
340
1E
  0
BLOCK_RECORD
  5
23
330
1
100
AcDbSymbolTableRecord
100
AcDbBlockTableRecord
  2
*Paper_Space0
340
26
  0
ENDTAB
  0
ENDSEC
  0
SECTION
  2
BLOCKS
  0
BLOCK
  5
20
330
1F
100
AcDbEntity
  8
0
100
AcDbBlockBegin
  2
*Model_Space
 70
     0
 10
0.0
 20
0.0
 30
0.0
  3
*Model_Space
  1

  0
ENDBLK
  5
21
330
1F
100
AcDbEntity
  8
0
100
AcDbBlockEnd
  0
BLOCK
  5
1C
330
1B
100
AcDbEntity
 67
     1
  8
0
100
AcDbBlockBegin
  2
*Paper_Space
 70
     0
 10
0.0
 20
0.0
 30
0.0
  3
*Paper_Space
  1

  0
ENDBLK
  5
1D
330
1B
100
AcDbEntity
 67
     1
  8
0
100
AcDbBlockEnd
  0
BLOCK
  5
24
330
23
100
AcDbEntity
  8
0
100
AcDbBlockBegin
  2
*Paper_Space0
 70
     0
 10
0.0
 20
0.0
 30
0.0
  3
*Paper_Space0
  1

  0
ENDBLK
  5
25
330
23
100
AcDbEntity
  8
0
100
AcDbBlockEnd
  0
ENDSEC
  0
SECTION
  2
ENTITIES
  0
LINE
  5
7F
330
1F
100
AcDbEntity
  8
0
  6
Continuous
 62
     7
370
    25
100
AcDbLine
 10
6521.3499864161
 20
4999.0672699948
 30
0.0
 11
6520.7721692949
 21
4999.0672699948
 31
0.0
  0
ELLIPSE
  5
80
330
1F
100
AcDbEntity
  8
0
  6
Continuous
 62
     7
370
    25
100
AcDbEllipse
 10
6521.4721718706
 20
4999.0672699948
 30
0.0
 11
-9.094947017729282E-13
 21
7.000000000002728
 31
0.0
210
0.0
220
0.0
230
1.0
 40
0.0174550649
 41
1.570796327061376
 42
3.124139361071244
  0
LINE
  5
81
330
1F
100
AcDbEntity
  8
0
  6
Continuous
 62
     7
370
    25
100
AcDbLine
 10
6520.617795809
 20
4992.0683361288
 30
0.0
 11
6521.4700394404
 21
4992.0683361288
 31
0.0
  0
SPLINE
  5
82
330
1F
100
AcDbEntity
  8
0
  6
Continuous
 62
     7
370
    25
100
AcDbSpline
210
0.0
220
0.0
230
1.0
 70
     8
 71
     3
 72
    15
 73
    11
 74
     0
 42
0.00000001
 43
0.00000001
 40
0.0
 40
0.0
 40
0.0
 40
0.0
 40
0.1539226336086998
 40
0.2995914609757387
 40
0.4370009889196785
 40
0.566146169667476
 40
0.6870224295879073
 40
0.7996257084025234
 40
0.9039525138751463
 40
1.0
 40
1.0
 40
1.0
 40
1.0
 10
6520.617795809561
 20
4992.068336128751
 30
0.0
 10
6520.630070100972
 20
4992.11665502245
 30
0.0
 10
6520.653960498439
 20
4992.210701801773
 30
0.0
 10
6520.685262992594
 20
4992.808342353788
 30
0.0
 10
6520.711928849382
 20
4993.639095581032
 30
0.0
 10
6520.7337294695
 20
4994.649684718703
 30
0.0
 10
6520.750770268984
 20
4995.753589566827
 30
0.0
 10
6520.762874169878
 20
4996.886043947071
 30
0.0
 10
6520.770609137775
 20
4997.993614105712
 30
0.0
 10
6520.771663768042
 20
4998.719380747616
 30
0.0
 10
6520.772169294899
 20
4999.067269994846
 30
0.0
  0
LINE
  5
83
330
1F
100
AcDbEntity
  8
0
  6
Continuous
 62
     7
370
    25
100
AcDbLine
 10
6520.7721692949
 20
4999.0672699948
 30
0.0
 11
6520.7721692949
 21
5002.0850193587
 31
0.0
  0
SPLINE
  5
84
330
1F
100
AcDbEntity
  8
0
  6
Continuous
 62
     7
370
    25
100
AcDbSpline
210
0.0
220
0.0
230
1.0
 70
    24
 71
     3
 72
    11
 73
     7
 74
     0
 42
0.00000001
 43
0.00000001
 40
0.0
 40
0.0
 40
0.0
 40
0.0
 40
0.2499999999999999
 40
0.4999999999999993
 40
0.7499999999999973
 40
1.0
 40
1.0
 40
1.0
 40
1.0
 10
6519.772511969923
 20
4999.067269994846
 30
0.0
 10
6519.790404553012
 20
4999.067269994846
 30
0.0
 10
6519.826189719187
 20
4999.067269994846
 30
0.0
 10
6520.05861718002
 20
4999.067269994846
 30
0.0
 10
6520.38561457108
 20
4999.067269994846
 30
0.0
 10
6520.643317720293
 20
4999.067269994846
 30
0.0
 10
6520.772169294899
 20
4999.067269994846
 30
0.0
  0
LINE
  5
85
330
1F
100
AcDbEntity
  8
0
  6
Continuous
 62
     7
370
    25
100
AcDbLine
 10
6519.7725119699
 20
5002.170217836
 30
0.0
 11
6519.7725119699
 21
4999.0672699948
 31
0.0
  0
ELLIPSE
  5
86
330
1F
100
AcDbEntity
  8
0
  6
Continuous
 62
     7
370
    25
100
AcDbEllipse
 10
6520.7721692949
 20
5002.1725080222
 30
0.0
 11
1.0
 21
0.0
 31
0.0
210
0.0
220
0.0
230
1.0
 40
0.0874886635
 41
3.167772592374174
 42
4.712388980384691
  0
LINE
  5
87
330
1F
100
AcDbEntity
  8
0
  6
Continuous
 62
     7
370
    25
100
AcDbLine
 10
6528.2395159529
 20
4999.0672699948
 30
0.0
 11
6527.6616988317
 21
4999.0672699948
 31
0.0
  0
LINE
  5
88
330
1F
100
AcDbEntity
  8
0
  6
Continuous
 62
     7
370
    25
100
AcDbLine
 10
6527.6616988317
 20
4999.2331358827
 30
0.0
 11
6527.6616988317
 21
4999.0672699948
 31
0.0
  0
LINE
  5
89
330
1F
100
AcDbEntity
  8
0
  6
Continuous
 62
     7
370
    25
100
AcDbLine
 10
6521.3499864161
 20
4999.2331358827
 30
0.0
 11
6527.6616988317
 21
4999.2331358827
 31
0.0
  0
LINE
  5
8A
330
1F
100
AcDbEntity
  8
0
  6
Continuous
 62
     7
370
    25
100
AcDbLine
 10
6521.3499864161
 20
4999.067269993
 30
0.0
 11
6521.3499864161
 21
4999.2331358827
 31
0.0
  0
LINE
  5
8B
330
1F
100
AcDbEntity
  8
0
  6
Continuous
 62
     7
370
    25
100
AcDbLine
 10
6520.7721692949
 20
5002.0850193587
 30
0.0
 11
6528.2395159529
 21
5002.0850193587
 31
0.0
  0
LINE
  5
8C
330
1F
100
AcDbEntity
  8
0
  6
Continuous
 62
     7
370
    25
100
AcDbLine
 10
6528.2395159529
 20
5002.0850193587
 30
0.0
 11
6528.2395159529
 21
4999.0672699948
 31
0.0
  0
LINE
  5
8D
330
1F
100
AcDbEntity
  8
0
  6
Continuous
 62
     7
370
    25
100
AcDbLine
 10
6527.5416458074
 20
4992.0683361288
 30
0.0
 11
6528.3938894388
 21
4992.0683361288
 31
0.0
  0
ELLIPSE
  5
8E
330
1F
100
AcDbEntity
  8
0
  6
Continuous
 62
     7
370
    25
100
AcDbEllipse
 10
6527.5395133772
 20
4999.0672699948
 30
0.0
 11
-9.094947017729280E-13
 21
7.000000000003637
 31
0.0
210
0.0
220
0.0
230
1.0
 40
0.0174550649
 41
3.159045946109144
 42
4.712388980384818
  0
SPLINE
  5
8F
330
1F
100
AcDbEntity
  8
0
  6
Continuous
 62
     7
370
    25
100
AcDbSpline
210
0.0
220
0.0
230
1.0
 70
     8
 71
     3
 72
    15
 73
    11
 74
     0
 42
0.00000001
 43
0.00000001
 40
0.0
 40
0.0
 40
0.0
 40
0.0
 40
0.0960474861250224
 40
0.2003742915977627
 40
0.3129775704124516
 40
0.4338538303329054
 40
0.5629990110806782
 40
0.700408539024547
 40
0.8460773663914659
 40
1.0
 40
1.0
 40
1.0
 40
1.0
 10
6528.239515952893
 20
4999.067269994847
 30
0.0
 10
6528.240021479751
 20
4998.719380747616
 30
0.0
 10
6528.241076110017
 20
4997.993614105711
 30
0.0
 10
6528.248811077915
 20
4996.88604394707
 30
0.0
 10
6528.26091497881
 20
4995.753589566827
 30
0.0
 10
6528.277955778293
 20
4994.649684718704
 30
0.0
 10
6528.29975639841
 20
4993.639095581034
 30
0.0
 10
6528.3264222552
 20
4992.808342353791
 30
0.0
 10
6528.357724749355
 20
4992.210701801776
 30
0.0
 10
6528.381615146821
 20
4992.116655022451
 30
0.0
 10
6528.393889438232
 20
4992.068336128752
 30
0.0
  0
LINE
  5
90
330
1F
100
AcDbEntity
  8
0
  6
Continuous
 62
     7
370
    25
100
AcDbLine
 10
6529.2391732779
 20
4999.0672699948
 30
0.0
 11
6529.2391732779
 21
5002.170217836
 31
0.0
  0
SPLINE
  5
91
330
1F
100
AcDbEntity
  8
0
  6
Continuous
 62
     7
370
    25
100
AcDbSpline
210
0.0
220
0.0
230
1.0
 70
    24
 71
     3
 72
    11
 73
     7
 74
     0
 42
0.00000001
 43
0.00000001
 40
0.0
 40
0.0
 40
0.0
 40
0.0
 40
0.2500000000000009
 40
0.5000000000000037
 40
0.7500000000000022
 40
1.0
 40
1.0
 40
1.0
 40
1.0
 10
6528.239515952893
 20
4999.067269994847
 30
0.0
 10
6528.3683675275
 20
4999.067269994847
 30
0.0
 10
6528.626070676713
 20
4999.067269994847
 30
0.0
 10
6528.953068067773
 20
4999.067269994847
 30
0.0
 10
6529.185495528604
 20
4999.067269994847
 30
0.0
 10
6529.221280694781
 20
4999.067269994847
 30
0.0
 10
6529.239173277869
 20
4999.067269994847
 30
0.0
  0
ELLIPSE
  5
92
330
1F
100
AcDbEntity
  8
0
  6
Continuous
 62
     7
370
    25
100
AcDbEllipse
 10
6528.2395159529
 20
5002.1725080222
 30
0.0
 11
1.0
 21
0.0
 31
0.0
210
0.0
220
0.0
230
1.0
 40
0.0874886635
 41
4.712388980384691
 42
6.257005368405647
  0
ELLIPSE
  5
93
330
1F
100
AcDbEntity
  8
0
  6
Continuous
 62
     7
370
    25
100
AcDbEllipse
 10
6529.3962888073
 20
4999.0672699948
 30
0.0
 11
-1.818989403545856E-12
 21
6.0
 31
0.0
210
0.0
220
0.0
230
1.0
 40
0.0261859216
 41
1.570796326794889
 42
3.124139361066208
  0
SPLINE
  5
94
330
1F
100
AcDbEntity
  8
0
  6
Continuous
 62
     7
370
    25
100
AcDbSpline
210
0.0
220
0.0
230
1.0
 70
     8
 71
     3
 72
    11
 73
     7
 74
     0
 42
0.00000001
 43
0.00000001
 40
0.0
 40
0.0
 40
0.0
 40
0.0
 40
0.2499999999999945
 40
0.4999999999999936
 40
0.7499999999999926
 40
1.0
 40
1.0
 40
1.0
 40
1.0
 10
6528.393889438795
 20
4992.068336128753
 30
0.0
 10
6528.524843469773
 20
4992.083416326408
 30
0.0
 10
6528.786751531728
 20
4992.113576721719
 30
0.0
 10
6529.117122173076
 20
4992.344813360505
 30
0.0
 10
6529.348314784331
 20
4992.675246916318
 30
0.0
 10
6529.378469436915
 20
4992.937204854875
 30
0.0
 10
6529.393546763208
 20
4993.068183824153
 30
0.0
  0
ELLIPSE
  5
95
330
1F
100
AcDbEntity
  8
0
  6
Continuous
 62
     7
370
    25
100
AcDbEllipse
 10
6519.6153964405
 20
4999.0672699948
 30
0.0
 11
0.0
 21
5.999999999995452
 31
0.0
210
0.0
220
0.0
230
1.0
 40
0.0261859216
 41
3.159045946113915
 42
4.712388980385144
  0
SPLINE
  5
96
330
1F
100
AcDbEntity
  8
0
  6
Continuous
 62
     7
370
    25
100
AcDbSpline
210
0.0
220
0.0
230
1.0
 70
     8
 71
     3
 72
    11
 73
     7
 74
     0
 42
0.00000001
 43
0.00000001
 40
0.0
 40
0.0
 40
0.0
 40
0.0
 40
0.2499999999999966
 40
0.4999999999999946
 40
0.7499999999999959
 40
1.0
 40
1.0
 40
1.0
 40
1.0
 10
6519.618138484585
 20
4993.068183824153
 30
0.0
 10
6519.633215810877
 20
4992.937204854874
 30
0.0
 10
6519.663370463462
 20
4992.675246916318
 30
0.0
 10
6519.894563074717
 20
4992.344813360504
 30
0.0
 10
6520.224933716065
 20
4992.113576721717
 30
0.0
 10
6520.486841778021
 20
4992.083416326407
 30
0.0
 10
6520.617795808997
 20
4992.068336128751
 30
0.0
  0
LINE
  5
97
330
1F
100
AcDbEntity
  8
0
  6
Continuous
 62
     7
370
    25
100
AcDbLine
 10
6519.3266658357
 20
5003.6598153022
 30
0.0
 11
6519.7725119699
 21
5002.170217836
 31
0.0
  0
LINE
  5
98
330
1F
100
AcDbEntity
  8
0
  6
Continuous
 62
     7
370
    25
100
AcDbLine
 10
6519.3266658357
 20
5003.6598153022
 30
0.0
 11
6521.4081699608
 21
5003.6598153022
 31
0.0
  0
LINE
  5
99
330
1F
100
AcDbEntity
  8
0
  6
Continuous
 62
     7
370
    25
100
AcDbLine
 10
6521.6819023552
 20
5002.2878077247
 30
0.0
 11
6521.4081699608
 21
5003.6598153022
 31
0.0
  0
LINE
  5
9A
330
1F
100
AcDbEntity
  8
0
  6
Continuous
 62
     7
370
    25
100
AcDbLine
 10
6521.6819023552
 20
5002.2878077247
 30
0.0
 11
6527.3297828926
 21
5002.2878077247
 31
0.0
  0
LINE
  5
9B
330
1F
100
AcDbEntity
  8
0
  6
Continuous
 62
     7
370
    25
100
AcDbLine
 10
6527.603515287
 20
5003.6598153022
 30
0.0
 11
6527.3297828926
 21
5002.2878077247
 31
0.0
  0
LINE
  5
9C
330
1F
100
AcDbEntity
  8
0
  6
Continuous
 62
     7
370
    25
100
AcDbLine
 10
6527.603515287
 20
5003.6598153022
 30
0.0
 11
6529.6850194121
 21
5003.6598153022
 31
0.0
  0
LINE
  5
9D
330
1F
100
AcDbEntity
  8
0
  6
Continuous
 62
     7
370
    25
100
AcDbLine
 10
6529.6850194121
 20
5003.6598153022
 30
0.0
 11
6529.2391732779
 21
5002.170217836
 31
0.0
  0
LINE
  5
9E
330
1F
100
AcDbEntity
  8
0
  6
Continuous
 62
     7
370
    25
100
AcDbLine
 10
6521.3499864161
 20
4999.2331358827
 30
0.0
 11
6521.5361737728
 21
4998.6741195779
 31
0.0
  0
LINE
  5
9F
330
1F
100
AcDbEntity
  8
0
  6
Continuous
 62
     7
370
    25
100
AcDbLine
 10
6521.5361737728
 20
4998.6741195779
 30
0.0
 11
6521.873638364
 21
4997.6609025042
 31
0.0
  0
LINE
  5
A0
330
1F
100
AcDbEntity
  8
0
  6
Continuous
 62
     7
370
    25
100
AcDbLine
 10
6521.873638364
 20
4993.6553692612
 30
0.0
 11
6521.873638364
 21
4997.6609025042
 31
0.0
  0
LINE
  5
A1
330
1F
100
AcDbEntity
  8
0
  6
Continuous
 62
     7
370
    25
100
AcDbLine
 10
6521.5243119571
 20
4992.9565035174
 30
0.0
 11
6521.873638364
 21
4993.6553692612
 31
0.0
  0
LINE
  5
A2
330
1F
100
AcDbEntity
  8
0
  6
Continuous
 62
     7
370
    25
100
AcDbLine
 10
6521.5243119571
 20
4992.9565035174
 30
0.0
 11
6521.5243119571
 21
4992.0140636121
 31
0.0
  0
LINE
  5
A3
330
1F
100
AcDbEntity
  8
0
  6
Continuous
 62
     7
370
    25
100
AcDbLine
 10
6521.5243119571
 20
4992.0140636121
 30
0.0
 11
6521.4700394404
 21
4992.0683361288
 31
0.0
  0
LINE
  5
A4
330
1F
100
AcDbEntity
  8
0
  6
Continuous
 62
     7
370
    25
100
AcDbLine
 10
6527.6616988317
 20
4999.2331358827
 30
0.0
 11
6527.475511475
 21
4998.6741195779
 31
0.0
  0
LINE
  5
A5
330
1F
100
AcDbEntity
  8
0
  6
Continuous
 62
     7
370
    25
100
AcDbLine
 10
6527.3297828926
 20
4999.1116608538
 30
0.0
 11
6527.475511475
 21
4998.6741195779
 31
0.0
  0
LINE
  5
A6
330
1F
100
AcDbEntity
  8
0
  6
Continuous
 62
     7
370
    25
100
AcDbLine
 10
6521.6819023552
 20
4999.1116608538
 30
0.0
 11
6527.3297828926
 21
4999.1116608538
 31
0.0
  0
LINE
  5
A7
330
1F
100
AcDbEntity
  8
0
  6
Continuous
 62
     7
370
    25
100
AcDbLine
 10
6521.5361737728
 20
4998.6741195779
 30
0.0
 11
6521.6819023552
 21
4999.1116608538
 31
0.0
  0
LINE
  5
A8
330
1F
100
AcDbEntity
  8
0
  6
Continuous
 62
     7
370
    25
100
AcDbLine
 10
6527.5416458074
 20
4992.0683361288
 30
0.0
 11
6527.4873732907
 21
4992.0140636121
 31
0.0
  0
LINE
  5
A9
330
1F
100
AcDbEntity
  8
0
  6
Continuous
 62
     7
370
    25
100
AcDbLine
 10
6527.4873732907
 20
4992.9565035174
 30
0.0
 11
6527.4873732907
 21
4992.0140636121
 31
0.0
  0
LINE
  5
AA
330
1F
100
AcDbEntity
  8
0
  6
Continuous
 62
     7
370
    25
100
AcDbLine
 10
6527.1380468838
 20
4993.6553692612
 30
0.0
 11
6527.4873732907
 21
4992.9565035174
 31
0.0
  0
LINE
  5
AB
330
1F
100
AcDbEntity
  8
0
  6
Continuous
 62
     7
370
    25
100
AcDbLine
 10
6527.1380468838
 20
4993.6553692612
 30
0.0
 11
6527.1380468838
 21
4997.6609025042
 31
0.0
  0
LINE
  5
AC
330
1F
100
AcDbEntity
  8
0
  6
Continuous
 62
     7
370
    25
100
AcDbLine
 10
6527.475511475
 20
4998.6741195779
 30
0.0
 11
6527.1380468838
 21
4997.6609025042
 31
0.0
  0
LINE
  5
AD
330
1F
100
AcDbEntity
  8
0
  6
Continuous
 62
     7
370
    25
100
AcDbLine
 10
6529.6850194121
 20
5003.6598153022
 30
0.0
 11
6529.6850194121
 21
5032.0951909731
 31
0.0
  0
LINE
  5
AE
330
1F
100
AcDbEntity
  8
0
  6
Continuous
 62
     7
370
    25
100
AcDbLine
 10
6529.6850194121
 20
5032.0951909731
 30
0.0
 11
6529.7373912552
 21
5032.1475628163
 31
0.0
  0
LINE
  5
AF
330
1F
100
AcDbEntity
  8
0
  6
Continuous
 62
     7
370
    25
100
AcDbLine
 10
6529.7373912552
 20
4992.8389832622
 30
0.0
 11
6529.7373912552
 21
5032.1475628163
 31
0.0
  0
LINE
  5
B0
330
1F
100
AcDbEntity
  8
0
  6
Continuous
 62
     7
370
    25
100
AcDbLine
 10
6529.7373912552
 20
4992.8389832622
 30
0.0
 11
6529.3935467632
 21
4993.0681838239
 31
0.0
  0
LINE
  5
B1
330
1F
100
AcDbEntity
  8
0
  6
Continuous
 62
     7
370
    25
100
AcDbLine
 10
6519.3266658357
 20
5032.0951909731
 30
0.0
 11
6519.3266658357
 21
5003.6598153022
 31
0.0
  0
LINE
  5
B2
330
1F
100
AcDbEntity
  8
0
  6
Continuous
 62
     7
370
    25
100
AcDbLine
 10
6519.6181384846
 20
4993.0681838239
 30
0.0
 11
6519.2742939926
 21
4992.8389832622
 31
0.0
  0
LINE
  5
B3
330
1F
100
AcDbEntity
  8
0
  6
Continuous
 62
     7
370
    25
100
AcDbLine
 10
6519.2742939926
 20
5032.1475628163
 30
0.0
 11
6519.2742939926
 21
4992.8389832622
 31
0.0
  0
LINE
  5
B4
330
1F
100
AcDbEntity
  8
0
  6
Continuous
 62
     7
370
    25
100
AcDbLine
 10
6519.2742939926
 20
5032.1475628163
 30
0.0
 11
6519.3266658357
 21
5032.0951909731
 31
0.0
  0
ELLIPSE
  5
B5
330
1F
100
AcDbEntity
  8
0
  6
Continuous
 62
     7
370
    25
100
AcDbEllipse
 10
6528.7370484627
 20
4992.8394401825
 30
0.0
 11
-0.8324947319633793
 21
0.5549260338393651
 31
0.0
210
0.0
220
0.0
230
1.0
 40
0.9995051766
 41
2.158968785092301
 42
3.729308261128782
  0
LINE
  5
B6
330
1F
100
AcDbEntity
  8
0
  6
Continuous
 62
     7
370
    25
100
AcDbLine
 10
6528.3938894382
 20
4992.0683361288
 30
0.0
 11
6528.7375054701
 21
4991.8392878545
 31
0.0
  0
LINE
  5
B7
330
1F
100
AcDbEntity
  8
0
  6
Continuous
 62
     7
370
    25
100
AcDbLine
 10
6520.2741797777
 20
4991.8392878545
 30
0.0
 11
6520.6177958096
 21
4992.0683361288
 31
0.0
  0
ELLIPSE
  5
B8
330
1F
100
AcDbEntity
  8
0
  6
Continuous
 62
     7
370
    25
100
AcDbEllipse
 10
6520.2746367851
 20
4992.8394401825
 30
0.0
 11
0.8324947319642888
 21
0.5549260338402746
 31
0.0
210
0.0
220
0.0
230
1.0
 40
0.9995051766
 41
2.553877046050333
 42
4.124216522088188
  0
LINE
  5
B9
330
1F
100
AcDbEntity
  8
0
  6
Continuous
 62
     7
370
    25
100
AcDbLine
 10
6527.4873732907
 20
4992.0140636121
 30
0.0
 11
6521.5243119571
 21
4992.0140636121
 31
0.0
  0
LINE
  5
BA
330
1F
100
AcDbEntity
  8
0
  6
Continuous
 62
     7
370
    25
100
AcDbLine
 10
6520.2741797777
 20
4991.8392878545
 30
0.0
 11
6528.7375054701
 21
4991.8392878545
 31
0.0
  0
LINE
  5
BB
330
1F
100
AcDbEntity
  8
0
  6
Continuous
 62
     7
370
    25
100
AcDbLine
 10
6518.0735548514
 20
5069.5825637761
 30
0.0
 11
6518.0735548514
 21
5059.7398758659
 31
0.0
  0
SPLINE
  5
BC
330
1F
100
AcDbEntity
  8
0
  6
Continuous
 62
     7
370
    25
100
AcDbSpline
210
0.0
220
0.0
230
1.0
 70
    24
 71
     3
 72
    11
 73
     7
 74
     0
 42
0.00000001
 43
0.00000001
 40
0.0
 40
0.0
 40
0.0
 40
0.0
 40
0.2499999999999938
 40
0.499999999999996
 40
0.7500000000000018
 40
1.0
 40
1.0
 40
1.0
 40
1.0
 10
6518.073554851385
 20
5069.582563776102
 30
0.0
 10
6518.08155392537
 20
5069.582563776102
 30
0.0
 10
6518.097552073342
 20
5069.582563776102
 30
0.0
 10
6518.213386416418
 20
5069.582563776102
 30
0.0
 10
6518.378072963387
 20
5069.582563776102
 30
0.0
 10
6518.508381529308
 20
5069.582563776102
 30
0.0
 10
6518.573535812268
 20
5069.582563776102
 30
0.0
  0
LINE
  5
BD
330
1F
100
AcDbEntity
  8
0
  6
Continuous
 62
     7
370
    25
100
AcDbLine
 10
6518.5735358129
 20
5059.7398758666
 30
0.0
 11
6518.5735358129
 21
5069.5825637767
 31
0.0
  0
SPLINE
  5
BE
330
1F
100
AcDbEntity
  8
0
  6
Continuous
 62
     7
370
    25
100
AcDbSpline
210
0.0
220
0.0
230
1.0
 70
    24
 71
     3
 72
    11
 73
     7
 74
     0
 42
0.00000001
 43
0.00000001
 40
0.0
 40
0.0
 40
0.0
 40
0.0
 40
0.2500000000000047
 40
0.4999999999999987
 40
0.7500000000000002
 40
1.0
 40
1.0
 40
1.0
 40
1.0
 10
6518.073554851387
 20
5059.739875865905
 30
0.0
 10
6518.081553925403
 20
5059.739875865905
 30
0.0
 10
6518.097552073436
 20
5059.739875865905
 30
0.0
 10
6518.213386416704
 20
5059.739875865905
 30
0.0
 10
6518.378072963887
 20
5059.739875865905
 30
0.0
 10
6518.508381529908
 20
5059.739875865905
 30
0.0
 10
6518.573535812919
 20
5059.739875865905
 30
0.0
  0
LINE
  5
BF
330
1F
100
AcDbEntity
  8
0
  6
Continuous
 62
     7
370
    25
100
AcDbLine
 10
6534.8727797753
 20
5059.7398758667
 30
0.0
 11
6518.5735358129
 21
5059.7398758666
 31
0.0
  0
LINE
  5
C0
330
1F
100
AcDbEntity
  8
0
  6
Continuous
 62
     7
370
    25
100
AcDbLine
 10
6518.5735358123
 20
5069.5825637761
 30
0.0
 11
6534.872779776
 21
5069.5825637761
 31
0.0
  0
LINE
  5
C1
330
1F
100
AcDbEntity
  8
0
  6
Continuous
 62
     7
370
    25
100
AcDbLine
 10
6534.8727797753
 20
5069.5825637761
 30
0.0
 11
6534.8727797753
 21
5059.7398758658
 31
0.0
  0
SPLINE
  5
C2
330
1F
100
AcDbEntity
  8
0
  6
Continuous
 62
     7
370
    25
100
AcDbSpline
210
0.0
220
0.0
230
1.0
 70
     8
 71
     3
 72
    13
 73
     9
 74
     0
 42
0.00000001
 43
0.00000001
 40
0.0
 40
0.0
 40
0.0
 40
0.0
 40
0.1993624729093067
 40
0.432007936643352
 40
0.5614183591822894
 40
0.6992244946358044
 40
0.8454204602180131
 40
1.0
 40
1.0
 40
1.0
 40
1.0
 10
6518.573535812918
 20
5069.582563776701
 30
0.0
 10
6518.573234559862
 20
5069.894071950173
 30
0.0
 10
6518.572581760418
 20
5070.569093689749
 30
0.0
 10
6518.569000114467
 20
5071.35725047727
 30
0.0
 10
6518.565100976552
 20
5071.915797640877
 30
0.0
 10
6518.561357602754
 20
5072.272285633385
 30
0.0
 10
6518.55697427642
 20
5072.526696521747
 30
0.0
 10
6518.553628532166
 20
5072.563523046478
 30
0.0
 10
6518.551909031749
 20
5072.58244954529
 30
0.0
  0
LINE
  5
C3
330
1F
100
AcDbEntity
  8
0
  6
Continuous
 62
     7
370
    25
100
AcDbLine
 10
6534.8944065565
 20
5072.5824495453
 30
0.0
 11
6518.5519090317
 21
5072.5824495453
 31
0.0
  0
SPLINE
  5
C4
330
1F
100
AcDbEntity
  8
0
  6
Continuous
 62
     7
370
    25
100
AcDbSpline
210
0.0
220
0.0
230
1.0
 70
     8
 71
     3
 72
    13
 73
     9
 74
     0
 42
0.00000001
 43
0.00000001
 40
0.0
 40
0.0
 40
0.0
 40
0.0
 40
0.1545795397755736
 40
0.3007755053532387
 40
0.4385816408040736
 40
0.5679920633421991
 40
0.800637527079673
 40
1.0
 40
1.0
 40
1.0
 40
1.0
 10
6534.894406556517
 20
5072.582449545296
 30
0.0
 10
6534.8926870561
 20
5072.563523046524
 30
0.0
 10
6534.889341311845
 20
5072.52669652187
 30
0.0
 10
6534.88495798551
 20
5072.272285633527
 30
0.0
 10
6534.881214611712
 20
5071.915797640972
 30
0.0
 10
6534.877315473796
 20
5071.357250477235
 30
0.0
 10
6534.873733827844
 20
5070.569093689459
 30
0.0
 10
6534.873081028401
 20
5069.894071949677
 30
0.0
 10
6534.872779775344
 20
5069.582563776103
 30
0.0
  0
SPLINE
  5
C5
330
1F
100
AcDbEntity
  8
0
  6
Continuous
 62
     7
370
    25
100
AcDbSpline
210
0.0
220
0.0
230
1.0
 70
    24
 71
     3
 72
    11
 73
     7
 74
     0
 42
0.00000001
 43
0.00000001
 40
0.0
 40
0.0
 40
0.0
 40
0.0
 40
0.2499999999999826
 40
0.4999999999999946
 40
0.7499999999999919
 40
1.0
 40
1.0
 40
1.0
 40
1.0
 10
6534.872779775994
 20
5069.582563776103
 30
0.0
 10
6534.937934058954
 20
5069.582563776103
 30
0.0
 10
6535.068242624874
 20
5069.582563776103
 30
0.0
 10
6535.232929171844
 20
5069.582563776103
 30
0.0
 10
6535.34876351492
 20
5069.582563776103
 30
0.0
 10
6535.364761662892
 20
5069.582563776103
 30
0.0
 10
6535.372760736877
 20
5069.582563776103
 30
0.0
  0
LINE
  5
C6
330
1F
100
AcDbEntity
  8
0
  6
Continuous
 62
     7
370
    25
100
AcDbLine
 10
6535.3727607369
 20
5059.7398758667
 30
0.0
 11
6535.3727607369
 21
5069.5825637761
 31
0.0
  0
SPLINE
  5
C7
330
1F
100
AcDbEntity
  8
0
  6
Continuous
 62
     7
370
    25
100
AcDbSpline
210
0.0
220
0.0
230
1.0
 70
    24
 71
     3
 72
    11
 73
     7
 74
     0
 42
0.00000001
 43
0.00000001
 40
0.0
 40
0.0
 40
0.0
 40
0.0
 40
0.2499999999999756
 40
0.4999999999999901
 40
0.7499999999999861
 40
0.9999999999999999
 40
0.9999999999999999
 40
0.9999999999999999
 40
0.9999999999999999
 10
6534.872779775344
 20
5059.73987586665
 30
0.0
 10
6534.937934058355
 20
5059.73987586665
 30
0.0
 10
6535.068242624376
 20
5059.73987586665
 30
0.0
 10
6535.232929171559
 20
5059.73987586665
 30
0.0
 10
6535.348763514826
 20
5059.73987586665
 30
0.0
 10
6535.36476166286
 20
5059.73987586665
 30
0.0
 10
6535.372760736876
 20
5059.73987586665
 30
0.0
  0
LINE
  5
C8
330
1F
100
AcDbEntity
  8
0
  6
Continuous
 62
     7
370
    25
100
AcDbLine
 10
6518.5519090309
 20
5056.7399900975
 30
0.0
 11
6534.8944065569
 21
5056.7399900975
 31
0.0
  0
SPLINE
  5
C9
330
1F
100
AcDbEntity
  8
0
  6
Continuous
 62
     7
370
    25
100
AcDbSpline
210
0.0
220
0.0
230
1.0
 70
     8
 71
     3
 72
    13
 73
     9
 74
     0
 42
0.00000001
 43
0.00000001
 40
0.0
 40
0.0
 40
0.0
 40
0.0
 40
0.1545795397826492
 40
0.3007755053653731
 40
0.4385816408192605
 40
0.5679920633584197
 40
0.8006375270917709
 40
1.0
 40
1.0
 40
1.0
 40
1.0
 10
6518.551909031743
 20
5056.739990097454
 30
0.0
 10
6518.55362853216
 20
5056.758916596194
 30
0.0
 10
6518.556974276415
 20
5056.795743120791
 30
0.0
 10
6518.561357602751
 20
5057.050154009105
 30
0.0
 10
6518.56510097655
 20
5057.406642001662
 30
0.0
 10
6518.569000114466
 20
5057.965189165426
 30
0.0
 10
6518.572581760419
 20
5058.753345953247
 30
0.0
 10
6518.573234559862
 20
5059.428367693065
 30
0.0
 10
6518.573535812919
 20
5059.73987586665
 30
0.0
  0
SPLINE
  5
CA
330
1F
100
AcDbEntity
  8
0
  6
Continuous
 62
     7
370
    25
100
AcDbSpline
210
0.0
220
0.0
230
1.0
 70
     8
 71
     3
 72
    13
 73
     9
 74
     0
 42
0.00000001
 43
0.00000001
 40
0.0
 40
0.0
 40
0.0
 40
0.0
 40
0.1993624728936748
 40
0.43200793662253
 40
0.5614183591627496
 40
0.6992244946201637
 40
0.8454204602088858
 40
1.0
 40
1.0
 40
1.0
 40
1.0
 10
6534.872779775345
 20
5059.739875865815
 30
0.0
 10
6534.873081028402
 20
5059.428367692378
 30
0.0
 10
6534.873733827844
 20
5058.753345952858
 30
0.0
 10
6534.877315473796
 20
5057.965189165403
 30
0.0
 10
6534.881214611711
 20
5057.406642001825
 30
0.0
 10
6534.88495798551
 20
5057.050154009329
 30
0.0
 10
6534.889341311844
 20
5056.795743120982
 30
0.0
 10
6534.892687056097
 20
5056.758916596265
 30
0.0
 10
6534.894406556515
 20
5056.739990097463
 30
0.0
  0
ELLIPSE
  5
CB
330
1F
100
AcDbEntity
  8
0
  6
Continuous
 62
     7
370
    25
100
AcDbEllipse
 10
6535.3945779064
 20
5059.7398758667
 30
0.0
 11
7.275957614183426E-12
 21
2.499999999996362
 31
0.0
210
0.0
220
0.0
230
1.0
 40
0.0087268678
 41
1.570796326795286
 42
3.132866007660497
  0
SPLINE
  5
CC
330
1F
100
AcDbEntity
  8
0
  6
Continuous
 62
     7
370
    25
100
AcDbSpline
210
0.0
220
0.0
230
1.0
 70
     8
 71
     3
 72
    11
 73
     7
 74
     0
 42
0.00000001
 43
0.00000001
 40
0.0
 40
0.0
 40
0.0
 40
0.0
 40
0.2499999999999894
 40
0.4999999999999926
 40
0.750000000000002
 40
0.9999999999999999
 40
0.9999999999999999
 40
0.9999999999999999
 40
0.9999999999999999
 10
6534.894406556949
 20
5056.739990097459
 30
0.0
 10
6534.959919405913
 20
5056.747509842763
 30
0.0
 10
6535.090945103841
 20
5056.762549333373
 30
0.0
 10
6535.256206190045
 20
5056.87817142589
 30
0.0
 10
6535.371828282367
 20
5057.043432512231
 30
0.0
 10
6535.386867772822
 20
5057.174458210177
 30
0.0
 10
6535.39438751805
 20
5057.239971059151
 30
0.0
  0
ELLIPSE
  5
CD
330
1F
100
AcDbEntity
  8
0
  6
Continuous
 62
     7
370
    25
100
AcDbEllipse
 10
6518.0517376819
 20
5059.7398758667
 30
0.0
 11
0.0
 21
2.500000000002728
 31
0.0
210
0.0
220
0.0
230
1.0
 40
0.0087268678
 41
3.150319299937187
 42
4.712388980086375
  0
SPLINE
  5
CE
330
1F
100
AcDbEntity
  8
0
  6
Continuous
 62
     7
370
    25
100
AcDbSpline
210
0.0
220
0.0
230
1.0
 70
     8
 71
     3
 72
    11
 73
     7
 74
     0
 42
0.00000001
 43
0.00000001
 40
0.0
 40
0.0
 40
0.0
 40
0.0
 40
0.2500000000000095
 40
0.5000000000000224
 40
0.750000000000029
 40
1.0
 40
1.0
 40
1.0
 40
1.0
 10
6518.051928070215
 20
5057.239971059151
 30
0.0
 10
6518.059447815433
 20
5057.174458210213
 30
0.0
 10
6518.074487305872
 20
5057.043432512339
 30
0.0
 10
6518.190109398073
 20
5056.878171426056
 30
0.0
 10
6518.35537048412
 20
5056.762549333517
 30
0.0
 10
6518.486396181964
 20
5056.747509842811
 30
0.0
 10
6518.551909030885
 20
5056.739990097459
 30
0.0
  0
ELLIPSE
  5
CF
330
1F
100
AcDbEntity
  8
0
  6
Continuous
 62
     7
370
    25
100
AcDbEllipse
 10
6518.0517376819
 20
5069.5825637761
 30
0.0
 11
7.275957614183426E-12
 21
2.499999999997272
 31
0.0
210
0.0
220
0.0
230
1.0
 40
0.0087268678
 41
4.712388980384715
 42
6.274458661252461
  0
SPLINE
  5
D0
330
1F
100
AcDbEntity
  8
0
  6
Continuous
 62
     7
370
    25
100
AcDbSpline
210
0.0
220
0.0
230
1.0
 70
     8
 71
     3
 72
    11
 73
     7
 74
     0
 42
0.00000001
 43
0.00000001
 40
0.0
 40
0.0
 40
0.0
 40
0.0
 40
0.2500000000001318
 40
0.5000000000000974
 40
0.7500000000000511
 40
1.0
 40
1.0
 40
1.0
 40
1.0
 10
6518.051928070213
 20
5072.082468583762
 30
0.0
 10
6518.059447815466
 20
5072.147981432756
 30
0.0
 10
6518.074487305974
 20
5072.279007130742
 30
0.0
 10
6518.190109398425
 20
5072.444268217081
 30
0.0
 10
6518.355370484765
 20
5072.559890309532
 30
0.0
 10
6518.48639618275
 20
5072.574929800041
 30
0.0
 10
6518.551909031744
 20
5072.582449545295
 30
0.0
  0
SPLINE
  5
D1
330
1F
100
AcDbEntity
  8
0
  6
Continuous
 62
     7
370
    25
100
AcDbSpline
210
0.0
220
0.0
230
1.0
 70
     8
 71
     3
 72
    11
 73
     7
 74
     0
 42
0.00000001
 43
0.00000001
 40
0.0
 40
0.0
 40
0.0
 40
0.0
 40
0.2499999999999822
 40
0.5000000000000088
 40
0.7500000000000229
 40
1.0
 40
1.0
 40
1.0
 40
1.0
 10
6534.894406556517
 20
5072.582449545296
 30
0.0
 10
6534.959919405511
 20
5072.574929800042
 30
0.0
 10
6535.090945103497
 20
5072.559890309533
 30
0.0
 10
6535.256206189837
 20
5072.444268217083
 30
0.0
 10
6535.371828282287
 20
5072.279007130743
 30
0.0
 10
6535.386867772796
 20
5072.147981432757
 30
0.0
 10
6535.394387518049
 20
5072.082468583763
 30
0.0
  0
ELLIPSE
  5
D2
330
1F
100
AcDbEntity
  8
0
  6
Continuous
 62
     7
370
    25
100
AcDbEllipse
 10
6535.3945779064
 20
5069.5825637761
 30
0.0
 11
0.0
 21
2.499999999996362
 31
0.0
210
0.0
220
0.0
230
1.0
 40
0.0087268678
 41
0.0087266462622072
 42
1.57079632679526
  0
LINE
  5
D3
330
1F
100
AcDbEntity
  8
0
  6
Continuous
 62
     7
370
    25
100
AcDbLine
 10
6517.9836300355
 20
5072.1507666185
 30
0.0
 11
6518.0519280702
 21
5072.0824685838
 31
0.0
  0
LINE
  5
D4
330
1F
100
AcDbEntity
  8
0
  6
Continuous
 62
     7
370
    25
100
AcDbLine
 10
6518.0519280702
 20
5057.239971059
 30
0.0
 11
6517.9836300355
 21
5057.1716730243
 31
0.0
  0
LINE
  5
D5
330
1F
100
AcDbEntity
  8
0
  6
Continuous
 62
     7
370
    25
100
AcDbLine
 10
6517.9836300355
 20
5057.1716730243
 30
0.0
 11
6517.9836300355
 21
5072.1507666185
 31
0.0
  0
LINE
  5
D6
330
1F
100
AcDbEntity
  8
0
  6
Continuous
 62
     7
370
    25
100
AcDbLine
 10
6535.394387518
 20
5072.0824685838
 30
0.0
 11
6535.4295234552
 21
5072.1176045209
 31
0.0
  0
LINE
  5
D7
330
1F
100
AcDbEntity
  8
0
  6
Continuous
 62
     7
370
    25
100
AcDbLine
 10
6535.4295234552
 20
5069.3560290003
 30
0.0
 11
6535.4295239099
 21
5072.1176045209
 31
0.0
  0
ELLIPSE
  5
D8
330
1F
100
AcDbEntity
  8
0
  6
Continuous
 62
     7
370
    25
100
AcDbEllipse
 10
6535.4321415155
 20
5069.3560290003
 30
0.0
 11
-9.094947017729282E-13
 21
0.3000000000001819
 31
0.0
210
0.0
220
0.0
230
1.0
 40
0.0087268678
 41
1.57079632679487
 42
3.124139360706708
  0
LINE
  5
D9
330
1F
100
AcDbEntity
  8
0
  6
Continuous
 62
     7
370
    25
100
AcDbLine
 10
6535.4626855528
 20
5068.9948905746
 30
0.0
 11
6535.4320958241
 21
5069.0560746918
 31
0.0
  0
LINE
  5
DA
330
1F
100
AcDbEntity
  8
0
  6
Continuous
 62
     7
370
    25
100
AcDbLine
 10
6535.4626855528
 20
5057.1716730243
 30
0.0
 11
6535.4626855528
 21
5068.9948905746
 31
0.0
  0
LINE
  5
DB
330
1F
100
AcDbEntity
  8
0
  6
Continuous
 62
     7
370
    25
100
AcDbLine
 10
6535.4626855528
 20
5057.1716730243
 30
0.0
 11
6535.3943875181
 21
5057.239971059
 31
0.0
  0
LINE
  5
DC
330
1F
100
AcDbEntity
  8
0
  6
Continuous
 62
     7
370
    25
100
AcDbLine
 10
6521.873638364
 20
4993.6553692612
 30
0.0
 11
6527.1380468838
 21
4993.6553692612
 31
0.0
  0
LINE
  5
DD
330
1F
100
AcDbEntity
  8
0
  6
Continuous
 62
     7
370
    25
100
AcDbLine
 10
6521.5243119571
 20
4992.9565035174
 30
0.0
 11
6527.4873732907
 21
4992.9565035174
 31
0.0
  0
ELLIPSE
  5
DE
330
1F
100
AcDbEntity
  8
0
  6
Continuous
 62
     7
370
    25
100
AcDbEllipse
 10
6534.9626665136
 20
5057.1717111019
 30
0.0
 11
-0.353580315565523
 21
0.353580315565523
 31
0.0
210
0.0
220
0.0
230
1.0
 40
0.9999238505
 41
2.356232566403641
 42
3.92695274077596
  0
LINE
  5
DF
330
1F
100
AcDbEntity
  8
0
  6
Continuous
 62
     7
370
    25
100
AcDbLine
 10
6534.8944065565
 20
5056.7399900975
 30
0.0
 11
6534.9627045913
 21
5056.6716920627
 31
0.0
  0
LINE
  5
E0
330
1F
100
AcDbEntity
  8
0
  6
Continuous
 62
     7
370
    25
100
AcDbLine
 10
6518.483610997
 20
5056.6716920627
 30
0.0
 11
6518.5519090317
 21
5056.7399900975
 31
0.0
  0
ELLIPSE
  5
E1
330
1F
100
AcDbEntity
  8
0
  6
Continuous
 62
     7
370
    25
100
AcDbEllipse
 10
6518.4836490747
 20
5057.1717111019
 30
0.0
 11
0.3535803155646135
 21
0.353580315565523
 31
0.0
210
0.0
220
0.0
230
1.0
 40
0.9999238505
 41
2.356232566402998
 42
3.92695274077403
  0
LINE
  5
E2
330
1F
100
AcDbEntity
  8
0
  6
Continuous
 62
     7
370
    25
100
AcDbLine
 10
6528.2394870409
 20
5056.6716920627
 30
0.0
 11
6534.9627045913
 21
5056.6716920627
 31
0.0
  0
LINE
  5
E3
330
1F
100
AcDbEntity
  8
0
  6
Continuous
 62
     7
370
    25
100
AcDbLine
 10
6528.1783029237
 20
5056.7022817914
 30
0.0
 11
6528.2394870409
 21
5056.6716920627
 31
0.0
  0
ELLIPSE
  5
E4
330
1F
100
AcDbEntity
  8
0
  6
Continuous
 62
     7
370
    25
100
AcDbEllipse
 10
6527.8783486152
 20
5056.7022361
 30
0.0
 11
0.3000000000001819
 21
0.0
 31
0.0
210
0.0
220
0.0
230
1.0
 40
0.0087268678
 41
0.0174532925358669
 42
1.570796326794897
  0
LINE
  5
E5
330
1F
100
AcDbEntity
  8
0
  6
Continuous
 62
     7
370
    25
100
AcDbLine
 10
6526.9679669731
 20
5056.7048541603
 30
0.0
 11
6527.8783486152
 21
5056.7048541603
 31
0.0
  0
ELLIPSE
  5
E6
330
1F
100
AcDbEntity
  8
0
  6
Continuous
 62
     7
370
    25
100
AcDbEllipse
 10
6526.9679669731
 20
5056.7022361
 30
0.0
 11
0.2999999999992724
 21
0.0
 31
0.0
210
0.0
220
0.0
230
1.0
 40
0.0087268678
 41
1.570796326794897
 42
3.124139361054013
  0
LINE
  5
E7
330
1F
100
AcDbEntity
  8
0
  6
Continuous
 62
     7
370
    25
100
AcDbLine
 10
6526.6068285474
 20
5056.6716920627
 30
0.0
 11
6526.6680126645
 21
5056.7022817914
 31
0.0
  0
LINE
  5
E8
330
1F
100
AcDbEntity
  8
0
  6
Continuous
 62
     7
370
    25
100
AcDbLine
 10
6521.7394870409
 20
5056.6716920627
 30
0.0
 11
6526.6068285474
 21
5056.6716920627
 31
0.0
  0
LINE
  5
E9
330
1F
100
AcDbEntity
  8
0
  6
Continuous
 62
     7
370
    25
100
AcDbLine
 10
6521.6783029237
 20
5056.7022817914
 30
0.0
 11
6521.7394870409
 21
5056.6716920627
 31
0.0
  0
ELLIPSE
  5
EA
330
1F
100
AcDbEntity
  8
0
  6
Continuous
 62
     7
370
    25
100
AcDbEllipse
 10
6521.3783486152
 20
5056.7022361
 30
0.0
 11
0.2999999999992724
 21
0.0
 31
0.0
210
0.0
220
0.0
230
1.0
 40
0.0087268678
 41
0.017453292535814
 42
1.570796326794897
  0
LINE
  5
EB
330
1F
100
AcDbEntity
  8
0
  6
Continuous
 62
     7
370
    25
100
AcDbLine
 10
6520.4679669731
 20
5056.7048541603
 30
0.0
 11
6521.3783486152
 21
5056.7048541603
 31
0.0
  0
ELLIPSE
  5
EC
330
1F
100
AcDbEntity
  8
0
  6
Continuous
 62
     7
370
    25
100
AcDbEllipse
 10
6520.4679669731
 20
5056.7022361
 30
0.0
 11
0.2999999999992724
 21
0.0
 31
0.0
210
0.0
220
0.0
230
1.0
 40
0.0087268678
 41
1.570796326794897
 42
3.124139361054013
  0
LINE
  5
ED
330
1F
100
AcDbEntity
  8
0
  6
Continuous
 62
     7
370
    25
100
AcDbLine
 10
6520.1068285474
 20
5056.6716920627
 30
0.0
 11
6520.1680126645
 21
5056.7022817914
 31
0.0
  0
LINE
  5
EE
330
1F
100
AcDbEntity
  8
0
  6
Continuous
 62
     7
370
    25
100
AcDbLine
 10
6518.483610997
 20
5056.6716920627
 30
0.0
 11
6520.1068285474
 21
5056.6716920627
 31
0.0
  0
LINE
  5
EF
330
1F
100
AcDbEntity
  8
0
  6
Continuous
 62
     7
370
    25
100
AcDbLine
 10
6527.6180126645
 20
5072.6201578513
 30
0.0
 11
6527.5568285474
 21
5072.65074758
 31
0.0
  0
ELLIPSE
  5
F0
330
1F
100
AcDbEntity
  8
0
  6
Continuous
 62
     7
370
    25
100
AcDbEllipse
 10
6527.9179669731
 20
5072.6202035428
 30
0.0
 11
0.3000000000001819
 21
0.0
 31
0.0
210
0.0
220
0.0
230
1.0
 40
0.0087268678
 41
3.159045946474529
 42
4.71238898038469
  0
LINE
  5
F1
330
1F
100
AcDbEntity
  8
0
  6
Continuous
 62
     7
370
    25
100
AcDbLine
 10
6529.3283486152
 20
5072.6175854824
 30
0.0
 11
6527.9179669731
 21
5072.6175854824
 31
0.0
  0
ELLIPSE
  5
F2
330
1F
100
AcDbEntity
  8
0
  6
Continuous
 62
     7
370
    25
100
AcDbEllipse
 10
6529.3283486152
 20
5072.6202035428
 30
0.0
 11
0.3000000000001819
 21
0.0
 31
0.0
210
0.0
220
0.0
230
1.0
 40
0.0087268678
 41
4.71238898038469
 42
6.265732014298064
  0
LINE
  5
F3
330
1F
100
AcDbEntity
  8
0
  6
Continuous
 62
     7
370
    25
100
AcDbLine
 10
6529.6894870409
 20
5072.65074758
 30
0.0
 11
6529.6283029237
 21
5072.6201578513
 31
0.0
  0
LINE
  5
F4
330
1F
100
AcDbEntity
  8
0
  6
Continuous
 62
     7
370
    25
100
AcDbLine
 10
6534.5568285474
 20
5072.65074758
 30
0.0
 11
6529.6894870409
 21
5072.65074758
 31
0.0
  0
LINE
  5
F5
330
1F
100
AcDbEntity
  8
0
  6
Continuous
 62
     7
370
    25
100
AcDbLine
 10
6534.6180126645
 20
5072.6201578513
 30
0.0
 11
6534.5568285474
 21
5072.65074758
 31
0.0
  0
ELLIPSE
  5
F6
330
1F
100
AcDbEntity
  8
0
  6
Continuous
 62
     7
370
    25
100
AcDbEllipse
 10
6534.9179669731
 20
5072.6202035428
 30
0.0
 11
0.3000000000001819
 21
0.0
 31
0.0
210
0.0
220
0.0
230
1.0
 40
0.0087268678
 41
3.159045946127226
 42
4.71238898038469
  0
LINE
  5
F7
330
1F
100
AcDbEntity
  8
0
  6
Continuous
 62
     7
370
    25
100
AcDbLine
 10
6534.9295424936
 20
5072.6175859371
 30
0.0
 11
6534.9179669731
 21
5072.6175854824
 31
0.0
  0
LINE
  5
F8
330
1F
100
AcDbEntity
  8
0
  6
Continuous
 62
     7
370
    25
100
AcDbLine
 10
6534.9295424937
 20
5072.6175854825
 30
0.0
 11
6534.8944065565
 21
5072.5824495453
 31
0.0
  0
LINE
  5
F9
330
1F
100
AcDbEntity
  8
0
  6
Continuous
 62
     7
370
    25
100
AcDbLine
 10
6518.5519090318
 20
5072.5824495453
 30
0.0
 11
6518.483610997
 21
5072.65074758
 31
0.0
  0
LINE
  5
FA
330
1F
100
AcDbEntity
  8
0
  6
Continuous
 62
     7
370
    25
100
AcDbLine
 10
6527.5568285474
 20
5072.65074758
 30
0.0
 11
6518.483610997
 21
5072.65074758
 31
0.0
  0
ARC
  5
FB
330
1F
100
AcDbEntity
  8
0
  6
Continuous
 62
     7
370
    25
100
AcDbCircle
 10
6534.929548832
 20
5072.1176108593
 30
0.0
 40
0.4999750778880983
100
AcDbArc
 50
359.9992736377
 51
90.0007263622
  0
ELLIPSE
  5
FC
330
1F
100
AcDbEntity
  8
0
  6
Continuous
 62
     7
370
    25
100
AcDbEllipse
 10
6518.4836490747
 20
5072.1507285408
 30
0.0
 11
0.3535803155646135
 21
-0.353580315565523
 31
0.0
210
0.0
220
0.0
230
1.0
 40
0.9999238505
 41
2.35623256640557
 42
3.926952740776602
  0
ARC
  5
FD
330
1F
100
AcDbEntity
  8
0
  6
Continuous
 62
     7
370
    25
100
AcDbCircle
 10
6535.2642888868
 20
5072.3979926785
 30
0.0
 40
0.5999700934662636
100
AcDbArc
 50
359.9992736378
 51
90.0007263622
  0
LINE
  5
FE
330
1F
100
AcDbEntity
  8
0
  6
Continuous
 62
     7
370
    25
100
AcDbLine
 10
6535.8136426013
 20
5072.3473692392
 30
0.0
 11
6535.8642589802
 21
5072.3979850724
 31
0.0
  0
SPLINE
  5
FF
330
1F
100
AcDbEntity
  8
0
  6
Continuous
 62
     7
370
    25
100
AcDbSpline
210
0.0
220
0.0
230
1.0
 70
     8
 71
     3
 72
    16
 73
    12
 74
     0
 42
0.00000001
 43
0.00000001
 40
0.0
 40
0.0
 40
0.0
 40
0.0
 40
0.1058718599445578
 40
0.2117436430096095
 40
0.3176122907895803
 40
0.4234787778427881
 40
0.5293443152934195
 40
0.6352098517258603
 40
0.7410753780949013
 40
0.84694088645888
 40
1.0
 40
1.0
 40
1.0
 40
1.0
 10
6535.213665447509
 20
5072.947346393046
 30
0.0
 10
6535.246918322945
 20
5072.945746739429
 30
0.0
 10
6535.31342404967
 20
5072.942547433355
 30
0.0
 10
6535.410430857932
 20
5072.916898878747
 30
0.0
 10
6535.502007268207
 20
5072.87673035362
 30
0.0
 10
6535.585636581965
 20
5072.821644334472
 30
0.0
 10
6535.658979187188
 20
5072.753562560725
 30
0.0
 10
6535.720139982054
 20
5072.674258522858
 30
0.0
 10
6535.766957908392
 20
5072.585933037381
 30
0.0
 10
6535.804809919775
 20
5072.476975934967
 30
0.0
 10
6535.810361106726
 20
5072.395520377845
 30
0.0
 10
6535.813642601347
 20
5072.347369239207
 30
0.0
  0
LINE
  5
100
330
1F
100
AcDbEntity
  8
0
  6
Continuous
 62
     7
370
    25
100
AcDbLine
 10
6535.2642812807
 20
5072.9979627719
 30
0.0
 11
6535.2136654475
 21
5072.947346393
 31
0.0
  0
ARC
  5
101
330
1F
100
AcDbEntity
  8
0
  6
Continuous
 62
     7
370
    25
100
AcDbCircle
 10
6535.2642888868
 20
5056.8700887287
 30
0.0
 40
0.5999700934662636
100
AcDbArc
 50
269.9992736378
 51
0.0007263623
  0
LINE
  5
102
330
1F
100
AcDbEntity
  8
0
  6
Continuous
 62
     7
370
    25
100
AcDbLine
 10
6535.2136654475
 20
5056.3207350142
 30
0.0
 11
6535.2642812807
 21
5056.2701186353
 31
0.0
  0
SPLINE
  5
103
330
1F
100
AcDbEntity
  8
0
  6
Continuous
 62
     7
370
    25
100
AcDbSpline
210
0.0
220
0.0
230
1.0
 70
     8
 71
     3
 72
    16
 73
    12
 74
     0
 42
0.00000001
 43
0.00000001
 40
0.0
 40
0.0
 40
0.0
 40
0.0
 40
0.1058718599445009
 40
0.2117436430095376
 40
0.3176122907895202
 40
0.4234787778427294
 40
0.5293443152933528
 40
0.635209851725783
 40
0.7410753780948424
 40
0.8469408864588058
 40
0.9999999999999999
 40
0.9999999999999999
 40
0.9999999999999999
 40
0.9999999999999999
 10
6535.813642601348
 20
5056.920712167999
 30
0.0
 10
6535.81204294773
 20
5056.887459292563
 30
0.0
 10
6535.808843641658
 20
5056.820953565837
 30
0.0
 10
6535.78319508705
 20
5056.723946757577
 30
0.0
 10
6535.743026561921
 20
5056.632370347301
 30
0.0
 10
6535.687940542774
 20
5056.548741033545
 30
0.0
 10
6535.619858769028
 20
5056.475398428321
 30
0.0
 10
6535.540554731161
 20
5056.414237633455
 30
0.0
 10
6535.452229245684
 20
5056.367419707116
 30
0.0
 10
6535.34327214327
 20
5056.329567695733
 30
0.0
 10
6535.261816586148
 20
5056.324016508781
 30
0.0
 10
6535.21366544751
 20
5056.320735014161
 30
0.0
  0
LINE
  5
104
330
1F
100
AcDbEntity
  8
0
  6
Continuous
 62
     7
370
    25
100
AcDbLine
 10
6535.8642589802
 20
5056.8700963348
 30
0.0
 11
6535.8136426013
 21
5056.920712168
 31
0.0
  0
LINE
  5
105
330
1F
100
AcDbEntity
  8
0
  6
Continuous
 62
     7
370
    25
100
AcDbLine
 10
6517.6364148436
 20
5072.3979850724
 30
0.0
 11
6517.6870312225
 21
5072.3473692392
 31
0.0
  0
ARC
  5
106
330
1F
100
AcDbEntity
  8
0
  6
Continuous
 62
     7
370
    25
100
AcDbCircle
 10
6518.236384937
 20
5072.3979926785
 30
0.0
 40
0.5999700934662636
100
AcDbArc
 50
89.9992736378
 51
180.0007263623
  0
LINE
  5
107
330
1F
100
AcDbEntity
  8
0
  6
Continuous
 62
     7
370
    25
100
AcDbLine
 10
6518.2870083763
 20
5072.947346393
 30
0.0
 11
6518.2363925431
 21
5072.9979627719
 31
0.0
  0
SPLINE
  5
108
330
1F
100
AcDbEntity
  8
0
  6
Continuous
 62
     7
370
    25
100
AcDbSpline
210
0.0
220
0.0
230
1.0
 70
     8
 71
     3
 72
    16
 73
    12
 74
     0
 42
0.00000001
 43
0.00000001
 40
0.0
 40
0.0
 40
0.0
 40
0.0
 40
0.1058718599445001
 40
0.2117436430095477
 40
0.3176122907895304
 40
0.4234787778427389
 40
0.5293443152933736
 40
0.6352098517258183
 40
0.7410753780948831
 40
0.8469408864588426
 40
1.0
 40
1.0
 40
1.0
 40
1.0
 10
6518.287008376301
 20
5072.947346393044
 30
0.0
 10
6518.253755500865
 20
5072.945746739428
 30
0.0
 10
6518.18724977414
 20
5072.942547433354
 30
0.0
 10
6518.090242965878
 20
5072.916898878746
 30
0.0
 10
6517.998666555603
 20
5072.876730353619
 30
0.0
 10
6517.915037241845
 20
5072.821644334471
 30
0.0
 10
6517.841694636621
 20
5072.753562560725
 30
0.0
 10
6517.780533841757
 20
5072.674258522857
 30
0.0
 10
6517.733715915418
 20
5072.58593303738
 30
0.0
 10
6517.695863904035
 20
5072.476975934966
 30
0.0
 10
6517.690312717084
 20
5072.395520377844
 30
0.0
 10
6517.687031222463
 20
5072.347369239206
 30
0.0
  0
LINE
  5
109
330
1F
100
AcDbEntity
  8
0
  6
Continuous
 62
     7
370
    25
100
AcDbLine
 10
6518.2363925431
 20
5056.2701186353
 30
0.0
 11
6518.2870083763
 21
5056.3207350142
 31
0.0
  0
ARC
  5
10A
330
1F
100
AcDbEntity
  8
0
  6
Continuous
 62
     7
370
    25
100
AcDbCircle
 10
6518.236384937
 20
5056.8700887287
 30
0.0
 40
0.5999700934662636
100
AcDbArc
 50
179.9992736378
 51
270.0007263622
  0
LINE
  5
10B
330
1F
100
AcDbEntity
  8
0
  6
Continuous
 62
     7
370
    25
100
AcDbLine
 10
6517.6870312225
 20
5056.920712168
 30
0.0
 11
6517.6364148436
 21
5056.8700963348
 31
0.0
  0
SPLINE
  5
10C
330
1F
100
AcDbEntity
  8
0
  6
Continuous
 62
     7
370
    25
100
AcDbSpline
210
0.0
220
0.0
230
1.0
 70
     8
 71
     3
 72
    16
 73
    12
 74
     0
 42
0.00000001
 43
0.00000001
 40
0.0
 40
0.0
 40
0.0
 40
0.0
 40
0.1058718599444913
 40
0.2117436430095317
 40
0.3176122907895109
 40
0.4234787778427203
 40
0.5293443152933481
 40
0.6352098517257784
 40
0.7410753780948344
 40
0.8469408864587994
 40
1.0
 40
1.0
 40
1.0
 40
1.0
 10
6517.687031222464
 20
5056.920712167998
 30
0.0
 10
6517.68863087608
 20
5056.887459292562
 30
0.0
 10
6517.691830182153
 20
5056.820953565836
 30
0.0
 10
6517.717478736761
 20
5056.723946757576
 30
0.0
 10
6517.75764726189
 20
5056.6323703473
 30
0.0
 10
6517.812733281038
 20
5056.548741033543
 30
0.0
 10
6517.880815054784
 20
5056.47539842832
 30
0.0
 10
6517.960119092651
 20
5056.414237633454
 30
0.0
 10
6518.048444578128
 20
5056.367419707115
 30
0.0
 10
6518.157401680543
 20
5056.329567695732
 30
0.0
 10
6518.238857237664
 20
5056.32401650878
 30
0.0
 10
6518.287008376302
 20
5056.32073501416
 30
0.0
  0
LINE
  5
10D
330
1F
100
AcDbEntity
  8
0
  6
Continuous
 62
     7
370
    25
100
AcDbLine
 10
6535.2642812807
 20
5072.9979627719
 30
0.0
 11
6518.2363925431
 21
5072.9979627719
 31
0.0
  0
LINE
  5
10E
330
1F
100
AcDbEntity
  8
0
  6
Continuous
 62
     7
370
    25
100
AcDbLine
 10
6518.2870083763
 20
5072.947346393
 30
0.0
 11
6535.2136654475
 21
5072.947346393
 31
0.0
  0
LINE
  5
10F
330
1F
100
AcDbEntity
  8
0
  6
Continuous
 62
     7
370
    25
100
AcDbLine
 10
6535.8642589802
 20
5056.8700963348
 30
0.0
 11
6535.8642589802
 21
5072.3979850724
 31
0.0
  0
LINE
  5
110
330
1F
100
AcDbEntity
  8
0
  6
Continuous
 62
     7
370
    25
100
AcDbLine
 10
6535.8136426013
 20
5072.3473692392
 30
0.0
 11
6535.8136426013
 21
5056.920712168
 31
0.0
  0
LINE
  5
111
330
1F
100
AcDbEntity
  8
0
  6
Continuous
 62
     7
370
    25
100
AcDbLine
 10
6518.2363925431
 20
5056.2701186353
 30
0.0
 11
6535.2642812807
 21
5056.2701186353
 31
0.0
  0
LINE
  5
112
330
1F
100
AcDbEntity
  8
0
  6
Continuous
 62
     7
370
    25
100
AcDbLine
 10
6535.2136654475
 20
5056.3207350142
 30
0.0
 11
6518.2870083763
 21
5056.3207350142
 31
0.0
  0
LINE
  5
113
330
1F
100
AcDbEntity
  8
0
  6
Continuous
 62
     7
370
    25
100
AcDbLine
 10
6517.6364148436
 20
5072.3979850724
 30
0.0
 11
6517.6364148436
 21
5056.8700963348
 31
0.0
  0
LINE
  5
114
330
1F
100
AcDbEntity
  8
0
  6
Continuous
 62
     7
370
    25
100
AcDbLine
 10
6517.6870312225
 20
5072.3473692392
 30
0.0
 11
6517.6870312225
 21
5056.920712168
 31
0.0
  0
LINE
  5
115
330
1F
100
AcDbEntity
  8
0
  6
Continuous
 62
     7
370
    25
100
AcDbLine
 10
6516.2003369119
 20
5055.3253893352
 30
0.0
 11
6516.2003369119
 21
5073.942692072
 31
0.0
  0
LINE
  5
116
330
1F
100
AcDbEntity
  8
0
  6
Continuous
 62
     7
370
    25
100
AcDbLine
 10
6516.2003369119
 20
5073.942692072
 30
0.0
 11
6537.3003369119
 21
5073.942692072
 31
0.0
  0
LINE
  5
117
330
1F
100
AcDbEntity
  8
0
  6
Continuous
 62
     7
370
    25
100
AcDbLine
 10
6537.3003369119
 20
5073.942692072
 30
0.0
 11
6537.3003369119
 21
5055.3253893352
 31
0.0
  0
LINE
  5
118
330
1F
100
AcDbEntity
  8
0
  6
Continuous
 62
     7
370
    25
100
AcDbLine
 10
6537.3003369119
 20
5055.3253893352
 30
0.0
 11
6516.2003369119
 21
5055.3253893352
 31
0.0
  0
ELLIPSE
  5
119
330
1F
100
AcDbEntity
  8
0
  6
Continuous
 62
     7
370
    25
100
AcDbEllipse
 10
6537.3090644444
 20
5055.3253893352
 30
0.0
 11
0.0
 21
0.5
 31
0.0
210
0.0
220
0.0
230
1.0
 40
0.0174550649
 41
1.570796326794897
 42
3.124139361071121
  0
ELLIPSE
  5
11A
330
1F
100
AcDbEntity
  8
0
  6
Continuous
 62
     7
370
    25
100
AcDbEllipse
 10
6537.3090644444
 20
5073.942692072
 30
0.0
 11
-9.094947017729282E-13
 21
0.5
 31
0.0
210
0.0
220
0.0
230
1.0
 40
0.0174550649
 41
0.0174532924145128
 42
1.570796326794865
  0
LINE
  5
11B
330
1F
100
AcDbEntity
  8
0
  6
Continuous
 62
     7
370
    25
100
AcDbLine
 10
6537.4015762885
 20
5074.5352800802
 30
0.0
 11
6537.3089121279
 21
5074.4426159196
 31
0.0
  0
LINE
  5
11C
330
1F
100
AcDbEntity
  8
0
  6
Continuous
 62
     7
370
    25
100
AcDbLine
 10
6537.4015762885
 20
5054.732801327
 30
0.0
 11
6537.4015762885
 21
5074.5352800802
 31
0.0
  0
LINE
  5
11D
330
1F
100
AcDbEntity
  8
0
  6
Continuous
 62
     7
370
    25
100
AcDbLine
 10
6537.4015762885
 20
5054.732801327
 30
0.0
 11
6537.3089121279
 21
5054.8254654876
 31
0.0
  0
ELLIPSE
  5
11E
330
1F
100
AcDbEntity
  8
0
  6
Continuous
 62
     7
370
    25
100
AcDbEllipse
 10
6516.1916093794
 20
5073.942692072
 30
0.0
 11
0.0
 21
0.5
 31
0.0
210
0.0
220
0.0
230
1.0
 40
0.0174550649
 41
4.71238898038469
 42
6.265732014764132
  0
LINE
  5
11F
330
1F
100
AcDbEntity
  8
0
  6
Continuous
 62
     7
370
    25
100
AcDbLine
 10
6537.3089121279
 20
5074.4426159196
 30
0.0
 11
6516.1917616959
 21
5074.4426159196
 31
0.0
  0
ELLIPSE
  5
120
330
1F
100
AcDbEntity
  8
0
  6
Continuous
 62
     7
370
    25
100
AcDbEllipse
 10
6516.1916093794
 20
5055.3253893352
 30
0.0
 11
0.0
 21
0.5000000000009095
 31
0.0
210
0.0
220
0.0
230
1.0
 40
0.0174550649
 41
3.15904594611114
 42
4.71238898038469
  0
LINE
  5
121
330
1F
100
AcDbEntity
  8
0
  6
Continuous
 62
     7
370
    25
100
AcDbLine
 10
6516.0990975353
 20
5054.732801327
 30
0.0
 11
6516.1917616959
 21
5054.8254654876
 31
0.0
  0
LINE
  5
122
330
1F
100
AcDbEntity
  8
0
  6
Continuous
 62
     7
370
    25
100
AcDbLine
 10
6516.0990975353
 20
5074.5352800802
 30
0.0
 11
6516.0990975353
 21
5054.732801327
 31
0.0
  0
LINE
  5
123
330
1F
100
AcDbEntity
  8
0
  6
Continuous
 62
     7
370
    25
100
AcDbLine
 10
6516.0990975353
 20
5074.5352800802
 30
0.0
 11
6516.1917616959
 21
5074.4426159196
 31
0.0
  0
LINE
  5
124
330
1F
100
AcDbEntity
  8
0
  6
Continuous
 62
     7
370
    25
100
AcDbLine
 10
6516.1917616959
 20
5054.8254654876
 30
0.0
 11
6537.3089121279
 21
5054.8254654876
 31
0.0
  0
LINE
  5
125
330
1F
100
AcDbEntity
  8
0
  6
Continuous
 62
     7
370
    25
100
AcDbLine
 10
6516.0990975353
 20
5054.732801327
 30
0.0
 11
6537.4015762885
 21
5054.732801327
 31
0.0
  0
LINE
  5
126
330
1F
100
AcDbEntity
  8
0
  6
Continuous
 62
     7
370
    25
100
AcDbLine
 10
6519.8950937695
 20
5074.5352800802
 30
0.0
 11
6516.0990975353
 21
5074.5352800802
 31
0.0
  0
LINE
  5
127
330
1F
100
AcDbEntity
  8
0
  6
Continuous
 62
     7
370
    25
100
AcDbLine
 10
6519.8950937695
 20
5074.5352800802
 30
0.0
 11
6519.9300038993
 21
5074.5003699503
 31
0.0
  0
LINE
  5
128
330
1F
100
AcDbEntity
  8
0
  6
Continuous
 62
     7
370
    25
100
AcDbLine
 10
6519.9300038993
 20
5074.5003699503
 30
0.0
 11
6527.9079098417
 21
5074.5003699503
 31
0.0
  0
LINE
  5
129
330
1F
100
AcDbEntity
  8
0
  6
Continuous
 62
     7
370
    25
100
AcDbLine
 10
6527.9079098417
 20
5074.5003699503
 30
0.0
 11
6527.9428199715
 21
5074.5352800802
 31
0.0
  0
LINE
  5
12A
330
1F
100
AcDbEntity
  8
0
  6
Continuous
 62
     7
370
    25
100
AcDbLine
 10
6537.4015762885
 20
5074.5352800802
 30
0.0
 11
6527.9428199715
 21
5074.5352800802
 31
0.0
  0
LINE
  5
12B
330
1F
100
AcDbEntity
  8
0
  6
Continuous
 62
     7
370
    25
100
AcDbLine
 10
6521.7011122343
 20
5030.5937224799
 30
0.0
 11
6527.3105730135
 21
5030.5937224799
 31
0.0
  0
LINE
  5
12C
330
1F
100
AcDbEntity
  8
0
  6
Continuous
 62
     7
370
    25
100
AcDbLine
 10
6527.1011122343
 20
5030.3842617008
 30
0.0
 11
6527.3105730135
 21
5030.5937224799
 31
0.0
  0
LINE
  5
12D
330
1F
100
AcDbEntity
  8
0
  6
Continuous
 62
     7
370
    25
100
AcDbLine
 10
6527.1011122343
 20
5030.3842617008
 30
0.0
 11
6521.9105730135
 21
5030.3842617008
 31
0.0
  0
LINE
  5
12E
330
1F
100
AcDbEntity
  8
0
  6
Continuous
 62
     7
370
    25
100
AcDbLine
 10
6521.7011122343
 20
5030.5937224799
 30
0.0
 11
6521.9105730135
 21
5030.3842617008
 31
0.0
  0
ELLIPSE
  5
12F
330
1F
100
AcDbEntity
  8
0
  6
Continuous
 62
     7
370
    25
100
AcDbEllipse
 10
6520.3270086282
 20
5032.0945055056
 30
0.0
 11
-0.7075914799734163
 21
0.7075914799133898
 31
0.0
210
0.0
220
0.0
230
1.0
 40
0.999315002
 41
5.498129760078101
 42
7.068240854195343
  0
ELLIPSE
  5
130
330
1F
100
AcDbEntity
  8
0
  6
Continuous
 62
     7
370
    25
100
AcDbEllipse
 10
6520.2746367851
 20
5032.1468773488
 30
0.0
 11
0.707591479943403
 21
-0.707591479943403
 31
0.0
210
0.0
220
0.0
230
1.0
 40
0.999315002
 41
2.356537106530654
 42
3.926648200648946
  0
LINE
  5
131
330
1F
100
AcDbEntity
  8
0
  6
Continuous
 62
     7
370
    25
100
AcDbLine
 10
6520.3263231607
 20
5033.0948482981
 30
0.0
 11
6520.2739513176
 21
5033.1472201413
 31
0.0
  0
ELLIPSE
  5
132
330
1F
100
AcDbEntity
  8
0
  6
Continuous
 62
     7
370
    25
100
AcDbEllipse
 10
6528.6846766196
 20
5032.0945055056
 30
0.0
 11
0.7075914799506789
 21
0.7075914799352176
 31
0.0
210
0.0
220
0.0
230
1.0
 40
0.999315002
 41
5.498129760131709
 42
7.068240854250238
  0
LINE
  5
133
330
1F
100
AcDbEntity
  8
0
  6
Continuous
 62
     7
370
    25
100
AcDbLine
 10
6528.7377339302
 20
5033.1472201413
 30
0.0
 11
6528.6853620871
 21
5033.0948482981
 31
0.0
  0
ELLIPSE
  5
134
330
1F
100
AcDbEntity
  8
0
  6
Continuous
 62
     7
370
    25
100
AcDbEllipse
 10
6528.7370484627
 20
5032.1468773488
 30
0.0
 11
-0.707591479943403
 21
-0.707591479943403
 31
0.0
210
0.0
220
0.0
230
1.0
 40
0.999315002
 41
2.356537106530067
 42
3.926648200648624
  0
LINE
  5
135
330
1F
100
AcDbEntity
  8
0
  6
Continuous
 62
     7
370
    25
100
AcDbLine
 10
6527.9079098417
 20
5074.5003699503
 30
0.0
 11
6527.9079098417
 21
5106.3872664368
 31
0.0
  0
LINE
  5
136
330
1F
100
AcDbEntity
  8
0
  6
Continuous
 62
     7
370
    25
100
AcDbLine
 10
6527.9079098417
 20
5106.3872664368
 30
0.0
 11
6527.9428199715
 21
5106.4920819954
 31
0.0
  0
LINE
  5
137
330
1F
100
AcDbEntity
  8
0
  6
Continuous
 62
     7
370
    25
100
AcDbLine
 10
6527.9428199715
 20
5074.5352800802
 30
0.0
 11
6527.9428199715
 21
5106.4920819954
 31
0.0
  0
ELLIPSE
  5
138
330
1F
100
AcDbEntity
  8
0
  6
Continuous
 62
     7
370
    25
100
AcDbEllipse
 10
6526.9077575136
 20
5106.386351795
 30
0.0
 11
0.3164782046906112
 21
0.9502067146559057
 31
0.0
210
0.0
220
0.0
230
1.0
 40
0.9984778551
 41
5.034352719410665
 42
6.604235657699856
  0
LINE
  5
139
330
1F
100
AcDbEntity
  8
0
  6
Continuous
 62
     7
370
    25
100
AcDbLine
 10
6526.943581171
 20
5107.4925396995
 30
0.0
 11
6526.9086710411
 21
5107.387724141
 31
0.0
  0
ELLIPSE
  5
13A
330
1F
100
AcDbEntity
  8
0
  6
Continuous
 62
     7
370
    25
100
AcDbEllipse
 10
6526.9426676435
 20
5106.4911673535
 30
0.0
 11
-0.3164782046942491
 21
-0.9502067146549962
 31
0.0
210
0.0
220
0.0
230
1.0
 40
0.9984778551
 41
1.892760065824587
 42
3.462643004113814
  0
LINE
  5
13B
330
1F
100
AcDbEntity
  8
0
  6
Continuous
 62
     7
370
    25
100
AcDbLine
 10
6519.9300038993
 20
5106.3872664368
 30
0.0
 11
6519.9300038993
 21
5074.5003699503
 31
0.0
  0
ELLIPSE
  5
13C
330
1F
100
AcDbEntity
  8
0
  6
Continuous
 62
     7
370
    25
100
AcDbEllipse
 10
6520.9301562274
 20
5106.386351795
 30
0.0
 11
-0.316478204725172
 21
0.9502067146440824
 31
0.0
210
0.0
220
0.0
230
1.0
 40
0.9984778551
 41
5.962134956623245
 42
7.532017894911664
  0
LINE
  5
13D
330
1F
100
AcDbEntity
  8
0
  6
Continuous
 62
     7
370
    25
100
AcDbLine
 10
6526.9086710411
 20
5107.387724141
 30
0.0
 11
6520.9292426999
 21
5107.387724141
 31
0.0
  0
LINE
  5
13E
330
1F
100
AcDbEntity
  8
0
  6
Continuous
 62
     7
370
    25
100
AcDbLine
 10
6521.6721060606
 20
5076.8424498058
 30
0.0
 11
6521.6721060606
 21
5074.8424498058
 31
0.0
  0
LINE
  5
13F
330
1F
100
AcDbEntity
  8
0
  6
Continuous
 62
     7
370
    25
100
AcDbLine
 10
6526.1657162836
 20
5074.8424498058
 30
0.0
 11
6521.6721060606
 21
5074.8424498058
 31
0.0
  0
LINE
  5
140
330
1F
100
AcDbEntity
  8
0
  6
Continuous
 62
     7
370
    25
100
AcDbLine
 10
6526.1657162836
 20
5076.8424498058
 30
0.0
 11
6526.1657162836
 21
5074.8424498058
 31
0.0
  0
LINE
  5
141
330
1F
100
AcDbEntity
  8
0
  6
Continuous
 62
     7
370
    25
100
AcDbLine
 10
6526.1657162836
 20
5076.8424498058
 30
0.0
 11
6526.1657162836
 21
5106.345170821
 31
0.0
  0
LINE
  5
142
330
1F
100
AcDbEntity
  8
0
  6
Continuous
 62
     7
370
    25
100
AcDbLine
 10
6526.1657162836
 20
5106.345170821
 30
0.0
 11
6521.6721060606
 21
5106.345170821
 31
0.0
  0
LINE
  5
143
330
1F
100
AcDbEntity
  8
0
  6
Continuous
 62
     7
370
    25
100
AcDbLine
 10
6521.6721060606
 20
5106.345170821
 30
0.0
 11
6521.6721060606
 21
5076.8424498058
 31
0.0
  0
LINE
  5
144
330
1F
100
AcDbEntity
  8
0
  6
Continuous
 62
     7
370
    25
100
AcDbLine
 10
6521.7011122343
 20
5003.6598153022
 30
0.0
 11
6521.7011122343
 21
5030.5937224799
 31
0.0
  0
LINE
  5
145
330
1F
100
AcDbEntity
  8
0
  6
Continuous
 62
     7
370
    25
100
AcDbLine
 10
6521.9105730135
 20
5030.3842617008
 30
0.0
 11
6521.9105730135
 21
5004.7096792645
 31
0.0
  0
LINE
  5
146
330
1F
100
AcDbEntity
  8
0
  6
Continuous
 62
     7
370
    25
100
AcDbLine
 10
6521.9105730135
 20
5004.7096792645
 30
0.0
 11
6521.7011122343
 21
5003.6598153022
 31
0.0
  0
LINE
  5
147
330
1F
100
AcDbEntity
  8
0
  6
Continuous
 62
     7
370
    25
100
AcDbLine
 10
6527.1011122343
 20
5004.7096792645
 30
0.0
 11
6527.1011122343
 21
5030.3842617008
 31
0.0
  0
LINE
  5
148
330
1F
100
AcDbEntity
  8
0
  6
Continuous
 62
     7
370
    25
100
AcDbLine
 10
6527.3105730135
 20
5003.6598153022
 30
0.0
 11
6527.3105730135
 21
5030.5937224799
 31
0.0
  0
LINE
  5
149
330
1F
100
AcDbEntity
  8
0
  6
Continuous
 62
     7
370
    25
100
AcDbLine
 10
6527.1011122343
 20
5004.7096792645
 30
0.0
 11
6527.3105730135
 21
5003.6598153022
 31
0.0
  0
LINE
  5
14A
330
1F
100
AcDbEntity
  8
0
  6
Continuous
 62
     7
370
    25
100
AcDbLine
 10
6528.6853620871
 20
5033.0948482981
 30
0.0
 11
6520.3263231607
 21
5033.0948482981
 31
0.0
  0
LINE
  5
14B
330
1F
100
AcDbEntity
  8
0
  6
Continuous
 62
     7
370
    25
100
AcDbLine
 10
6528.7377339302
 20
5033.1472201413
 30
0.0
 11
6520.2739513176
 21
5033.1472201413
 31
0.0
  0
LINE
  5
14C
330
1F
100
AcDbEntity
  8
0
  6
Continuous
 62
     7
370
    25
100
AcDbLine
 10
6521.706147756
 20
5106.2770822446
 30
0.0
 11
6526.1316745882
 21
5106.2770822446
 31
0.0
  0
LINE
  5
14D
330
1F
100
AcDbEntity
  8
0
  6
Continuous
 62
     7
370
    25
100
AcDbLine
 10
6521.706147756
 20
5106.2770822446
 30
0.0
 11
6521.6721060606
 21
5106.345170821
 31
0.0
  0
LINE
  5
14E
330
1F
100
AcDbEntity
  8
0
  6
Continuous
 62
     7
370
    25
100
AcDbLine
 10
6526.1316745882
 20
5106.2770822446
 30
0.0
 11
6526.1657162836
 21
5106.345170821
 31
0.0
  0
LINE
  5
14F
330
1F
100
AcDbEntity
  8
0
  6
Continuous
 62
     7
370
    25
100
AcDbLine
 10
6520.9292426999
 20
5107.387724141
 30
0.0
 11
6520.89433257
 21
5107.4925396995
 31
0.0
  0
LINE
  5
150
330
1F
100
AcDbEntity
  8
0
  6
Continuous
 62
     7
370
    25
100
AcDbLine
 10
6526.943581171
 20
5107.4925396995
 30
0.0
 11
6520.89433257
 21
5107.4925396995
 31
0.0
  0
LINE
  5
151
330
1F
100
AcDbEntity
  8
0
  6
Continuous
 62
     7
370
    25
100
AcDbLine
 10
6521.6721060606
 20
5076.8424498058
 30
0.0
 11
6521.7768284741
 21
5077.051910585
 31
0.0
  0
LINE
  5
152
330
1F
100
AcDbEntity
  8
0
  6
Continuous
 62
     7
370
    25
100
AcDbLine
 10
6521.7768284741
 20
5105.9942516664
 30
0.0
 11
6521.706147756
 21
5106.2770822446
 31
0.0
  0
LINE
  5
153
330
1F
100
AcDbEntity
  8
0
  6
Continuous
 62
     7
370
    25
100
AcDbLine
 10
6521.7768284741
 20
5077.051910585
 30
0.0
 11
6521.7768284741
 21
5105.9942516664
 31
0.0
  0
LINE
  5
154
330
1F
100
AcDbEntity
  8
0
  6
Continuous
 62
     7
370
    25
100
AcDbLine
 10
6526.0609938701
 20
5077.051910585
 30
0.0
 11
6526.1657162836
 21
5076.8424498058
 31
0.0
  0
LINE
  5
155
330
1F
100
AcDbEntity
  8
0
  6
Continuous
 62
     7
370
    25
100
AcDbLine
 10
6526.0609938701
 20
5105.9942516664
 30
0.0
 11
6526.0609938701
 21
5077.051910585
 31
0.0
  0
LINE
  5
156
330
1F
100
AcDbEntity
  8
0
  6
Continuous
 62
     7
370
    25
100
AcDbLine
 10
6526.1316745882
 20
5106.2770822446
 30
0.0
 11
6526.0609938701
 21
5105.9942516664
 31
0.0
  0
LINE
  5
157
330
1F
100
AcDbEntity
  8
0
  6
Continuous
 62
     7
370
    25
100
AcDbLine
 10
6527.603515287
 20
5003.6598153022
 30
0.0
 11
6527.3105730135
 21
5003.6598153022
 31
0.0
  0
LINE
  5
158
330
1F
100
AcDbEntity
  8
0
  6
Continuous
 62
     7
370
    25
100
AcDbLine
 10
6521.4081699608
 20
5003.6598153022
 30
0.0
 11
6521.7011122343
 21
5003.6598153022
 31
0.0
  0
LINE
  5
159
330
1F
100
AcDbEntity
  8
0
  6
Continuous
 62
     7
370
    25
100
AcDbLine
 10
6519.8950937695
 20
5106.4920819954
 30
0.0
 11
6519.8950937695
 21
5074.5352800802
 31
0.0
  0
LINE
  5
15A
330
1F
100
AcDbEntity
  8
0
  6
Continuous
 62
     7
370
    25
100
AcDbLine
 10
6519.8950937695
 20
5106.4920819954
 30
0.0
 11
6519.9300038993
 21
5106.3872664368
 31
0.0
  0
ELLIPSE
  5
15B
330
1F
100
AcDbEntity
  8
0
  6
Continuous
 62
     7
370
    25
100
AcDbEllipse
 10
6520.8952460975
 20
5106.4911673535
 30
0.0
 11
-0.3164782046942491
 21
0.9502067146549962
 31
0.0
210
0.0
220
0.0
230
1.0
 40
0.9984778551
 41
5.962134956655592
 42
7.532017894944792
  0
LINE
  5
15C
330
1F
100
AcDbEntity
  8
0
  6
Continuous
 62
     7
370
    25
100
AcDbLine
 10
6527.5669585074
 20
5003.6598153022
 30
0.0
 11
6527.5669585074
 21
5003.4765846011
 31
0.0
  0
LINE
  5
15D
330
1F
100
AcDbEntity
  8
0
  6
Continuous
 62
     7
370
    25
100
AcDbLine
 10
6521.7768284741
 20
5105.9942516664
 30
0.0
 11
6526.0609938701
 21
5105.9942516664
 31
0.0
  0
ARC
  5
15E
330
1F
100
AcDbEntity
  8
0
  6
Continuous
 62
     7
370
    25
100
AcDbCircle
 10
6473.7324448499
 20
5004.1078368139
 30
0.0
 40
5.599999999999883
100
AcDbArc
 50
94.4980126048
 51
84.2523695851
  0
SPLINE
  5
15F
330
1F
100
AcDbEntity
  8
0
  6
Continuous
 62
     7
370
    25
100
AcDbSpline
210
0.0
220
0.0
230
1.0
 70
    24
 71
     3
 72
    13
 73
     9
 74
     0
 42
0.00000001
 43
0.00000001
 40
0.0
 40
0.0
 40
0.0
 40
0.0
 40
0.0254342784918755
 40
0.2391405405228546
 40
0.4528843033372462
 40
0.6670512278740773
 40
0.881862829503907
 40
0.9999999999999999
 40
0.9999999999999999
 40
0.9999999999999999
 40
0.9999999999999999
 10
6473.293267560179
 20
5009.690589119728
 30
0.0
 10
6473.293267560179
 20
5009.690555107444
 30
0.0
 10
6473.293267560179
 20
5009.690235313984
 30
0.0
 10
6473.293267560179
 20
5009.680046717472
 30
0.0
 10
6473.293267560179
 20
5009.644662464423
 30
0.0
 10
6473.293267560179
 20
5009.591841707517
 30
0.0
 10
6473.293267560179
 20
5009.537102531702
 30
0.0
 10
6473.293267560179
 20
5009.502297708565
 30
0.0
 10
6473.293267560179
 20
5009.489948231199
 30
0.0
  0
ARC
  5
160
330
1F
100
AcDbEntity
  8
0
  6
Continuous
 62
     7
370
    25
100
AcDbCircle
 10
6473.7324448499
 20
5004.1078368139
 30
0.0
 40
5.399999999999644
100
AcDbArc
 50
94.6649681226
 51
84.0387368535
  0
SPLINE
  5
161
330
1F
100
AcDbEntity
  8
0
  6
Continuous
 62
     7
370
    25
100
AcDbSpline
210
0.0
220
0.0
230
1.0
 70
    24
 71
     3
 72
    13
 73
     9
 74
     0
 42
0.00000001
 43
0.00000001
 40
0.0
 40
0.0
 40
0.0
 40
0.0
 40
0.0078315083444716
 40
0.224213401065663
 40
0.440506527411394
 40
0.6560344530516676
 40
0.870478551742465
 40
1.0
 40
1.0
 40
1.0
 40
1.0
 10
6474.293267560178
 20
5009.478635440514
 30
0.0
 10
6474.293267560178
 20
5009.479454079316
 30
0.0
 10
6474.293267560178
 20
5009.502891427773
 30
0.0
 10
6474.293267560178
 20
5009.549194934517
 30
0.0
 10
6474.293267560178
 20
5009.609197147375
 30
0.0
 10
6474.293267560178
 20
5009.654012029495
 30
0.0
 10
6474.293267560178
 20
5009.676657913615
 30
0.0
 10
6474.293267560178
 20
5009.678856012798
 30
0.0
 10
6474.293267560178
 20
5009.679683714851
 30
0.0
  0
ARC
  5
162
330
1F
100
AcDbEntity
  8
0
  6
Continuous
 62
     7
370
    25
100
AcDbCircle
 10
6473.2932675602
 20
5005.8931651654
 30
0.0
 40
0.5331629282969983
100
AcDbArc
 50
310.7111856768
 51
90.0
  0
ARC
  5
163
330
1F
100
AcDbEntity
  8
0
  6
Continuous
 62
     7
370
    25
100
AcDbCircle
 10
6474.2932675602
 20
5004.7310169112
 30
0.0
 40
0.999999999999748
100
AcDbArc
 50
130.7111856769
 51
180.0
  0
LINE
  5
164
330
1F
100
AcDbEntity
  8
0
  6
Continuous
 62
     7
370
    25
100
AcDbLine
 10
6473.4794942219
 20
5003.9788585193
 30
0.0
 11
6473.4794942219
 21
5001.4844417018
 31
0.0
  0
ARC
  5
165
330
1F
100
AcDbEntity
  8
0
  6
Continuous
 62
     7
370
    25
100
AcDbCircle
 10
6473.9794942219
 20
5001.4844417018
 30
0.0
 40
0.5000000000009095
100
AcDbArc
 50
180.0
 51
0.0
  0
LINE
  5
166
330
1F
100
AcDbEntity
  8
0
  6
Continuous
 62
     7
370
    25
100
AcDbLine
 10
6474.4794942219
 20
5001.4844417018
 30
0.0
 11
6474.4794942219
 21
5004.3994676921
 31
0.0
  0
LINE
  5
167
330
1F
100
AcDbEntity
  8
0
  6
Continuous
 62
     7
370
    25
100
AcDbLine
 10
6474.4794942219
 20
5004.3994676921
 30
0.0
 11
6474.2932675602
 21
5004.5816806897
 31
0.0
  0
ARC
  5
168
330
1F
100
AcDbEntity
  8
0
  6
Continuous
 62
     7
370
    25
100
AcDbCircle
 10
6473.2932675602
 20
5005.8931651654
 30
0.0
 40
1.533162928296746
100
AcDbArc
 50
310.7111856769
 51
49.2888143231
  0
LINE
  5
169
330
1F
100
AcDbEntity
  8
0
  6
Continuous
 62
     7
370
    25
100
AcDbLine
 10
6473.2932675602
 20
5004.7310169112
 30
0.0
 11
6473.2932675602
 21
5004.1610715169
 31
0.0
  0
LINE
  5
16A
330
1F
100
AcDbEntity
  8
0
  6
Continuous
 62
     7
370
    25
100
AcDbLine
 10
6474.2932675602
 20
5004.5816806897
 30
0.0
 11
6474.2932675602
 21
5004.7310169112
 31
0.0
  0
LINE
  5
16B
330
1F
100
AcDbEntity
  8
0
  6
Continuous
 62
     7
370
    25
100
AcDbLine
 10
6473.2932675602
 20
5004.1610715169
 30
0.0
 11
6473.4794942219
 21
5003.9788585193
 31
0.0
  0
LINE
  5
16C
330
1F
100
AcDbEntity
  8
0
  6
Continuous
 62
     7
370
    25
100
AcDbLine
 10
6473.2932675602
 20
5009.4899482312
 30
0.0
 11
6473.2932675602
 21
5006.4263280937
 31
0.0
  0
LINE
  5
16D
330
1F
100
AcDbEntity
  8
0
  6
Continuous
 62
     7
370
    25
100
AcDbLine
 10
6474.2932675602
 20
5007.0553134196
 30
0.0
 11
6474.2932675602
 21
5009.4786354405
 31
0.0
  0
CIRCLE
  5
16E
330
1F
100
AcDbEntity
  8
0
  6
Continuous
 62
     7
370
    25
100
AcDbCircle
 10
6473.7324448499
 20
5000.1078368139
 30
0.0
 40
11.0
  0
ARC
  5
16F
330
1F
100
AcDbEntity
  8
0
  6
Continuous
 62
     7
370
    25
100
AcDbCircle
 10
6473.7324448499
 20
5004.1078368139
 30
0.0
 40
5.599999999999883
100
AcDbArc
 50
84.2523695851
 51
94.4980126048
  0
CIRCLE
  5
170
330
1F
100
AcDbEntity
  8
0
  6
Continuous
 62
     7
370
    25
100
AcDbCircle
 10
6473.7324448499
 20
5000.1078368139
 30
0.0
 40
12.0
  0
SPLINE
  5
171
330
1F
100
AcDbEntity
  8
0
  6
Continuous
 62
     7
370
    25
100
AcDbSpline
210
0.0
220
0.0
230
1.0
 70
     8
 71
     3
 72
    11
 73
     7
 74
     0
 42
0.00000001
 43
0.00000001
 40
0.0
 40
0.0
 40
0.0
 40
0.0
 40
0.30870680986218
 40
0.6039990807556608
 40
0.886388188635973
 40
1.0
 40
1.0
 40
1.0
 40
1.0
 10
6441.339380998892
 20
5120.607836813965
 30
0.0
 10
6441.40868677948
 20
5120.606364999242
 30
0.0
 10
6441.544286728782
 20
5120.603485325999
 30
0.0
 10
6441.704434474364
 20
5120.560742533876
 30
0.0
 10
6441.809887898064
 20
5120.502595121972
 30
0.0
 10
6441.84057759456
 20
5120.439706808575
 30
0.0
 10
6441.849382402428
 20
5120.421664286825
 30
0.0
  0
LINE
  5
172
330
1F
100
AcDbEntity
  8
0
  6
Continuous
 62
     7
370
    25
100
AcDbLine
 10
6441.3393809989
 20
5122.107836814
 30
0.0
 11
6441.3393809989
 21
5120.607836814
 31
0.0
  0
SPLINE
  5
173
330
1F
100
AcDbEntity
  8
0
  6
Continuous
 62
     7
370
    25
100
AcDbSpline
210
0.0
220
0.0
230
1.0
 70
     8
 71
     3
 72
    21
 73
    17
 74
     0
 42
0.00000001
 43
0.00000001
 40
0.0
 40
0.0
 40
0.0
 40
0.0
 40
0.0340233399341919
 40
0.0691214084421449
 40
0.1053876398518416
 40
0.1429067282561312
 40
0.181755160216943
 40
0.222001829447389
 40
0.3470619372036711
 40
0.4785351365570038
 40
0.6126326576618998
 40
0.7465410083191641
 40
0.8125714941340157
 40
0.8767057687223524
 40
0.9391186934459115
 40
1.0
 40
1.0
 40
1.0
 40
1.0
 10
6441.339380998892
 20
5122.107836813965
 30
0.0
 10
6441.363600383906
 20
5122.10731881582
 30
0.0
 10
6441.412804195375
 20
5122.106266457014
 30
0.0
 10
6441.479396748232
 20
5122.0969876553
 30
0.0
 10
6441.542155447379
 20
5122.080745610314
 30
0.0
 10
6441.600438569743
 20
5122.055889307604
 30
0.0
 10
6441.654430937599
 20
5122.021395504241
 30
0.0
 10
6441.738351113743
 20
5121.944866398057
 30
0.0
 10
6441.831031658919
 20
5121.783393008986
 30
0.0
 10
6441.898513489623
 20
5121.473181072291
 30
0.0
 10
6441.917723732359
 20
5121.066965808521
 30
0.0
 10
6441.890252432569
 20
5120.67008256237
 30
0.0
 10
6441.843582649713
 20
5120.337408611978
 30
0.0
 10
6441.796207840484
 20
5120.088989778204
 30
0.0
 10
6441.737855863626
 20
5119.844917018778
 30
0.0
 10
6441.68783601111
 20
5119.686206356332
 30
0.0
 10
6441.663136769763
 20
5119.607836813867
 30
0.0
  0
SPLINE
  5
174
330
1F
100
AcDbEntity
  8
0
  6
Continuous
 62
     7
370
    25
100
AcDbSpline
210
0.0
220
0.0
230
1.0
 70
     8
 71
     3
 72
    22
 73
    18
 74
     0
 42
0.00000001
 43
0.00000001
 40
0.0
 40
0.0
 40
0.0
 40
0.0
 40
0.0345636009448494
 40
0.0696199675844856
 40
0.105206278149677
 40
0.1413580746672533
 40
0.1781092572795315
 40
0.2154920942420085
 40
0.2535372453265219
 40
0.3871713463686238
 40
0.5215337233730682
 40
0.6527443527354791
 40
0.7780582117025011
 40
0.8378081948303114
 40
0.8945398398613964
 40
0.9485058887409331
 40
1.0
 40
1.0
 40
1.0
 40
1.0
 10
6555.801752929986
 20
5119.607836813871
 30
0.0
 10
6555.787403718731
 20
5119.65220512702
 30
0.0
 10
6555.758500722658
 20
5119.741574302649
 30
0.0
 10
6555.720554039352
 20
5119.877982130398
 30
0.0
 10
6555.686170118573
 20
5120.016672157384
 30
0.0
 10
6555.655774014915
 20
5120.157279479526
 30
0.0
 10
6555.629247900804
 20
5120.29919256098
 30
0.0
 10
6555.606625869443
 20
5120.441812791715
 30
0.0
 10
6555.572313692087
 20
5120.702884208626
 30
0.0
 10
6555.547193819972
 20
5121.066697177484
 30
0.0
 10
6555.566318603354
 20
5121.47269044729
 30
0.0
 10
6555.633770982387
 20
5121.783236055099
 30
0.0
 10
6555.732596966449
 20
5121.955329340789
 30
0.0
 10
6555.834611949248
 20
5122.041295126042
 30
0.0
 10
6555.920579876478
 20
5122.081862483336
 30
0.0
 10
6556.01526288847
 20
5122.104204329581
 30
0.0
 10
6556.089338865694
 20
5122.106645055673
 30
0.0
 10
6556.125508700897
 20
5122.10783681397
 30
0.0
  0
LINE
  5
175
330
1F
100
AcDbEntity
  8
0
  6
Continuous
 62
     7
370
    25
100
AcDbLine
 10
6441.6631367698
 20
5119.607836814
 30
0.0
 11
6555.80175293
 21
5119.607836814
 31
0.0
  0
LINE
  5
176
330
1F
100
AcDbEntity
  8
0
  6
Continuous
 62
     7
370
    25
100
AcDbLine
 10
6441.3393809989
 20
5122.107836814
 30
0.0
 11
6556.1255087009
 21
5122.107836814
 31
0.0
  0
ARC
  5
177
330
1F
100
AcDbEntity
  8
0
  6
Continuous
 62
     7
370
    25
100
AcDbCircle
 10
6451.7324448499
 20
4910.1078368139
 30
0.0
 40
3.0
100
AcDbArc
 50
180.0
 51
270.0
  0
LINE
  5
178
330
1F
100
AcDbEntity
  8
0
  6
Continuous
 62
     7
370
    25
100
AcDbLine
 10
6451.7324448499
 20
4907.1078368139
 30
0.0
 11
6545.7324448499
 21
4907.1078368139
 31
0.0
  0
ARC
  5
179
330
1F
100
AcDbEntity
  8
0
  6
Continuous
 62
     7
370
    25
100
AcDbCircle
 10
6545.7324448499
 20
4910.1078368139
 30
0.0
 40
3.0
100
AcDbArc
 50
270.0
 51
0.0
  0
LINE
  5
17A
330
1F
100
AcDbEntity
  8
0
  6
Continuous
 62
     7
370
    25
100
AcDbLine
 10
6548.7324448499
 20
4910.1078368139
 30
0.0
 11
6548.7324448499
 21
4979.1078368139
 31
0.0
  0
ARC
  5
17B
330
1F
100
AcDbEntity
  8
0
  6
Continuous
 62
     7
370
    25
100
AcDbCircle
 10
6545.7324448499
 20
4979.1078368139
 30
0.0
 40
3.0
100
AcDbArc
 50
0.0
 51
90.0
  0
LINE
  5
17C
330
1F
100
AcDbEntity
  8
0
  6
Continuous
 62
     7
370
    25
100
AcDbLine
 10
6545.7324448499
 20
4982.1078368139
 30
0.0
 11
6451.7324448499
 21
4982.1078368139
 31
0.0
  0
ARC
  5
17D
330
1F
100
AcDbEntity
  8
0
  6
Continuous
 62
     7
370
    25
100
AcDbCircle
 10
6451.7324448499
 20
4979.1078368139
 30
0.0
 40
3.0
100
AcDbArc
 50
90.0
 51
180.0
  0
LINE
  5
17E
330
1F
100
AcDbEntity
  8
0
  6
Continuous
 62
     7
370
    25
100
AcDbLine
 10
6448.7324448499
 20
4979.1078368139
 30
0.0
 11
6448.7324448499
 21
4910.1078368139
 31
0.0
  0
LINE
  5
17F
330
1F
100
AcDbEntity
  8
0
  6
Continuous
 62
     7
370
    25
100
AcDbLine
 10
6519.2166849656
 20
5032.2051718437
 30
0.0
 11
6519.2166849656
 21
4992.8005821193
 31
0.0
  0
ELLIPSE
  5
180
330
1F
100
AcDbEntity
  8
0
  6
Continuous
 62
     7
370
    25
100
AcDbEllipse
 10
6520.2170277581
 20
4992.8010390396
 30
0.0
 11
0.8324947319633792
 21
0.5549260338402746
 31
0.0
210
0.0
220
0.0
230
1.0
 40
0.9995051766
 41
2.553877046049851
 42
4.124216522085844
  0
LINE
  5
181
330
1F
100
AcDbEntity
  8
0
  6
Continuous
 62
     7
370
    25
100
AcDbLine
 10
6520.2165707507
 20
4991.8008867116
 30
0.0
 11
6528.795114498
 21
4991.8008867116
 31
0.0
  0
ELLIPSE
  5
182
330
1F
100
AcDbEntity
  8
0
  6
Continuous
 62
     7
370
    25
100
AcDbEllipse
 10
6528.7946574906
 20
4992.8010390396
 30
0.0
 11
-0.8324947319642888
 21
0.5549260338402746
 31
0.0
210
0.0
220
0.0
230
1.0
 40
0.9995051766
 41
2.158968785091063
 42
3.729308261130525
  0
LINE
  5
183
330
1F
100
AcDbEntity
  8
0
  6
Continuous
 62
     7
370
    25
100
AcDbLine
 10
6529.7950002831
 20
4992.8005821193
 30
0.0
 11
6529.7950002831
 21
5032.2051718437
 31
0.0
  0
ELLIPSE
  5
184
330
1F
100
AcDbEntity
  8
0
  6
Continuous
 62
     7
370
    25
100
AcDbEllipse
 10
6528.7946574906
 20
5032.2044863762
 30
0.0
 11
-0.707591479943403
 21
-0.707591479943403
 31
0.0
210
0.0
220
0.0
230
1.0
 40
0.999315002
 41
2.356537106530654
 42
3.926648200649855
  0
LINE
  5
185
330
1F
100
AcDbEntity
  8
0
  6
Continuous
 62
     7
370
    25
100
AcDbLine
 10
6528.7953429581
 20
5033.2048291687
 30
0.0
 11
6520.2163422906
 21
5033.2048291687
 31
0.0
  0
ELLIPSE
  5
186
330
1F
100
AcDbEntity
  8
0
  6
Continuous
 62
     7
370
    25
100
AcDbEllipse
 10
6520.2170277581
 20
5032.2044863762
 30
0.0
 11
0.707591479943403
 21
-0.707591479943403
 31
0.0
210
0.0
220
0.0
230
1.0
 40
0.999315002
 41
2.356537106530655
 42
3.926648200650764
  0
LINE
  5
187
330
1F
100
AcDbEntity
  8
0
  6
Continuous
 62
     7
370
    25
100
AcDbLine
 10
6519.8566926271
 20
5106.6073791098
 30
0.0
 11
6519.8566926271
 21
5074.573681223
 31
0.0
  0
LINE
  5
188
330
1F
100
AcDbEntity
  8
0
  6
Continuous
 62
     7
370
    25
100
AcDbLine
 10
6519.8566926271
 20
5074.573681223
 30
0.0
 11
6516.0606963929
 21
5074.573681223
 31
0.0
  0
LINE
  5
189
330
1F
100
AcDbEntity
  8
0
  6
Continuous
 62
     7
370
    25
100
AcDbLine
 10
6516.0606963929
 20
5074.573681223
 30
0.0
 11
6516.0606963929
 21
5054.6944001841
 31
0.0
  0
LINE
  5
18A
330
1F
100
AcDbEntity
  8
0
  6
Continuous
 62
     7
370
    25
100
AcDbLine
 10
6516.0606963929
 20
5054.6944001841
 30
0.0
 11
6537.4172858474
 21
5054.6944001841
 31
0.0
  0
LINE
  5
18B
330
1F
100
AcDbEntity
  8
0
  6
Continuous
 62
     7
370
    25
100
AcDbLine
 10
6537.4172858474
 20
5054.6944001841
 30
0.0
 11
6537.4172858474
 21
5074.573681223
 31
0.0
  0
LINE
  5
18C
330
1F
100
AcDbEntity
  8
0
  6
Continuous
 62
     7
370
    25
100
AcDbLine
 10
6537.4172858474
 20
5074.573681223
 30
0.0
 11
6527.9812211148
 21
5074.573681223
 31
0.0
  0
LINE
  5
18D
330
1F
100
AcDbEntity
  8
0
  6
Continuous
 62
     7
370
    25
100
AcDbLine
 10
6527.9812211148
 20
5074.573681223
 30
0.0
 11
6527.9812211148
 21
5106.6073791098
 31
0.0
  0
ELLIPSE
  5
18E
330
1F
100
AcDbEntity
  8
0
  6
Continuous
 62
     7
370
    25
100
AcDbEllipse
 10
6526.9810687868
 20
5106.6064644679
 30
0.0
 11
-0.3164782046942491
 21
-0.9502067146549962
 31
0.0
210
0.0
220
0.0
230
1.0
 40
0.9984778551
 41
1.892760065824673
 42
3.462643004113728
  0
LINE
  5
18F
330
1F
100
AcDbEntity
  8
0
  6
Continuous
 62
     7
370
    25
100
AcDbLine
 10
6526.9819823143
 20
5107.6078368139
 30
0.0
 11
6520.8559314276
 21
5107.6078368139
 31
0.0
  0
ELLIPSE
  5
190
330
1F
100
AcDbEntity
  8
0
  6
Continuous
 62
     7
370
    25
100
AcDbEllipse
 10
6520.8568449551
 20
5106.6064644679
 30
0.0
 11
-0.3164782046951587
 21
0.9502067146540868
 31
0.0
210
0.0
220
0.0
230
1.0
 40
0.9984778551
 41
5.962134956655611
 42
7.532017894943385
  0
ARC
  5
191
330
1F
100
AcDbEntity
  8
0
  6
Continuous
 62
     7
370
    25
100
AcDbCircle
 10
6440.4092215452
 20
4893.7846135092
 30
0.0
 40
1.499999999999836
100
AcDbArc
 50
33.2857917134
 51
56.7142082845
  0
LINE
  5
192
330
1F
100
AcDbEntity
  8
0
  6
Continuous
 62
     7
370
    25
100
AcDbLine
 10
6441.2324448499
 20
4895.0385287339
 30
0.0
 11
6441.2324448498
 21
5119.177144894
 31
0.0
  0
ARC
  5
193
330
1F
100
AcDbEntity
  8
0
  6
Continuous
 62
     7
370
    25
100
AcDbCircle
 10
6557.0556681546
 20
5120.4310601186
 30
0.0
 40
1.499999999999744
100
AcDbArc
 50
213.2857917139
 51
236.7142082832
  0
LINE
  5
194
330
1F
100
AcDbEntity
  8
0
  6
Continuous
 62
     7
370
    25
100
AcDbLine
 10
6556.2324448499
 20
5119.177144894
 30
0.0
 11
6556.2324448499
 21
4895.0385287338
 31
0.0
  0
ARC
  5
195
330
1F
100
AcDbEntity
  8
0
  6
Continuous
 62
     7
370
    25
100
AcDbCircle
 10
6557.0556681546
 20
4893.7846135092
 30
0.0
 40
1.499999999999803
100
AcDbArc
 50
123.2857917163
 51
146.7142082864
  0
LINE
  5
196
330
1F
100
AcDbEntity
  8
0
  6
Continuous
 62
     7
370
    25
100
AcDbLine
 10
6555.80175293
 20
4894.6078368139
 30
0.0
 11
6441.6631367698
 21
4894.6078368139
 31
0.0
  0
ARC
  5
197
330
1F
100
AcDbEntity
  8
0
  6
Continuous
 62
     7
370
    25
100
AcDbCircle
 10
6440.4092215451
 20
5120.4310601186
 30
0.0
 40
1.50000000000021
100
AcDbArc
 50
303.2857917168
 51
326.7142082851
  0
SPLINE
  5
198
330
1F
100
AcDbEntity
  8
0
  6
Continuous
 62
     7
370
    25
100
AcDbSpline
210
0.0
220
0.0
230
1.0
 70
     8
 71
     3
 72
    11
 73
     7
 74
     0
 42
0.00000001
 43
0.00000001
 40
0.0
 40
0.0
 40
0.0
 40
0.0
 40
0.3087068098713213
 40
0.6039990807717135
 40
0.8863881886559544
 40
1.0
 40
1.0
 40
1.0
 40
1.0
 10
6440.232444849852
 20
4894.714772963017
 30
0.0
 10
6440.233916664575
 20
4894.784078743604
 30
0.0
 10
6440.236796337818
 20
4894.919678692904
 30
0.0
 10
6440.279539129942
 20
4895.079826438481
 30
0.0
 10
6440.337686541843
 20
4895.185279862175
 30
0.0
 10
6440.400574855234
 20
4895.215969558669
 30
0.0
 10
6440.418617376982
 20
4895.224774366535
 30
0.0
  0
LINE
  5
199
330
1F
100
AcDbEntity
  8
0
  6
Continuous
 62
     7
370
    25
100
AcDbLine
 10
6438.7324448499
 20
4894.714772963
 30
0.0
 11
6440.2324448499
 21
4894.714772963
 31
0.0
  0
SPLINE
  5
19A
330
1F
100
AcDbEntity
  8
0
  6
Continuous
 62
     7
370
    25
100
AcDbSpline
210
0.0
220
0.0
230
1.0
 70
     8
 71
     3
 72
    21
 73
    17
 74
     0
 42
0.00000001
 43
0.00000001
 40
0.0
 40
0.0
 40
0.0
 40
0.0
 40
0.0340233399345885
 40
0.0691214084428791
 40
0.1053876398528259
 40
0.142906728257277
 40
0.1817551602181813
 40
0.2220018294486139
 40
0.3470619372038402
 40
0.478535136558577
 40
0.6126326576623203
 40
0.7465410083202829
 40
0.8125714941354653
 40
0.8767057687237169
 40
0.9391186934468081
 40
1.0
 40
1.0
 40
1.0
 40
1.0
 10
6438.732444849852
 20
4894.714772963017
 30
0.0
 10
6438.732962847997
 20
4894.738992348029
 30
0.0
 10
6438.734015206803
 20
4894.788196159499
 30
0.0
 10
6438.743294008517
 20
4894.854788712356
 30
0.0
 10
6438.759536053504
 20
4894.917547411501
 30
0.0
 10
6438.784392356214
 20
4894.975830533865
 30
0.0
 10
6438.818886159577
 20
4895.029822901719
 30
0.0
 10
6438.895415265761
 20
4895.11374307786
 30
0.0
 10
6439.056888654834
 20
4895.206423623032
 30
0.0
 10
6439.367100591528
 20
4895.273905453734
 30
0.0
 10
6439.773315855296
 20
4895.293115696469
 30
0.0
 10
6440.170199101446
 20
4895.265644396677
 30
0.0
 10
6440.502873051836
 20
4895.218974613818
 30
0.0
 10
6440.751291885609
 20
4895.171599804587
 30
0.0
 10
6440.995364645032
 20
4895.113247827729
 30
0.0
 10
6441.154075307476
 20
4895.063227975211
 30
0.0
 10
6441.232444849939
 20
4895.038528733864
 30
0.0
  0
SPLINE
  5
19B
330
1F
100
AcDbEntity
  8
0
  6
Continuous
 62
     7
370
    25
100
AcDbSpline
210
0.0
220
0.0
230
1.0
 70
     8
 71
     3
 72
    11
 73
     7
 74
     0
 42
0.00000001
 43
0.00000001
 40
0.0
 40
0.0
 40
0.0
 40
0.0
 40
0.308706809851645
 40
0.603999080734032
 40
0.8863881886015106
 40
1.0
 40
1.0
 40
1.0
 40
1.0
 10
6556.125508700896
 20
4893.607836813901
 30
0.0
 10
6556.056202920306
 20
4893.609308628625
 30
0.0
 10
6555.920602970999
 20
4893.612188301868
 30
0.0
 10
6555.760455225411
 20
4893.654931093987
 30
0.0
 10
6555.655001801699
 20
4893.713078505892
 30
0.0
 10
6555.624312105196
 20
4893.775966819294
 30
0.0
 10
6555.615507297324
 20
4893.79400934105
 30
0.0
  0
LINE
  5
19C
330
1F
100
AcDbEntity
  8
0
  6
Continuous
 62
     7
370
    25
100
AcDbLine
 10
6556.1255087009
 20
4892.1078368139
 30
0.0
 11
6556.1255087009
 21
4893.6078368139
 31
0.0
  0
SPLINE
  5
19D
330
1F
100
AcDbEntity
  8
0
  6
Continuous
 62
     7
370
    25
100
AcDbSpline
210
0.0
220
0.0
230
1.0
 70
     8
 71
     3
 72
    21
 73
    17
 74
     0
 42
0.00000001
 43
0.00000001
 40
0.0
 40
0.0
 40
0.0
 40
0.0
 40
0.0340233399337689
 40
0.0691214084412955
 40
0.1053876398505954
 40
0.1429067282545005
 40
0.1817551602149468
 40
0.2220018294450539
 40
0.3470619372001691
 40
0.4785351365536427
 40
0.6126326576593023
 40
0.7465410083166215
 40
0.8125714941326942
 40
0.8767057687218434
 40
0.9391186934458582
 40
1.0
 40
1.0
 40
1.0
 40
1.0
 10
6556.125508700896
 20
4892.107836813901
 30
0.0
 10
6556.101289315882
 20
4892.108354812047
 30
0.0
 10
6556.052085504411
 20
4892.109407170853
 30
0.0
 10
6555.985492951551
 20
4892.118685972566
 30
0.0
 10
6555.922734252402
 20
4892.13492801755
 30
0.0
 10
6555.864451130035
 20
4892.159784320259
 30
0.0
 10
6555.810458762176
 20
4892.194278123619
 30
0.0
 10
6555.726538586029
 20
4892.270807229798
 30
0.0
 10
6555.633858040847
 20
4892.432280618861
 30
0.0
 10
6555.566376210136
 20
4892.742492555544
 30
0.0
 10
6555.547165967391
 20
4893.148707819302
 30
0.0
 10
6555.574637267176
 20
4893.545591065446
 30
0.0
 10
6555.621307050029
 20
4893.878265015834
 30
0.0
 10
6555.668681859255
 20
4894.126683849607
 30
0.0
 10
6555.72703383611
 20
4894.370756609032
 30
0.0
 10
6555.777053688626
 20
4894.529467271477
 30
0.0
 10
6555.801752929971
 20
4894.607836813942
 30
0.0
  0
SPLINE
  5
19E
330
1F
100
AcDbEntity
  8
0
  6
Continuous
 62
     7
370
    25
100
AcDbSpline
210
0.0
220
0.0
230
1.0
 70
     8
 71
     3
 72
    22
 73
    18
 74
     0
 42
0.00000001
 43
0.00000001
 40
0.0
 40
0.0
 40
0.0
 40
0.0
 40
0.0345636009444609
 40
0.0696199675838598
 40
0.1052062781490265
 40
0.1413580746667299
 40
0.1781092572793431
 40
0.2154920942423289
 40
0.2535372453275271
 40
0.3871713463710451
 40
0.5215337233743071
 40
0.6527443527367374
 40
0.7780582117032381
 40
0.8378081948296769
 40
0.8945398398601768
 40
0.9485058887399337
 40
1.0
 40
1.0
 40
1.0
 40
1.0
 10
6441.663136769819
 20
4894.60783681394
 30
0.0
 10
6441.677485981074
 20
4894.563468500792
 30
0.0
 10
6441.706388977145
 20
4894.474099325164
 30
0.0
 10
6441.744335660451
 20
4894.33769149742
 30
0.0
 10
6441.778719581231
 20
4894.199001470435
 30
0.0
 10
6441.809115684886
 20
4894.058394148296
 30
0.0
 10
6441.835641798996
 20
4893.916481066843
 30
0.0
 10
6441.858263830359
 20
4893.773860836109
 30
0.0
 10
6441.892576007713
 20
4893.5127894192
 30
0.0
 10
6441.917695879829
 20
4893.148976450349
 30
0.0
 10
6441.898571096441
 20
4892.742983180554
 30
0.0
 10
6441.831118717402
 20
4892.432437572757
 30
0.0
 10
6441.73229273334
 20
4892.260344287075
 30
0.0
 10
6441.630277750542
 20
4892.174378501826
 30
0.0
 10
6441.544309823312
 20
4892.133811144533
 30
0.0
 10
6441.449626811317
 20
4892.111469298289
 30
0.0
 10
6441.37555083409
 20
4892.109028572198
 30
0.0
 10
6441.339380998885
 20
4892.1078368139
 30
0.0
  0
LINE
  5
19F
330
1F
100
AcDbEntity
  8
0
  6
Continuous
 62
     7
370
    25
100
AcDbLine
 10
6556.1255087009
 20
4892.1078368139
 30
0.0
 11
6441.3393809989
 21
4892.1078368139
 31
0.0
  0
SPLINE
  5
1A0
330
1F
100
AcDbEntity
  8
0
  6
Continuous
 62
     7
370
    25
100
AcDbSpline
210
0.0
220
0.0
230
1.0
 70
     8
 71
     3
 72
    14
 73
    10
 74
     0
 42
0.00000001
 43
0.00000001
 40
0.0
 40
0.0
 40
0.0
 40
0.0
 40
0.25
 40
0.25
 40
0.5
 40
0.5
 40
0.75
 40
0.75
 40
1.0
 40
1.0
 40
1.0
 40
1.0
 10
6441.663136769819
 20
4894.607836813916
 30
0.0
 10
6441.765617858782
 20
4894.485238603144
 30
0.0
 10
6441.837074544893
 20
4894.350116985349
 30
0.0
 10
6441.915317085404
 20
4894.085418688688
 30
0.0
 10
6441.919783632733
 20
4893.964073528792
 30
0.0
 10
6441.860108798833
 20
4893.769255001397
 30
0.0
 10
6441.797358244628
 20
4893.701780681457
 30
0.0
 10
6441.607681336472
 20
4893.620161484248
 30
0.0
 10
6441.48647054878
 20
4893.6078368139
 30
0.0
 10
6441.339380998885
 20
4893.6078368139
 30
0.0
  0
LINE
  5
1A1
330
1F
100
AcDbEntity
  8
0
  6
Continuous
 62
     7
370
    25
100
AcDbLine
 10
6441.3393809989
 20
4892.1078368139
 30
0.0
 11
6441.3393809989
 21
4893.6078368139
 31
0.0
  0
SPLINE
  5
1A2
330
1F
100
AcDbEntity
  8
0
  6
Continuous
 62
     7
370
    25
100
AcDbSpline
210
0.0
220
0.0
230
1.0
 70
     8
 71
     3
 72
    14
 73
    10
 74
     0
 42
0.00000001
 43
0.00000001
 40
0.0
 40
0.0
 40
0.0
 40
0.0
 40
0.25
 40
0.25
 40
0.5
 40
0.5
 40
0.75
 40
0.75
 40
1.0
 40
1.0
 40
1.0
 40
1.0
 10
6441.232444849881
 20
5119.17714489403
 30
0.0
 10
6441.109846639112
 20
5119.074663805058
 30
0.0
 10
6440.974725021315
 20
5119.003207118935
 30
0.0
 10
6440.710026724668
 20
5118.924964578411
 30
0.0
 10
6440.58868156475
 20
5118.920498031074
 30
0.0
 10
6440.393863037371
 20
5118.980172864928
 30
0.0
 10
6440.326388717412
 20
5119.042923419138
 30
0.0
 10
6440.244769520198
 20
5119.23260032725
 30
0.0
 10
6440.232444849846
 20
5119.35381111493
 30
0.0
 10
6440.232444849846
 20
5119.500900664822
 30
0.0
  0
SPLINE
  5
1A3
330
1F
100
AcDbEntity
  8
0
  6
Continuous
 62
     7
370
    25
100
AcDbSpline
210
0.0
220
0.0
230
1.0
 70
     8
 71
     3
 72
    22
 73
    18
 74
     0
 42
0.00000001
 43
0.00000001
 40
0.0
 40
0.0
 40
0.0
 40
0.0
 40
0.0345636009442638
 40
0.069619967583222
 40
0.1052062781476664
 40
0.1413580746643881
 40
0.1781092572757683
 40
0.215492094237254
 40
0.2535372453207093
 40
0.3871713463588989
 40
0.5215337233648645
 40
0.6527443527188995
 40
0.7780582116963025
 40
0.8378081948220274
 40
0.8945398398534656
 40
0.9485058887357672
 40
1.0
 40
1.0
 40
1.0
 40
1.0
 10
6441.232444849933
 20
5119.17714489403
 30
0.0
 10
6441.188076536785
 20
5119.162795682774
 30
0.0
 10
6441.09870736116
 20
5119.133892686699
 30
0.0
 10
6440.962299533417
 20
5119.09594600339
 30
0.0
 10
6440.823609506435
 20
5119.061562082606
 30
0.0
 10
6440.683002184299
 20
5119.031165978946
 30
0.0
 10
6440.541089102849
 20
5119.004639864832
 30
0.0
 10
6440.398468872119
 20
5118.982017833466
 30
0.0
 10
6440.137397455217
 20
5118.947705656105
 30
0.0
 10
6439.773584486364
 20
5118.92258578398
 30
0.0
 10
6439.367591216565
 20
5118.941710567342
 30
0.0
 10
6439.057045608743
 20
5119.00916294636
 30
0.0
 10
6438.884952323045
 20
5119.107988930405
 30
0.0
 10
6438.798986537782
 20
5119.210003913187
 30
0.0
 10
6438.758419180484
 20
5119.295971840408
 30
0.0
 10
6438.736077334235
 20
5119.390654852396
 30
0.0
 10
6438.733636608144
 20
5119.464730829617
 30
0.0
 10
6438.732444849846
 20
5119.500900664822
 30
0.0
  0
LINE
  5
1A4
330
1F
100
AcDbEntity
  8
0
  6
Continuous
 62
     7
370
    25
100
AcDbLine
 10
6438.7324448498
 20
5119.5009006648
 30
0.0
 11
6440.2324448498
 21
5119.5009006648
 31
0.0
  0
SPLINE
  5
1A5
330
1F
100
AcDbEntity
  8
0
  6
Continuous
 62
     7
370
    25
100
AcDbSpline
210
0.0
220
0.0
230
1.0
 70
     8
 71
     3
 72
    21
 73
    17
 74
     0
 42
0.00000001
 43
0.00000001
 40
0.0
 40
0.0
 40
0.0
 40
0.0
 40
0.034023339935073
 40
0.0691214084438382
 40
0.1053876398542258
 40
0.1429067282591522
 40
0.1817551602204621
 40
0.2220018294513444
 40
0.3470619372076757
 40
0.4785351365620575
 40
0.6126326576663147
 40
0.7465410083226642
 40
0.8125714941373631
 40
0.876705768725044
 40
0.9391186934474905
 40
1.0
 40
1.0
 40
1.0
 40
1.0
 10
6558.73244484988
 20
5119.500900664816
 30
0.0
 10
6558.731926851736
 20
5119.476681279803
 30
0.0
 10
6558.73087449293
 20
5119.427477468336
 30
0.0
 10
6558.721595691216
 20
5119.36088491548
 30
0.0
 10
6558.705353646229
 20
5119.298126216337
 30
0.0
 10
6558.680497343519
 20
5119.239843093974
 30
0.0
 10
6558.646003540156
 20
5119.18585072612
 30
0.0
 10
6558.569474433974
 20
5119.101930549981
 30
0.0
 10
6558.408001044905
 20
5119.009250004814
 30
0.0
 10
6558.097789108219
 20
5118.941768174119
 30
0.0
 10
6557.691573844466
 20
5118.92255793139
 30
0.0
 10
6557.29469059833
 20
5118.950029231187
 30
0.0
 10
6556.962016647954
 20
5118.99669901405
 30
0.0
 10
6556.713597814191
 20
5119.044073823284
 30
0.0
 10
6556.469525054778
 20
5119.102425800145
 30
0.0
 10
6556.310814392341
 20
5119.152445652667
 30
0.0
 10
6556.232444849881
 20
5119.177144894014
 30
0.0
  0
LINE
  5
1A6
330
1F
100
AcDbEntity
  8
0
  6
Continuous
 62
     7
370
    25
100
AcDbLine
 10
6558.7324448499
 20
5119.5009006648
 30
0.0
 11
6558.7324448499
 21
4894.714772963
 31
0.0
  0
SPLINE
  5
1A7
330
1F
100
AcDbEntity
  8
0
  6
Continuous
 62
     7
370
    25
100
AcDbSpline
210
0.0
220
0.0
230
1.0
 70
     8
 71
     3
 72
    22
 73
    18
 74
     0
 42
0.00000001
 43
0.00000001
 40
0.0
 40
0.0
 40
0.0
 40
0.0
 40
0.0345636009455279
 40
0.0696199675853991
 40
0.1052062781503572
 40
0.1413580746672749
 40
0.1781092572784639
 40
0.2154920942394198
 40
0.2535372453219968
 40
0.387171346364936
 40
0.5215337233665113
 40
0.6527443527289462
 40
0.778058211697469
 40
0.837808194826561
 40
0.8945398398589107
 40
0.9485058887397521
 40
1.0
 40
1.0
 40
1.0
 40
1.0
 10
6556.232444849881
 20
4895.038528733848
 30
0.0
 10
6556.276813163029
 20
4895.052877945103
 30
0.0
 10
6556.366182338655
 20
4895.081780941179
 30
0.0
 10
6556.502590166399
 20
4895.119727624489
 30
0.0
 10
6556.641280193379
 20
4895.154111545273
 30
0.0
 10
6556.781887515513
 20
4895.184507648934
 30
0.0
 10
6556.923800596958
 20
4895.211033763047
 30
0.0
 10
6557.066420827681
 20
4895.233655794411
 30
0.0
 10
6557.327492244579
 20
4895.267967971769
 30
0.0
 10
6557.69130521342
 20
4895.293087843893
 30
0.0
 10
6558.09729848321
 20
4895.273963060524
 30
0.0
 10
6558.40784409101
 20
4895.206510681504
 30
0.0
 10
6558.579937376698
 20
4895.107684697452
 30
0.0
 10
6558.665903161951
 20
4895.005669714659
 30
0.0
 10
6558.706470519247
 20
4894.919701787434
 30
0.0
 10
6558.728812365491
 20
4894.825018775447
 30
0.0
 10
6558.731253091583
 20
4894.750942798227
 30
0.0
 10
6558.73244484988
 20
4894.714772963025
 30
0.0
  0
LINE
  5
1A8
330
1F
100
AcDbEntity
  8
0
  6
Continuous
 62
     7
370
    25
100
AcDbLine
 10
6438.7324448499
 20
4894.714772963
 30
0.0
 11
6438.7324448498
 21
5119.5009006648
 31
0.0
  0
SPLINE
  5
1A9
330
1F
100
AcDbEntity
  8
0
  6
Continuous
 62
     7
370
    25
100
AcDbSpline
210
0.0
220
0.0
230
1.0
 70
     8
 71
     3
 72
    11
 73
     7
 74
     0
 42
0.00000001
 43
0.00000001
 40
0.0
 40
0.0
 40
0.0
 40
0.0
 40
0.3087068098977808
 40
0.6039990808230784
 40
0.886388188730402
 40
1.0
 40
1.0
 40
1.0
 40
1.0
 10
6557.23244484988
 20
5119.500900664816
 30
0.0
 10
6557.230973035157
 20
5119.43159488423
 30
0.0
 10
6557.228093361915
 20
5119.295994934932
 30
0.0
 10
6557.18535056979
 20
5119.13584718936
 30
0.0
 10
6557.127203157901
 20
5119.030393765679
 30
0.0
 10
6557.064314844525
 20
5118.999704069192
 30
0.0
 10
6557.046272322793
 20
5118.990899261335
 30
0.0
  0
LINE
  5
1AA
330
1F
100
AcDbEntity
  8
0
  6
Continuous
 62
     7
370
    25
100
AcDbLine
 10
6558.7324448499
 20
5119.5009006648
 30
0.0
 11
6557.2324448499
 21
5119.5009006648
 31
0.0
  0
SPLINE
  5
1AB
330
1F
100
AcDbEntity
  8
0
  6
Continuous
 62
     7
370
    25
100
AcDbSpline
210
0.0
220
0.0
230
1.0
 70
     8
 71
     3
 72
    14
 73
    10
 74
     0
 42
0.00000001
 43
0.00000001
 40
0.0
 40
0.0
 40
0.0
 40
0.0
 40
0.25
 40
0.25
 40
0.5
 40
0.5
 40
0.75
 40
0.75
 40
1.0
 40
1.0
 40
1.0
 40
1.0
 10
6556.232444849881
 20
4895.038528733848
 30
0.0
 10
6556.355043060659
 20
4895.14100982283
 30
0.0
 10
6556.490164678433
 20
4895.21246650894
 30
0.0
 10
6556.75486297509
 20
4895.290709049463
 30
0.0
 10
6556.876208134982
 20
4895.295175596802
 30
0.0
 10
6557.071026662376
 20
4895.235500762931
 30
0.0
 10
6557.138500982317
 20
4895.172750208739
 30
0.0
 10
6557.220120179532
 20
4894.983073300589
 30
0.0
 10
6557.23244484988
 20
4894.861862512907
 30
0.0
 10
6557.23244484988
 20
4894.714772963026
 30
0.0
  0
LINE
  5
1AC
330
1F
100
AcDbEntity
  8
0
  6
Continuous
 62
     7
370
    25
100
AcDbLine
 10
6558.7324448499
 20
4894.714772963
 30
0.0
 11
6557.2324448499
 21
4894.714772963
 31
0.0
  0
SPLINE
  5
1AD
330
1F
100
AcDbEntity
  8
0
  6
Continuous
 62
     7
370
    25
100
AcDbSpline
210
0.0
220
0.0
230
1.0
 70
     8
 71
     3
 72
    14
 73
    10
 74
     0
 42
0.00000001
 43
0.00000001
 40
0.0
 40
0.0
 40
0.0
 40
0.0
 40
0.25
 40
0.25
 40
0.5
 40
0.5
 40
0.75
 40
0.75
 40
1.0
 40
1.0
 40
1.0
 40
1.0
 10
6555.801752929986
 20
5119.607836813931
 30
0.0
 10
6555.699271841019
 20
5119.730435024705
 30
0.0
 10
6555.627815154908
 20
5119.865556642502
 30
0.0
 10
6555.549572614398
 20
5120.130254939164
 30
0.0
 10
6555.545106067067
 20
5120.251600099065
 30
0.0
 10
6555.604780900957
 20
5120.446418626467
 30
0.0
 10
6555.667531455158
 20
5120.513892946408
 30
0.0
 10
6555.85720836332
 20
5120.595512143622
 30
0.0
 10
6555.97841915101
 20
5120.607836813971
 30
0.0
 10
6556.125508700898
 20
5120.607836813971
 30
0.0
  0
LINE
  5
1AE
330
1F
100
AcDbEntity
  8
0
  6
Continuous
 62
     7
370
    25
100
AcDbLine
 10
6556.1255087009
 20
5122.107836814
 30
0.0
 11
6556.1255087009
 21
5120.607836814
 31
0.0
  0
LINE
  5
1AF
330
1F
100
AcDbEntity
  8
0
  6
Continuous
 62
     7
370
    25
100
AcDbLine
 10
6440.2324448499
 20
4894.714772963
 30
0.0
 11
6440.2324448499
 21
4893.9078368139
 31
0.0
  0
LINE
  5
1B0
330
1F
100
AcDbEntity
  8
0
  6
Continuous
 62
     7
370
    25
100
AcDbLine
 10
6440.2324448499
 20
4893.9078368139
 30
0.0
 11
6438.7324448499
 21
4893.9078368139
 31
0.0
  0
LINE
  5
1B1
330
1F
100
AcDbEntity
  8
0
  6
Continuous
 62
     7
370
    25
100
AcDbLine
 10
6438.7324448499
 20
4894.714772963
 30
0.0
 11
6438.7324448499
 21
4893.9078368139
 31
0.0
  0
LINE
  5
1B2
330
1F
100
AcDbEntity
  8
0
  6
Continuous
 62
     7
370
    25
100
AcDbLine
 10
6440.4092215451
 20
5122.107836814
 30
0.0
 11
6440.4092215451
 21
5120.607836814
 31
0.0
  0
LINE
  5
1B3
330
1F
100
AcDbEntity
  8
0
  6
Continuous
 62
     7
370
    25
100
AcDbLine
 10
6441.3393809989
 20
5122.107836814
 30
0.0
 11
6440.4092215451
 21
5122.107836814
 31
0.0
  0
LINE
  5
1B4
330
1F
100
AcDbEntity
  8
0
  6
Continuous
 62
     7
370
    25
100
AcDbLine
 10
6441.3393809989
 20
5120.607836814
 30
0.0
 11
6440.4092215451
 21
5120.607836814
 31
0.0
  0
LINE
  5
1B5
330
1F
100
AcDbEntity
  8
0
  6
Continuous
 62
     7
370
    25
100
AcDbLine
 10
6557.2324448499
 20
5120.307836814
 30
0.0
 11
6558.7324448499
 21
5120.307836814
 31
0.0
  0
LINE
  5
1B6
330
1F
100
AcDbEntity
  8
0
  6
Continuous
 62
     7
370
    25
100
AcDbLine
 10
6558.7324448499
 20
5119.5009006648
 30
0.0
 11
6558.7324448499
 21
5120.307836814
 31
0.0
  0
LINE
  5
1B7
330
1F
100
AcDbEntity
  8
0
  6
Continuous
 62
     7
370
    25
100
AcDbLine
 10
6557.2324448499
 20
5119.5009006648
 30
0.0
 11
6557.2324448499
 21
5120.307836814
 31
0.0
  0
LINE
  5
1B8
330
1F
100
AcDbEntity
  8
0
  6
Continuous
 62
     7
370
    25
100
AcDbLine
 10
6438.7324448498
 20
5120.307836814
 30
0.0
 11
6440.2324448498
 21
5120.307836814
 31
0.0
  0
LINE
  5
1B9
330
1F
100
AcDbEntity
  8
0
  6
Continuous
 62
     7
370
    25
100
AcDbLine
 10
6438.7324448498
 20
5119.5009006648
 30
0.0
 11
6438.7324448498
 21
5120.307836814
 31
0.0
  0
LINE
  5
1BA
330
1F
100
AcDbEntity
  8
0
  6
Continuous
 62
     7
370
    25
100
AcDbLine
 10
6440.2324448498
 20
5119.5009006648
 30
0.0
 11
6440.2324448498
 21
5120.307836814
 31
0.0
  0
LINE
  5
1BB
330
1F
100
AcDbEntity
  8
0
  6
Continuous
 62
     7
370
    25
100
AcDbLine
 10
6556.1255087009
 20
4893.6078368139
 30
0.0
 11
6557.0556681546
 21
4893.6078368139
 31
0.0
  0
LINE
  5
1BC
330
1F
100
AcDbEntity
  8
0
  6
Continuous
 62
     7
370
    25
100
AcDbLine
 10
6557.0556681546
 20
4892.1078368139
 30
0.0
 11
6557.0556681546
 21
4893.6078368139
 31
0.0
  0
LINE
  5
1BD
330
1F
100
AcDbEntity
  8
0
  6
Continuous
 62
     7
370
    25
100
AcDbLine
 10
6556.1255087009
 20
4892.1078368139
 30
0.0
 11
6557.0556681546
 21
4892.1078368139
 31
0.0
  0
LINE
  5
1BE
330
1F
100
AcDbEntity
  8
0
  6
Continuous
 62
     7
370
    25
100
AcDbLine
 10
6441.3393809989
 20
4892.1078368139
 30
0.0
 11
6440.4092215452
 21
4892.1078368139
 31
0.0
  0
LINE
  5
1BF
330
1F
100
AcDbEntity
  8
0
  6
Continuous
 62
     7
370
    25
100
AcDbLine
 10
6440.4092215452
 20
4892.1078368139
 30
0.0
 11
6440.4092215452
 21
4893.6078368139
 31
0.0
  0
LINE
  5
1C0
330
1F
100
AcDbEntity
  8
0
  6
Continuous
 62
     7
370
    25
100
AcDbLine
 10
6441.3393809989
 20
4893.6078368139
 30
0.0
 11
6440.4092215452
 21
4893.6078368139
 31
0.0
  0
LINE
  5
1C1
330
1F
100
AcDbEntity
  8
0
  6
Continuous
 62
     7
370
    25
100
AcDbLine
 10
6558.7324448499
 20
4894.714772963
 30
0.0
 11
6558.7324448499
 21
4893.9078368139
 31
0.0
  0
LINE
  5
1C2
330
1F
100
AcDbEntity
  8
0
  6
Continuous
 62
     7
370
    25
100
AcDbLine
 10
6558.7324448499
 20
4893.9078368139
 30
0.0
 11
6557.2324448499
 21
4893.9078368139
 31
0.0
  0
LINE
  5
1C3
330
1F
100
AcDbEntity
  8
0
  6
Continuous
 62
     7
370
    25
100
AcDbLine
 10
6557.2324448499
 20
4894.714772963
 30
0.0
 11
6557.2324448499
 21
4893.9078368139
 31
0.0
  0
LINE
  5
1C4
330
1F
100
AcDbEntity
  8
0
  6
Continuous
 62
     7
370
    25
100
AcDbLine
 10
6557.0556681546
 20
5122.107836814
 30
0.0
 11
6557.0556681546
 21
5120.607836814
 31
0.0
  0
LINE
  5
1C5
330
1F
100
AcDbEntity
  8
0
  6
Continuous
 62
     7
370
    25
100
AcDbLine
 10
6556.1255087009
 20
5122.107836814
 30
0.0
 11
6557.0556681546
 21
5122.107836814
 31
0.0
  0
LINE
  5
1C6
330
1F
100
AcDbEntity
  8
0
  6
Continuous
 62
     7
370
    25
100
AcDbLine
 10
6556.1255087009
 20
5120.607836814
 30
0.0
 11
6557.0556681546
 21
5120.607836814
 31
0.0
  0
LINE
  5
1C7
330
1F
100
AcDbEntity
  8
0
  6
Continuous
 62
     7
370
    25
100
AcDbLine
 10
6439.3324448499
 20
4892.1078368139
 30
0.0
 11
6439.3324448499
 21
4893.6078368139
 31
0.0
  0
LINE
  5
1C8
330
1F
100
AcDbEntity
  8
0
  6
Continuous
 62
     7
370
    25
100
AcDbLine
 10
6439.3324448499
 20
4892.1078368139
 30
0.0
 11
6440.4092215452
 21
4892.1078368139
 31
0.0
  0
LINE
  5
1C9
330
1F
100
AcDbEntity
  8
0
  6
Continuous
 62
     7
370
    25
100
AcDbLine
 10
6439.3324448499
 20
4893.6078368139
 30
0.0
 11
6440.4092215452
 21
4893.6078368139
 31
0.0
  0
LINE
  5
1CA
330
1F
100
AcDbEntity
  8
0
  6
Continuous
 62
     7
370
    25
100
AcDbLine
 10
6558.1324448499
 20
4892.1078368139
 30
0.0
 11
6558.1324448499
 21
4893.6078368139
 31
0.0
  0
LINE
  5
1CB
330
1F
100
AcDbEntity
  8
0
  6
Continuous
 62
     7
370
    25
100
AcDbLine
 10
6558.1324448499
 20
4892.1078368139
 30
0.0
 11
6557.0556681546
 21
4892.1078368139
 31
0.0
  0
LINE
  5
1CC
330
1F
100
AcDbEntity
  8
0
  6
Continuous
 62
     7
370
    25
100
AcDbLine
 10
6558.1324448499
 20
4893.6078368139
 30
0.0
 11
6557.0556681546
 21
4893.6078368139
 31
0.0
  0
LINE
  5
1CD
330
1F
100
AcDbEntity
  8
0
  6
Continuous
 62
     7
370
    25
100
AcDbLine
 10
6558.1324448499
 20
5122.107836814
 30
0.0
 11
6558.1324448499
 21
5120.607836814
 31
0.0
  0
LINE
  5
1CE
330
1F
100
AcDbEntity
  8
0
  6
Continuous
 62
     7
370
    25
100
AcDbLine
 10
6558.1324448499
 20
5122.107836814
 30
0.0
 11
6557.0556681546
 21
5122.107836814
 31
0.0
  0
LINE
  5
1CF
330
1F
100
AcDbEntity
  8
0
  6
Continuous
 62
     7
370
    25
100
AcDbLine
 10
6558.1324448499
 20
5120.607836814
 30
0.0
 11
6557.0556681546
 21
5120.607836814
 31
0.0
  0
LINE
  5
1D0
330
1F
100
AcDbEntity
  8
0
  6
Continuous
 62
     7
370
    25
100
AcDbLine
 10
6439.3324448498
 20
5122.107836814
 30
0.0
 11
6439.3324448498
 21
5120.607836814
 31
0.0
  0
LINE
  5
1D1
330
1F
100
AcDbEntity
  8
0
  6
Continuous
 62
     7
370
    25
100
AcDbLine
 10
6439.3324448498
 20
5122.107836814
 30
0.0
 11
6440.4092215451
 21
5122.107836814
 31
0.0
  0
LINE
  5
1D2
330
1F
100
AcDbEntity
  8
0
  6
Continuous
 62
     7
370
    25
100
AcDbLine
 10
6439.3324448498
 20
5120.607836814
 30
0.0
 11
6440.4092215451
 21
5120.607836814
 31
0.0
  0
SPLINE
  5
1D3
330
1F
100
AcDbEntity
  8
0
  6
Continuous
 62
     7
370
    25
100
AcDbSpline
210
0.0
220
0.0
230
1.0
 70
     8
 71
     3
 72
    10
 73
     6
 74
     0
 42
0.00000001
 43
0.00000001
 40
0.0
 40
0.0
 40
0.0
 40
0.0
 40
0.5
 40
0.5
 40
1.0
 40
1.0
 40
1.0
 40
1.0
 10
6441.444576884208
 20
4894.6078368139
 30
0.0
 10
6441.092554878477
 20
4894.346037426101
 30
0.0
 10
6440.740532872745
 20
4894.085850155137
 30
0.0
 10
6440.036488861282
 20
4893.71560991029
 30
0.0
 10
6439.684466855551
 20
4893.607836813901
 30
0.0
 10
6439.33244484982
 20
4893.607836813901
 30
0.0
  0
SPLINE
  5
1D4
330
1F
100
AcDbEntity
  8
0
  6
Continuous
 62
     7
370
    25
100
AcDbSpline
210
0.0
220
0.0
230
1.0
 70
     8
 71
     3
 72
    10
 73
     6
 74
     0
 42
0.00000001
 43
0.00000001
 40
0.0
 40
0.0
 40
0.0
 40
0.0
 40
0.5
 40
0.5
 40
1.0
 40
1.0
 40
1.0
 40
1.0
 10
6558.132444849881
 20
4893.607836813902
 30
0.0
 10
6557.780422844155
 20
4893.607836813901
 30
0.0
 10
6557.428400838429
 20
4893.715609910291
 30
0.0
 10
6556.724356826977
 20
4894.085850155137
 30
0.0
 10
6556.372334821251
 20
4894.346037426103
 30
0.0
 10
6556.020312815524
 20
4894.607836813901
 30
0.0
  0
SPLINE
  5
1D5
330
1F
100
AcDbEntity
  8
0
  6
Continuous
 62
     7
370
    25
100
AcDbSpline
210
0.0
220
0.0
230
1.0
 70
     8
 71
     3
 72
    10
 73
     6
 74
     0
 42
0.00000001
 43
0.00000001
 40
0.0
 40
0.0
 40
0.0
 40
0.0
 40
0.5
 40
0.5
 40
1.0
 40
1.0
 40
1.0
 40
1.0
 10
6440.232444849852
 20
4893.9078368139
 30
0.0
 10
6440.232444849852
 20
4894.059858819625
 30
0.0
 10
6440.340217946243
 20
4894.211880825352
 30
0.0
 10
6440.710458191089
 20
4894.515924836804
 30
0.0
 10
6440.970645462053
 20
4894.66794684253
 30
0.0
 10
6441.232444849851
 20
4894.819968848255
 30
0.0
  0
SPLINE
  5
1D6
330
1F
100
AcDbEntity
  8
0
  6
Continuous
 62
     7
370
    25
100
AcDbSpline
210
0.0
220
0.0
230
1.0
 70
     8
 71
     3
 72
    10
 73
     6
 74
     0
 42
0.00000001
 43
0.00000001
 40
0.0
 40
0.0
 40
0.0
 40
0.0
 40
0.5
 40
0.5
 40
1.0
 40
1.0
 40
1.0
 40
1.0
 10
6441.232444849846
 20
5119.395704779609
 30
0.0
 10
6440.970645462046
 20
5119.547726785335
 30
0.0
 10
6440.710458191083
 20
5119.699748791061
 30
0.0
 10
6440.340217946235
 20
5120.003792802513
 30
0.0
 10
6440.232444849846
 20
5120.155814808239
 30
0.0
 10
6440.232444849846
 20
5120.307836813965
 30
0.0
  0
SPLINE
  5
1D7
330
1F
100
AcDbEntity
  8
0
  6
Continuous
 62
     7
370
    25
100
AcDbSpline
210
0.0
220
0.0
230
1.0
 70
     8
 71
     3
 72
    10
 73
     6
 74
     0
 42
0.00000001
 43
0.00000001
 40
0.0
 40
0.0
 40
0.0
 40
0.0
 40
0.5
 40
0.5
 40
1.0
 40
1.0
 40
1.0
 40
1.0
 10
6556.020312815524
 20
5119.60783681397
 30
0.0
 10
6556.372334821252
 20
5119.869636201769
 30
0.0
 10
6556.724356826977
 20
5120.129823472734
 30
0.0
 10
6557.428400838429
 20
5120.500063717581
 30
0.0
 10
6557.780422844155
 20
5120.607836813972
 30
0.0
 10
6558.132444849881
 20
5120.607836813971
 30
0.0
  0
SPLINE
  5
1D8
330
1F
100
AcDbEntity
  8
0
  6
Continuous
 62
     7
370
    25
100
AcDbSpline
210
0.0
220
0.0
230
1.0
 70
     8
 71
     3
 72
    10
 73
     6
 74
     0
 42
0.00000001
 43
0.00000001
 40
0.0
 40
0.0
 40
0.0
 40
0.0
 40
0.5
 40
0.5
 40
1.0
 40
1.0
 40
1.0
 40
1.0
 10
6439.332444849845
 20
5120.607836813965
 30
0.0
 10
6439.684466855571
 20
5120.607836813965
 30
0.0
 10
6440.036488861298
 20
5120.500063717575
 30
0.0
 10
6440.740532872749
 20
5120.129823472728
 30
0.0
 10
6441.092554878475
 20
5119.869636201764
 30
0.0
 10
6441.444576884202
 20
5119.607836813965
 30
0.0
  0
SPLINE
  5
1D9
330
1F
100
AcDbEntity
  8
0
  6
Continuous
 62
     7
370
    25
100
AcDbSpline
210
0.0
220
0.0
230
1.0
 70
     8
 71
     3
 72
    10
 73
     6
 74
     0
 42
0.00000001
 43
0.00000001
 40
0.0
 40
0.0
 40
0.0
 40
0.0
 40
0.5
 40
0.5
 40
1.0
 40
1.0
 40
1.0
 40
1.0
 10
6557.23244484988
 20
5120.30783681397
 30
0.0
 10
6557.23244484988
 20
5120.155814808244
 30
0.0
 10
6557.124671753491
 20
5120.003792802519
 30
0.0
 10
6556.754431508643
 20
5119.699748791067
 30
0.0
 10
6556.49424423768
 20
5119.54772678534
 30
0.0
 10
6556.232444849881
 20
5119.395704779614
 30
0.0
  0
SPLINE
  5
1DA
330
1F
100
AcDbEntity
  8
0
  6
Continuous
 62
     7
370
    25
100
AcDbSpline
210
0.0
220
0.0
230
1.0
 70
     8
 71
     3
 72
    10
 73
     6
 74
     0
 42
0.00000001
 43
0.00000001
 40
0.0
 40
0.0
 40
0.0
 40
0.0
 40
0.5
 40
0.5
 40
1.0
 40
1.0
 40
1.0
 40
1.0
 10
6556.232444849881
 20
4894.819968848256
 30
0.0
 10
6556.49424423768
 20
4894.667946842532
 30
0.0
 10
6556.754431508644
 20
4894.515924836805
 30
0.0
 10
6557.124671753491
 20
4894.211880825354
 30
0.0
 10
6557.23244484988
 20
4894.059858819627
 30
0.0
 10
6557.23244484988
 20
4893.907836813902
 30
0.0
  0
ARC
  5
1DB
330
1F
100
AcDbEntity
  8
0
  6
Continuous
 62
     7
370
    25
100
AcDbCircle
 10
6472.6396391465
 20
4927.1078368139
 30
0.0
 40
20.00000000000095
100
AcDbArc
 50
270.0
 51
279.0687215461
  0
ARC
  5
1DC
330
1F
100
AcDbEntity
  8
0
  6
Continuous
 62
     7
370
    25
100
AcDbCircle
 10
6524.8252505532
 20
4927.1078368139
 30
0.0
 40
20.00000000000099
100
AcDbArc
 50
260.931278454
 51
270.0
  0
LINE
  5
1DD
330
1F
100
AcDbEntity
  8
0
  6
Continuous
 62
     7
370
    25
100
AcDbLine
 10
6441.4445768842
 20
4894.6078368139
 30
0.0
 11
6441.5706311083
 21
4894.733891038
 31
0.0
  0
LINE
  5
1DE
330
1F
100
AcDbEntity
  8
0
  6
Continuous
 62
     7
370
    25
100
AcDbLine
 10
6556.0203128155
 20
4894.6078368139
 30
0.0
 11
6555.8942585915
 21
4894.733891038
 31
0.0
  0
LINE
  5
1DF
330
1F
100
AcDbEntity
  8
0
  6
Continuous
 62
     7
370
    25
100
AcDbLine
 10
6543.7324448499
 20
4982.1078368139
 30
0.0
 11
6543.7324448499
 21
4981.8578368139
 31
0.0
  0
LINE
  5
1E0
330
1F
100
AcDbEntity
  8
0
  6
Continuous
 62
     7
370
    25
100
AcDbLine
 10
6543.7324448499
 20
4907.3578368139
 30
0.0
 11
6543.7324448499
 21
4907.3199688483
 31
0.0
  0
LINE
  5
1E1
330
1F
100
AcDbEntity
  8
0
  6
Continuous
 62
     7
370
    25
100
AcDbLine
 10
6556.2324448499
 20
5119.3957047796
 30
0.0
 11
6556.1063906258
 21
5119.2696505555
 31
0.0
  0
LINE
  5
1E2
330
1F
100
AcDbEntity
  8
0
  6
Continuous
 62
     7
370
    25
100
AcDbLine
 10
6556.2324448499
 20
4894.8199688483
 30
0.0
 11
6556.1063906258
 21
4894.9460230723
 31
0.0
  0
LINE
  5
1E3
330
1F
100
AcDbEntity
  8
0
  6
Continuous
 62
     7
370
    25
100
AcDbLine
 10
6543.9445768842
 20
4907.1078368139
 30
0.0
 11
6543.7324448499
 21
4907.3199688483
 31
0.0
  0
LINE
  5
1E4
330
1F
100
AcDbEntity
  8
0
  6
Continuous
 62
     7
370
    25
100
AcDbLine
 10
6441.2324448498
 20
5119.3957047796
 30
0.0
 11
6441.3584990739
 21
5119.2696505555
 31
0.0
  0
LINE
  5
1E5
330
1F
100
AcDbEntity
  8
0
  6
Continuous
 62
     7
370
    25
100
AcDbLine
 10
6453.7324448499
 20
4907.3199688483
 30
0.0
 11
6453.7324448499
 21
4907.3578368139
 31
0.0
  0
LINE
  5
1E6
330
1F
100
AcDbEntity
  8
0
  6
Continuous
 62
     7
370
    25
100
AcDbLine
 10
6453.7324448498
 20
4981.8578368139
 30
0.0
 11
6453.7324448498
 21
4982.1078368139
 31
0.0
  0
LINE
  5
1E7
330
1F
100
AcDbEntity
  8
0
  6
Continuous
 62
     7
370
    25
100
AcDbLine
 10
6441.2324448499
 20
4894.8199688483
 30
0.0
 11
6441.358499074
 21
4894.9460230724
 31
0.0
  0
LINE
  5
1E8
330
1F
100
AcDbEntity
  8
0
  6
Continuous
 62
     7
370
    25
100
AcDbLine
 10
6453.5203128155
 20
4907.1078368139
 30
0.0
 11
6453.7324448499
 21
4907.3199688483
 31
0.0
  0
LINE
  5
1E9
330
1F
100
AcDbEntity
  8
0
  6
Continuous
 62
     7
370
    25
100
AcDbLine
 10
6441.4445768842
 20
5119.607836814
 30
0.0
 11
6441.5706311083
 21
5119.4817825899
 31
0.0
  0
LINE
  5
1EA
330
1F
100
AcDbEntity
  8
0
  6
Continuous
 62
     7
370
    25
100
AcDbLine
 10
6556.0203128155
 20
5119.607836814
 30
0.0
 11
6555.8942585915
 21
5119.4817825899
 31
0.0
  0
LINE
  5
1EB
330
1F
100
AcDbEntity
  8
0
  6
Continuous
 62
     7
370
    25
100
AcDbLine
 10
6545.7324448499
 20
4981.8578368139
 30
0.0
 11
6451.7324448499
 21
4981.8578368139
 31
0.0
  0
LINE
  5
1EC
330
1F
100
AcDbEntity
  8
0
  6
Continuous
 62
     7
370
    25
100
AcDbLine
 10
6448.9824448499
 20
4979.1078368139
 30
0.0
 11
6448.9824448499
 21
4910.1078368139
 31
0.0
  0
LINE
  5
1ED
330
1F
100
AcDbEntity
  8
0
  6
Continuous
 62
     7
370
    25
100
AcDbLine
 10
6451.7324448499
 20
4907.3578368139
 30
0.0
 11
6545.7324448499
 21
4907.3578368139
 31
0.0
  0
LINE
  5
1EE
330
1F
100
AcDbEntity
  8
0
  6
Continuous
 62
     7
370
    25
100
AcDbLine
 10
6548.4824448499
 20
4910.1078368139
 30
0.0
 11
6548.4824448499
 21
4979.1078368139
 31
0.0
  0
ARC
  5
1EF
330
1F
100
AcDbEntity
  8
0
  6
Continuous
 62
     7
370
    25
100
AcDbCircle
 10
6451.7324448499
 20
4979.1078368139
 30
0.0
 40
2.750000000000909
100
AcDbArc
 50
90.0
 51
180.0
  0
ARC
  5
1F0
330
1F
100
AcDbEntity
  8
0
  6
Continuous
 62
     7
370
    25
100
AcDbCircle
 10
6451.7324448499
 20
4910.1078368139
 30
0.0
 40
2.75
100
AcDbArc
 50
180.0
 51
270.0
  0
ARC
  5
1F1
330
1F
100
AcDbEntity
  8
0
  6
Continuous
 62
     7
370
    25
100
AcDbCircle
 10
6545.7324448499
 20
4979.1078368139
 30
0.0
 40
2.750000000000909
100
AcDbArc
 50
0.0
 51
90.0
  0
ARC
  5
1F2
330
1F
100
AcDbEntity
  8
0
  6
Continuous
 62
     7
370
    25
100
AcDbCircle
 10
6545.7324448499
 20
4910.1078368139
 30
0.0
 40
2.75
100
AcDbArc
 50
270.0
 51
0.0
  0
LINE
  5
1F3
330
1F
100
AcDbEntity
  8
0
  6
Continuous
 62
     8
370
    25
100
AcDbLine
 10
6556.0203128155
 20
4894.6078368139
 30
0.0
 11
6555.80175293
 21
4894.6078368139
 31
0.0
  0
LINE
  5
1F4
330
1F
100
AcDbEntity
  8
0
  6
Continuous
 62
     8
370
    25
100
AcDbLine
 10
6441.6631367698
 20
4894.6078368139
 30
0.0
 11
6441.4445768842
 21
4894.6078368139
 31
0.0
  0
LINE
  5
1F5
330
1F
100
AcDbEntity
  8
0
  6
Continuous
 62
     8
370
    25
100
AcDbLine
 10
6441.2324448499
 20
4894.8199688483
 30
0.0
 11
6441.2324448499
 21
4895.0385287339
 31
0.0
  0
LINE
  5
1F6
330
1F
100
AcDbEntity
  8
0
  6
Continuous
 62
     8
370
    25
100
AcDbLine
 10
6441.2324448498
 20
5119.177144894
 30
0.0
 11
6441.2324448498
 21
5119.3957047796
 31
0.0
  0
LINE
  5
1F7
330
1F
100
AcDbEntity
  8
0
  6
Continuous
 62
     8
370
    25
100
AcDbLine
 10
6441.4445768842
 20
5119.607836814
 30
0.0
 11
6441.6631367698
 21
5119.607836814
 31
0.0
  0
LINE
  5
1F8
330
1F
100
AcDbEntity
  8
0
  6
Continuous
 62
     8
370
    25
100
AcDbLine
 10
6555.80175293
 20
5119.607836814
 30
0.0
 11
6556.0203128155
 21
5119.607836814
 31
0.0
  0
LINE
  5
1F9
330
1F
100
AcDbEntity
  8
0
  6
Continuous
 62
     8
370
    25
100
AcDbLine
 10
6556.2324448499
 20
5119.3957047796
 30
0.0
 11
6556.2324448499
 21
5119.177144894
 31
0.0
  0
LINE
  5
1FA
330
1F
100
AcDbEntity
  8
0
  6
Continuous
 62
     8
370
    25
100
AcDbLine
 10
6556.2324448499
 20
4895.0385287338
 30
0.0
 11
6556.2324448499
 21
4894.8199688483
 31
0.0
  0
LINE
  5
1FB
330
1F
100
AcDbEntity
  8
0
  6
Continuous
 62
     7
370
    25
100
AcDbLine
 10
6875.7126031293
 20
4988.1078368139
 30
0.0
 11
6876.8126031293
 21
4988.1078368139
 31
0.0
  0
LINE
  5
1FC
330
1F
100
AcDbEntity
  8
0
  6
Continuous
 62
     7
370
    25
100
AcDbLine
 10
6876.8126031293
 20
5012.1078368139
 30
0.0
 11
6875.7126031293
 21
5012.1078368139
 31
0.0
  0
LINE
  5
1FD
330
1F
100
AcDbEntity
  8
0
  6
Continuous
 62
     7
370
    25
100
AcDbLine
 10
6876.8126031293
 20
4988.1078368139
 30
0.0
 11
6877.8126031293
 21
4989.1078368139
 31
0.0
  0
LINE
  5
1FE
330
1F
100
AcDbEntity
  8
0
  6
Continuous
 62
     7
370
    25
100
AcDbLine
 10
6877.8126031293
 20
5011.1078368139
 30
0.0
 11
6876.8126031293
 21
5012.1078368139
 31
0.0
  0
ARC
  5
1FF
330
1F
100
AcDbEntity
  8
0
  6
Continuous
 62
     7
370
    25
100
AcDbCircle
 10
6877.8126031293
 20
4998.7078368139
 30
0.0
 40
0.1999999999998181
100
AcDbArc
 50
270.0
 51
0.0
  0
ARC
  5
200
330
1F
100
AcDbEntity
  8
0
  6
Continuous
 62
     7
370
    25
100
AcDbCircle
 10
6879.5126031293
 20
5073.942692072
 30
0.0
 40
0.5000000000011554
100
AcDbArc
 50
0.0
 51
88.9999999999
  0
LINE
  5
201
330
1F
100
AcDbEntity
  8
0
  6
Continuous
 62
     7
370
    25
100
AcDbLine
 10
6880.0126031293
 20
5055.3253893352
 30
0.0
 11
6880.0126031293
 21
5073.942692072
 31
0.0
  0
ARC
  5
202
330
1F
100
AcDbEntity
  8
0
  6
Continuous
 62
     7
370
    25
100
AcDbCircle
 10
6879.5126031293
 20
5055.3253893352
 30
0.0
 40
0.5
100
AcDbArc
 50
271.0000000001
 51
0.0
  0
LINE
  5
203
330
1F
100
AcDbEntity
  8
0
  6
Continuous
 62
     7
370
    25
100
AcDbLine
 10
6875.7126031293
 20
5054.7589839244
 30
0.0
 11
6879.5213293325
 21
5054.8254654876
 31
0.0
  0
LINE
  5
204
330
1F
100
AcDbEntity
  8
0
  6
Continuous
 62
     7
370
    25
100
AcDbLine
 10
6875.7126031293
 20
5074.5090974828
 30
0.0
 11
6879.5213293325
 21
5074.4426159196
 31
0.0
  0
ARC
  5
205
330
1F
100
AcDbEntity
  8
0
  6
Continuous
 62
     7
370
    25
100
AcDbCircle
 10
6882.016966397
 20
5069.5825637761
 30
0.0
 40
2.500000000000216
100
AcDbArc
 50
0.0
 51
89.5
  0
LINE
  5
206
330
1F
100
AcDbEntity
  8
0
  6
Continuous
 62
     7
370
    25
100
AcDbLine
 10
6884.516966397
 20
5069.5825637761
 30
0.0
 11
6884.516966397
 21
5059.7398758659
 31
0.0
  0
ARC
  5
207
330
1F
100
AcDbEntity
  8
0
  6
Continuous
 62
     7
370
    25
100
AcDbCircle
 10
6882.016966397
 20
5059.7398758667
 30
0.0
 40
2.499999999999091
100
AcDbArc
 50
270.5000000023
 51
359.9999999829
  0
LINE
  5
208
330
1F
100
AcDbEntity
  8
0
  6
Continuous
 62
     7
370
    25
100
AcDbLine
 10
6882.0387827364
 20
5072.5824495453
 30
0.0
 11
6880.0126031293
 21
5072.6001317468
 31
0.0
  0
SPLINE
  5
209
330
1F
100
AcDbEntity
  8
0
  6
Continuous
 62
     7
370
    25
100
AcDbSpline
210
0.0
220
0.0
230
1.0
 70
     8
 71
     3
 72
    11
 73
     7
 74
     0
 42
0.00000001
 43
0.00000001
 40
0.0
 40
0.0
 40
0.0
 40
0.0
 40
0.2500000000001318
 40
0.5000000000000974
 40
0.7500000000000511
 40
1.0
 40
1.0
 40
1.0
 40
1.0
 10
6882.038782735783
 20
5072.082468583762
 30
0.0
 10
6882.039288833932
 20
5072.147981432756
 30
0.0
 10
6882.040301030229
 20
5072.279007130742
 30
0.0
 10
6882.040734223167
 20
5072.444268217081
 30
0.0
 10
6882.040301030229
 20
5072.559890309532
 30
0.0
 10
6882.039288833932
 20
5072.574929800041
 30
0.0
 10
6882.038782735783
 20
5072.582449545295
 30
0.0
  0
SPLINE
  5
20A
330
1F
100
AcDbEntity
  8
0
  6
Continuous
 62
     7
370
    25
100
AcDbSpline
210
0.0
220
0.0
230
1.0
 70
     8
 71
     3
 72
    11
 73
     7
 74
     0
 42
0.00000001
 43
0.00000001
 40
0.0
 40
0.0
 40
0.0
 40
0.0
 40
0.2500000000000095
 40
0.5000000000000224
 40
0.750000000000029
 40
1.0
 40
1.0
 40
1.0
 40
1.0
 10
6882.038782735881
 20
5057.239971059151
 30
0.0
 10
6882.039288834029
 20
5057.174458210213
 30
0.0
 10
6882.040301030328
 20
5057.043432512339
 30
0.0
 10
6882.040734223267
 20
5056.878171426056
 30
0.0
 10
6882.040301030333
 20
5056.762549333517
 30
0.0
 10
6882.039288834038
 20
5056.747509842811
 30
0.0
 10
6882.03878273589
 20
5056.739990097459
 30
0.0
  0
LINE
  5
20B
330
1F
100
AcDbEntity
  8
0
  6
Continuous
 62
     7
370
    25
100
AcDbLine
 10
6880.0126031293
 20
5056.7223078959
 30
0.0
 11
6882.0387827353
 21
5056.7399900975
 31
0.0
  0
SPLINE
  5
20C
330
1F
100
AcDbEntity
  8
0
  6
Continuous
 62
     7
370
    25
100
AcDbSpline
210
0.0
220
0.0
230
1.0
 70
    24
 71
     3
 72
    11
 73
     7
 74
     0
 42
0.00000001
 43
0.00000001
 40
0.0
 40
0.0
 40
0.0
 40
0.0
 40
0.2500000000000047
 40
0.4999999999999987
 40
0.7500000000000002
 40
1.0
 40
1.0
 40
1.0
 40
1.0
 10
6884.516966397036
 20
5059.739875865905
 30
0.0
 10
6884.582053354154
 20
5059.739875865905
 30
0.0
 10
6884.712227268391
 20
5059.739875865905
 30
0.0
 10
6884.875909215574
 20
5059.739875865905
 30
0.0
 10
6884.990310771902
 20
5059.739875865905
 30
0.0
 10
6885.005172343492
 20
5059.739875865905
 30
0.0
 10
6885.012603129287
 20
5059.739875865905
 30
0.0
  0
SPLINE
  5
20D
330
1F
100
AcDbEntity
  8
0
  6
Continuous
 62
     7
370
    25
100
AcDbSpline
210
0.0
220
0.0
230
1.0
 70
     8
 71
     3
 72
    13
 73
     9
 74
     0
 42
0.00000001
 43
0.00000001
 40
0.0
 40
0.0
 40
0.0
 40
0.0
 40
0.1545795397826492
 40
0.3007755053653731
 40
0.4385816408192605
 40
0.5679920633584197
 40
0.8006375270917709
 40
1.0
 40
1.0
 40
1.0
 40
1.0
 10
6882.038782735342
 20
5056.739990097454
 30
0.0
 10
6882.279905942598
 20
5056.758916596194
 30
0.0
 10
6882.749075113497
 20
5056.795743120791
 30
0.0
 10
6883.392428637827
 20
5057.050154009105
 30
0.0
 10
6883.933713909382
 20
5057.406642001662
 30
0.0
 10
6884.479884884943
 20
5057.965189165426
 30
0.0
 10
6884.922861731302
 20
5058.753345953247
 30
0.0
 10
6884.984266250089
 20
5059.428367693065
 30
0.0
 10
6885.012603129287
 20
5059.73987586665
 30
0.0
  0
SPLINE
  5
20E
330
1F
100
AcDbEntity
  8
0
  6
Continuous
 62
     7
370
    25
100
AcDbSpline
210
0.0
220
0.0
230
1.0
 70
     8
 71
     3
 72
    13
 73
     9
 74
     0
 42
0.00000001
 43
0.00000001
 40
0.0
 40
0.0
 40
0.0
 40
0.0
 40
0.1993624729093067
 40
0.432007936643352
 40
0.5614183591822894
 40
0.6992244946358044
 40
0.8454204602180131
 40
1.0
 40
1.0
 40
1.0
 40
1.0
 10
6885.012603129287
 20
5069.582563776701
 30
0.0
 10
6884.984266250046
 20
5069.894071950173
 30
0.0
 10
6884.922861731166
 20
5070.569093689749
 30
0.0
 10
6884.479884884949
 20
5071.35725047727
 30
0.0
 10
6883.933713909617
 20
5071.915797640877
 30
0.0
 10
6883.392428638303
 20
5072.272285633385
 30
0.0
 10
6882.749075114258
 20
5072.526696521747
 30
0.0
 10
6882.279905943536
 20
5072.563523046478
 30
0.0
 10
6882.03878273637
 20
5072.58244954529
 30
0.0
  0
SPLINE
  5
20F
330
1F
100
AcDbEntity
  8
0
  6
Continuous
 62
     7
370
    25
100
AcDbSpline
210
0.0
220
0.0
230
1.0
 70
    24
 71
     3
 72
    11
 73
     7
 74
     0
 42
0.00000001
 43
0.00000001
 40
0.0
 40
0.0
 40
0.0
 40
0.0
 40
0.2499999999999938
 40
0.499999999999996
 40
0.7500000000000018
 40
1.0
 40
1.0
 40
1.0
 40
1.0
 10
6884.516966396872
 20
5069.582563776102
 30
0.0
 10
6884.582053353953
 20
5069.582563776102
 30
0.0
 10
6884.712227268114
 20
5069.582563776102
 30
0.0
 10
6884.87590921527
 20
5069.582563776102
 30
0.0
 10
6884.990310771676
 20
5069.582563776102
 30
0.0
 10
6885.005172343416
 20
5069.582563776102
 30
0.0
 10
6885.012603129287
 20
5069.582563776102
 30
0.0
  0
LINE
  5
210
330
1F
100
AcDbEntity
  8
0
  6
Continuous
 62
     7
370
    25
100
AcDbLine
 10
6885.0126031293
 20
5059.7398758666
 30
0.0
 11
6885.0126031293
 21
5069.5825637767
 31
0.0
  0
SPLINE
  5
211
330
1F
100
AcDbEntity
  8
0
  6
Continuous
 62
     7
370
    25
100
AcDbSpline
210
0.0
220
0.0
230
1.0
 70
     8
 71
     3
 72
    11
 73
     7
 74
     0
 42
0.00000001
 43
0.00000001
 40
0.0
 40
0.0
 40
0.0
 40
0.0
 40
0.2499999999999966
 40
0.4999999999999946
 40
0.7499999999999959
 40
1.0
 40
1.0
 40
1.0
 40
1.0
 10
6887.343494516214
 20
4993.068183824153
 30
0.0
 10
6887.345385948944
 20
4992.937204854874
 30
0.0
 10
6887.349168814402
 20
4992.675246916318
 30
0.0
 10
6887.348882561987
 20
4992.344813360504
 30
0.0
 10
6887.344267752828
 20
4992.113576721717
 30
0.0
 10
6887.337935900518
 20
4992.083416326407
 30
0.0
 10
6887.334769974363
 20
4992.068336128751
 30
0.0
  0
LINE
  5
212
330
1F
100
AcDbEntity
  8
0
  6
Continuous
 62
     7
370
    25
100
AcDbLine
 10
6877.8126031293
 20
4991.9021260882
 30
0.0
 11
6887.3347699743
 21
4992.0683361288
 31
0.0
  0
LINE
  5
213
330
1F
100
AcDbEntity
  8
0
  6
Continuous
 62
     7
370
    25
100
AcDbLine
 10
6876.2126031293
 20
5032.0951909731
 30
0.0
 11
6876.2126031293
 21
5012.1078368139
 31
0.0
  0
LINE
  5
214
330
1F
100
AcDbEntity
  8
0
  6
Continuous
 62
     7
370
    25
100
AcDbLine
 10
6878.0126031293
 20
5003.5023357078
 30
0.0
 11
6893.2387800776
 21
5002.170217836
 31
0.0
  0
LINE
  5
215
330
1F
100
AcDbEntity
  8
0
  6
Continuous
 62
     7
370
    25
100
AcDbLine
 10
6893.2387800776
 20
5002.170217836
 30
0.0
 11
6893.2387800776
 21
4999.0672699948
 31
0.0
  0
ARC
  5
216
330
1F
100
AcDbEntity
  8
0
  6
Continuous
 62
     7
370
    25
100
AcDbCircle
 10
6887.2387800776
 20
4999.0672699948
 30
0.0
 40
5.999999999997272
100
AcDbArc
 50
271.0
 51
0.0
  0
LINE
  5
217
330
1F
100
AcDbEntity
  8
0
  6
Continuous
 62
     7
370
    25
100
AcDbLine
 10
6876.2126031293
 20
5032.0951909731
 30
0.0
 11
6876.2126031293
 21
5033.0948482981
 31
0.0
  0
LINE
  5
218
330
1F
100
AcDbEntity
  8
0
  6
Continuous
 62
     7
370
    25
100
AcDbLine
 10
6876.2126031293
 20
5033.0948482981
 30
0.0
 11
6875.7126031293
 21
5033.1079412589
 31
0.0
  0
SPLINE
  5
219
330
1F
100
AcDbEntity
  8
0
  6
Continuous
 62
     7
370
    25
100
AcDbSpline
210
0.0
220
0.0
230
1.0
 70
    24
 71
     3
 72
    11
 73
     7
 74
     0
 42
0.00000001
 43
0.00000001
 40
0.0
 40
0.0
 40
0.0
 40
0.0
 40
0.2499999999999999
 40
0.4999999999999993
 40
0.7499999999999973
 40
1.0
 40
1.0
 40
1.0
 40
1.0
 10
6893.238780077595
 20
4999.067269994846
 30
0.0
 10
6893.367207287777
 20
4999.067269994846
 30
0.0
 10
6893.624061708139
 20
4999.067269994846
 30
0.0
 10
6893.945084864189
 20
4999.067269994846
 30
0.0
 10
6894.169029271375
 20
4999.067269994846
 30
0.0
 10
6894.198078509983
 20
4999.067269994846
 30
0.0
 10
6894.212603129287
 20
4999.067269994846
 30
0.0
  0
SPLINE
  5
21A
330
1F
100
AcDbEntity
  8
0
  6
Continuous
 62
     7
370
    25
100
AcDbSpline
210
0.0
220
0.0
230
1.0
 70
     8
 71
     3
 72
    15
 73
    11
 74
     0
 42
0.00000001
 43
0.00000001
 40
0.0
 40
0.0
 40
0.0
 40
0.0
 40
0.1539226336086998
 40
0.2995914609757387
 40
0.4370009889196785
 40
0.566146169667476
 40
0.6870224295879073
 40
0.7996257084025234
 40
0.9039525138751463
 40
1.0
 40
1.0
 40
1.0
 40
1.0
 10
6887.334769974332
 20
4992.068336128751
 30
0.0
 10
6887.89224402167
 20
4992.11665502245
 30
0.0
 10
6888.977298638932
 20
4992.210701801773
 30
0.0
 10
6890.46369812693
 20
4992.808342353788
 30
0.0
 10
6891.71283368171
 20
4993.639095581032
 30
0.0
 10
6892.698982494284
 20
4994.649684718703
 30
0.0
 10
6893.42294940412
 20
4995.753589566827
 30
0.0
 10
6893.896706771774
 20
4996.886043947071
 30
0.0
 10
6894.166019509411
 20
4997.993614105712
 30
0.0
 10
6894.19750896307
 20
4998.719380747616
 30
0.0
 10
6894.212603129287
 20
4999.067269994846
 30
0.0
  0
LINE
  5
21B
330
1F
100
AcDbEntity
  8
0
  6
Continuous
 62
     7
370
    25
100
AcDbLine
 10
6894.2126031293
 20
4999.0672699948
 30
0.0
 11
6894.2126031293
 21
5002.0850193587
 31
0.0
  0
LINE
  5
21C
330
1F
100
AcDbEntity
  8
0
  6
Continuous
 62
     7
370
    25
100
AcDbLine
 10
6894.2126031293
 20
5002.0850193587
 30
0.0
 11
6893.2387800776
 21
5002.170217836
 31
0.0
  0
LINE
  5
21D
330
1F
100
AcDbEntity
  8
0
  6
Continuous
 62
     7
370
    25
100
AcDbLine
 10
6876.2126031293
 20
5106.3872664368
 30
0.0
 11
6876.2126031293
 21
5074.5003699503
 31
0.0
  0
LINE
  5
21E
330
1F
100
AcDbEntity
  8
0
  6
Continuous
 62
     7
370
    25
100
AcDbLine
 10
6876.2126031293
 20
5106.3872664368
 30
0.0
 11
6876.2126031293
 21
5107.387724141
 31
0.0
  0
LINE
  5
21F
330
1F
100
AcDbEntity
  8
0
  6
Continuous
 62
     7
370
    25
100
AcDbLine
 10
6876.2126031293
 20
5107.387724141
 30
0.0
 11
6875.7126031293
 21
5107.4139280306
 31
0.0
  0
LINE
  5
220
330
1F
100
AcDbEntity
  8
0
  6
Continuous
 62
     7
370
    25
100
AcDbLine
 10
6876.8126031293
 20
4988.1078368139
 30
0.0
 11
6876.8126031293
 21
5012.1078368139
 31
0.0
  0
LINE
  5
221
330
1F
100
AcDbEntity
  8
0
  6
Continuous
 62
     7
370
    25
100
AcDbLine
 10
6877.8126031293
 20
5011.1078368139
 30
0.0
 11
6877.8126031293
 21
4989.1078368139
 31
0.0
  0
SPLINE
  5
222
330
1F
100
AcDbEntity
  8
0
  6
Continuous
 62
     7
370
    25
100
AcDbSpline
210
0.0
220
0.0
230
1.0
 70
     8
 71
     3
 72
    13
 73
     9
 74
     0
 42
0.00000001
 43
0.00000001
 40
0.0
 40
0.0
 40
0.0
 40
0.0
 40
0.0254342784918755
 40
0.2391405405228546
 40
0.4528843033372462
 40
0.6670512278740773
 40
0.881862829503907
 40
0.9999999999999999
 40
0.9999999999999999
 40
0.9999999999999999
 40
0.9999999999999999
 10
6877.812603129288
 20
5009.690589119728
 30
0.0
 10
6877.815259144447
 20
5009.690555107444
 30
0.0
 10
6877.840231777393
 20
5009.690235313984
 30
0.0
 10
6877.887519611104
 20
5009.680046717472
 30
0.0
 10
6877.945902678704
 20
5009.644662464423
 30
0.0
 10
6877.989132092414
 20
5009.591841707517
 30
0.0
 10
6878.009998009275
 20
5009.537102531702
 30
0.0
 10
6878.01192086128
 20
5009.502297708565
 30
0.0
 10
6878.012603129288
 20
5009.489948231199
 30
0.0
  0
LINE
  5
223
330
1F
100
AcDbEntity
  8
0
  6
Continuous
 62
     7
370
    25
100
AcDbLine
 10
6878.0126031293
 20
5009.4899482312
 30
0.0
 11
6878.0126031293
 21
4998.7078368139
 31
0.0
  0
SPLINE
  5
224
330
1F
100
AcDbEntity
  8
0
  6
Continuous
 62
     7
370
    25
100
AcDbSpline
210
0.0
220
0.0
230
1.0
 70
     8
 71
     3
 72
    14
 73
    10
 74
     0
 42
0.00000001
 43
0.00000001
 40
0.0
 40
0.0
 40
0.0
 40
0.0
 40
0.25
 40
0.25
 40
0.5
 40
0.5
 40
0.75
 40
0.75
 40
1.0
 40
1.0
 40
1.0
 40
1.0
 10
6755.712603129287
 20
5119.395704779609
 30
0.0
 10
6755.712603129287
 20
5119.471728785527
 30
0.0
 10
6755.777671437616
 20
5119.547726785335
 30
0.0
 10
6756.028137158401
 20
5119.699748791061
 30
0.0
 10
6756.213436023291
 20
5119.775759793924
 30
0.0
 10
6756.676236329349
 20
5119.927781799651
 30
0.0
 10
6756.953555678359
 20
5120.003792802513
 30
0.0
 10
6757.558233418388
 20
5120.155814808239
 30
0.0
 10
6757.885297912644
 20
5120.231812808047
 30
0.0
 10
6758.212603129286
 20
5120.307836813965
 30
0.0
  0
LINE
  5
225
330
1F
100
AcDbEntity
  8
0
  6
Continuous
 62
     7
370
    25
100
AcDbLine
 10
6758.2126031293
 20
4893.9078368139
 30
0.0
 11
6758.2126031293
 21
5120.307836814
 31
0.0
  0
SPLINE
  5
226
330
1F
100
AcDbEntity
  8
0
  6
Continuous
 62
     7
370
    25
100
AcDbSpline
210
0.0
220
0.0
230
1.0
 70
     8
 71
     3
 72
    14
 73
    10
 74
     0
 42
0.00000001
 43
0.00000001
 40
0.0
 40
0.0
 40
0.0
 40
0.0
 40
0.25
 40
0.25
 40
0.5
 40
0.5
 40
0.75
 40
0.75
 40
1.0
 40
1.0
 40
1.0
 40
1.0
 10
6758.212603129286
 20
4893.9078368139
 30
0.0
 10
6757.885297912644
 20
4893.983860819818
 30
0.0
 10
6757.558233418388
 20
4894.059858819625
 30
0.0
 10
6756.953555678359
 20
4894.211880825352
 30
0.0
 10
6756.676236329349
 20
4894.287891828214
 30
0.0
 10
6756.213436023291
 20
4894.43991383394
 30
0.0
 10
6756.028137158401
 20
4894.515924836804
 30
0.0
 10
6755.777671437616
 20
4894.66794684253
 30
0.0
 10
6755.712603129287
 20
4894.743944842337
 30
0.0
 10
6755.712603129287
 20
4894.819968848255
 30
0.0
  0
LINE
  5
227
330
1F
100
AcDbEntity
  8
0
  6
Continuous
 62
     7
370
    25
100
AcDbLine
 10
6755.7126031293
 20
4894.8199688483
 30
0.0
 11
6755.7126031293
 21
5119.3957047796
 31
0.0
  0
LINE
  5
228
330
1F
100
AcDbEntity
  8
0
  6
Continuous
 62
     7
370
    25
100
AcDbLine
 10
6758.2126031293
 20
5120.307836814
 30
0.0
 11
6872.8944497201
 21
5120.307836814
 31
0.0
  0
ARC
  5
229
330
1F
100
AcDbEntity
  8
0
  6
Continuous
 62
     7
370
    25
100
AcDbCircle
 10
6874.3893798245
 20
5120.4310601186
 30
0.0
 40
1.499999999999998
100
AcDbArc
 50
184.7120935769
 51
218.3238976642
  0
LINE
  5
22A
330
1F
100
AcDbEntity
  8
0
  6
Continuous
 62
     7
370
    25
100
AcDbLine
 10
6873.2126031293
 20
4894.714772963
 30
0.0
 11
6873.2126031293
 21
5119.5009006648
 31
0.0
  0
ARC
  5
22B
330
1F
100
AcDbEntity
  8
0
  6
Continuous
 62
     7
370
    25
100
AcDbCircle
 10
6874.3893798246
 20
4893.7846135092
 30
0.0
 40
1.500000000000264
100
AcDbArc
 50
141.6761023376
 51
175.2879064234
  0
LINE
  5
22C
330
1F
100
AcDbEntity
  8
0
  6
Continuous
 62
     7
370
    25
100
AcDbLine
 10
6758.2126031293
 20
4893.9078368139
 30
0.0
 11
6872.8944497201
 21
4893.9078368139
 31
0.0
  0
LINE
  5
22D
330
1F
100
AcDbEntity
  8
0
  6
Continuous
 62
     7
370
    25
100
AcDbLine
 10
6875.7126031293
 20
5119.177144894
 30
0.0
 11
6874.2126031293
 21
5119.177144894
 31
0.0
  0
SPLINE
  5
22E
330
1F
100
AcDbEntity
  8
0
  6
Continuous
 62
     7
370
    25
100
AcDbSpline
210
0.0
220
0.0
230
1.0
 70
     8
 71
     3
 72
    22
 73
    18
 74
     0
 42
0.00000001
 43
0.00000001
 40
0.0
 40
0.0
 40
0.0
 40
0.0
 40
0.0345636009442638
 40
0.069619967583222
 40
0.1052062781476664
 40
0.1413580746643881
 40
0.1781092572757683
 40
0.215492094237254
 40
0.2535372453207093
 40
0.3871713463588989
 40
0.5215337233648645
 40
0.6527443527188995
 40
0.7780582116963025
 40
0.8378081948220274
 40
0.8945398398534656
 40
0.9485058887357672
 40
1.0
 40
1.0
 40
1.0
 40
1.0
 10
6875.712603129287
 20
5119.17714489403
 30
0.0
 10
6875.711924448665
 20
5119.162795682774
 30
0.0
 10
6875.710557411621
 20
5119.133892686699
 30
0.0
 10
6875.699162102353
 20
5119.09594600339
 30
0.0
 10
6875.680324744302
 20
5119.061562082606
 30
0.0
 10
6875.652904591256
 20
5119.031165978946
 30
0.0
 10
6875.616630764496
 20
5119.004639864832
 30
0.0
 10
6875.57101192235
 20
5118.982017833466
 30
0.0
 10
6875.469777589912
 20
5118.947705656105
 30
0.0
 10
6875.267224742869
 20
5118.92258578398
 30
0.0
 10
6874.906500167225
 20
5118.941710567342
 30
0.0
 10
6874.479906357754
 20
5119.00916294636
 30
0.0
 10
6874.098035105833
 20
5119.107988930405
 30
0.0
 10
6873.799829544884
 20
5119.210003913187
 30
0.0
 10
6873.590120618348
 20
5119.295971840408
 30
0.0
 10
6873.393519267986
 20
5119.390654852396
 30
0.0
 10
6873.271958734534
 20
5119.464730829617
 30
0.0
 10
6873.212603129286
 20
5119.500900664822
 30
0.0
  0
LINE
  5
22F
330
1F
100
AcDbEntity
  8
0
  6
Continuous
 62
     7
370
    25
100
AcDbLine
 10
6875.7126031293
 20
4895.0385287339
 30
0.0
 11
6875.7126031293
 21
5119.177144894
 31
0.0
  0
SPLINE
  5
230
330
1F
100
AcDbEntity
  8
0
  6
Continuous
 62
     7
370
    25
100
AcDbSpline
210
0.0
220
0.0
230
1.0
 70
     8
 71
     3
 72
    21
 73
    17
 74
     0
 42
0.00000001
 43
0.00000001
 40
0.0
 40
0.0
 40
0.0
 40
0.0
 40
0.0340233399345885
 40
0.0691214084428791
 40
0.1053876398528259
 40
0.142906728257277
 40
0.1817551602181813
 40
0.2220018294486139
 40
0.3470619372038402
 40
0.478535136558577
 40
0.6126326576623203
 40
0.7465410083202829
 40
0.8125714941354653
 40
0.8767057687237169
 40
0.9391186934468081
 40
1.0
 40
1.0
 40
1.0
 40
1.0
 10
6873.212603129286
 20
4894.714772963017
 30
0.0
 10
6873.251600120851
 20
4894.738992348029
 30
0.0
 10
6873.330825940159
 20
4894.788196159499
 30
0.0
 10
6873.456257952535
 20
4894.854788712356
 30
0.0
 10
6873.58813740144
 20
4894.917547411501
 30
0.0
 10
6873.72635491729
 20
4894.975830533865
 30
0.0
 10
6873.870154133152
 20
4895.029822901719
 30
0.0
 10
6874.12116890736
 20
4895.11374307786
 30
0.0
 10
6874.47963546246
 20
4895.206423623032
 30
0.0
 10
6874.905955958544
 20
4895.273905453734
 30
0.0
 10
6875.267039999188
 20
4895.293115696469
 30
0.0
 10
6875.488073602921
 20
4895.265644396677
 30
0.0
 10
6875.60857070544
 20
4895.218974613818
 30
0.0
 10
6875.66987354038
 20
4895.171599804587
 30
0.0
 10
6875.706213427874
 20
4895.113247827729
 30
0.0
 10
6875.710490941234
 20
4895.063227975211
 30
0.0
 10
6875.712603129287
 20
4895.038528733864
 30
0.0
  0
LINE
  5
231
330
1F
100
AcDbEntity
  8
0
  6
Continuous
 62
     7
370
    25
100
AcDbLine
 10
6875.7126031293
 20
4895.0385287339
 30
0.0
 11
6874.2126031293
 21
4895.0385287339
 31
0.0
  0
SPLINE
  5
232
330
1F
100
AcDbEntity
  8
0
  6
Continuous
 62
     7
370
    25
100
AcDbSpline
210
0.0
220
0.0
230
1.0
 70
     8
 71
     3
 72
    10
 73
     6
 74
     0
 42
0.00000001
 43
0.00000001
 40
0.0
 40
0.0
 40
0.0
 40
0.0
 40
0.2435624216703613
 40
0.6217812108351793
 40
1.0
 40
1.0
 40
1.0
 40
1.0
 10
6757.365900701936
 20
4894.109649681205
 30
0.0
 10
6757.408196976992
 20
4894.036711449845
 30
0.0
 10
6757.516173523364
 20
4893.850510222659
 30
0.0
 10
6757.823014919159
 20
4893.654759388891
 30
0.0
 10
6758.082740392578
 20
4893.62347767223
 30
0.0
 10
6758.212603129287
 20
4893.607836813901
 30
0.0
  0
LINE
  5
233
330
1F
100
AcDbEntity
  8
0
  6
Continuous
 62
     7
370
    25
100
AcDbLine
 10
6758.2126031293
 20
4892.1078368139
 30
0.0
 11
6758.2126031293
 21
4893.6078368139
 31
0.0
  0
SPLINE
  5
234
330
1F
100
AcDbEntity
  8
0
  6
Continuous
 62
     7
370
    25
100
AcDbSpline
210
0.0
220
0.0
230
1.0
 70
     8
 71
     3
 72
    14
 73
    10
 74
     0
 42
0.00000001
 43
0.00000001
 40
0.0
 40
0.0
 40
0.0
 40
0.0
 40
0.25
 40
0.25
 40
0.5
 40
0.5
 40
0.75
 40
0.75
 40
1.0
 40
1.0
 40
1.0
 40
1.0
 10
6755.712603129287
 20
4894.6078368139
 30
0.0
 10
6755.712603129287
 20
4894.280541815604
 30
0.0
 10
6755.777671437616
 20
4893.953467103001
 30
0.0
 10
6756.028137158401
 20
4893.348789362973
 30
0.0
 10
6756.213436023292
 20
4893.071470013962
 30
0.0
 10
6756.676236329349
 20
4892.608669707904
 30
0.0
 10
6756.953555678359
 20
4892.423370843014
 30
0.0
 10
6757.558233418389
 20
4892.172905122229
 30
0.0
 10
6757.885308130991
 20
4892.107836813901
 30
0.0
 10
6758.212603129287
 20
4892.107836813901
 30
0.0
  0
LINE
  5
235
330
1F
100
AcDbEntity
  8
0
  6
Continuous
 62
     7
370
    25
100
AcDbLine
 10
6872.8893798246
 20
4892.1078368139
 30
0.0
 11
6872.8893798246
 21
4893.6078368139
 31
0.0
  0
LINE
  5
236
330
1F
100
AcDbEntity
  8
0
  6
Continuous
 62
     7
370
    25
100
AcDbLine
 10
6758.2126031293
 20
4893.6078368139
 30
0.0
 11
6872.8893798246
 21
4893.6078368139
 31
0.0
  0
LINE
  5
237
330
1F
100
AcDbEntity
  8
0
  6
Continuous
 62
     7
370
    25
100
AcDbLine
 10
6758.2126031293
 20
4892.1078368139
 30
0.0
 11
6872.8893798246
 21
4892.1078368139
 31
0.0
  0
SPLINE
  5
238
330
1F
100
AcDbEntity
  8
0
  6
Continuous
 62
     7
370
    25
100
AcDbSpline
210
0.0
220
0.0
230
1.0
 70
     8
 71
     3
 72
    10
 73
     6
 74
     0
 42
0.00000001
 43
0.00000001
 40
0.0
 40
0.0
 40
0.0
 40
0.0
 40
0.3782187891654252
 40
0.7564375783308385
 40
1.0
 40
1.0
 40
1.0
 40
1.0
 10
6758.212603129286
 20
5120.607836813965
 30
0.0
 10
6758.082740392578
 20
5120.592195955635
 30
0.0
 10
6757.823014919159
 20
5120.560914238975
 30
0.0
 10
6757.516173523364
 20
5120.365163405207
 30
0.0
 10
6757.408196976993
 20
5120.178962178021
 30
0.0
 10
6757.365900701937
 20
5120.106023946661
 30
0.0
  0
SPLINE
  5
239
330
1F
100
AcDbEntity
  8
0
  6
Continuous
 62
     7
370
    25
100
AcDbSpline
210
0.0
220
0.0
230
1.0
 70
     8
 71
     3
 72
    14
 73
    10
 74
     0
 42
0.00000001
 43
0.00000001
 40
0.0
 40
0.0
 40
0.0
 40
0.0
 40
0.25
 40
0.25
 40
0.5
 40
0.5
 40
0.75
 40
0.75
 40
1.0
 40
1.0
 40
1.0
 40
1.0
 10
6758.212603129286
 20
5122.107836813965
 30
0.0
 10
6757.885308130991
 20
5122.107836813965
 30
0.0
 10
6757.558233418388
 20
5122.042768505637
 30
0.0
 10
6756.953555678359
 20
5121.792302784851
 30
0.0
 10
6756.676236329349
 20
5121.60700391996
 30
0.0
 10
6756.213436023291
 20
5121.144203613902
 30
0.0
 10
6756.028137158401
 20
5120.866884264893
 30
0.0
 10
6755.777671437616
 20
5120.262206524863
 30
0.0
 10
6755.712603129287
 20
5119.935131812262
 30
0.0
 10
6755.712603129287
 20
5119.607836813965
 30
0.0
  0
LINE
  5
23A
330
1F
100
AcDbEntity
  8
0
  6
Continuous
 62
     7
370
    25
100
AcDbLine
 10
6758.2126031293
 20
5122.107836814
 30
0.0
 11
6758.2126031293
 21
5120.607836814
 31
0.0
  0
LINE
  5
23B
330
1F
100
AcDbEntity
  8
0
  6
Continuous
 62
     7
370
    25
100
AcDbLine
 10
6758.2126031293
 20
5122.107836814
 30
0.0
 11
6872.8893798246
 21
5122.107836814
 31
0.0
  0
LINE
  5
23C
330
1F
100
AcDbEntity
  8
0
  6
Continuous
 62
     7
370
    25
100
AcDbLine
 10
6872.8893798246
 20
5122.107836814
 30
0.0
 11
6872.8893798246
 21
5120.607836814
 31
0.0
  0
LINE
  5
23D
330
1F
100
AcDbEntity
  8
0
  6
Continuous
 62
     7
370
    25
100
AcDbLine
 10
6758.2126031293
 20
5120.607836814
 30
0.0
 11
6872.8893798246
 21
5120.607836814
 31
0.0
  0
LINE
  5
23E
330
1F
100
AcDbEntity
  8
0
  6
Continuous
 62
     7
370
    25
100
AcDbLine
 10
6873.2126031293
 20
5122.107836814
 30
0.0
 11
6873.2126031293
 21
5120.607836814
 31
0.0
  0
LINE
  5
23F
330
1F
100
AcDbEntity
  8
0
  6
Continuous
 62
     7
370
    25
100
AcDbLine
 10
6873.2126031293
 20
5120.607836814
 30
0.0
 11
6872.8893798246
 21
5120.607836814
 31
0.0
  0
LINE
  5
240
330
1F
100
AcDbEntity
  8
0
  6
Continuous
 62
     7
370
    25
100
AcDbLine
 10
6873.2126031293
 20
5122.107836814
 30
0.0
 11
6872.8893798246
 21
5122.107836814
 31
0.0
  0
LINE
  5
241
330
1F
100
AcDbEntity
  8
0
  6
Continuous
 62
     7
370
    25
100
AcDbLine
 10
6873.2126031293
 20
4892.1078368139
 30
0.0
 11
6873.2126031293
 21
4893.6078368139
 31
0.0
  0
LINE
  5
242
330
1F
100
AcDbEntity
  8
0
  6
Continuous
 62
     7
370
    25
100
AcDbLine
 10
6873.2126031293
 20
4893.6078368139
 30
0.0
 11
6872.8893798246
 21
4893.6078368139
 31
0.0
  0
LINE
  5
243
330
1F
100
AcDbEntity
  8
0
  6
Continuous
 62
     7
370
    25
100
AcDbLine
 10
6873.2126031293
 20
4892.1078368139
 30
0.0
 11
6872.8893798246
 21
4892.1078368139
 31
0.0
  0
LINE
  5
244
330
1F
100
AcDbEntity
  8
0
  6
Continuous
 62
     7
370
    25
100
AcDbLine
 10
6875.7126031293
 20
5119.6078368139
 30
0.0
 11
6874.2126031293
 21
5119.6078368139
 31
0.0
  0
LINE
  5
245
330
1F
100
AcDbEntity
  8
0
  6
Continuous
 62
     7
370
    25
100
AcDbLine
 10
6875.7126031293
 20
5119.6078368139
 30
0.0
 11
6875.7126031293
 21
5119.177144894
 31
0.0
  0
LINE
  5
246
330
1F
100
AcDbEntity
  8
0
  6
Continuous
 62
     7
370
    25
100
AcDbLine
 10
6874.2126031293
 20
5119.6078368139
 30
0.0
 11
6874.2126031293
 21
5119.177144894
 31
0.0
  0
LINE
  5
247
330
1F
100
AcDbEntity
  8
0
  6
Continuous
 62
     7
370
    25
100
AcDbLine
 10
6875.7126031293
 20
4895.0385287339
 30
0.0
 11
6875.7126031293
 21
4894.6078368139
 31
0.0
  0
LINE
  5
248
330
1F
100
AcDbEntity
  8
0
  6
Continuous
 62
     7
370
    25
100
AcDbLine
 10
6875.7126031293
 20
4894.6078368139
 30
0.0
 11
6874.2126031293
 21
4894.6078368139
 31
0.0
  0
LINE
  5
249
330
1F
100
AcDbEntity
  8
0
  6
Continuous
 62
     7
370
    25
100
AcDbLine
 10
6874.2126031293
 20
4895.0385287339
 30
0.0
 11
6874.2126031293
 21
4894.6078368139
 31
0.0
  0
SPLINE
  5
24A
330
1F
100
AcDbEntity
  8
0
  6
Continuous
 62
     7
370
    25
100
AcDbSpline
210
0.0
220
0.0
230
1.0
 70
     8
 71
     3
 72
    14
 73
    10
 74
     0
 42
0.00000001
 43
0.00000001
 40
0.0
 40
0.0
 40
0.0
 40
0.0
 40
0.25
 40
0.25
 40
0.5
 40
0.5
 40
0.75
 40
0.75
 40
1.0
 40
1.0
 40
1.0
 40
1.0
 10
6874.212603129287
 20
4894.607836813916
 30
0.0
 10
6874.212603129289
 20
4894.485238603144
 30
0.0
 10
6874.189455343207
 20
4894.350116985349
 30
0.0
 10
6874.077322193677
 20
4894.085418688688
 30
0.0
 10
6873.991463514468
 20
4893.964073528792
 30
0.0
 10
6873.7763718856
 20
4893.769255001397
 30
0.0
 10
6873.654374384835
 20
4893.701780681457
 30
0.0
 10
6873.41409010297
 20
4893.620161484248
 30
0.0
 10
6873.303916641116
 20
4893.6078368139
 30
0.0
 10
6873.212603129286
 20
4893.6078368139
 30
0.0
  0
SPLINE
  5
24B
330
1F
100
AcDbEntity
  8
0
  6
Continuous
 62
     7
370
    25
100
AcDbSpline
210
0.0
220
0.0
230
1.0
 70
     8
 71
     3
 72
    22
 73
    18
 74
     0
 42
0.00000001
 43
0.00000001
 40
0.0
 40
0.0
 40
0.0
 40
0.0
 40
0.0345636009444609
 40
0.0696199675838598
 40
0.1052062781490265
 40
0.1413580746667299
 40
0.1781092572793431
 40
0.2154920942423289
 40
0.2535372453275271
 40
0.3871713463710451
 40
0.5215337233743071
 40
0.6527443527367374
 40
0.7780582117032381
 40
0.8378081948296769
 40
0.8945398398601768
 40
0.9485058887399337
 40
1.0
 40
1.0
 40
1.0
 40
1.0
 10
6875.712603129287
 20
4894.60783681394
 30
0.0
 10
6875.711924448664
 20
4894.563468500792
 30
0.0
 10
6875.710557411619
 20
4894.474099325164
 30
0.0
 10
6875.699162102347
 20
4894.33769149742
 30
0.0
 10
6875.680324744294
 20
4894.199001470435
 30
0.0
 10
6875.652904591243
 20
4894.058394148296
 30
0.0
 10
6875.616630764479
 20
4893.916481066843
 30
0.0
 10
6875.571011922327
 20
4893.773860836109
 30
0.0
 10
6875.469777589878
 20
4893.5127894192
 30
0.0
 10
6875.26722474282
 20
4893.148976450349
 30
0.0
 10
6874.906500167155
 20
4892.742983180554
 30
0.0
 10
6874.479906357683
 20
4892.432437572757
 30
0.0
 10
6874.098035105765
 20
4892.260344287075
 30
0.0
 10
6873.799829544837
 20
4892.174378501826
 30
0.0
 10
6873.59012061831
 20
4892.133811144533
 30
0.0
 10
6873.393519267964
 20
4892.111469298289
 30
0.0
 10
6873.271958734525
 20
4892.109028572198
 30
0.0
 10
6873.212603129286
 20
4892.1078368139
 30
0.0
  0
SPLINE
  5
24C
330
1F
100
AcDbEntity
  8
0
  6
Continuous
 62
     7
370
    25
100
AcDbSpline
210
0.0
220
0.0
230
1.0
 70
     8
 71
     3
 72
    16
 73
    12
 74
     0
 42
0.00000001
 43
0.00000001
 40
0.0
 40
0.0
 40
0.0
 40
0.0
 40
0.25
 40
0.25
 40
0.375
 40
0.375
 40
0.5
 40
0.5
 40
0.75
 40
0.75
 40
1.0
 40
1.0
 40
1.0
 40
1.0
 10
6873.212603129286
 20
5120.607836813965
 30
0.0
 10
6873.303565035072
 20
5120.607836813965
 30
0.0
 10
6873.414263637086
 20
5120.59545319796
 30
0.0
 10
6873.59421654733
 20
5120.534327218533
 30
0.0
 10
6873.654544800101
 20
5120.507460965705
 30
0.0
 10
6873.772408906993
 20
5120.439253403914
 30
0.0
 10
6873.830151175861
 20
5120.397708213201
 30
0.0
 10
6873.991450748425
 20
5120.251611661869
 30
0.0
 10
6874.077256497088
 20
5120.130410020669
 30
0.0
 10
6874.189521039814
 20
5119.86540156098
 30
0.0
 10
6874.212603129291
 20
5119.730900869689
 30
0.0
 10
6874.212603129287
 20
5119.607836813926
 30
0.0
  0
SPLINE
  5
24D
330
1F
100
AcDbEntity
  8
0
  6
Continuous
 62
     7
370
    25
100
AcDbSpline
210
0.0
220
0.0
230
1.0
 70
     8
 71
     3
 72
    21
 73
    17
 74
     0
 42
0.00000001
 43
0.00000001
 40
0.0
 40
0.0
 40
0.0
 40
0.0
 40
0.0340233399341919
 40
0.0691214084421449
 40
0.1053876398518416
 40
0.1429067282561312
 40
0.181755160216943
 40
0.222001829447389
 40
0.3470619372036711
 40
0.4785351365570038
 40
0.6126326576618998
 40
0.7465410083191641
 40
0.8125714941340157
 40
0.8767057687223524
 40
0.9391186934459115
 40
1.0
 40
1.0
 40
1.0
 40
1.0
 10
6873.212603129286
 20
5122.107836813965
 30
0.0
 10
6873.25160012085
 20
5122.10731881582
 30
0.0
 10
6873.330825940157
 20
5122.106266457014
 30
0.0
 10
6873.456257952533
 20
5122.0969876553
 30
0.0
 10
6873.588137401436
 20
5122.080745610314
 30
0.0
 10
6873.726354917286
 20
5122.055889307604
 30
0.0
 10
6873.870154133147
 20
5122.021395504241
 30
0.0
 10
6874.121168907356
 20
5121.944866398057
 30
0.0
 10
6874.479635462458
 20
5121.783393008986
 30
0.0
 10
6874.905955958544
 20
5121.473181072291
 30
0.0
 10
6875.267039999188
 20
5121.066965808521
 30
0.0
 10
6875.488073602921
 20
5120.67008256237
 30
0.0
 10
6875.60857070544
 20
5120.337408611978
 30
0.0
 10
6875.669873540381
 20
5120.088989778204
 30
0.0
 10
6875.706213427875
 20
5119.844917018778
 30
0.0
 10
6875.710490941235
 20
5119.686206356332
 30
0.0
 10
6875.712603129287
 20
5119.607836813867
 30
0.0
  0
LINE
  5
24E
330
1F
100
AcDbEntity
  8
0
  6
Continuous
 62
     7
370
    25
100
AcDbLine
 10
6755.7126031293
 20
5119.607836814
 30
0.0
 11
6755.7126031293
 21
5119.3957047796
 31
0.0
  0
LINE
  5
24F
330
1F
100
AcDbEntity
  8
0
  6
Continuous
 62
     7
370
    25
100
AcDbLine
 10
6755.7126031293
 20
4894.6078368139
 30
0.0
 11
6755.7126031293
 21
4894.8199688483
 31
0.0
  0
LINE
  5
250
330
1F
100
AcDbEntity
  8
0
  6
Continuous
 62
     8
370
    25
100
AcDbLine
 10
6880.0126031293
 20
5072.1001507853
 30
0.0
 11
6882.0387827358
 21
5072.0824685838
 31
0.0
  0
LINE
  5
251
330
1F
100
AcDbEntity
  8
0
  6
Continuous
 62
     8
370
    25
100
AcDbLine
 10
6882.0387827359
 20
5057.239971059
 30
0.0
 11
6880.0126031293
 21
5057.2222888574
 31
0.0
  0
LINE
  5
252
330
1F
100
AcDbEntity
  8
0
  6
Continuous
 62
     8
370
    25
100
AcDbLine
 10
6887.3434945162
 20
4993.0681838239
 30
0.0
 11
6877.8126031293
 21
4992.9018214959
 31
0.0
  0
LINE
  5
253
330
1F
100
AcDbEntity
  8
0
  6
Continuous
 62
     8
370
    25
100
AcDbLine
 10
6875.7126031293
 20
5032.1082839339
 30
0.0
 11
6876.2126031293
 21
5032.0951909731
 31
0.0
  0
LINE
  5
254
330
1F
100
AcDbEntity
  8
0
  6
Continuous
 62
     8
370
    25
100
AcDbLine
 10
6875.7126031293
 20
5106.4134703265
 30
0.0
 11
6876.2126031293
 21
5106.3872664368
 31
0.0
  0
LINE
  5
255
330
1F
100
AcDbEntity
  8
0
  6
Continuous
 62
     7
370
    25
100
AcDbLine
 10
6461.7324448499
 20
4573.8320024742
 30
0.0
 11
6461.7324448499
 21
4572.7320024742
 31
0.0
  0
LINE
  5
256
330
1F
100
AcDbEntity
  8
0
  6
Continuous
 62
     7
370
    25
100
AcDbLine
 10
6485.7324448499
 20
4572.7320024742
 30
0.0
 11
6485.7324448499
 21
4573.8320024742
 31
0.0
  0
LINE
  5
257
330
1F
100
AcDbEntity
  8
0
  6
Continuous
 62
     7
370
    25
100
AcDbLine
 10
6461.7324448499
 20
4572.7320024742
 30
0.0
 11
6462.7324448499
 21
4571.7320024742
 31
0.0
  0
LINE
  5
258
330
1F
100
AcDbEntity
  8
0
  6
Continuous
 62
     7
370
    25
100
AcDbLine
 10
6484.7324448499
 20
4571.7320024742
 30
0.0
 11
6485.7324448499
 21
4572.7320024742
 31
0.0
  0
ARC
  5
259
330
1F
100
AcDbEntity
  8
0
  6
Continuous
 62
     7
370
    25
100
AcDbCircle
 10
6479.1324448499
 20
4571.7320024742
 30
0.0
 40
0.2000000000007276
100
AcDbArc
 50
270.0
 51
0.0
  0
ARC
  5
25A
330
1F
100
AcDbEntity
  8
0
  6
Continuous
 62
     7
370
    25
100
AcDbCircle
 10
6468.3324448499
 20
4571.7320024742
 30
0.0
 40
0.2000000000007276
100
AcDbArc
 50
180.0
 51
270.0
  0
LINE
  5
25B
330
1F
100
AcDbEntity
  8
0
  6
Continuous
 62
     7
370
    25
100
AcDbLine
 10
6473.8264304885
 20
4571.5320024742
 30
0.0
 11
6473.8264304885
 21
4571.7320024742
 31
0.0
  0
LINE
  5
25C
330
1F
100
AcDbEntity
  8
0
  6
Continuous
 62
     7
370
    25
100
AcDbLine
 10
6526.9086710411
 20
4573.3320024742
 30
0.0
 11
6520.9292426999
 21
4573.3320024742
 31
0.0
  0
LINE
  5
25D
330
1F
100
AcDbEntity
  8
0
  6
Continuous
 62
     7
370
    25
100
AcDbLine
 10
6519.9300038993
 20
4573.3320024742
 30
0.0
 11
6520.9292426999
 21
4573.3320024742
 31
0.0
  0
LINE
  5
25E
330
1F
100
AcDbEntity
  8
0
  6
Continuous
 62
     7
370
    25
100
AcDbLine
 10
6519.9212763669
 20
4573.8320024742
 30
0.0
 11
6519.9300038993
 21
4573.3320024742
 31
0.0
  0
LINE
  5
25F
330
1F
100
AcDbEntity
  8
0
  6
Continuous
 62
     7
370
    25
100
AcDbLine
 10
6526.9086710411
 20
4573.3320024742
 30
0.0
 11
6527.9079098417
 21
4573.3320024742
 31
0.0
  0
LINE
  5
260
330
1F
100
AcDbEntity
  8
0
  6
Continuous
 62
     7
370
    25
100
AcDbLine
 10
6527.9079098417
 20
4573.3320024742
 30
0.0
 11
6527.9166373741
 21
4573.8320024742
 31
0.0
  0
LINE
  5
261
330
1F
100
AcDbEntity
  8
0
  6
Continuous
 62
     7
370
    25
100
AcDbLine
 10
6537.3089121279
 20
4570.023276271
 30
0.0
 11
6516.1917616959
 21
4570.023276271
 31
0.0
  0
LINE
  5
262
330
1F
100
AcDbEntity
  8
0
  6
Continuous
 62
     7
370
    25
100
AcDbLine
 10
6516.1252801327
 20
4573.8320024742
 30
0.0
 11
6516.1917616959
 21
4570.023276271
 31
0.0
  0
LINE
  5
263
330
1F
100
AcDbEntity
  8
0
  6
Continuous
 62
     7
370
    25
100
AcDbLine
 10
6537.3753936911
 20
4573.8320024742
 30
0.0
 11
6537.3089121279
 21
4570.023276271
 31
0.0
  0
LINE
  5
264
330
1F
100
AcDbEntity
  8
0
  6
Continuous
 62
     7
370
    25
100
AcDbLine
 10
6516.2003369119
 20
4569.5320024742
 30
0.0
 11
6537.3003369119
 21
4569.5320024742
 31
0.0
  0
LINE
  5
265
330
1F
100
AcDbEntity
  8
0
  6
Continuous
 62
     7
370
    25
100
AcDbLine
 10
6516.1917616959
 20
4570.023276271
 30
0.0
 11
6516.2003369119
 21
4569.5320024742
 31
0.0
  0
LINE
  5
266
330
1F
100
AcDbEntity
  8
0
  6
Continuous
 62
     7
370
    25
100
AcDbLine
 10
6537.3003369119
 20
4569.5320024742
 30
0.0
 11
6537.3089121279
 21
4570.023276271
 31
0.0
  0
SPLINE
  5
267
330
1F
100
AcDbEntity
  8
0
  6
Continuous
 62
     7
370
    25
100
AcDbSpline
210
0.0
220
0.0
230
1.0
 70
     8
 71
     3
 72
    11
 73
     7
 74
     0
 42
0.00000001
 43
0.00000001
 40
0.0
 40
0.0
 40
0.0
 40
0.0
 40
0.2500000000001318
 40
0.5000000000000974
 40
0.7500000000000511
 40
1.0
 40
1.0
 40
1.0
 40
1.0
 10
6518.051928070213
 20
4567.505822867703
 30
0.0
 10
6518.059447815466
 20
4567.505316769553
 30
0.0
 10
6518.074487305974
 20
4567.504304573256
 30
0.0
 10
6518.190109398425
 20
4567.503871380319
 30
0.0
 10
6518.355370484765
 20
4567.504304573256
 30
0.0
 10
6518.48639618275
 20
4567.505316769553
 30
0.0
 10
6518.551909031744
 20
4567.505822867703
 30
0.0
  0
LINE
  5
268
330
1F
100
AcDbEntity
  8
0
  6
Continuous
 62
     7
370
    25
100
AcDbLine
 10
6518.0342458687
 20
4569.5320024742
 30
0.0
 11
6518.0519280702
 21
4567.5058228677
 31
0.0
  0
LINE
  5
269
330
1F
100
AcDbEntity
  8
0
  6
Continuous
 62
     7
370
    25
100
AcDbLine
 10
6534.8944065565
 20
4567.5058228677
 30
0.0
 11
6518.5519090317
 21
4567.5058228677
 31
0.0
  0
LINE
  5
26A
330
1F
100
AcDbEntity
  8
0
  6
Continuous
 62
     7
370
    25
100
AcDbLine
 10
6535.394387518
 20
4567.5058228677
 30
0.0
 11
6535.4120697196
 21
4569.5320024742
 31
0.0
  0
SPLINE
  5
26B
330
1F
100
AcDbEntity
  8
0
  6
Continuous
 62
     7
370
    25
100
AcDbSpline
210
0.0
220
0.0
230
1.0
 70
     8
 71
     3
 72
    11
 73
     7
 74
     0
 42
0.00000001
 43
0.00000001
 40
0.0
 40
0.0
 40
0.0
 40
0.0
 40
0.2499999999999822
 40
0.5000000000000088
 40
0.7500000000000229
 40
1.0
 40
1.0
 40
1.0
 40
1.0
 10
6534.894406556517
 20
4567.505822867703
 30
0.0
 10
6534.959919405511
 20
4567.505316769553
 30
0.0
 10
6535.090945103497
 20
4567.504304573256
 30
0.0
 10
6535.256206189837
 20
4567.503871380319
 30
0.0
 10
6535.371828282287
 20
4567.504304573256
 30
0.0
 10
6535.386867772796
 20
4567.505316769553
 30
0.0
 10
6535.394387518049
 20
4567.505822867703
 30
0.0
  0
LINE
  5
26C
330
1F
100
AcDbEntity
  8
0
  6
Continuous
 62
     7
370
    25
100
AcDbLine
 10
6518.5735358123
 20
4564.5320024742
 30
0.0
 11
6534.872779776
 21
4564.5320024742
 31
0.0
  0
SPLINE
  5
26D
330
1F
100
AcDbEntity
  8
0
  6
Continuous
 62
     7
370
    25
100
AcDbSpline
210
0.0
220
0.0
230
1.0
 70
     8
 71
     3
 72
    13
 73
     9
 74
     0
 42
0.00000001
 43
0.00000001
 40
0.0
 40
0.0
 40
0.0
 40
0.0
 40
0.1993624729093067
 40
0.432007936643352
 40
0.5614183591822894
 40
0.6992244946358044
 40
0.8454204602180131
 40
1.0
 40
1.0
 40
1.0
 40
1.0
 10
6518.573535812918
 20
4564.532002474199
 30
0.0
 10
6518.573234559862
 20
4564.560339353439
 30
0.0
 10
6518.572581760418
 20
4564.621743872319
 30
0.0
 10
6518.569000114467
 20
4565.064720718536
 30
0.0
 10
6518.565100976552
 20
4565.610891693868
 30
0.0
 10
6518.561357602754
 20
4566.152176965182
 30
0.0
 10
6518.55697427642
 20
4566.795530489228
 30
0.0
 10
6518.553628532166
 20
4567.26469965995
 30
0.0
 10
6518.551909031749
 20
4567.505822867114
 30
0.0
  0
SPLINE
  5
26E
330
1F
100
AcDbEntity
  8
0
  6
Continuous
 62
     7
370
    25
100
AcDbSpline
210
0.0
220
0.0
230
1.0
 70
     8
 71
     3
 72
    13
 73
     9
 74
     0
 42
0.00000001
 43
0.00000001
 40
0.0
 40
0.0
 40
0.0
 40
0.0
 40
0.1545795397755736
 40
0.3007755053532387
 40
0.4385816408040736
 40
0.5679920633421991
 40
0.800637527079673
 40
1.0
 40
1.0
 40
1.0
 40
1.0
 10
6534.894406556517
 20
4567.505822867703
 30
0.0
 10
6534.8926870561
 20
4567.264699660484
 30
0.0
 10
6534.889341311845
 20
4566.795530489653
 30
0.0
 10
6534.88495798551
 20
4566.152176965432
 30
0.0
 10
6534.881214611712
 20
4565.610891693966
 30
0.0
 10
6534.877315473796
 20
4565.064720718484
 30
0.0
 10
6534.873733827844
 20
4564.621743872176
 30
0.0
 10
6534.873081028401
 20
4564.560339353395
 30
0.0
 10
6534.872779775344
 20
4564.532002474199
 30
0.0
  0
LINE
  5
26F
330
1F
100
AcDbEntity
  8
0
  6
Continuous
 62
     7
370
    25
100
AcDbLine
 10
6518.0519280702
 20
4567.5058228677
 30
0.0
 11
6518.0735548514
 21
4565.0276392064
 31
0.0
  0
SPLINE
  5
270
330
1F
100
AcDbEntity
  8
0
  6
Continuous
 62
     7
370
    25
100
AcDbSpline
210
0.0
220
0.0
230
1.0
 70
     8
 71
     3
 72
    11
 73
     7
 74
     0
 42
0.00000001
 43
0.00000001
 40
0.0
 40
0.0
 40
0.0
 40
0.0
 40
0.2499999999999938
 40
0.499999999999996
 40
0.7500000000000018
 40
1.0
 40
1.0
 40
1.0
 40
1.0
 10
6518.073554851385
 20
4565.027639206613
 30
0.0
 10
6518.08155392537
 20
4564.962552249533
 30
0.0
 10
6518.097552073342
 20
4564.832378335371
 30
0.0
 10
6518.213386416418
 20
4564.668696388215
 30
0.0
 10
6518.378072963387
 20
4564.554294831809
 30
0.0
 10
6518.508381529308
 20
4564.539433260069
 30
0.0
 10
6518.573535812268
 20
4564.532002474199
 30
0.0
  0
LINE
  5
271
330
1F
100
AcDbEntity
  8
0
  6
Continuous
 62
     7
370
    25
100
AcDbLine
 10
6535.3727607369
 20
4565.0276392064
 30
0.0
 11
6535.394387518
 21
4567.5058228677
 31
0.0
  0
SPLINE
  5
272
330
1F
100
AcDbEntity
  8
0
  6
Continuous
 62
     7
370
    25
100
AcDbSpline
210
0.0
220
0.0
230
1.0
 70
     8
 71
     3
 72
    11
 73
     7
 74
     0
 42
0.00000001
 43
0.00000001
 40
0.0
 40
0.0
 40
0.0
 40
0.0
 40
0.2499999999999826
 40
0.4999999999999946
 40
0.7499999999999919
 40
1.0
 40
1.0
 40
1.0
 40
1.0
 10
6534.872779775994
 20
4564.532002474199
 30
0.0
 10
6534.937934058954
 20
4564.539433260069
 30
0.0
 10
6535.068242624874
 20
4564.554294831809
 30
0.0
 10
6535.232929171844
 20
4564.668696388215
 30
0.0
 10
6535.34876351492
 20
4564.832378335371
 30
0.0
 10
6535.364761662892
 20
4564.962552249533
 30
0.0
 10
6535.372760736877
 20
4565.027639206613
 30
0.0
  0
LINE
  5
273
330
1F
100
AcDbEntity
  8
0
  6
Continuous
 62
     7
370
    25
100
AcDbLine
 10
6520.7721692949
 20
4555.3320024742
 30
0.0
 11
6528.2395159529
 21
4555.3320024742
 31
0.0
  0
ARC
  5
274
330
1F
100
AcDbEntity
  8
0
  6
Continuous
 62
     7
370
    25
100
AcDbCircle
 10
6520.7721692949
 20
4556.3320024742
 30
0.0
 40
1.0
100
AcDbArc
 50
181.5
 51
270.0
  0
LINE
  5
275
330
1F
100
AcDbEntity
  8
0
  6
Continuous
 62
     7
370
    25
100
AcDbLine
 10
6521.6819023552
 20
4557.6498841035
 30
0.0
 11
6527.3297828926
 21
4557.6498841035
 31
0.0
  0
ARC
  5
276
330
1F
100
AcDbEntity
  8
0
  6
Continuous
 62
     7
370
    25
100
AcDbCircle
 10
6528.2395159529
 20
4556.3320024742
 30
0.0
 40
1.0
100
AcDbArc
 50
270.0
 51
358.5
  0
LINE
  5
277
330
1F
100
AcDbEntity
  8
0
  6
Continuous
 62
     7
370
    25
100
AcDbLine
 10
6527.4499107156
 20
4564.5320024742
 30
0.0
 11
6527.3297828926
 21
4557.6498841035
 31
0.0
  0
LINE
  5
278
330
1F
100
AcDbEntity
  8
0
  6
Continuous
 62
     7
370
    25
100
AcDbLine
 10
6521.6819023552
 20
4557.6498841035
 30
0.0
 11
6521.5617745322
 21
4564.5320024742
 31
0.0
  0
LINE
  5
279
330
1F
100
AcDbEntity
  8
0
  6
Continuous
 62
     7
370
    25
100
AcDbLine
 10
6519.5571019455
 20
4564.5320024742
 30
0.0
 11
6519.7725119699
 21
4556.3058255259
 31
0.0
  0
LINE
  5
27A
330
1F
100
AcDbEntity
  8
0
  6
Continuous
 62
     7
370
    25
100
AcDbLine
 10
6529.4545833023
 20
4564.5320024742
 30
0.0
 11
6529.2391732779
 21
4556.3058255259
 31
0.0
  0
LINE
  5
27B
330
1F
100
AcDbEntity
  8
0
  6
Continuous
 62
     7
370
    25
100
AcDbLine
 10
6461.7324448499
 20
4572.7320024742
 30
0.0
 11
6485.7324448499
 21
4572.7320024742
 31
0.0
  0
LINE
  5
27C
330
1F
100
AcDbEntity
  8
0
  6
Continuous
 62
     7
370
    25
100
AcDbLine
 10
6484.7324448499
 20
4571.7320024742
 30
0.0
 11
6462.7324448499
 21
4571.7320024742
 31
0.0
  0
LINE
  5
27D
330
1F
100
AcDbEntity
  8
0
  6
Continuous
 62
     7
370
    25
100
AcDbLine
 10
6473.2932675602
 20
4571.5320024742
 30
0.0
 11
6468.3324448499
 21
4571.5320024742
 31
0.0
  0
LINE
  5
27E
330
1F
100
AcDbEntity
  8
0
  6
Continuous
 62
     7
370
    25
100
AcDbLine
 10
6479.1324448499
 20
4571.5320024742
 30
0.0
 11
6474.2932675602
 21
4571.5320024742
 31
0.0
  0
SPLINE
  5
27F
330
1F
100
AcDbEntity
  8
0
  6
Continuous
 62
     7
370
    25
100
AcDbSpline
210
0.0
220
0.0
230
1.0
 70
    24
 71
     3
 72
    13
 73
     9
 74
     0
 42
0.00000001
 43
0.00000001
 40
0.0
 40
0.0
 40
0.0
 40
0.0
 40
0.0078315083444716
 40
0.224213401065663
 40
0.440506527411394
 40
0.6560344530516676
 40
0.870478551742465
 40
1.0
 40
1.0
 40
1.0
 40
1.0
 10
6474.293267560178
 20
4571.532002474197
 30
0.0
 10
6474.293267560178
 20
4571.532005725767
 30
0.0
 10
6474.293267560178
 20
4571.532098817076
 30
0.0
 10
6474.293267560178
 20
4571.540597663052
 30
0.0
 10
6474.293267560178
 20
4571.574813911054
 30
0.0
 10
6474.293267560178
 20
4571.62687343583
 30
0.0
 10
6474.293267560178
 20
4571.682445185954
 30
0.0
 10
6474.293267560178
 20
4571.718446174214
 30
0.0
 10
6474.293267560178
 20
4571.732002474198
 30
0.0
  0
SPLINE
  5
280
330
1F
100
AcDbEntity
  8
0
  6
Continuous
 62
     7
370
    25
100
AcDbSpline
210
0.0
220
0.0
230
1.0
 70
    24
 71
     3
 72
    13
 73
     9
 74
     0
 42
0.00000001
 43
0.00000001
 40
0.0
 40
0.0
 40
0.0
 40
0.0
 40
0.0254342784918755
 40
0.2391405405228546
 40
0.4528843033372462
 40
0.6670512278740773
 40
0.881862829503907
 40
0.9999999999999999
 40
0.9999999999999999
 40
0.9999999999999999
 40
0.9999999999999999
 10
6473.293267560179
 20
4571.732002474198
 30
0.0
 10
6473.293267560179
 20
4571.729346459038
 30
0.0
 10
6473.293267560179
 20
4571.704373826093
 30
0.0
 10
6473.293267560179
 20
4571.657085992381
 30
0.0
 10
6473.293267560179
 20
4571.598702924782
 30
0.0
 10
6473.293267560179
 20
4571.55547351107
 30
0.0
 10
6473.293267560179
 20
4571.534607594211
 30
0.0
 10
6473.293267560179
 20
4571.532684742205
 30
0.0
 10
6473.293267560179
 20
4571.532002474197
 30
0.0
  0
LINE
  5
281
330
1F
100
AcDbEntity
  8
0
  6
Continuous
 62
     7
370
    25
100
AcDbLine
 10
6473.2932675602
 20
4571.5320024742
 30
0.0
 11
6473.8264304885
 21
4571.5320024742
 31
0.0
  0
LINE
  5
282
330
1F
100
AcDbEntity
  8
0
  6
Continuous
 62
     7
370
    25
100
AcDbLine
 10
6473.8264304885
 20
4571.5320024742
 30
0.0
 11
6474.2932675602
 21
4571.5320024742
 31
0.0
  0
LINE
  5
283
330
1F
100
AcDbEntity
  8
0
  6
Continuous
 62
     7
370
    25
100
AcDbLine
 10
6439.3324448498
 20
4691.3320024742
 30
0.0
 11
6558.1324448499
 21
4691.3320024742
 31
0.0
  0
SPLINE
  5
284
330
1F
100
AcDbEntity
  8
0
  6
Continuous
 62
     7
370
    25
100
AcDbSpline
210
0.0
220
0.0
230
1.0
 70
     8
 71
     3
 72
    14
 73
    10
 74
     0
 42
0.00000001
 43
0.00000001
 40
0.0
 40
0.0
 40
0.0
 40
0.0
 40
0.25
 40
0.25
 40
0.5
 40
0.5
 40
0.75
 40
0.75
 40
1.0
 40
1.0
 40
1.0
 40
1.0
 10
6439.332444849845
 20
4691.332002474199
 30
0.0
 10
6439.508480466633
 20
4691.659297472494
 30
0.0
 10
6439.684466855571
 20
4691.986372185097
 30
0.0
 10
6440.036488861298
 20
4692.591049925126
 30
0.0
 10
6440.21249986416
 20
4692.868369274135
 30
0.0
 10
6440.564521869886
 20
4693.331169580194
 30
0.0
 10
6440.740532872749
 20
4693.516468445085
 30
0.0
 10
6441.092554878475
 20
4693.766934165869
 30
0.0
 10
6441.268541267414
 20
4693.832002474198
 30
0.0
 10
6441.444576884202
 20
4693.832002474198
 30
0.0
  0
LINE
  5
285
330
1F
100
AcDbEntity
  8
0
  6
Continuous
 62
     7
370
    25
100
AcDbLine
 10
6441.4445768842
 20
4693.8320024742
 30
0.0
 11
6556.0203128155
 21
4693.8320024742
 31
0.0
  0
SPLINE
  5
286
330
1F
100
AcDbEntity
  8
0
  6
Continuous
 62
     7
370
    25
100
AcDbSpline
210
0.0
220
0.0
230
1.0
 70
     8
 71
     3
 72
    14
 73
    10
 74
     0
 42
0.00000001
 43
0.00000001
 40
0.0
 40
0.0
 40
0.0
 40
0.0
 40
0.25
 40
0.25
 40
0.5
 40
0.5
 40
0.75
 40
0.75
 40
1.0
 40
1.0
 40
1.0
 40
1.0
 10
6556.020312815524
 20
4693.832002474198
 30
0.0
 10
6556.196348432312
 20
4693.832002474199
 30
0.0
 10
6556.372334821252
 20
4693.766934165869
 30
0.0
 10
6556.724356826977
 20
4693.516468445084
 30
0.0
 10
6556.90036782984
 20
4693.331169580192
 30
0.0
 10
6557.252389835566
 20
4692.868369274132
 30
0.0
 10
6557.428400838429
 20
4692.591049925121
 30
0.0
 10
6557.780422844155
 20
4691.986372185089
 30
0.0
 10
6557.956409233094
 20
4691.659297472485
 30
0.0
 10
6558.132444849881
 20
4691.332002474189
 30
0.0
  0
LINE
  5
287
330
1F
100
AcDbEntity
  8
0
  6
Continuous
 62
     7
370
    25
100
AcDbLine
 10
6558.1324448499
 20
4576.6552257789
 30
0.0
 11
6557.0556681546
 21
4576.6552257789
 31
0.0
  0
ARC
  5
288
330
1F
100
AcDbEntity
  8
0
  6
Continuous
 62
     7
370
    25
100
AcDbCircle
 10
6557.0556681546
 20
4575.1552257789
 30
0.0
 40
1.50000000000072
100
AcDbArc
 50
90.0
 51
128.3238976603
  0
LINE
  5
289
330
1F
100
AcDbEntity
  8
0
  6
Continuous
 62
     7
370
    25
100
AcDbLine
 10
6441.3393809989
 20
4576.3320024742
 30
0.0
 11
6556.1255087009
 21
4576.3320024742
 31
0.0
  0
ARC
  5
28A
330
1F
100
AcDbEntity
  8
0
  6
Continuous
 62
     7
370
    25
100
AcDbCircle
 10
6440.4092215451
 20
4575.1552257789
 30
0.0
 40
1.5
100
AcDbArc
 50
51.6761023384
 51
89.9999999999
  0
LINE
  5
28B
330
1F
100
AcDbEntity
  8
0
  6
Continuous
 62
     7
370
    25
100
AcDbLine
 10
6439.3324448498
 20
4576.6552257789
 30
0.0
 11
6440.4092215451
 21
4576.6552257789
 31
0.0
  0
LINE
  5
28C
330
1F
100
AcDbEntity
  8
0
  6
Continuous
 62
     7
370
    25
100
AcDbLine
 10
6439.3324448498
 20
4691.3320024742
 30
0.0
 11
6439.3324448498
 21
4576.6552257789
 31
0.0
  0
LINE
  5
28D
330
1F
100
AcDbEntity
  8
0
  6
Continuous
 62
     7
370
    25
100
AcDbLine
 10
6558.1324448499
 20
4691.3320024742
 30
0.0
 11
6558.1324448499
 21
4576.6552257789
 31
0.0
  0
LINE
  5
28E
330
1F
100
AcDbEntity
  8
0
  6
Continuous
 62
     7
370
    25
100
AcDbLine
 10
6555.80175293
 20
4573.8320024742
 30
0.0
 11
6555.80175293
 21
4575.3320024742
 31
0.0
  0
SPLINE
  5
28F
330
1F
100
AcDbEntity
  8
0
  6
Continuous
 62
     7
370
    25
100
AcDbSpline
210
0.0
220
0.0
230
1.0
 70
     8
 71
     3
 72
    22
 73
    18
 74
     0
 42
0.00000001
 43
0.00000001
 40
0.0
 40
0.0
 40
0.0
 40
0.0
 40
0.0345636009448494
 40
0.0696199675844856
 40
0.105206278149677
 40
0.1413580746672533
 40
0.1781092572795315
 40
0.2154920942420085
 40
0.2535372453265219
 40
0.3871713463686238
 40
0.5215337233730682
 40
0.6527443527354791
 40
0.7780582117025011
 40
0.8378081948303114
 40
0.8945398398613964
 40
0.9485058887409331
 40
1.0
 40
1.0
 40
1.0
 40
1.0
 10
6555.801752929986
 20
4573.832002474198
 30
0.0
 10
6555.787403718731
 20
4573.83268115482
 30
0.0
 10
6555.758500722658
 20
4573.834048191863
 30
0.0
 10
6555.720554039352
 20
4573.845443501132
 30
0.0
 10
6555.686170118573
 20
4573.864280859183
 30
0.0
 10
6555.655774014915
 20
4573.891701012231
 30
0.0
 10
6555.629247900804
 20
4573.927974838992
 30
0.0
 10
6555.606625869443
 20
4573.973593681142
 30
0.0
 10
6555.572313692087
 20
4574.074828013586
 30
0.0
 10
6555.547193819972
 20
4574.277380860639
 30
0.0
 10
6555.566318603354
 20
4574.638105436301
 30
0.0
 10
6555.633770982387
 20
4575.064699245777
 30
0.0
 10
6555.732596966449
 20
4575.446570497702
 30
0.0
 10
6555.834611949248
 20
4575.744776058637
 30
0.0
 10
6555.920579876478
 20
4575.95448498517
 30
0.0
 10
6556.01526288847
 20
4576.15108633552
 30
0.0
 10
6556.089338865694
 20
4576.27264686896
 30
0.0
 10
6556.125508700897
 20
4576.332002474199
 30
0.0
  0
LINE
  5
290
330
1F
100
AcDbEntity
  8
0
  6
Continuous
 62
     7
370
    25
100
AcDbLine
 10
6441.6631367698
 20
4573.8320024742
 30
0.0
 11
6555.80175293
 21
4573.8320024742
 31
0.0
  0
SPLINE
  5
291
330
1F
100
AcDbEntity
  8
0
  6
Continuous
 62
     7
370
    25
100
AcDbSpline
210
0.0
220
0.0
230
1.0
 70
     8
 71
     3
 72
    21
 73
    17
 74
     0
 42
0.00000001
 43
0.00000001
 40
0.0
 40
0.0
 40
0.0
 40
0.0
 40
0.0340233399341919
 40
0.0691214084421449
 40
0.1053876398518416
 40
0.1429067282561312
 40
0.181755160216943
 40
0.222001829447389
 40
0.3470619372036711
 40
0.4785351365570038
 40
0.6126326576618998
 40
0.7465410083191641
 40
0.8125714941340157
 40
0.8767057687223524
 40
0.9391186934459115
 40
1.0
 40
1.0
 40
1.0
 40
1.0
 10
6441.339380998892
 20
4576.332002474199
 30
0.0
 10
6441.363600383906
 20
4576.293005482636
 30
0.0
 10
6441.412804195375
 20
4576.213779663328
 30
0.0
 10
6441.479396748232
 20
4576.088347650952
 30
0.0
 10
6441.542155447379
 20
4575.956468202049
 30
0.0
 10
6441.600438569743
 20
4575.818250686199
 30
0.0
 10
6441.654430937599
 20
4575.674451470338
 30
0.0
 10
6441.738351113743
 20
4575.423436696129
 30
0.0
 10
6441.831031658919
 20
4575.064970141028
 30
0.0
 10
6441.898513489623
 20
4574.63864964494
 30
0.0
 10
6441.917723732359
 20
4574.277565604298
 30
0.0
 10
6441.890252432569
 20
4574.056532000564
 30
0.0
 10
6441.843582649713
 20
4573.936034898045
 30
0.0
 10
6441.796207840484
 20
4573.874732063105
 30
0.0
 10
6441.737855863626
 20
4573.83839217561
 30
0.0
 10
6441.68783601111
 20
4573.83411466225
 30
0.0
 10
6441.663136769763
 20
4573.832002474198
 30
0.0
  0
LINE
  5
292
330
1F
100
AcDbEntity
  8
0
  6
Continuous
 62
     7
370
    25
100
AcDbLine
 10
6441.6631367698
 20
4573.8320024742
 30
0.0
 11
6441.6631367698
 21
4575.3320024742
 31
0.0
  0
SPLINE
  5
293
330
1F
100
AcDbEntity
  8
0
  6
Continuous
 62
     7
370
    25
100
AcDbSpline
210
0.0
220
0.0
230
1.0
 70
     8
 71
     3
 72
    14
 73
    10
 74
     0
 42
0.00000001
 43
0.00000001
 40
0.0
 40
0.0
 40
0.0
 40
0.0
 40
0.25
 40
0.25
 40
0.5
 40
0.5
 40
0.75
 40
0.75
 40
1.0
 40
1.0
 40
1.0
 40
1.0
 10
6558.73244484988
 20
4691.332002474199
 30
0.0
 10
6558.73244484988
 20
4691.659307690841
 30
0.0
 10
6558.667376541552
 20
4691.986372185097
 30
0.0
 10
6558.416910820767
 20
4692.591049925126
 30
0.0
 10
6558.231611955876
 20
4692.868369274135
 30
0.0
 10
6557.768811649818
 20
4693.331169580194
 30
0.0
 10
6557.491492300808
 20
4693.516468445085
 30
0.0
 10
6556.886814560779
 20
4693.766934165869
 30
0.0
 10
6556.559750066524
 20
4693.832002474198
 30
0.0
 10
6556.232444849881
 20
4693.832002474198
 30
0.0
  0
LINE
  5
294
330
1F
100
AcDbEntity
  8
0
  6
Continuous
 62
     7
370
    25
100
AcDbLine
 10
6558.7324448499
 20
4691.3320024742
 30
0.0
 11
6558.1324448499
 21
4691.3320024742
 31
0.0
  0
LINE
  5
295
330
1F
100
AcDbEntity
  8
0
  6
Continuous
 62
     7
370
    25
100
AcDbLine
 10
6558.7324448499
 20
4691.3320024742
 30
0.0
 11
6558.7324448499
 21
4576.6501558834
 31
0.0
  0
LINE
  5
296
330
1F
100
AcDbEntity
  8
0
  6
Continuous
 62
     7
370
    25
100
AcDbLine
 10
6557.2324448499
 20
4576.6501558834
 30
0.0
 11
6558.7324448499
 21
4576.6501558834
 31
0.0
  0
LINE
  5
297
330
1F
100
AcDbEntity
  8
0
  6
Continuous
 62
     7
370
    25
100
AcDbLine
 10
6557.2324448499
 20
4576.6552257789
 30
0.0
 11
6557.2324448499
 21
4576.6501558834
 31
0.0
  0
LINE
  5
298
330
1F
100
AcDbEntity
  8
0
  6
Continuous
 62
     7
370
    25
100
AcDbLine
 10
6438.7324448498
 20
4691.3320024742
 30
0.0
 11
6439.3324448498
 21
4691.3320024742
 31
0.0
  0
SPLINE
  5
299
330
1F
100
AcDbEntity
  8
0
  6
Continuous
 62
     7
370
    25
100
AcDbSpline
210
0.0
220
0.0
230
1.0
 70
     8
 71
     3
 72
    14
 73
    10
 74
     0
 42
0.00000001
 43
0.00000001
 40
0.0
 40
0.0
 40
0.0
 40
0.0
 40
0.25
 40
0.25
 40
0.5
 40
0.5
 40
0.75
 40
0.75
 40
1.0
 40
1.0
 40
1.0
 40
1.0
 10
6441.232444849846
 20
4693.832002474198
 30
0.0
 10
6440.905139633202
 20
4693.832002474198
 30
0.0
 10
6440.578075138947
 20
4693.766934165869
 30
0.0
 10
6439.973397398919
 20
4693.516468445085
 30
0.0
 10
6439.696078049908
 20
4693.331169580194
 30
0.0
 10
6439.23327774385
 20
4692.868369274135
 30
0.0
 10
6439.04797887896
 20
4692.591049925126
 30
0.0
 10
6438.797513158174
 20
4691.986372185097
 30
0.0
 10
6438.732444849846
 20
4691.659307690841
 30
0.0
 10
6438.732444849846
 20
4691.332002474199
 30
0.0
  0
LINE
  5
29A
330
1F
100
AcDbEntity
  8
0
  6
Continuous
 62
     7
370
    25
100
AcDbLine
 10
6438.7324448498
 20
4691.3320024742
 30
0.0
 11
6438.7324448498
 21
4576.6501558834
 31
0.0
  0
LINE
  5
29B
330
1F
100
AcDbEntity
  8
0
  6
Continuous
 62
     7
370
    25
100
AcDbLine
 10
6440.2324448498
 20
4576.6552257789
 30
0.0
 11
6440.2324448498
 21
4576.6501558834
 31
0.0
  0
LINE
  5
29C
330
1F
100
AcDbEntity
  8
0
  6
Continuous
 62
     7
370
    25
100
AcDbLine
 10
6438.7324448498
 20
4576.6501558834
 30
0.0
 11
6440.2324448498
 21
4576.6501558834
 31
0.0
  0
LINE
  5
29D
330
1F
100
AcDbEntity
  8
0
  6
Continuous
 62
     7
370
    25
100
AcDbLine
 10
6558.7324448499
 20
4576.3320024742
 30
0.0
 11
6557.2324448499
 21
4576.3320024742
 31
0.0
  0
LINE
  5
29E
330
1F
100
AcDbEntity
  8
0
  6
Continuous
 62
     7
370
    25
100
AcDbLine
 10
6558.7324448499
 20
4576.3320024742
 30
0.0
 11
6558.7324448499
 21
4576.6501558834
 31
0.0
  0
LINE
  5
29F
330
1F
100
AcDbEntity
  8
0
  6
Continuous
 62
     7
370
    25
100
AcDbLine
 10
6557.2324448499
 20
4576.3320024742
 30
0.0
 11
6557.2324448499
 21
4576.6501558834
 31
0.0
  0
LINE
  5
2A0
330
1F
100
AcDbEntity
  8
0
  6
Continuous
 62
     7
370
    25
100
AcDbLine
 10
6438.7324448498
 20
4576.3320024742
 30
0.0
 11
6440.2324448498
 21
4576.3320024742
 31
0.0
  0
LINE
  5
2A1
330
1F
100
AcDbEntity
  8
0
  6
Continuous
 62
     7
370
    25
100
AcDbLine
 10
6440.2324448498
 20
4576.3320024742
 30
0.0
 11
6440.2324448498
 21
4576.6501558834
 31
0.0
  0
LINE
  5
2A2
330
1F
100
AcDbEntity
  8
0
  6
Continuous
 62
     7
370
    25
100
AcDbLine
 10
6438.7324448498
 20
4576.3320024742
 30
0.0
 11
6438.7324448498
 21
4576.6501558834
 31
0.0
  0
LINE
  5
2A3
330
1F
100
AcDbEntity
  8
0
  6
Continuous
 62
     7
370
    25
100
AcDbLine
 10
6556.2324448499
 20
4573.8320024742
 30
0.0
 11
6556.2324448499
 21
4575.3320024742
 31
0.0
  0
LINE
  5
2A4
330
1F
100
AcDbEntity
  8
0
  6
Continuous
 62
     7
370
    25
100
AcDbLine
 10
6556.2324448499
 20
4573.8320024742
 30
0.0
 11
6555.80175293
 21
4573.8320024742
 31
0.0
  0
LINE
  5
2A5
330
1F
100
AcDbEntity
  8
0
  6
Continuous
 62
     7
370
    25
100
AcDbLine
 10
6556.2324448499
 20
4575.3320024742
 30
0.0
 11
6555.80175293
 21
4575.3320024742
 31
0.0
  0
LINE
  5
2A6
330
1F
100
AcDbEntity
  8
0
  6
Continuous
 62
     7
370
    25
100
AcDbLine
 10
6441.6631367698
 20
4573.8320024742
 30
0.0
 11
6441.2324448499
 21
4573.8320024742
 31
0.0
  0
LINE
  5
2A7
330
1F
100
AcDbEntity
  8
0
  6
Continuous
 62
     7
370
    25
100
AcDbLine
 10
6441.2324448499
 20
4573.8320024742
 30
0.0
 11
6441.2324448499
 21
4575.3320024742
 31
0.0
  0
LINE
  5
2A8
330
1F
100
AcDbEntity
  8
0
  6
Continuous
 62
     7
370
    25
100
AcDbLine
 10
6441.6631367698
 20
4575.3320024742
 30
0.0
 11
6441.2324448499
 21
4575.3320024742
 31
0.0
  0
SPLINE
  5
2A9
330
1F
100
AcDbEntity
  8
0
  6
Continuous
 62
     7
370
    25
100
AcDbSpline
210
0.0
220
0.0
230
1.0
 70
     8
 71
     3
 72
    14
 73
    10
 74
     0
 42
0.00000001
 43
0.00000001
 40
0.0
 40
0.0
 40
0.0
 40
0.0
 40
0.25
 40
0.25
 40
0.5
 40
0.5
 40
0.75
 40
0.75
 40
1.0
 40
1.0
 40
1.0
 40
1.0
 10
6441.232444849881
 20
4575.332002474198
 30
0.0
 10
6441.109846639112
 20
4575.332002474193
 30
0.0
 10
6440.974725021315
 20
4575.355150260274
 30
0.0
 10
6440.710026724668
 20
4575.467283409788
 30
0.0
 10
6440.58868156475
 20
4575.55314208901
 30
0.0
 10
6440.393863037371
 20
4575.768233717845
 30
0.0
 10
6440.326388717412
 20
4575.89023121863
 30
0.0
 10
6440.244769520198
 20
4576.130515500493
 30
0.0
 10
6440.232444849846
 20
4576.240688962354
 30
0.0
 10
6440.232444849846
 20
4576.332002474199
 30
0.0
  0
SPLINE
  5
2AA
330
1F
100
AcDbEntity
  8
0
  6
Continuous
 62
     7
370
    25
100
AcDbSpline
210
0.0
220
0.0
230
1.0
 70
     8
 71
     3
 72
    22
 73
    18
 74
     0
 42
0.00000001
 43
0.00000001
 40
0.0
 40
0.0
 40
0.0
 40
0.0
 40
0.0345636009442638
 40
0.069619967583222
 40
0.1052062781476664
 40
0.1413580746643881
 40
0.1781092572757683
 40
0.215492094237254
 40
0.2535372453207093
 40
0.3871713463588989
 40
0.5215337233648645
 40
0.6527443527188995
 40
0.7780582116963025
 40
0.8378081948220274
 40
0.8945398398534656
 40
0.9485058887357672
 40
1.0
 40
1.0
 40
1.0
 40
1.0
 10
6441.232444849933
 20
4573.832002474198
 30
0.0
 10
6441.188076536785
 20
4573.83268115482
 30
0.0
 10
6441.09870736116
 20
4573.834048191864
 30
0.0
 10
6440.962299533417
 20
4573.845443501133
 30
0.0
 10
6440.823609506435
 20
4573.864280859182
 30
0.0
 10
6440.683002184299
 20
4573.89170101223
 30
0.0
 10
6440.541089102849
 20
4573.927974838988
 30
0.0
 10
6440.398468872119
 20
4573.973593681135
 30
0.0
 10
6440.137397455217
 20
4574.074828013573
 30
0.0
 10
6439.773584486364
 20
4574.277380860616
 30
0.0
 10
6439.367591216565
 20
4574.63810543626
 30
0.0
 10
6439.057045608743
 20
4575.06469924573
 30
0.0
 10
6438.884952323045
 20
4575.446570497652
 30
0.0
 10
6438.798986537782
 20
4575.744776058601
 30
0.0
 10
6438.758419180484
 20
4575.954484985137
 30
0.0
 10
6438.736077334235
 20
4576.151086335499
 30
0.0
 10
6438.733636608144
 20
4576.272646868952
 30
0.0
 10
6438.732444849846
 20
4576.332002474199
 30
0.0
  0
SPLINE
  5
2AB
330
1F
100
AcDbEntity
  8
0
  6
Continuous
 62
     7
370
    25
100
AcDbSpline
210
0.0
220
0.0
230
1.0
 70
     8
 71
     3
 72
    16
 73
    12
 74
     0
 42
0.00000001
 43
0.00000001
 40
0.0
 40
0.0
 40
0.0
 40
0.0
 40
0.25
 40
0.25
 40
0.375
 40
0.375
 40
0.5
 40
0.5
 40
0.75
 40
0.75
 40
1.0
 40
1.0
 40
1.0
 40
1.0
 10
6557.23244484988
 20
4576.332002474199
 30
0.0
 10
6557.23244484988
 20
4576.241040568412
 30
0.0
 10
6557.220061233875
 20
4576.130341966396
 30
0.0
 10
6557.158935254449
 20
4575.950389056156
 30
0.0
 10
6557.132069001622
 20
4575.890060803387
 30
0.0
 10
6557.063861439833
 20
4575.772196696497
 30
0.0
 10
6557.022316249119
 20
4575.714454427629
 30
0.0
 10
6556.876219697793
 20
4575.553154855068
 30
0.0
 10
6556.755018056599
 20
4575.467349106407
 30
0.0
 10
6556.49000959692
 20
4575.355084563678
 30
0.0
 10
6556.355508905636
 20
4575.332002474198
 30
0.0
 10
6556.232444849881
 20
4575.332002474198
 30
0.0
  0
SPLINE
  5
2AC
330
1F
100
AcDbEntity
  8
0
  6
Continuous
 62
     7
370
    25
100
AcDbSpline
210
0.0
220
0.0
230
1.0
 70
     8
 71
     3
 72
    21
 73
    17
 74
     0
 42
0.00000001
 43
0.00000001
 40
0.0
 40
0.0
 40
0.0
 40
0.0
 40
0.034023339935073
 40
0.0691214084438382
 40
0.1053876398542258
 40
0.1429067282591522
 40
0.1817551602204621
 40
0.2220018294513444
 40
0.3470619372076757
 40
0.4785351365620575
 40
0.6126326576663147
 40
0.7465410083226642
 40
0.8125714941373631
 40
0.876705768725044
 40
0.9391186934474905
 40
1.0
 40
1.0
 40
1.0
 40
1.0
 10
6558.73244484988
 20
4576.332002474199
 30
0.0
 10
6558.731926851736
 20
4576.293005482635
 30
0.0
 10
6558.73087449293
 20
4576.213779663327
 30
0.0
 10
6558.721595691216
 20
4576.08834765095
 30
0.0
 10
6558.705353646229
 20
4575.956468202047
 30
0.0
 10
6558.680497343519
 20
4575.818250686198
 30
0.0
 10
6558.646003540156
 20
4575.674451470337
 30
0.0
 10
6558.569474433974
 20
4575.423436696133
 30
0.0
 10
6558.408001044905
 20
4575.064970141037
 30
0.0
 10
6558.097789108219
 20
4574.638649644958
 30
0.0
 10
6557.691573844466
 20
4574.27756560432
 30
0.0
 10
6557.29469059833
 20
4574.056532000585
 30
0.0
 10
6556.962016647954
 20
4573.936034898063
 30
0.0
 10
6556.713597814191
 20
4573.874732063118
 30
0.0
 10
6556.469525054778
 20
4573.838392175619
 30
0.0
 10
6556.310814392341
 20
4573.834114662252
 30
0.0
 10
6556.232444849881
 20
4573.832002474198
 30
0.0
  0
LINE
  5
2AD
330
1F
100
AcDbEntity
  8
0
  6
Continuous
 62
     7
370
    25
100
AcDbLine
 10
6556.2324448499
 20
4693.8320024742
 30
0.0
 11
6556.0203128155
 21
4693.8320024742
 31
0.0
  0
LINE
  5
2AE
330
1F
100
AcDbEntity
  8
0
  6
Continuous
 62
     7
370
    25
100
AcDbLine
 10
6441.2324448498
 20
4693.8320024742
 30
0.0
 11
6441.4445768842
 21
4693.8320024742
 31
0.0
  0
LINE
  5
2AF
330
1F
100
AcDbEntity
  8
0
  6
Continuous
 62
     8
370
    25
100
AcDbLine
 10
6520.9292426999
 20
4573.3320024742
 30
0.0
 11
6520.9205151674
 21
4573.8320024742
 31
0.0
  0
LINE
  5
2B0
330
1F
100
AcDbEntity
  8
0
  6
Continuous
 62
     8
370
    25
100
AcDbLine
 10
6526.9173985736
 20
4573.8320024742
 30
0.0
 11
6526.9086710411
 21
4573.3320024742
 31
0.0
  0
LINE
  5
2B1
330
1F
100
AcDbEntity
  8
0
  6
Continuous
 62
     8
370
    25
100
AcDbLine
 10
6518.5519090318
 20
4567.5058228671
 30
0.0
 11
6518.5342268302
 21
4569.5320024742
 31
0.0
  0
LINE
  5
2B2
330
1F
100
AcDbEntity
  8
0
  6
Continuous
 62
     8
370
    25
100
AcDbLine
 10
6534.9120887581
 20
4569.5320024742
 30
0.0
 11
6534.8944065565
 21
4567.5058228677
 31
0.0
  0
ENDSEC
  0
SECTION
  2
OBJECTS
  0
DICTIONARY
  5
C
330
0
100
AcDbDictionary
281
     1
  3
ACAD_GROUP
350
D
  3
ACAD_LAYOUT
350
1A
  3
ACAD_MLINESTYLE
350
17
  3
ACAD_PLOTSETTINGS
350
19
  3
ACAD_PLOTSTYLENAME
350
E
  3
ACAD_SCALELIST
350
47
  3
DWGPROPS
350
2B3
  0
DICTIONARY
  5
D
102
{ACAD_REACTORS
330
C
102
}
330
C
100
AcDbDictionary
281
     1
  0
DICTIONARY
  5
1A
102
{ACAD_REACTORS
330
C
102
}
330
C
100
AcDbDictionary
281
     1
  3
Layout1
350
1E
  3
Layout2
350
26
  3
Model
350
22
  0
DICTIONARY
  5
17
102
{ACAD_REACTORS
330
C
102
}
330
C
100
AcDbDictionary
281
     1
  3
Standard
350
18
  0
DICTIONARY
  5
19
102
{ACAD_REACTORS
330
C
102
}
330
C
100
AcDbDictionary
281
     1
  0
ACDBDICTIONARYWDFLT
  5
E
102
{ACAD_REACTORS
330
C
102
}
330
C
100
AcDbDictionary
281
     1
  3
Normal
350
F
100
AcDbDictionaryWithDefault
340
F
  0
DICTIONARY
  5
47
102
{ACAD_REACTORS
330
C
102
}
330
C
100
AcDbDictionary
281
     1
  3
A0
350
48
  3
A1
350
49
  3
A2
350
4A
  3
A3
350
4B
  3
A4
350
4C
  3
A5
350
4D
  3
A6
350
4E
  3
A7
350
4F
  3
A8
350
50
  3
A9
350
51
  3
B0
350
52
  3
B1
350
53
  3
B2
350
54
  3
B3
350
55
  3
B4
350
56
  3
B5
350
57
  3
B6
350
58
  3
B7
350
59
  3
B8
350
5A
  3
B9
350
5B
  3
C0
350
5C
  3
C1
350
5D
  3
C2
350
5E
  3
C3
350
5F
  3
C4
350
60
  3
C5
350
61
  3
C6
350
62
  3
C7
350
63
  3
C8
350
64
  3
C9
350
65
  3
D0
350
66
  3
D1
350
67
  3
D2
350
68
  0
XRECORD
  5
2B3
102
{ACAD_REACTORS
330
C
102
}
330
C
100
AcDbXrecord
280
     1
  1
DWGPROPS COOKIE
  2

  3

  4

  6

  7

  8
radek.stransky
  9

300
=
301
=
302
=
303
=
304
=
305
=
306
=
307
=
308
=
309
=
 40
0.0
 41
2460262.345569699
 42
2460262.345571296
  1

 90
        0
  0
LAYOUT
  5
1E
102
{ACAD_REACTORS
330
1A
102
}
330
1A
100
AcDbPlotSettings
  1

  2
none_device
  4

  6

 40
0.0
 41
0.0
 42
0.0
 43
0.0
 44
0.0
 45
0.0
 46
0.0
 47
0.0
 48
0.0
 49
0.0
140
0.0
141
0.0
142
1.0
143
1.0
 70
   688
 72
     1
 73
     0
 74
     5
  7

 75
    16
147
1.0
148
0.0
149
0.0
100
AcDbLayout
  1
Layout1
 70
     1
 71
     1
 10
0.0
 20
0.0
 11
420.0
 21
297.0
 12
0.0
 22
0.0
 32
0.0
 14
1.0000000000E+20
 24
1.0000000000E+20
 34
1.0000000000E+20
 15
-1.0000000000E+20
 25
-1.0000000000E+20
 35
-1.0000000000E+20
146
0.0
 13
0.0
 23
0.0
 33
0.0
 16
1.0
 26
0.0
 36
0.0
 17
0.0
 27
1.0
 37
0.0
 76
     0
330
1B
  0
LAYOUT
  5
26
102
{ACAD_REACTORS
330
1A
102
}
330
1A
100
AcDbPlotSettings
  1

  2
none_device
  4

  6

 40
0.0
 41
0.0
 42
0.0
 43
0.0
 44
0.0
 45
0.0
 46
0.0
 47
0.0
 48
0.0
 49
0.0
140
0.0
141
0.0
142
1.0
143
1.0
 70
   688
 72
     1
 73
     0
 74
     5
  7

 75
    16
147
1.0
148
0.0
149
0.0
100
AcDbLayout
  1
Layout2
 70
     1
 71
     2
 10
0.0
 20
0.0
 11
0.0
 21
0.0
 12
0.0
 22
0.0
 32
0.0
 14
0.0
 24
0.0
 34
0.0
 15
0.0
 25
0.0
 35
0.0
146
0.0
 13
0.0
 23
0.0
 33
0.0
 16
1.0
 26
0.0
 36
0.0
 17
0.0
 27
1.0
 37
0.0
 76
     0
330
23
  0
LAYOUT
  5
22
102
{ACAD_REACTORS
330
1A
102
}
330
1A
100
AcDbPlotSettings
  1

  2
none_device
  4
Letter_(8.50_x_11.00_Inches)
  6

 40
6.35
 41
6.35
 42
6.35000508
 43
6.35000508
 44
215.9
 45
279.4
 46
0.0
 47
0.0
 48
0.0
 49
0.0
140
0.0
141
0.0
142
1.0
143
1.0
 70
  1712
 72
     1
 73
     0
 74
     0
  7

 75
     0
147
1.0
148
0.0
149
0.0
100
AcDbLayout
  1
Model
 70
     1
 71
     0
 10
0.0
 20
0.0
 11
20000.0
 21
10000.0
 12
0.0
 22
0.0
 32
0.0
 14
0.0
 24
0.0
 34
0.0
 15
20000.0
 25
10000.0
 35
0.0
146
0.0
 13
0.0
 23
0.0
 33
0.0
 16
1.0
 26
0.0
 36
0.0
 17
0.0
 27
1.0
 37
0.0
 76
     0
330
1F
331
29
  0
MLINESTYLE
  5
18
102
{ACAD_REACTORS
330
17
102
}
330
17
100
AcDbMlineStyle
  2
Standard
 70
     0
  3

 62
   256
 51
90.0
 52
90.0
 71
     2
 49
0.5
 62
   256
  6
BYLAYER
 49
-0.5
 62
   256
  6
BYLAYER
  0
ACDBPLACEHOLDER
  5
F
102
{ACAD_REACTORS
330
E
102
}
330
E
  0
SCALE
  5
48
102
{ACAD_REACTORS
330
47
102
}
330
47
100
AcDbScale
 70
     0
300
1:1
140
1.0
141
1.0
290
     1
  0
SCALE
  5
49
102
{ACAD_REACTORS
330
47
102
}
330
47
100
AcDbScale
 70
     0
300
1:2
140
1.0
141
2.0
290
     0
  0
SCALE
  5
4A
102
{ACAD_REACTORS
330
47
102
}
330
47
100
AcDbScale
 70
     0
300
1:4
140
1.0
141
4.0
290
     0
  0
SCALE
  5
4B
102
{ACAD_REACTORS
330
47
102
}
330
47
100
AcDbScale
 70
     0
300
1:5
140
1.0
141
5.0
290
     0
  0
SCALE
  5
4C
102
{ACAD_REACTORS
330
47
102
}
330
47
100
AcDbScale
 70
     0
300
1:8
140
1.0
141
8.0
290
     0
  0
SCALE
  5
4D
102
{ACAD_REACTORS
330
47
102
}
330
47
100
AcDbScale
 70
     0
300
1:10
140
1.0
141
10.0
290
     0
  0
SCALE
  5
4E
102
{ACAD_REACTORS
330
47
102
}
330
47
100
AcDbScale
 70
     0
300
1:16
140
1.0
141
16.0
290
     0
  0
SCALE
  5
4F
102
{ACAD_REACTORS
330
47
102
}
330
47
100
AcDbScale
 70
     0
300
1:20
140
1.0
141
20.0
290
     0
  0
SCALE
  5
50
102
{ACAD_REACTORS
330
47
102
}
330
47
100
AcDbScale
 70
     0
300
1:30
140
1.0
141
30.0
290
     0
  0
SCALE
  5
51
102
{ACAD_REACTORS
330
47
102
}
330
47
100
AcDbScale
 70
     0
300
1:40
140
1.0
141
40.0
290
     0
  0
SCALE
  5
52
102
{ACAD_REACTORS
330
47
102
}
330
47
100
AcDbScale
 70
     0
300
1:50
140
1.0
141
50.0
290
     0
  0
SCALE
  5
53
102
{ACAD_REACTORS
330
47
102
}
330
47
100
AcDbScale
 70
     0
300
1:100
140
1.0
141
100.0
290
     0
  0
SCALE
  5
54
102
{ACAD_REACTORS
330
47
102
}
330
47
100
AcDbScale
 70
     0
300
2:1
140
2.0
141
1.0
290
     0
  0
SCALE
  5
55
102
{ACAD_REACTORS
330
47
102
}
330
47
100
AcDbScale
 70
     0
300
4:1
140
4.0
141
1.0
290
     0
  0
SCALE
  5
56
102
{ACAD_REACTORS
330
47
102
}
330
47
100
AcDbScale
 70
     0
300
8:1
140
8.0
141
1.0
290
     0
  0
SCALE
  5
57
102
{ACAD_REACTORS
330
47
102
}
330
47
100
AcDbScale
 70
     0
300
10:1
140
10.0
141
1.0
290
     0
  0
SCALE
  5
58
102
{ACAD_REACTORS
330
47
102
}
330
47
100
AcDbScale
 70
     0
300
100:1
140
100.0
141
1.0
290
     0
  0
SCALE
  5
59
102
{ACAD_REACTORS
330
47
102
}
330
47
100
AcDbScale
 70
     0
300
1/128" = 1'-0"
140
0.0078125
141
12.0
290
     0
  0
SCALE
  5
5A
102
{ACAD_REACTORS
330
47
102
}
330
47
100
AcDbScale
 70
     0
300
1/64" = 1'-0"
140
0.015625
141
12.0
290
     0
  0
SCALE
  5
5B
102
{ACAD_REACTORS
330
47
102
}
330
47
100
AcDbScale
 70
     0
300
1/32" = 1'-0"
140
0.03125
141
12.0
290
     0
  0
SCALE
  5
5C
102
{ACAD_REACTORS
330
47
102
}
330
47
100
AcDbScale
 70
     0
300
1/16" = 1'-0"
140
0.0625
141
12.0
290
     0
  0
SCALE
  5
5D
102
{ACAD_REACTORS
330
47
102
}
330
47
100
AcDbScale
 70
     0
300
3/32" = 1'-0"
140
0.09375
141
12.0
290
     0
  0
SCALE
  5
5E
102
{ACAD_REACTORS
330
47
102
}
330
47
100
AcDbScale
 70
     0
300
1/8" = 1'-0"
140
0.125
141
12.0
290
     0
  0
SCALE
  5
5F
102
{ACAD_REACTORS
330
47
102
}
330
47
100
AcDbScale
 70
     0
300
3/16" = 1'-0"
140
0.1875
141
12.0
290
     0
  0
SCALE
  5
60
102
{ACAD_REACTORS
330
47
102
}
330
47
100
AcDbScale
 70
     0
300
1/4" = 1'-0"
140
0.25
141
12.0
290
     0
  0
SCALE
  5
61
102
{ACAD_REACTORS
330
47
102
}
330
47
100
AcDbScale
 70
     0
300
3/8" = 1'-0"
140
0.375
141
12.0
290
     0
  0
SCALE
  5
62
102
{ACAD_REACTORS
330
47
102
}
330
47
100
AcDbScale
 70
     0
300
1/2" = 1'-0"
140
0.5
141
12.0
290
     0
  0
SCALE
  5
63
102
{ACAD_REACTORS
330
47
102
}
330
47
100
AcDbScale
 70
     0
300
3/4" = 1'-0"
140
0.75
141
12.0
290
     0
  0
SCALE
  5
64
102
{ACAD_REACTORS
330
47
102
}
330
47
100
AcDbScale
 70
     0
300
1" = 1'-0"
140
1.0
141
12.0
290
     0
  0
SCALE
  5
65
102
{ACAD_REACTORS
330
47
102
}
330
47
100
AcDbScale
 70
     0
300
1-1/2" = 1'-0"
140
1.5
141
12.0
290
     0
  0
SCALE
  5
66
102
{ACAD_REACTORS
330
47
102
}
330
47
100
AcDbScale
 70
     0
300
3" = 1'-0"
140
3.0
141
12.0
290
     0
  0
SCALE
  5
67
102
{ACAD_REACTORS
330
47
102
}
330
47
100
AcDbScale
 70
     0
300
6" = 1'-0"
140
6.0
141
12.0
290
     0
  0
SCALE
  5
68
102
{ACAD_REACTORS
330
47
102
}
330
47
100
AcDbScale
 70
     0
300
1'-0" = 1'-0"
140
12.0
141
12.0
290
     0
  0
ENDSEC
  0
EOF
