  0
SECTION
  2
HEADER
  9
$ACADVER
  1
AC1015
  9
$ACADMAINTVER
 70
     6
  9
$DWGCODEPAGE
  3
ANSI_1250
  9
$INSBASE
 10
0.0
 20
0.0
 30
0.0
  9
$EXTMIN
 10
0.0
 20
0.0
 30
0.0
  9
$EXTMAX
 10
20000.0
 20
10000.0
 30
0.0
  9
$LIMMIN
 10
0.0
 20
0.0
  9
$LIMMAX
 10
20000.0
 20
10000.0
  9
$ORTHOMODE
 70
     0
  9
$REGENMODE
 70
     1
  9
$FILLMODE
 70
     1
  9
$QTEXTMODE
 70
     0
  9
$MIRRTEXT
 70
     1
  9
$LTSCALE
 40
1.0
  9
$ATTMODE
 70
     1
  9
$TEXTSIZE
 40
2.0
  9
$TRACEWID
 40
1.0
  9
$TEXTSTYLE
  7
Standard
  9
$CLAYER
  8
0
  9
$CELTYPE
  6
ByLayer
  9
$CECOLOR
 62
   256
  9
$CELTSCALE
 40
1.0
  9
$DISPSILH
 70
     0
  9
$DIMSCALE
 40
1.0
  9
$DIMASZ
 40
2.0
  9
$DIMEXO
 40
1.0
  9
$DIMDLI
 40
3.75
  9
$DIMRND
 40
0.0
  9
$DIMDLE
 40
0.0
  9
$DIMEXE
 40
1.0
  9
$DIMTP
 40
0.0
  9
$DIMTM
 40
0.0
  9
$DIMTXT
 40
2.0
  9
$DIMCEN
 40
2.5
  9
$DIMTSZ
 40
0.0
  9
$DIMTOL
 70
     0
  9
$DIMLIM
 70
     0
  9
$DIMTIH
 70
     1
  9
$DIMTOH
 70
     1
  9
$DIMSE1
 70
     0
  9
$DIMSE2
 70
     0
  9
$DIMTAD
 70
     1
  9
$DIMZIN
 70
     0
  9
$DIMBLK
  1

  9
$DIMASO
 70
     1
  9
$DIMSHO
 70
     1
  9
$DIMPOST
  1

  9
$DIMAPOST
  1

  9
$DIMALT
 70
     0
  9
$DIMALTD
 70
     3
  9
$DIMALTF
 40
0.0393700787
  9
$DIMLFAC
 40
1.0
  9
$DIMTOFL
 70
     1
  9
$DIMTVP
 40
0.0
  9
$DIMTIX
 70
     0
  9
$DIMSOXD
 70
     0
  9
$DIMSAH
 70
     0
  9
$DIMBLK1
  1

  9
$DIMBLK2
  1

  9
$DIMSTYLE
  2
ISO-25
  9
$DIMCLRD
 70
     0
  9
$DIMCLRE
 70
     0
  9
$DIMCLRT
 70
     0
  9
$DIMTFAC
 40
1.0
  9
$DIMGAP
 40
1.524
  9
$DIMJUST
 70
     0
  9
$DIMSD1
 70
     0
  9
$DIMSD2
 70
     0
  9
$DIMTOLJ
 70
     0
  9
$DIMTZIN
 70
     0
  9
$DIMALTZ
 70
     0
  9
$DIMALTTZ
 70
     0
  9
$DIMUPT
 70
     0
  9
$DIMDEC
 70
     2
  9
$DIMTDEC
 70
     0
  9
$DIMALTU
 70
     2
  9
$DIMALTTD
 70
     3
  9
$DIMTXSTY
  7
Standard
  9
$DIMAUNIT
 70
     0
  9
$DIMADEC
 70
     2
  9
$DIMALTRND
 40
0.0
  9
$DIMAZIN
 70
     0
  9
$DIMDSEP
 70
    44
  9
$DIMATFIT
 70
     3
  9
$DIMFRAC
 70
     0
  9
$DIMLDRBLK
  1

  9
$DIMLUNIT
 70
     2
  9
$DIMLWD
 70
    -2
  9
$DIMLWE
 70
    -2
  9
$DIMTMOVE
 70
     0
  9
$LUNITS
 70
     2
  9
$LUPREC
 70
     3
  9
$SKETCHINC
 40
1.0
  9
$FILLETRAD
 40
10.0
  9
$AUNITS
 70
     0
  9
$AUPREC
 70
     2
  9
$MENU
  1
.
  9
$ELEVATION
 40
0.0
  9
$PELEVATION
 40
0.0
  9
$THICKNESS
 40
0.0
  9
$LIMCHECK
 70
     0
  9
$CHAMFERA
 40
0.0
  9
$CHAMFERB
 40
0.0
  9
$CHAMFERC
 40
0.0
  9
$CHAMFERD
 40
0.0
  9
$SKPOLY
 70
     0
  9
$TDCREATE
 40
2459104.514683403
  9
$TDUCREATE
 40
2459104.43135007
  9
$TDUPDATE
 40
2459104.514683634
  9
$TDUUPDATE
 40
2459104.431350301
  9
$TDINDWG
 40
0.0000000116
  9
$TDUSRTIMER
 40
0.0000000116
  9
$USRTIMER
 70
     1
  9
$ANGBASE
 50
0.0
  9
$ANGDIR
 70
     0
  9
$PDMODE
 70
     0
  9
$PDSIZE
 40
-1.0
  9
$PLINEWID
 40
0.0
  9
$SPLFRAME
 70
     0
  9
$SPLINETYPE
 70
     6
  9
$SPLINESEGS
 70
     8
  9
$HANDSEED
  5
21B
  9
$SURFTAB1
 70
     6
  9
$SURFTAB2
 70
     6
  9
$SURFTYPE
 70
     6
  9
$SURFU
 70
     6
  9
$SURFV
 70
     6
  9
$UCSBASE
  2

  9
$UCSNAME
  2

  9
$UCSORG
 10
0.0
 20
0.0
 30
0.0
  9
$UCSXDIR
 10
1.0
 20
0.0
 30
0.0
  9
$UCSYDIR
 10
0.0
 20
1.0
 30
0.0
  9
$UCSORTHOREF
  2

  9
$UCSORTHOVIEW
 70
     0
  9
$UCSORGTOP
 10
0.0
 20
0.0
 30
0.0
  9
$UCSORGBOTTOM
 10
0.0
 20
0.0
 30
0.0
  9
$UCSORGLEFT
 10
0.0
 20
0.0
 30
0.0
  9
$UCSORGRIGHT
 10
0.0
 20
0.0
 30
0.0
  9
$UCSORGFRONT
 10
0.0
 20
0.0
 30
0.0
  9
$UCSORGBACK
 10
0.0
 20
0.0
 30
0.0
  9
$PUCSBASE
  2

  9
$PUCSNAME
  2

  9
$PUCSORG
 10
0.0
 20
0.0
 30
0.0
  9
$PUCSXDIR
 10
1.0
 20
0.0
 30
0.0
  9
$PUCSYDIR
 10
0.0
 20
1.0
 30
0.0
  9
$PUCSORTHOREF
  2

  9
$PUCSORTHOVIEW
 70
     0
  9
$PUCSORGTOP
 10
0.0
 20
0.0
 30
0.0
  9
$PUCSORGBOTTOM
 10
0.0
 20
0.0
 30
0.0
  9
$PUCSORGLEFT
 10
0.0
 20
0.0
 30
0.0
  9
$PUCSORGRIGHT
 10
0.0
 20
0.0
 30
0.0
  9
$PUCSORGFRONT
 10
0.0
 20
0.0
 30
0.0
  9
$PUCSORGBACK
 10
0.0
 20
0.0
 30
0.0
  9
$USERI1
 70
     0
  9
$USERI2
 70
     0
  9
$USERI3
 70
     0
  9
$USERI4
 70
     0
  9
$USERI5
 70
     0
  9
$USERR1
 40
0.0
  9
$USERR2
 40
0.0
  9
$USERR3
 40
0.0
  9
$USERR4
 40
0.0
  9
$USERR5
 40
0.0
  9
$WORLDVIEW
 70
     1
  9
$SHADEDGE
 70
     3
  9
$SHADEDIF
 70
    70
  9
$TILEMODE
 70
     1
  9
$MAXACTVP
 70
    64
  9
$PINSBASE
 10
0.0
 20
0.0
 30
0.0
  9
$PLIMCHECK
 70
     0
  9
$PEXTMIN
 10
1.0000000000E+20
 20
1.0000000000E+20
 30
1.0000000000E+20
  9
$PEXTMAX
 10
-1.0000000000E+20
 20
-1.0000000000E+20
 30
-1.0000000000E+20
  9
$PLIMMIN
 10
0.0
 20
0.0
  9
$PLIMMAX
 10
420.0
 20
297.0
  9
$UNITMODE
 70
     0
  9
$VISRETAIN
 70
     1
  9
$PLINEGEN
 70
     0
  9
$PSLTSCALE
 70
     1
  9
$TREEDEPTH
 70
  3020
  9
$CMLSTYLE
  2
Standard
  9
$CMLJUST
 70
     0
  9
$CMLSCALE
 40
20.0
  9
$PROXYGRAPHICS
 70
     1
  9
$MEASUREMENT
 70
     1
  9
$CELWEIGHT
370
    -1
  9
$ENDCAPS
280
     0
  9
$JOINSTYLE
280
     0
  9
$LWDISPLAY
290
     1
  9
$INSUNITS
 70
     4
  9
$HYPERLINKBASE
  1

  9
$STYLESHEET
  1

  9
$XEDIT
290
     1
  9
$CEPSNTYPE
380
     0
  9
$PSTYLEMODE
290
     1
  9
$FINGERPRINTGUID
  2
{9b59b6c5-d379-4b32-bb50-e1d9c2e977b8}
  9
$VERSIONGUID
  2
{FAEB1C32-E019-11D5-929B-00C0DF256EC4}
  9
$EXTNAMES
290
     1
  9
$PSVPSCALE
 40
0.0
  9
$OLESTARTUP
290
     0
  0
ENDSEC
  0
SECTION
  2
CLASSES
  0
CLASS
  1
ACDBDICTIONARYWDFLT
  2
AcDbDictionaryWithDefault
  3
ObjectDBX Classes
 90
        0
280
     0
281
     0
  0
CLASS
  1
VISUALSTYLE
  2
AcDbVisualStyle
  3
ObjectDBX Classes
 90
     4095
280
     0
281
     0
  0
CLASS
  1
MATERIAL
  2
AcDbMaterial
  3
ObjectDBX Classes
 90
     1153
280
     0
281
     0
  0
CLASS
  1
SCALE
  2
AcDbScale
  3
ObjectDBX Classes
 90
     1153
280
     0
281
     0
  0
CLASS
  1
TABLESTYLE
  2
AcDbTableStyle
  3
ObjectDBX Classes
 90
     4095
280
     0
281
     0
  0
CLASS
  1
MLEADERSTYLE
  2
AcDbMLeaderStyle
  3
ACDB_MLEADERSTYLE_CLASS
 90
     4095
280
     0
281
     0
  0
CLASS
  1
SUN
  2
AcDbSun
  3
SCENEOE
 90
     1153
280
     0
281
     0
  0
CLASS
  1
ACDBPLACEHOLDER
  2
AcDbPlaceHolder
  3
ObjectDBX Classes
 90
        0
280
     0
281
     0
  0
CLASS
  1
LAYOUT
  2
AcDbLayout
  3
ObjectDBX Classes
 90
        0
280
     0
281
     0
  0
ENDSEC
  0
SECTION
  2
TABLES
  0
TABLE
  2
VPORT
  5
8
330
0
100
AcDbSymbolTable
 70
     1
  0
VPORT
  5
29
330
8
100
AcDbSymbolTableRecord
100
AcDbViewportTableRecord
  2
*Active
 70
     0
 10
0.0
 20
0.0
 11
1.0
 21
1.0
 12
10000.0
 22
5000.0
 13
0.0
 23
0.0
 14
10.0
 24
10.0
 15
10.0
 25
10.0
 16
0.0
 26
0.0
 36
1.0
 17
0.0
 27
0.0
 37
0.0
 40
10000.0
 41
2.0
 42
50.0
 43
0.0
 44
0.0
 50
0.0
 51
0.0
 71
     0
 72
  2000
 73
     1
 74
     3
 75
     0
 76
     0
 77
     0
 78
     0
281
     0
 65
     1
110
0.0
120
0.0
130
0.0
111
1.0
121
0.0
131
0.0
112
0.0
122
1.0
132
0.0
 79
     0
146
0.0
  0
ENDTAB
  0
TABLE
  2
LTYPE
  5
5
330
0
100
AcDbSymbolTable
 70
     6
  0
LTYPE
  5
14
330
5
100
AcDbSymbolTableRecord
100
AcDbLinetypeTableRecord
  2
ByBlock
 70
     0
  3

 72
    65
 73
     0
 40
0.0
  0
LTYPE
  5
15
330
5
100
AcDbSymbolTableRecord
100
AcDbLinetypeTableRecord
  2
ByLayer
 70
     0
  3

 72
    65
 73
     0
 40
0.0
  0
LTYPE
  5
16
330
5
100
AcDbSymbolTableRecord
100
AcDbLinetypeTableRecord
  2
Continuous
 70
     0
  3
Solid line
 72
    65
 73
     0
 40
0.0
  0
LTYPE
  5
6E
330
5
100
AcDbSymbolTableRecord
100
AcDbLinetypeTableRecord
  2
HIDDEN
 70
     0
  3
Hidden __ __ __ __ __ __ __ __ __ __ __ __ __ __
 72
    65
 73
     2
 40
1.905
 49
1.27
 74
     0
 49
-0.635
 74
     0
  0
LTYPE
  5
6F
330
5
100
AcDbSymbolTableRecord
100
AcDbLinetypeTableRecord
  2
PHANTOM
 70
     0
  3
Phantom ______  __  __  ______  __  __  ______
 72
    65
 73
     6
 40
12.7
 49
6.35
 74
     0
 49
-1.27
 74
     0
 49
1.27
 74
     0
 49
-1.27
 74
     0
 49
1.27
 74
     0
 49
-1.27
 74
     0
  0
LTYPE
  5
70
330
5
100
AcDbSymbolTableRecord
100
AcDbLinetypeTableRecord
  2
CENTER
 70
     0
  3
Center ____ _ ____ _ ____ _ ____ _ ____ _ ____
 72
    65
 73
     4
 40
10.16
 49
6.35
 74
     0
 49
-1.27
 74
     0
 49
1.27
 74
     0
 49
-1.27
 74
     0
  0
LTYPE
  5
71
330
5
100
AcDbSymbolTableRecord
100
AcDbLinetypeTableRecord
  2
CENTERX2
 70
     0
  3
Center (2x) ________  __  ________  __  _____
 72
    65
 73
     4
 40
20.32
 49
12.7
 74
     0
 49
-2.54
 74
     0
 49
2.54
 74
     0
 49
-2.54
 74
     0
  0
LTYPE
  5
72
330
5
100
AcDbSymbolTableRecord
100
AcDbLinetypeTableRecord
  2
DOT2
 70
     0
  3
Dot (.5x) ........................................
 72
    65
 73
     2
 40
0.635
 49
0.0
 74
     0
 49
-0.635
 74
     0
  0
ENDTAB
  0
TABLE
  2
LAYER
  5
2
330
0
100
AcDbSymbolTable
 70
    13
  0
LAYER
  5
10
330
2
100
AcDbSymbolTableRecord
100
AcDbLayerTableRecord
  2
0
 70
     0
 62
     7
  6
Continuous
370
    -3
390
F
  0
LAYER
  5
73
330
2
100
AcDbSymbolTableRecord
100
AcDbLayerTableRecord
  2
FORMAT
 70
     0
 62
     7
  6
Continuous
370
    -3
390
F
  0
LAYER
  5
74
330
2
100
AcDbSymbolTableRecord
100
AcDbLayerTableRecord
  2
OSA
 70
     0
 62
     7
  6
CENTER
370
    -3
390
F
  0
LAYER
  5
75
330
2
100
AcDbSymbolTableRecord
100
AcDbLayerTableRecord
  2
0_35
 70
     0
 62
     7
  6
Continuous
370
    35
390
F
  0
LAYER
  5
76
330
2
100
AcDbSymbolTableRecord
100
AcDbLayerTableRecord
  2
0_5
 70
     0
 62
     7
  6
Continuous
370
    50
390
F
  0
LAYER
  5
77
330
2
100
AcDbSymbolTableRecord
100
AcDbLayerTableRecord
  2
0_25
 70
     0
 62
     7
  6
Continuous
370
    25
390
F
  0
LAYER
  5
78
330
2
100
AcDbSymbolTableRecord
100
AcDbLayerTableRecord
  2
0_18
 70
     0
 62
     7
  6
Continuous
370
    -3
390
F
  0
LAYER
  5
79
330
2
100
AcDbSymbolTableRecord
100
AcDbLayerTableRecord
  2
SLD-0
 70
     0
 62
   179
  6
Continuous
370
    -3
390
F
  0
LAYER
  5
7A
330
2
100
AcDbSymbolTableRecord
100
AcDbLayerTableRecord
  2
KOTY
 70
     0
 62
     7
  6
Continuous
370
    -3
390
F
  0
LAYER
  5
7B
330
2
100
AcDbSymbolTableRecord
100
AcDbLayerTableRecord
  2
SILNA
 70
     0
 62
   179
  6
Continuous
370
    -3
390
F
  0
LAYER
  5
7C
330
2
100
AcDbSymbolTableRecord
100
AcDbLayerTableRecord
  2
0_18_1
 70
     0
 62
   179
  6
Continuous
370
    -3
390
F
  0
LAYER
  5
7D
330
2
100
AcDbSymbolTableRecord
100
AcDbLayerTableRecord
  2
0_35_1
 70
     0
 62
   179
  6
Continuous
370
    35
390
F
  0
LAYER
  5
7E
330
2
100
AcDbSymbolTableRecord
100
AcDbLayerTableRecord
  2
0_5_1
 70
     0
 62
   179
  6
Continuous
370
    50
390
F
  0
ENDTAB
  0
TABLE
  2
STYLE
  5
3
330
0
100
AcDbSymbolTable
 70
     1
  0
STYLE
  5
11
330
3
100
AcDbSymbolTableRecord
100
AcDbTextStyleTableRecord
  2
Standard
 70
     0
 40
0.0
 41
1.0
 50
0.0
 71
     0
 42
2.0
  3
txt
  4

  0
ENDTAB
  0
TABLE
  2
VIEW
  5
6
330
0
100
AcDbSymbolTable
 70
     0
  0
ENDTAB
  0
TABLE
  2
UCS
  5
7
330
0
100
AcDbSymbolTable
 70
     0
  0
ENDTAB
  0
TABLE
  2
APPID
  5
9
330
0
100
AcDbSymbolTable
 70
     1
  0
APPID
  5
12
330
9
100
AcDbSymbolTableRecord
100
AcDbRegAppTableRecord
  2
ACAD
 70
     0
  0
ENDTAB
  0
TABLE
  2
DIMSTYLE
  5
A
330
0
100
AcDbSymbolTable
 70
     1
100
AcDbDimStyleTable
  0
DIMSTYLE
105
27
330
A
100
AcDbSymbolTableRecord
100
AcDbDimStyleTableRecord
  2
ISO-25
 70
     0
 41
2.5
 42
0.625
 43
3.75
 44
1.25
 73
     0
 74
     0
 77
     1
 78
     8
140
2.5
141
2.5
143
0.0393700787
147
0.625
171
     3
172
     1
178
     0
271
     2
272
     2
274
     3
278
    44
283
     0
284
     8
340
11
  0
ENDTAB
  0
TABLE
  2
BLOCK_RECORD
  5
1
330
0
100
AcDbSymbolTable
 70
     1
  0
BLOCK_RECORD
  5
1F
330
1
100
AcDbSymbolTableRecord
100
AcDbBlockTableRecord
  2
*Model_Space
340
22
  0
BLOCK_RECORD
  5
1B
330
1
100
AcDbSymbolTableRecord
100
AcDbBlockTableRecord
  2
*Paper_Space
340
1E
  0
BLOCK_RECORD
  5
23
330
1
100
AcDbSymbolTableRecord
100
AcDbBlockTableRecord
  2
*Paper_Space0
340
26
  0
ENDTAB
  0
ENDSEC
  0
SECTION
  2
BLOCKS
  0
BLOCK
  5
20
330
1F
100
AcDbEntity
  8
0
100
AcDbBlockBegin
  2
*Model_Space
 70
     0
 10
0.0
 20
0.0
 30
0.0
  3
*Model_Space
  1

  0
ENDBLK
  5
21
330
1F
100
AcDbEntity
  8
0
100
AcDbBlockEnd
  0
BLOCK
  5
1C
330
1B
100
AcDbEntity
 67
     1
  8
0
100
AcDbBlockBegin
  2
*Paper_Space
 70
     0
 10
0.0
 20
0.0
 30
0.0
  3
*Paper_Space
  1

  0
ENDBLK
  5
1D
330
1B
100
AcDbEntity
 67
     1
  8
0
100
AcDbBlockEnd
  0
BLOCK
  5
24
330
23
100
AcDbEntity
  8
0
100
AcDbBlockBegin
  2
*Paper_Space0
 70
     0
 10
0.0
 20
0.0
 30
0.0
  3
*Paper_Space0
  1

  0
ENDBLK
  5
25
330
23
100
AcDbEntity
  8
0
100
AcDbBlockEnd
  0
ENDSEC
  0
SECTION
  2
ENTITIES
  0
ARC
  5
7F
330
1F
100
AcDbEntity
  8
0
  6
Continuous
 62
     7
370
    25
100
AcDbCircle
 10
8294.9446389855
 20
6180.7140982764
 30
0.0
 40
5.417880890077794
100
AcDbArc
 50
221.3223029701
 51
265.9034679385
  0
ARC
  5
80
330
1F
100
AcDbEntity
  8
0
  6
Continuous
 62
     7
370
    25
100
AcDbCircle
 10
8294.9446389855
 20
6180.7140982764
 30
0.0
 40
5.417880890076818
100
AcDbArc
 50
114.5044795049
 51
159.0856444733
  0
ARC
  5
81
330
1F
100
AcDbEntity
  8
0
  6
Continuous
 62
     7
370
    25
100
AcDbCircle
 10
8350.7692307692
 20
6417.805011655
 30
0.0
 40
5.417880890077616
100
AcDbArc
 50
121.1183292484
 51
165.6994942168
  0
ARC
  5
82
330
1F
100
AcDbEntity
  8
0
  6
Continuous
 62
     7
370
    25
100
AcDbCircle
 10
8350.7692307692
 20
6417.805011655
 30
0.0
 40
5.417880890078909
100
AcDbArc
 50
14.3005057832
 51
58.8816707516
  0
ARC
  5
83
330
1F
100
AcDbEntity
  8
0
  6
Continuous
 62
     7
370
    25
100
AcDbCircle
 10
8262.1713342971
 20
6362.7880132115
 30
0.0
 40
5.417880890078477
100
AcDbArc
 50
221.3223029701
 51
265.9034679385
  0
ARC
  5
84
330
1F
100
AcDbEntity
  8
0
  6
Continuous
 62
     7
370
    25
100
AcDbCircle
 10
8262.1713342971
 20
6362.7880132115
 30
0.0
 40
5.417880890078518
100
AcDbArc
 50
114.5044795049
 51
159.0856444733
  0
ARC
  5
85
330
1F
100
AcDbEntity
  8
0
  6
Continuous
 62
     7
370
    25
100
AcDbCircle
 10
8510.7692307692
 20
6417.805011655
 30
0.0
 40
5.417880890077841
100
AcDbArc
 50
121.1183292484
 51
165.6994942168
  0
ARC
  5
86
330
1F
100
AcDbEntity
  8
0
  6
Continuous
 62
     7
370
    25
100
AcDbCircle
 10
8510.7692307692
 20
6417.805011655
 30
0.0
 40
5.417880890077969
100
AcDbArc
 50
14.3005057832
 51
58.8816707516
  0
LINE
  5
87
330
1F
100
AcDbEntity
  8
0
  6
Continuous
 62
     7
370
    25
100
AcDbLine
 10
8294.4206424379
 20
6176.070942814
 30
0.0
 11
8294.5576014374
 21
6175.3100594834
 31
0.0
  0
LINE
  5
88
330
1F
100
AcDbEntity
  8
0
  6
Continuous
 62
     7
370
    25
100
AcDbLine
 10
8290.6277574248
 20
6178.5145603863
 30
0.0
 11
8290.8757716224
 21
6177.1367037327
 31
0.0
  0
LINE
  5
89
330
1F
100
AcDbEntity
  8
0
  6
Continuous
 62
     7
370
    25
100
AcDbLine
 10
8290.1317290295
 20
6181.2702736934
 30
0.0
 11
8290.6277574248
 21
6178.5145603863
 31
0.0
  0
LINE
  5
8A
330
1F
100
AcDbEntity
  8
0
  6
Continuous
 62
     7
370
    25
100
AcDbLine
 10
8289.8837148318
 20
6182.648130347
 30
0.0
 11
8290.1317290295
 21
6181.2702736934
 31
0.0
  0
LINE
  5
8B
330
1F
100
AcDbEntity
  8
0
  6
Continuous
 62
     7
370
    25
100
AcDbLine
 10
8350.0460877814
 20
6422.4432692308
 30
0.0
 11
8348.0650542799
 21
6422.4432692308
 31
0.0
  0
LINE
  5
8C
330
1F
100
AcDbEntity
  8
0
  6
Continuous
 62
     7
370
    25
100
AcDbLine
 10
8352.7502642707
 20
6422.4432692308
 30
0.0
 11
8350.0460877814
 21
6422.4432692308
 31
0.0
  0
LINE
  5
8D
330
1F
100
AcDbEntity
  8
0
  6
Continuous
 62
     7
370
    25
100
AcDbLine
 10
8353.5692307692
 20
6422.4432692308
 30
0.0
 11
8352.7502642707
 21
6422.4432692308
 31
0.0
  0
LINE
  5
8E
330
1F
100
AcDbEntity
  8
0
  6
Continuous
 62
     7
370
    25
100
AcDbLine
 10
8348.0650542799
 20
6422.4432692308
 30
0.0
 11
8347.9692307692
 21
6422.4432692308
 31
0.0
  0
LINE
  5
8F
330
1F
100
AcDbEntity
  8
0
  6
Continuous
 62
     7
370
    25
100
AcDbLine
 10
8257.8544527364
 20
6360.5884753214
 30
0.0
 11
8258.1024669341
 21
6359.2106186679
 31
0.0
  0
LINE
  5
90
330
1F
100
AcDbEntity
  8
0
  6
Continuous
 62
     7
370
    25
100
AcDbLine
 10
8257.3584243411
 20
6363.3441886285
 30
0.0
 11
8257.8544527364
 21
6360.5884753214
 31
0.0
  0
LINE
  5
91
330
1F
100
AcDbEntity
  8
0
  6
Continuous
 62
     7
370
    25
100
AcDbLine
 10
8257.1104101435
 20
6364.7220452821
 30
0.0
 11
8257.3584243411
 21
6363.3441886285
 31
0.0
  0
LINE
  5
92
330
1F
100
AcDbEntity
  8
0
  6
Continuous
 62
     7
370
    25
100
AcDbLine
 10
8508.5500494343
 20
6422.4432692308
 30
0.0
 11
8507.9692307692
 21
6422.4432692308
 31
0.0
  0
LINE
  5
93
330
1F
100
AcDbEntity
  8
0
  6
Continuous
 62
     7
370
    25
100
AcDbLine
 10
8511.138296807
 20
6422.4432692308
 30
0.0
 11
8508.5500494343
 21
6422.4432692308
 31
0.0
  0
LINE
  5
94
330
1F
100
AcDbEntity
  8
0
  6
Continuous
 62
     7
370
    25
100
AcDbLine
 10
8513.3574781419
 20
6422.4432692308
 30
0.0
 11
8511.138296807
 21
6422.4432692308
 31
0.0
  0
LINE
  5
95
330
1F
100
AcDbEntity
  8
0
  6
Continuous
 62
     7
370
    25
100
AcDbLine
 10
8513.5692307692
 20
6422.4432692308
 30
0.0
 11
8513.3574781419
 21
6422.4432692308
 31
0.0
  0
LINE
  5
96
330
1F
100
AcDbEntity
  8
0
  6
Continuous
 62
     7
370
    25
100
AcDbLine
 10
8294.4206424379
 20
6176.070942814
 30
0.0
 11
8259.8758077664
 21
6367.9866909888
 31
0.0
  0
LINE
  5
97
330
1F
100
AcDbEntity
  8
0
  6
Continuous
 62
     7
370
    25
100
AcDbLine
 10
8294.4206424379
 20
6176.070942814
 30
0.0
 11
8294.5190607703
 21
6176.0886581138
 31
0.0
  0
LINE
  5
98
330
1F
100
AcDbEntity
  8
0
  6
Continuous
 62
     7
370
    25
100
AcDbLine
 10
8259.8758077664
 20
6367.9866909888
 30
0.0
 11
8259.9742260988
 21
6368.0044062887
 31
0.0
  0
LINE
  5
99
330
1F
100
AcDbEntity
  8
0
  6
Continuous
 62
     7
370
    25
100
AcDbLine
 10
8262.7299394059
 20
6419.1432692308
 30
0.0
 11
8598.8085221325
 21
6419.1432692308
 31
0.0
  0
ARC
  5
9A
330
1F
100
AcDbEntity
  8
0
  6
Continuous
 62
     7
370
    25
100
AcDbCircle
 10
8598.8085221325
 20
6409.1432692308
 30
0.0
 40
10.0
100
AcDbArc
 50
349.7960262783
 51
90.0
  0
LINE
  5
9B
330
1F
100
AcDbEntity
  8
0
  6
Continuous
 62
     7
370
    25
100
AcDbLine
 10
8608.6503553723
 20
6407.3717392476
 30
0.0
 11
8252.8881061662
 21
6407.3717392476
 31
0.0
  0
ARC
  5
9C
330
1F
100
AcDbEntity
  8
0
  6
Continuous
 62
     7
370
    25
100
AcDbCircle
 10
8262.7299394059
 20
6409.1432692308
 30
0.0
 40
10.00000000000076
100
AcDbArc
 50
90.0
 51
190.2039737217
  0
LINE
  5
9D
330
1F
100
AcDbEntity
  8
0
  6
Continuous
 62
     7
370
    25
100
AcDbLine
 10
8608.6503553723
 20
6407.3717392476
 30
0.0
 11
8521.0654556898
 21
5920.7889632341
 31
0.0
  0
LINE
  5
9E
330
1F
100
AcDbEntity
  8
0
  6
Continuous
 62
     7
370
    25
100
AcDbLine
 10
8340.4730058486
 20
5920.7889632341
 30
0.0
 11
8521.0654556898
 21
5920.7889632341
 31
0.0
  0
LINE
  5
9F
330
1F
100
AcDbEntity
  8
0
  6
Continuous
 62
     7
370
    25
100
AcDbLine
 10
8340.4730058486
 20
5920.7889632341
 30
0.0
 11
8252.8881061662
 21
6407.3717392476
 31
0.0
  0
ARC
  5
A0
330
1F
100
AcDbEntity
  8
0
  6
Continuous
 62
     7
370
    25
100
AcDbCircle
 10
8519.0970890419
 20
5921.1432692308
 30
0.0
 40
2.000000000001387
100
AcDbArc
 50
270.0
 51
349.7960262783
  0
LINE
  5
A1
330
1F
100
AcDbEntity
  8
0
  6
Continuous
 62
     7
370
    25
100
AcDbLine
 10
8519.0970890419
 20
5919.1432692308
 30
0.0
 11
8342.4413724966
 21
5919.1432692308
 31
0.0
  0
ARC
  5
A2
330
1F
100
AcDbEntity
  8
0
  6
Continuous
 62
     7
370
    25
100
AcDbCircle
 10
8342.4413724966
 20
5921.1432692308
 30
0.0
 40
1.999999999999436
100
AcDbArc
 50
190.2039737217
 51
270.0
  0
LINE
  5
A3
330
1F
100
AcDbEntity
  8
0
  6
Continuous
 62
     7
370
    25
100
AcDbLine
 10
8917.4043121119
 20
6200.8949907561
 30
0.0
 11
8917.5210373614
 21
6200.8949907561
 31
0.0
  0
LINE
  5
A4
330
1F
100
AcDbEntity
  8
0
  6
Continuous
 62
     7
370
    25
100
AcDbLine
 10
8917.5210373614
 20
6281.2944633724
 30
0.0
 11
8917.4043121119
 21
6281.2944633724
 31
0.0
  0
LINE
  5
A5
330
1F
100
AcDbEntity
  8
0
  6
Continuous
 62
     7
370
    25
100
AcDbLine
 10
9133.7263499358
 20
6179.8924170399
 30
0.0
 11
9133.7263499358
 21
6180.087285338
 31
0.0
  0
LINE
  5
A6
330
1F
100
AcDbEntity
  8
0
  6
Continuous
 62
     7
370
    25
100
AcDbLine
 10
9137.7184931412
 20
6180.087285338
 30
0.0
 11
9137.7184931412
 21
6179.8924170399
 31
0.0
  0
ARC
  5
A7
330
1F
100
AcDbEntity
  8
0
  6
Continuous
 62
     7
370
    25
100
AcDbCircle
 10
9137.5210373614
 20
6417.805011655
 30
0.0
 40
5.417880890078909
100
AcDbArc
 50
121.1183292484
 51
165.6994942168
  0
ARC
  5
A8
330
1F
100
AcDbEntity
  8
0
  6
Continuous
 62
     7
370
    25
100
AcDbCircle
 10
9137.5210373614
 20
6417.805011655
 30
0.0
 40
5.417880890077969
100
AcDbArc
 50
14.3005057832
 51
58.8816707516
  0
LINE
  5
A9
330
1F
100
AcDbEntity
  8
0
  6
Continuous
 62
     7
370
    25
100
AcDbLine
 10
9133.7263499358
 20
6361.966331975
 30
0.0
 11
9133.7263499358
 21
6362.1612002731
 31
0.0
  0
LINE
  5
AA
330
1F
100
AcDbEntity
  8
0
  6
Continuous
 62
     7
370
    25
100
AcDbLine
 10
9137.7184931412
 20
6362.1612002731
 30
0.0
 11
9137.7184931412
 21
6361.966331975
 31
0.0
  0
LINE
  5
AB
330
1F
100
AcDbEntity
  8
0
  6
Continuous
 62
     7
370
    25
100
AcDbLine
 10
8973.7263499358
 20
6179.8924170399
 30
0.0
 11
8973.7263499358
 21
6180.087285338
 31
0.0
  0
LINE
  5
AC
330
1F
100
AcDbEntity
  8
0
  6
Continuous
 62
     7
370
    25
100
AcDbLine
 10
8977.7184931412
 20
6180.087285338
 30
0.0
 11
8977.7184931412
 21
6179.8924170399
 31
0.0
  0
LINE
  5
AD
330
1F
100
AcDbEntity
  8
0
  6
Continuous
 62
     7
370
    25
100
AcDbLine
 10
8973.7263499358
 20
6361.966331975
 30
0.0
 11
8973.7263499358
 21
6362.1612002731
 31
0.0
  0
LINE
  5
AE
330
1F
100
AcDbEntity
  8
0
  6
Continuous
 62
     7
370
    25
100
AcDbLine
 10
8977.7184931412
 20
6362.1612002731
 30
0.0
 11
8977.7184931412
 21
6361.966331975
 31
0.0
  0
ARC
  5
AF
330
1F
100
AcDbEntity
  8
0
  6
Continuous
 62
     7
370
    25
100
AcDbCircle
 10
9560.5603287247
 20
6409.1432692308
 30
0.0
 40
10.0
100
AcDbArc
 50
349.7960262783
 51
90.0
  0
LINE
  5
B0
330
1F
100
AcDbEntity
  8
0
  6
Continuous
 62
     7
370
    25
100
AcDbLine
 10
9482.817262282
 20
5920.7889632341
 30
0.0
 11
9570.4021619644
 21
6407.3717392476
 31
0.0
  0
ARC
  5
B1
330
1F
100
AcDbEntity
  8
0
  6
Continuous
 62
     7
370
    25
100
AcDbCircle
 10
9480.8488956341
 20
5921.1432692308
 30
0.0
 40
2.0
100
AcDbArc
 50
270.0
 51
349.7960262783
  0
ARC
  5
B2
330
1F
100
AcDbEntity
  8
0
  6
Continuous
 62
     7
370
    25
100
AcDbCircle
 10
8975.0261409723
 20
6362.633147066
 30
0.0
 40
1.961441089851834
100
AcDbArc
 50
46.7614200616
 51
79.8202234952
  0
LWPOLYLINE
  5
B3
330
1F
100
AcDbEntity
  8
0
  6
Continuous
 62
     7
370
    25
100
AcDbPolyline
 90
        3
 70
   128
 43
0.0
 10
8976.6206004926
 20
6363.7736990661
 10
8976.6314882372
 20
6363.7581686977
 10
8976.7612269879
 20
6363.5420296576
  0
ARC
  5
B4
330
1F
100
AcDbEntity
  8
0
  6
Continuous
 62
     7
370
    25
100
AcDbCircle
 10
8975.01536114
 20
6362.7156963212
 30
0.0
 40
1.958544911284332
100
AcDbArc
 50
221.5224064426
 51
267.0031456861
  0
ARC
  5
B5
330
1F
100
AcDbEntity
  8
0
  6
Continuous
 62
     7
370
    25
100
AcDbCircle
 10
8975.0249961239
 20
6362.7161388023
 30
0.0
 40
1.959514024770945
100
AcDbArc
 50
266.7224813554
 51
326.1912748166
  0
ARC
  5
B6
330
1F
100
AcDbEntity
  8
0
  6
Continuous
 62
     7
370
    25
100
AcDbCircle
 10
8975.0771699526
 20
6362.6758564118
 30
0.0
 40
1.893753994094178
100
AcDbArc
 50
326.3256063355
 51
27.2184461615
  0
ARC
  5
B7
330
1F
100
AcDbEntity
  8
0
  6
Continuous
 62
     7
370
    25
100
AcDbCircle
 10
8976.1964991589
 20
6364.4593617188
 30
0.0
 40
0.7612239122362175
100
AcDbArc
 50
190.9930438456
 51
283.4869883558
  0
ARC
  5
B8
330
1F
100
AcDbEntity
  8
0
  6
Continuous
 62
     7
370
    25
100
AcDbCircle
 10
8975.1162244878
 20
6364.2518801337
 30
0.0
 40
0.3388006775028766
100
AcDbArc
 50
10.6001883189
 51
50.9437584202
  0
ARC
  5
B9
330
1F
100
AcDbEntity
  8
0
  6
Continuous
 62
     7
370
    25
100
AcDbCircle
 10
8976.4538770401
 20
6363.3818813253
 30
0.0
 40
0.3465710298695592
100
AcDbArc
 50
27.5223008376
 51
103.3192331557
  0
LWPOLYLINE
  5
BA
330
1F
100
AcDbEntity
  8
0
  6
Continuous
 62
     7
370
    25
100
AcDbPolyline
 90
        3
 70
   128
 43
0.0
 10
8973.3788270639
 20
6363.3709860677
 10
8973.3908580731
 20
6363.3519392717
 10
8973.4266763947
 20
6363.3076892484
  0
ARC
  5
BB
330
1F
100
AcDbEntity
  8
0
  6
Continuous
 62
     7
370
    25
100
AcDbCircle
 10
8976.4623747709
 20
6363.3887814954
 30
0.0
 40
0.3358536092739888
100
AcDbArc
 50
309.6393655612
 51
27.1482570434
  0
ARC
  5
BC
330
1F
100
AcDbEntity
  8
0
  6
Continuous
 62
     7
370
    25
100
AcDbCircle
 10
8972.892051701
 20
6362.793233119
 30
0.0
 40
0.7419492382427271
100
AcDbArc
 50
309.6454273875
 51
43.8986251097
  0
ARC
  5
BD
330
1F
100
AcDbEntity
  8
0
  6
Continuous
 62
     7
370
    25
100
AcDbCircle
 10
8973.5808206349
 20
6361.9626368501
 30
0.0
 40
0.3370749378954306
100
AcDbArc
 50
129.7147934541
 51
179.9072254107
  0
ARC
  5
BE
330
1F
100
AcDbEntity
  8
0
  6
Continuous
 62
     7
370
    25
100
AcDbCircle
 10
8977.1500230218
 20
6362.5588424263
 30
0.0
 40
0.7419492382434983
100
AcDbArc
 50
129.6454273877
 51
223.8986251096
  0
ARC
  5
BF
330
1F
100
AcDbEntity
  8
0
  6
Continuous
 62
     7
370
    25
100
AcDbCircle
 10
8976.3738846098
 20
6361.8116147873
 30
0.0
 40
0.3354272675646759
100
AcDbArc
 50
326.3650507496
 51
43.9440216148
  0
CIRCLE
  5
C0
330
1F
100
AcDbEntity
  8
0
  6
Continuous
 62
     7
370
    25
100
AcDbCircle
 10
8975.014930082
 20
6362.6789262577
 30
0.0
 40
0.5440850316115238
  0
ARC
  5
C1
330
1F
100
AcDbEntity
  8
0
  6
Continuous
 62
     7
370
    25
100
AcDbCircle
 10
8973.8455755639
 20
6360.8927138265
 30
0.0
 40
0.7612239122328618
100
AcDbArc
 50
10.9930438455
 51
103.4869883561
  0
ARC
  5
C2
330
1F
100
AcDbEntity
  8
0
  6
Continuous
 62
     7
370
    25
100
AcDbCircle
 10
8974.9296941875
 20
6361.1024116055
 30
0.0
 40
0.3429898664156363
100
AcDbArc
 50
190.845960365
 51
267.2045139598
  0
ARC
  5
C3
330
1F
100
AcDbEntity
  8
0
  6
Continuous
 62
     7
370
    25
100
AcDbCircle
 10
8976.3645720977
 20
6361.8196295691
 30
0.0
 40
0.3476233957927437
100
AcDbArc
 50
250.4815622101
 51
326.1153818698
  0
ARC
  5
C4
330
1F
100
AcDbEntity
  8
0
  6
Continuous
 62
     7
370
    25
100
AcDbCircle
 10
8974.9335014936
 20
6361.1036858726
 30
0.0
 40
0.3444686141471068
100
AcDbArc
 50
266.5823196588
 51
342.7077280059
  0
ARC
  5
C5
330
1F
100
AcDbEntity
  8
0
  6
Continuous
 62
     7
370
    25
100
AcDbCircle
 10
8975.9912827472
 20
6360.7726658148
 30
0.0
 40
0.7638980524049729
100
AcDbArc
 50
70.3288033494
 51
162.5849528225
  0
ARC
  5
C6
330
1F
100
AcDbEntity
  8
0
  6
Continuous
 62
     7
370
    25
100
AcDbCircle
 10
9135.0569413138
 20
6180.6079857746
 30
0.0
 40
1.914104453585113
100
AcDbArc
 50
299.3869311883
 51
359.8301018843
  0
LWPOLYLINE
  5
C7
330
1F
100
AcDbEntity
  8
0
  6
Continuous
 62
     7
370
    25
100
AcDbPolyline
 90
        3
 70
   128
 43
0.0
 10
9135.995872731
 20
6182.2642555061
 10
9136.207971331
 20
6182.1248067202
 10
9136.3877598594
 20
6181.9710116781
  0
ARC
  5
C8
330
1F
100
AcDbEntity
  8
0
  6
Continuous
 62
     7
370
    25
100
AcDbCircle
 10
9135.0725383736
 20
6180.6007765288
 30
0.0
 40
1.898499597822517
100
AcDbArc
 50
0.0462771261
 51
35.2622285
  0
ARC
  5
C9
330
1F
100
AcDbEntity
  8
0
  6
Continuous
 62
     7
370
    25
100
AcDbCircle
 10
9135.0225201821
 20
6180.5488291762
 30
0.0
 40
1.972334322063771
100
AcDbArc
 50
60.428927069
 51
82.9324214813
  0
ARC
  5
CA
330
1F
100
AcDbEntity
  8
0
  6
Continuous
 62
     7
370
    25
100
AcDbCircle
 10
9135.0049267146
 20
6180.6295792075
 30
0.0
 40
1.942643614558131
100
AcDbArc
 50
221.3431610414
 51
240.4280921212
  0
ARC
  5
CB
330
1F
100
AcDbEntity
  8
0
  6
Continuous
 62
     7
370
    25
100
AcDbCircle
 10
9135.0210370295
 20
6180.6594319698
 30
0.0
 40
1.976558488218485
100
AcDbArc
 50
240.448994063
 51
299.5620000761
  0
ARC
  5
CC
330
1F
100
AcDbEntity
  8
0
  6
Continuous
 62
     7
370
    25
100
AcDbCircle
 10
9135.8235961018
 20
6181.9610367442
 30
0.0
 40
0.348741816465105
100
AcDbArc
 50
60.3965146482
 51
135.8579279161
  0
ARC
  5
CD
330
1F
100
AcDbEntity
  8
0
  6
Continuous
 62
     7
370
    25
100
AcDbCircle
 10
9135.0224379029
 20
6182.7369523213
 30
0.0
 40
0.7665608528120327
100
AcDbArc
 50
276.2993384146
 51
315.9438703466
  0
ARC
  5
CE
330
1F
100
AcDbEntity
  8
0
  6
Continuous
 62
     7
370
    25
100
AcDbCircle
 10
9135.8309459525
 20
6181.970157262
 30
0.0
 40
0.3371863274747475
100
AcDbArc
 50
343.4259847208
 51
60.716812886
  0
ARC
  5
CF
330
1F
100
AcDbEntity
  8
0
  6
Continuous
 62
     7
370
    25
100
AcDbCircle
 10
9136.6305024169
 20
6180.6003683017
 30
0.0
 40
0.3405404704738395
100
AcDbArc
 50
0.3266789006
 51
77.0753090873
  0
ARC
  5
D0
330
1F
100
AcDbEntity
  8
0
  6
Continuous
 62
     7
370
    25
100
AcDbCircle
 10
9136.8723630738
 20
6181.6624557602
 30
0.0
 40
0.7487381258297666
100
AcDbArc
 50
163.5905843577
 51
257.2149008701
  0
ARC
  5
D1
330
1F
100
AcDbEntity
  8
0
  6
Continuous
 62
     7
370
    25
100
AcDbCircle
 10
9133.1651570079
 20
6181.6676407943
 30
0.0
 40
0.75511009978821
100
AcDbArc
 50
283.0247939005
 51
346.0077384954
  0
CIRCLE
  5
D2
330
1F
100
AcDbEntity
  8
0
  6
Continuous
 62
     7
370
    25
100
AcDbCircle
 10
9135.0177059949
 20
6180.5958034976
 30
0.0
 40
0.5472875321583164
  0
ARC
  5
D3
330
1F
100
AcDbEntity
  8
0
  6
Continuous
 62
     7
370
    25
100
AcDbCircle
 10
9136.6305046285
 20
6180.6041836656
 30
0.0
 40
0.3405378786296939
100
AcDbArc
 50
282.9356943555
 51
359.684739905
  0
ARC
  5
D4
330
1F
100
AcDbEntity
  8
0
  6
Continuous
 62
     7
370
    25
100
AcDbCircle
 10
9133.1773437753
 20
6179.5429323717
 30
0.0
 40
0.7417467464280464
100
AcDbArc
 50
343.339385501
 51
42.255540258
  0
ARC
  5
D5
330
1F
100
AcDbEntity
  8
0
  6
Continuous
 62
     7
370
    25
100
AcDbCircle
 10
9134.2111287703
 20
6179.2340884131
 30
0.0
 40
0.3371863274746511
100
AcDbArc
 50
163.4259847209
 51
240.7168128863
  0
ARC
  5
D6
330
1F
100
AcDbEntity
  8
0
  6
Continuous
 62
     7
370
    25
100
AcDbCircle
 10
9136.8725681733
 20
6179.5421498613
 30
0.0
 40
0.7487334712360025
100
AcDbArc
 50
102.7961444412
 51
196.4208886314
  0
ARC
  5
D7
330
1F
100
AcDbEntity
  8
0
  6
Continuous
 62
     7
370
    25
100
AcDbCircle
 10
9135.8312188606
 20
6179.2342418037
 30
0.0
 40
0.3371845026482612
100
AcDbArc
 50
299.2943384156
 51
16.585464133
  0
ARC
  5
D8
330
1F
100
AcDbEntity
  8
0
  6
Continuous
 62
     7
370
    25
100
AcDbCircle
 10
9135.0212474196
 20
6178.4645888701
 30
0.0
 40
0.7695993625960782
100
AcDbArc
 50
44.1284436146
 51
135.8825505244
  0
ARC
  5
D9
330
1F
100
AcDbEntity
  8
0
  6
Continuous
 62
     7
370
    25
100
AcDbCircle
 10
9135.8238670691
 20
6179.2433637777
 30
0.0
 40
0.3487425834081377
100
AcDbArc
 50
224.1531322792
 51
299.6144276536
  0
ARC
  5
DA
330
1F
100
AcDbEntity
  8
0
  6
Continuous
 62
     7
370
    25
100
AcDbCircle
 10
9134.218478621
 20
6179.2432089309
 30
0.0
 40
0.348741816472111
100
AcDbArc
 50
240.3965146492
 51
315.8579279154
  0
ARC
  5
DB
330
1F
100
AcDbEntity
  8
0
  6
Continuous
 62
     7
370
    25
100
AcDbCircle
 10
9135.0738358681
 20
6362.6756555211
 30
0.0
 40
1.897030618590642
100
AcDbArc
 50
350.5887153573
 51
38.6772852795
  0
ARC
  5
DC
330
1F
100
AcDbEntity
  8
0
  6
Continuous
 62
     7
370
    25
100
AcDbCircle
 10
9135.0243922479
 20
6362.6289606159
 30
0.0
 40
1.965911533233014
100
AcDbArc
 50
51.1909378095
 51
82.0127793841
  0
LWPOLYLINE
  5
DD
330
1F
100
AcDbEntity
  8
0
  6
Continuous
 62
     7
370
    25
100
AcDbPolyline
 90
        3
 70
   128
 43
0.0
 10
9133.7855925038
 20
6361.1912002878
 10
9133.599237026
 20
6361.3626106271
 10
9133.5416789788
 20
6361.4256992752
  0
ARC
  5
DE
330
1F
100
AcDbEntity
  8
0
  6
Continuous
 62
     7
370
    25
100
AcDbCircle
 10
9135.0213348106
 20
6362.7310208969
 30
0.0
 40
1.974362316528788
100
AcDbArc
 50
231.2521362128
 51
290.4106891115
  0
ARC
  5
DF
330
1F
100
AcDbEntity
  8
0
  6
Continuous
 62
     7
370
    25
100
AcDbCircle
 10
9135.0461020043
 20
6362.6893003021
 30
0.0
 40
1.926643059300501
100
AcDbArc
 50
290.1530829017
 51
350.3232649716
  0
ARC
  5
E0
330
1F
100
AcDbEntity
  8
0
  6
Continuous
 62
     7
370
    25
100
AcDbCircle
 10
9136.0379958414
 20
6363.8886978454
 30
0.0
 40
0.3490226914101081
100
AcDbArc
 50
51.2447623371
 51
126.6630301785
  0
ARC
  5
E1
330
1F
100
AcDbEntity
  8
0
  6
Continuous
 62
     7
370
    25
100
AcDbCircle
 10
9135.3691545264
 20
6364.7875987974
 30
0.0
 40
0.7714109963468865
100
AcDbArc
 50
250.1204752796
 51
306.6465277536
  0
ARC
  5
E2
330
1F
100
AcDbEntity
  8
0
  6
Continuous
 62
     7
370
    25
100
AcDbCircle
 10
9133.3586326637
 20
6364.0328041607
 30
0.0
 40
0.7644910241070296
100
AcDbArc
 50
273.9919976965
 51
321.4498009881
  0
ARC
  5
E3
330
1F
100
AcDbEntity
  8
0
  6
Continuous
 62
     7
370
    25
100
AcDbCircle
 10
9133.4366254485
 20
6362.9228063644
 30
0.0
 40
0.3482437133905695
100
AcDbArc
 50
94.0789799648
 51
122.4816770973
  0
ARC
  5
E4
330
1F
100
AcDbEntity
  8
0
  6
Continuous
 62
     7
370
    25
100
AcDbCircle
 10
9137.0184000574
 20
6363.4240336062
 30
0.0
 40
0.7452894164203631
100
AcDbArc
 50
154.0190681881
 51
247.9615716384
  0
ARC
  5
E5
330
1F
100
AcDbEntity
  8
0
  6
Continuous
 62
     7
370
    25
100
AcDbCircle
 10
9136.6111959327
 20
6362.419648095
 30
0.0
 40
0.3385030852759601
100
AcDbArc
 50
350.7870959674
 51
67.8639488608
  0
CIRCLE
  5
E6
330
1F
100
AcDbEntity
  8
0
  6
Continuous
 62
     7
370
    25
100
AcDbCircle
 10
9135.015447667
 20
6362.672126633
 30
0.0
 40
0.5448995630607344
  0
ARC
  5
E7
330
1F
100
AcDbEntity
  8
0
  6
Continuous
 62
     7
370
    25
100
AcDbCircle
 10
9133.0307668463
 20
6361.9279105547
 30
0.0
 40
0.7388624616640698
100
AcDbArc
 50
333.7872996782
 51
19.7363907901
  0
ARC
  5
E8
330
1F
100
AcDbEntity
  8
0
  6
Continuous
 62
     7
370
    25
100
AcDbCircle
 10
9133.9952941514
 20
6361.4536651156
 30
0.0
 40
0.3359502445658501
100
AcDbArc
 50
153.8831490097
 51
231.3761778293
  0
ARC
  5
E9
330
1F
100
AcDbEntity
  8
0
  6
Continuous
 62
     7
370
    25
100
AcDbCircle
 10
9136.6076046543
 20
6362.4239103243
 30
0.0
 40
0.3427496817200389
100
AcDbArc
 50
273.7833074553
 51
350.1798956721
  0
ARC
  5
EA
330
1F
100
AcDbEntity
  8
0
  6
Continuous
 62
     7
370
    25
100
AcDbCircle
 10
9136.6777200484
 20
6361.3304902685
 30
0.0
 40
0.7529171288296755
100
AcDbArc
 50
93.6170506347
 51
186.8592972385
  0
ARC
  5
EB
330
1F
100
AcDbEntity
  8
0
  6
Continuous
 62
     7
370
    25
100
AcDbCircle
 10
9135.5938025937
 20
6361.1990570295
 30
0.0
 40
0.3389409850637484
100
AcDbArc
 50
290.0288414571
 51
7.0348574069
  0
ARC
  5
EC
330
1F
100
AcDbEntity
  8
0
  6
Continuous
 62
     7
370
    25
100
AcDbCircle
 10
9134.0040788806
 20
6361.4633776974
 30
0.0
 40
0.3490226914083864
100
AcDbArc
 50
231.2447623368
 51
306.6630301784
  0
ARC
  5
ED
330
1F
100
AcDbEntity
  8
0
  6
Continuous
 62
     7
370
    25
100
AcDbCircle
 10
9134.6724128412
 20
6360.5672745065
 30
0.0
 40
0.7688644693129545
100
AcDbArc
 50
34.9221898773
 51
126.7406354471
  0
ARC
  5
EE
330
1F
100
AcDbEntity
  8
0
  6
Continuous
 62
     7
370
    25
100
AcDbCircle
 10
9135.588079478
 20
6361.2063521474
 30
0.0
 40
0.3477669371109269
100
AcDbArc
 50
214.891443959
 51
290.5030822213
  0
ARC
  5
EF
330
1F
100
AcDbEntity
  8
0
  6
Continuous
 62
     7
370
    25
100
AcDbCircle
 10
8975.0727371292
 20
6180.6020844278
 30
0.0
 40
1.897961499620523
100
AcDbArc
 50
315.9286351776
 51
16.7278256674
  0
ARC
  5
F0
330
1F
100
AcDbEntity
  8
0
  6
Continuous
 62
     7
370
    25
100
AcDbCircle
 10
8975.0636677567
 20
6180.5964194517
 30
0.0
 40
1.908279683459047
100
AcDbArc
 50
16.8123411677
 51
37.6145005439
  0
ARC
  5
F1
330
1F
100
AcDbEntity
  8
0
  6
Continuous
 62
     7
370
    25
100
AcDbCircle
 10
8975.0125539379
 20
6180.6385002508
 30
0.0
 40
1.954256190622911
100
AcDbArc
 50
221.2168218883
 51
256.8219944396
  0
ARC
  5
F2
330
1F
100
AcDbEntity
  8
0
  6
Continuous
 62
     7
370
    25
100
AcDbCircle
 10
8975.0214474394
 20
6180.6523422177
 30
0.0
 40
1.969768853584734
100
AcDbArc
 50
256.6619063777
 51
315.9160060301
  0
ARC
  5
F3
330
1F
100
AcDbEntity
  8
0
  6
Continuous
 62
     7
370
    25
100
AcDbCircle
 10
8972.9496523157
 20
6181.0951530491
 30
0.0
 40
0.7402809655120793
100
AcDbArc
 50
324.7064611476
 51
33.5075503413
  0
ARC
  5
F4
330
1F
100
AcDbEntity
  8
0
  6
Continuous
 62
     7
370
    25
100
AcDbCircle
 10
8976.5672827625
 20
6181.0519465338
 30
0.0
 40
0.3371796002818507
100
AcDbArc
 50
299.3243196558
 51
16.6162447555
  0
CIRCLE
  5
F5
330
1F
100
AcDbEntity
  8
0
  6
Continuous
 62
     7
370
    25
100
AcDbCircle
 10
8975.0159113202
 20
6180.5954417737
 30
0.0
 40
0.54677376113746
  0
ARC
  5
F6
330
1F
100
AcDbEntity
  8
0
  6
Continuous
 62
     7
370
    25
100
AcDbCircle
 10
8977.0958268837
 20
6180.1095093407
 30
0.0
 40
0.743351288710947
100
AcDbArc
 50
119.2669910588
 51
213.3894697865
  0
ARC
  5
F7
330
1F
100
AcDbEntity
  8
0
  6
Continuous
 62
     7
370
    25
100
AcDbCircle
 10
8976.1954298957
 20
6179.5153205222
 30
0.0
 40
0.3354331648878013
100
AcDbArc
 50
315.9146960683
 51
33.4926965049
  0
ARC
  5
F8
330
1F
100
AcDbEntity
  8
0
  6
Continuous
 62
     7
370
    25
100
AcDbCircle
 10
8973.5506222611
 20
6179.0611626321
 30
0.0
 40
0.7518768261474824
100
AcDbArc
 50
0.3336707808
 51
78.1349785059
  0
ARC
  5
F9
330
1F
100
AcDbEntity
  8
0
  6
Continuous
 62
     7
370
    25
100
AcDbCircle
 10
8974.6430271528
 20
6179.0676654054
 30
0.0
 40
0.340547439999008
100
AcDbArc
 50
180.3573785435
 51
257.1048918406
  0
ARC
  5
FA
330
1F
100
AcDbEntity
  8
0
  6
Continuous
 62
     7
370
    25
100
AcDbCircle
 10
8975.6338300659
 20
6178.5547846087
 30
0.0
 40
0.7673276523931576
100
AcDbArc
 50
60.3122823639
 51
152.2656300437
  0
ARC
  5
FB
330
1F
100
AcDbEntity
  8
0
  6
Continuous
 62
     7
370
    25
100
AcDbCircle
 10
8976.1859862114
 20
6179.5246964519
 30
0.0
 40
0.3487397495085276
100
AcDbArc
 50
240.4259331528
 51
315.887664153
  0
ARC
  5
FC
330
1F
100
AcDbEntity
  8
0
  6
Continuous
 62
     7
370
    25
100
AcDbCircle
 10
8974.6476770274
 20
6179.0727896059
 30
0.0
 40
0.3465966771905706
100
AcDbArc
 50
256.544639529
 51
332.3375863084
  0
LINE
  5
FD
330
1F
100
AcDbEntity
  8
0
  6
Continuous
 62
     7
370
    25
100
AcDbLine
 10
8917.4043121119
 20
6281.2944633724
 30
0.0
 11
8917.4043121119
 21
6200.8949907561
 31
0.0
  0
LWPOLYLINE
  5
FE
330
1F
100
AcDbEntity
  8
0
  6
Continuous
 62
     7
370
    25
100
AcDbPolyline
 90
       25
 70
   128
 43
0.0
 10
9135.7224215385
 20
6175.3100594834
 10
9134.3636215517
 20
6175.4861194595
 10
9133.0974215385
 20
6176.0023011914
 10
9132.0101109373
 20
6176.8234277472
 10
9131.1757881686
 20
6177.8935407089
 10
9130.6513109505
 20
6179.1397136467
 10
9130.4724215385
 20
6180.4770219343
 10
9130.6513109505
 20
6181.8143302219
 10
9131.1757881686
 20
6183.0605031597
 10
9132.0101109373
 20
6184.1306161214
 10
9133.0974215385
 20
6184.9517426771
 10
9134.3636215517
 20
6185.467924409
 10
9135.7224215385
 20
6185.6439843852
 10
9137.0812215253
 20
6185.467924409
 10
9138.3474215385
 20
6184.9517426771
 10
9139.4347321397
 20
6184.1306161214
 10
9140.2690549084
 20
6183.0605031597
 10
9140.7935321265
 20
6181.8143302219
 10
9140.9724215385
 20
6180.4770219343
 10
9140.7935321265
 20
6179.1397136467
 10
9140.2690549084
 20
6177.8935407089
 10
9139.4347321397
 20
6176.8234277472
 10
9138.3474215385
 20
6176.0023011914
 10
9137.0812215253
 20
6175.4861194595
 10
9135.7224215385
 20
6175.3100594834
  0
ARC
  5
FF
330
1F
100
AcDbEntity
  8
0
  6
Continuous
 62
     7
370
    25
100
AcDbCircle
 10
9135.7307119849
 20
6179.9447906296
 30
0.0
 40
2.808099134987274
100
AcDbArc
 50
269.8308434786
 51
329.3812361724
  0
ARC
  5
100
330
1F
100
AcDbEntity
  8
0
  6
Continuous
 62
     7
370
    25
100
AcDbCircle
 10
9135.803410021
 20
6179.8924170399
 30
0.0
 40
2.718873815758663
100
AcDbArc
 50
329.5507634012
 51
30.4492365988
  0
ARC
  5
101
330
1F
100
AcDbEntity
  8
0
  6
Continuous
 62
     7
370
    25
100
AcDbCircle
 10
9135.7307119849
 20
6179.8400434501
 30
0.0
 40
2.808099134989982
100
AcDbArc
 50
30.6187638277
 51
90.1691565215
  0
ARC
  5
102
330
1F
100
AcDbEntity
  8
0
  6
Continuous
 62
     7
370
    25
100
AcDbCircle
 10
9135.7141310921
 20
6179.8400434501
 30
0.0
 40
2.808099134979974
100
AcDbArc
 50
89.8308434785
 51
149.3812361725
  0
ARC
  5
103
330
1F
100
AcDbEntity
  8
0
  6
Continuous
 62
     7
370
    25
100
AcDbCircle
 10
9135.641433056
 20
6179.8924170399
 30
0.0
 40
2.718873815749255
100
AcDbArc
 50
149.550763401
 51
210.4492365989
  0
ARC
  5
104
330
1F
100
AcDbEntity
  8
0
  6
Continuous
 62
     7
370
    25
100
AcDbCircle
 10
9135.7141310921
 20
6179.9447906296
 30
0.0
 40
2.808099134978584
100
AcDbArc
 50
210.6187638275
 51
270.1691565215
  0
ARC
  5
105
330
1F
100
AcDbEntity
  8
0
  6
Continuous
 62
     7
370
    25
100
AcDbCircle
 10
9137.7187425132
 20
6181.0157406291
 30
0.0
 40
0.4984398830167356
100
AcDbArc
 50
30.707769081
 51
106.4183001428
  0
ARC
  5
106
330
1F
100
AcDbEntity
  8
0
  6
Continuous
 62
     7
370
    25
100
AcDbCircle
 10
9137.2654002648
 20
6182.5433499377
 30
0.0
 40
1.095019785560245
100
AcDbArc
 50
194.2084009273
 51
286.5795194218
  0
ARC
  5
107
330
1F
100
AcDbEntity
  8
0
  6
Continuous
 62
     7
370
    25
100
AcDbCircle
 10
9135.7251174484
 20
6182.15456425
 30
0.0
 40
0.4935734595460822
100
AcDbArc
 50
14.0726759082
 51
90.3129524552
  0
ARC
  5
108
330
1F
100
AcDbEntity
  8
0
  6
Continuous
 62
     7
370
    25
100
AcDbCircle
 10
9134.1794428122
 20
6182.5433499377
 30
0.0
 40
1.095019785558149
100
AcDbArc
 50
253.4204805781
 51
345.7915990729
  0
ARC
  5
109
330
1F
100
AcDbEntity
  8
0
  6
Continuous
 62
     7
370
    25
100
AcDbCircle
 10
9133.7261005638
 20
6181.0157406291
 30
0.0
 40
0.4984398830229006
100
AcDbArc
 50
73.5816998575
 51
149.2922309181
  0
ARC
  5
10A
330
1F
100
AcDbEntity
  8
0
  6
Continuous
 62
     7
370
    25
100
AcDbCircle
 10
9135.7197256286
 20
6182.15456425
 30
0.0
 40
0.4935734595514993
100
AcDbArc
 50
89.6870475456
 51
165.9273240913
  0
LINE
  5
10B
330
1F
100
AcDbEntity
  8
0
  6
Continuous
 62
     7
370
    25
100
AcDbLine
 10
9138.0593158384
 20
6180.8680071862
 30
0.0
 11
9138.0593158384
 21
6180.6731388881
 31
0.0
  0
LWPOLYLINE
  5
10C
330
1F
100
AcDbEntity
  8
0
  6
Continuous
 62
     7
370
    25
100
AcDbPolyline
 90
        3
 70
   128
 43
0.0
 10
9138.0593158384
 20
6180.8680071862
 10
9138.1581782872
 20
6180.9974167007
 10
9138.2036299353
 20
6181.1240559925
  0
ARC
  5
10D
330
1F
100
AcDbEntity
  8
0
  6
Continuous
 62
     7
370
    25
100
AcDbCircle
 10
9137.7316325334
 20
6181.0264652827
 30
0.0
 40
0.4818878391453508
100
AcDbArc
 50
312.8435740266
 51
30.3940579072
  0
LWPOLYLINE
  5
10E
330
1F
100
AcDbEntity
  8
0
  6
Continuous
 62
     7
370
    25
100
AcDbPolyline
 90
        3
 70
   128
 43
0.0
 10
9133.2412131509
 20
6181.1240559483
 10
9133.2866647898
 20
6180.9974167007
 10
9133.3855272386
 20
6180.8680071862
  0
LINE
  5
10F
330
1F
100
AcDbEntity
  8
0
  6
Continuous
 62
     7
370
    25
100
AcDbLine
 10
9133.3855272386
 20
6180.8680071862
 30
0.0
 11
9133.3855272386
 21
6180.6731388881
 31
0.0
  0
ARC
  5
110
330
1F
100
AcDbEntity
  8
0
  6
Continuous
 62
     7
370
    25
100
AcDbCircle
 10
9133.7132105436
 20
6181.0264652827
 30
0.0
 40
0.4818878391469198
100
AcDbArc
 50
149.6059420929
 51
227.1564259732
  0
ARC
  5
111
330
1F
100
AcDbEntity
  8
0
  6
Continuous
 62
     7
370
    25
100
AcDbCircle
 10
9132.6608105575
 20
6179.8924170399
 30
0.0
 40
1.065242165933114
100
AcDbArc
 50
312.8694708924
 51
47.1305291076
  0
ARC
  5
112
330
1F
100
AcDbEntity
  8
0
  6
Continuous
 62
     7
370
    25
100
AcDbCircle
 10
9133.7132105436
 20
6178.758368797
 30
0.0
 40
0.4818878391431733
100
AcDbArc
 50
132.8435740262
 51
210.3940579076
  0
ARC
  5
113
330
1F
100
AcDbEntity
  8
0
  6
Continuous
 62
     7
370
    25
100
AcDbCircle
 10
9137.7316325334
 20
6178.758368797
 30
0.0
 40
0.4818878391450771
100
AcDbArc
 50
329.6059420927
 51
47.1564259737
  0
ARC
  5
114
330
1F
100
AcDbEntity
  8
0
  6
Continuous
 62
     7
370
    25
100
AcDbCircle
 10
9138.7840325195
 20
6179.8924170399
 30
0.0
 40
1.065242165935019
100
AcDbArc
 50
132.8694708924
 51
227.1305291075
  0
ARC
  5
115
330
1F
100
AcDbEntity
  8
0
  6
Continuous
 62
     7
370
    25
100
AcDbCircle
 10
9132.6579579067
 20
6180.0856344358
 30
0.0
 40
1.068393304650701
100
AcDbArc
 50
0.0885345952
 51
47.0786405688
  0
ARC
  5
116
330
1F
100
AcDbEntity
  8
0
  6
Continuous
 62
     7
370
    25
100
AcDbCircle
 10
9138.7868851704
 20
6180.0856344357
 30
0.0
 40
1.068393304695027
100
AcDbArc
 50
132.9213594321
 51
179.9114654037
  0
ARC
  5
117
330
1F
100
AcDbEntity
  8
0
  6
Continuous
 62
     7
370
    25
100
AcDbCircle
 10
9133.7255418147
 20
6178.9608606467
 30
0.0
 40
0.4956251742285752
100
AcDbArc
 50
192.2563484906
 51
286.5815879558
  0
LINE
  5
118
330
1F
100
AcDbEntity
  8
0
  6
Continuous
 62
     7
370
    25
100
AcDbLine
 10
9133.8669835227
 20
6178.4858463768
 30
0.0
 11
9133.8669835227
 21
6178.2909780787
 31
0.0
  0
ARC
  5
119
330
1F
100
AcDbEntity
  8
0
  6
Continuous
 62
     7
370
    25
100
AcDbCircle
 10
9133.7261005638
 20
6178.7690934506
 30
0.0
 40
0.4984398830231146
100
AcDbArc
 50
210.7077690814
 51
286.4183001422
  0
LINE
  5
11A
330
1F
100
AcDbEntity
  8
0
  6
Continuous
 62
     7
370
    25
100
AcDbLine
 10
9137.5778595543
 20
6178.4858463768
 30
0.0
 11
9137.5778595543
 21
6178.2909780787
 31
0.0
  0
ARC
  5
11B
330
1F
100
AcDbEntity
  8
0
  6
Continuous
 62
     7
370
    25
100
AcDbCircle
 10
9137.7196934296
 20
6178.9601970271
 30
0.0
 40
0.4951013912340383
100
AcDbArc
 50
253.3529991071
 51
347.809059102
  0
ARC
  5
11C
330
1F
100
AcDbEntity
  8
0
  6
Continuous
 62
     7
370
    25
100
AcDbCircle
 10
9137.7187425132
 20
6178.7690934506
 30
0.0
 40
0.4984398830195223
100
AcDbArc
 50
253.5816998573
 51
329.2922309184
  0
ARC
  5
11D
330
1F
100
AcDbEntity
  8
0
  6
Continuous
 62
     7
370
    25
100
AcDbCircle
 10
9134.1794428122
 20
6177.241484142
 30
0.0
 40
1.095019785556406
100
AcDbArc
 50
14.2084009271
 51
106.5795194219
  0
ARC
  5
11E
330
1F
100
AcDbEntity
  8
0
  6
Continuous
 62
     7
370
    25
100
AcDbCircle
 10
9135.7197256286
 20
6177.6302698297
 30
0.0
 40
0.4935734595558107
100
AcDbArc
 50
194.0726759086
 51
270.3129524542
  0
ARC
  5
11F
330
1F
100
AcDbEntity
  8
0
  6
Continuous
 62
     7
370
    25
100
AcDbCircle
 10
9137.2654002648
 20
6177.241484142
 30
0.0
 40
1.095019785555534
100
AcDbArc
 50
73.420480578
 51
165.791599073
  0
ARC
  5
120
330
1F
100
AcDbEntity
  8
0
  6
Continuous
 62
     7
370
    25
100
AcDbCircle
 10
9135.7251174484
 20
6177.6302698297
 30
0.0
 40
0.4935734595511762
100
AcDbArc
 50
269.6870475454
 51
345.9273240918
  0
LINE
  5
121
330
1F
100
AcDbEntity
  8
0
  6
Continuous
 62
     7
370
    25
100
AcDbLine
 10
9136.2038778226
 20
6177.7051245286
 30
0.0
 11
9136.2038778226
 21
6177.5102562304
 31
0.0
  0
ARC
  5
122
330
1F
100
AcDbEntity
  8
0
  6
Continuous
 62
     7
370
    25
100
AcDbCircle
 10
9137.2654002648
 20
6177.4363524401
 30
0.0
 40
1.095019785554211
100
AcDbArc
 50
73.420480578
 51
165.7915990731
  0
ARC
  5
123
330
1F
100
AcDbEntity
  8
0
  6
Continuous
 62
     7
370
    25
100
AcDbCircle
 10
9134.1794428122
 20
6177.4363524401
 30
0.0
 40
1.095019785560245
100
AcDbArc
 50
14.2084009273
 51
106.5795194218
  0
LINE
  5
124
330
1F
100
AcDbEntity
  8
0
  6
Continuous
 62
     7
370
    25
100
AcDbLine
 10
9135.2409652544
 20
6177.7051245286
 30
0.0
 11
9135.2409652544
 21
6177.5102562304
 31
0.0
  0
ARC
  5
125
330
1F
100
AcDbEntity
  8
0
  6
Continuous
 62
     7
370
    25
100
AcDbCircle
 10
9135.7224215385
 20
6177.8274828966
 30
0.0
 40
0.4967612341736387
100
AcDbArc
 50
194.2593957863
 51
345.7406042136
  0
LINE
  5
126
330
1F
100
AcDbEntity
  8
0
  6
Continuous
 62
     7
370
    25
100
AcDbLine
 10
9140.2260446108
 20
6422.4432692308
 30
0.0
 11
9138.247280788
 21
6422.4432692308
 31
0.0
  0
LINE
  5
127
330
1F
100
AcDbEntity
  8
0
  6
Continuous
 62
     7
370
    25
100
AcDbLine
 10
9140.3210373614
 20
6422.4432692308
 30
0.0
 11
9140.2260446108
 21
6422.4432692308
 31
0.0
  0
LINE
  5
128
330
1F
100
AcDbEntity
  8
0
  6
Continuous
 62
     7
370
    25
100
AcDbLine
 10
9135.5422735387
 20
6422.4432692308
 30
0.0
 11
9134.7210373614
 21
6422.4432692308
 31
0.0
  0
LINE
  5
129
330
1F
100
AcDbEntity
  8
0
  6
Continuous
 62
     7
370
    25
100
AcDbLine
 10
9138.247280788
 20
6422.4432692308
 30
0.0
 11
9135.5422735387
 21
6422.4432692308
 31
0.0
  0
LWPOLYLINE
  5
12A
330
1F
100
AcDbEntity
  8
0
  6
Continuous
 62
     7
370
    25
100
AcDbPolyline
 90
       25
 70
   128
 43
0.0
 10
9135.7224215385
 20
6357.3839744186
 10
9134.3636215517
 20
6357.5600343947
 10
9133.0974215385
 20
6358.0762161266
 10
9132.0101109373
 20
6358.8973426823
 10
9131.1757881686
 20
6359.967455644
 10
9130.6513109505
 20
6361.2136285818
 10
9130.4724215385
 20
6362.5509368694
 10
9130.6513109505
 20
6363.888245157
 10
9131.1757881686
 20
6365.1344180949
 10
9132.0101109373
 20
6366.2045310566
 10
9133.0974215385
 20
6367.0256576123
 10
9134.3636215517
 20
6367.5418393442
 10
9135.7224215385
 20
6367.7178993203
 10
9137.0812215253
 20
6367.5418393442
 10
9138.3474215385
 20
6367.0256576123
 10
9139.4347321397
 20
6366.2045310566
 10
9140.2690549084
 20
6365.1344180949
 10
9140.7935321265
 20
6363.888245157
 10
9140.9724215385
 20
6362.5509368694
 10
9140.7935321265
 20
6361.2136285818
 10
9140.2690549084
 20
6359.967455644
 10
9139.4347321397
 20
6358.8973426823
 10
9138.3474215385
 20
6358.0762161266
 10
9137.0812215253
 20
6357.5600343947
 10
9135.7224215385
 20
6357.3839744186
  0
ARC
  5
12B
330
1F
100
AcDbEntity
  8
0
  6
Continuous
 62
     7
370
    25
100
AcDbCircle
 10
9135.7307119849
 20
6362.0187055647
 30
0.0
 40
2.808099134987274
100
AcDbArc
 50
269.8308434786
 51
329.3812361724
  0
ARC
  5
12C
330
1F
100
AcDbEntity
  8
0
  6
Continuous
 62
     7
370
    25
100
AcDbCircle
 10
9135.803410021
 20
6361.966331975
 30
0.0
 40
2.718873815758663
100
AcDbArc
 50
329.5507634012
 51
30.4492365988
  0
ARC
  5
12D
330
1F
100
AcDbEntity
  8
0
  6
Continuous
 62
     7
370
    25
100
AcDbCircle
 10
9135.7307119849
 20
6361.9139583852
 30
0.0
 40
2.808099134992258
100
AcDbArc
 50
30.6187638276
 51
90.1691565214
  0
ARC
  5
12E
330
1F
100
AcDbEntity
  8
0
  6
Continuous
 62
     7
370
    25
100
AcDbCircle
 10
9135.7141310921
 20
6361.9139583852
 30
0.0
 40
2.808099134981796
100
AcDbArc
 50
89.8308434785
 51
149.3812361724
  0
ARC
  5
12F
330
1F
100
AcDbEntity
  8
0
  6
Continuous
 62
     7
370
    25
100
AcDbCircle
 10
9135.641433056
 20
6361.966331975
 30
0.0
 40
2.718873815749255
100
AcDbArc
 50
149.5507634011
 51
210.449236599
  0
ARC
  5
130
330
1F
100
AcDbEntity
  8
0
  6
Continuous
 62
     7
370
    25
100
AcDbCircle
 10
9135.7141310921
 20
6362.0187055647
 30
0.0
 40
2.808099134978584
100
AcDbArc
 50
210.6187638275
 51
270.1691565215
  0
ARC
  5
131
330
1F
100
AcDbEntity
  8
0
  6
Continuous
 62
     7
370
    25
100
AcDbCircle
 10
9137.7187425132
 20
6363.0896555642
 30
0.0
 40
0.4984398830172
100
AcDbArc
 50
30.7077690811
 51
106.4183001428
  0
ARC
  5
132
330
1F
100
AcDbEntity
  8
0
  6
Continuous
 62
     7
370
    25
100
AcDbCircle
 10
9137.2654002648
 20
6364.6172648729
 30
0.0
 40
1.095019785559747
100
AcDbArc
 50
194.2084009272
 51
286.5795194218
  0
ARC
  5
133
330
1F
100
AcDbEntity
  8
0
  6
Continuous
 62
     7
370
    25
100
AcDbCircle
 10
9135.7251174484
 20
6364.2284791852
 30
0.0
 40
0.4935734595506097
100
AcDbArc
 50
14.0726759085
 51
90.3129524548
  0
ARC
  5
134
330
1F
100
AcDbEntity
  8
0
  6
Continuous
 62
     7
370
    25
100
AcDbCircle
 10
9134.1794428122
 20
6364.6172648729
 30
0.0
 40
1.095019785557314
100
AcDbArc
 50
253.4204805781
 51
345.7915990729
  0
ARC
  5
135
330
1F
100
AcDbEntity
  8
0
  6
Continuous
 62
     7
370
    25
100
AcDbCircle
 10
9133.7261005638
 20
6363.0896555642
 30
0.0
 40
0.4984398830259013
100
AcDbArc
 50
73.5816998579
 51
149.292230918
  0
ARC
  5
136
330
1F
100
AcDbEntity
  8
0
  6
Continuous
 62
     7
370
    25
100
AcDbCircle
 10
9135.7197256286
 20
6364.2284791852
 30
0.0
 40
0.493573459553604
100
AcDbArc
 50
89.6870475461
 51
165.9273240915
  0
LINE
  5
137
330
1F
100
AcDbEntity
  8
0
  6
Continuous
 62
     7
370
    25
100
AcDbLine
 10
9138.0593158384
 20
6362.9419221214
 30
0.0
 11
9138.0593158384
 21
6362.7470538232
 31
0.0
  0
LWPOLYLINE
  5
138
330
1F
100
AcDbEntity
  8
0
  6
Continuous
 62
     7
370
    25
100
AcDbPolyline
 90
        3
 70
   128
 43
0.0
 10
9138.0593158384
 20
6362.9419221214
 10
9138.1581782872
 20
6363.0713316359
 10
9138.2036299475
 20
6363.1979709867
  0
ARC
  5
139
330
1F
100
AcDbEntity
  8
0
  6
Continuous
 62
     7
370
    25
100
AcDbCircle
 10
9137.7316325334
 20
6363.1003802178
 30
0.0
 40
0.4818878391437817
100
AcDbArc
 50
312.8435740265
 51
30.3940579073
  0
LWPOLYLINE
  5
13A
330
1F
100
AcDbEntity
  8
0
  6
Continuous
 62
     7
370
    25
100
AcDbPolyline
 90
        3
 70
   128
 43
0.0
 10
9133.241213136
 20
6363.1979709553
 10
9133.2866647898
 20
6363.0713316359
 10
9133.3855272386
 20
6362.9419221214
  0
LINE
  5
13B
330
1F
100
AcDbEntity
  8
0
  6
Continuous
 62
     7
370
    25
100
AcDbLine
 10
9133.3855272386
 20
6362.9419221214
 30
0.0
 11
9133.3855272386
 21
6362.7470538232
 31
0.0
  0
ARC
  5
13C
330
1F
100
AcDbEntity
  8
0
  6
Continuous
 62
     7
370
    25
100
AcDbCircle
 10
9133.7132105436
 20
6363.1003802178
 30
0.0
 40
0.4818878391442419
100
AcDbArc
 50
149.6059420926
 51
227.1564259735
  0
ARC
  5
13D
330
1F
100
AcDbEntity
  8
0
  6
Continuous
 62
     7
370
    25
100
AcDbCircle
 10
9132.6608105575
 20
6361.966331975
 30
0.0
 40
1.065242165934352
100
AcDbArc
 50
312.8694708924
 51
47.1305291076
  0
ARC
  5
13E
330
1F
100
AcDbEntity
  8
0
  6
Continuous
 62
     7
370
    25
100
AcDbCircle
 10
9133.7132105436
 20
6360.8322837321
 30
0.0
 40
0.4818878391426729
100
AcDbArc
 50
132.8435740263
 51
210.3940579075
  0
ARC
  5
13F
330
1F
100
AcDbEntity
  8
0
  6
Continuous
 62
     7
370
    25
100
AcDbCircle
 10
9137.7316325334
 20
6360.8322837321
 30
0.0
 40
0.4818878391469809
100
AcDbArc
 50
329.6059420928
 51
47.1564259736
  0
ARC
  5
140
330
1F
100
AcDbEntity
  8
0
  6
Continuous
 62
     7
370
    25
100
AcDbCircle
 10
9138.7840325195
 20
6361.966331975
 30
0.0
 40
1.065242165935685
100
AcDbArc
 50
132.8694708924
 51
227.1305291075
  0
ARC
  5
141
330
1F
100
AcDbEntity
  8
0
  6
Continuous
 62
     7
370
    25
100
AcDbCircle
 10
9132.6579579067
 20
6362.1595493709
 30
0.0
 40
1.068393304650701
100
AcDbArc
 50
0.0885345952
 51
47.0786405688
  0
ARC
  5
142
330
1F
100
AcDbEntity
  8
0
  6
Continuous
 62
     7
370
    25
100
AcDbCircle
 10
9138.7868851704
 20
6362.1595493709
 30
0.0
 40
1.068393304690747
100
AcDbArc
 50
132.9213594321
 51
179.9114654038
  0
ARC
  5
143
330
1F
100
AcDbEntity
  8
0
  6
Continuous
 62
     7
370
    25
100
AcDbCircle
 10
9133.7255418147
 20
6361.0347755818
 30
0.0
 40
0.4956251742217148
100
AcDbArc
 50
192.2563484464
 51
286.5815879561
  0
LINE
  5
144
330
1F
100
AcDbEntity
  8
0
  6
Continuous
 62
     7
370
    25
100
AcDbLine
 10
9133.8669835227
 20
6360.559761312
 30
0.0
 11
9133.8669835227
 21
6360.3648930138
 31
0.0
  0
ARC
  5
145
330
1F
100
AcDbEntity
  8
0
  6
Continuous
 62
     7
370
    25
100
AcDbCircle
 10
9133.7261005638
 20
6360.8430083858
 30
0.0
 40
0.4984398830202834
100
AcDbArc
 50
210.7077690815
 51
286.4183001426
  0
LINE
  5
146
330
1F
100
AcDbEntity
  8
0
  6
Continuous
 62
     7
370
    25
100
AcDbLine
 10
9137.5778595543
 20
6360.559761312
 30
0.0
 11
9137.5778595543
 21
6360.3648930138
 31
0.0
  0
ARC
  5
147
330
1F
100
AcDbEntity
  8
0
  6
Continuous
 62
     7
370
    25
100
AcDbCircle
 10
9137.7196934298
 20
6361.0341119608
 30
0.0
 40
0.4951013898933647
100
AcDbArc
 50
253.3529990323
 51
347.8090703727
  0
ARC
  5
148
330
1F
100
AcDbEntity
  8
0
  6
Continuous
 62
     7
370
    25
100
AcDbCircle
 10
9137.7187425132
 20
6360.8430083858
 30
0.0
 40
0.4984398830204512
100
AcDbArc
 50
253.5816998573
 51
329.2922309183
  0
ARC
  5
149
330
1F
100
AcDbEntity
  8
0
  6
Continuous
 62
     7
370
    25
100
AcDbCircle
 10
9134.1794428122
 20
6359.3153990771
 30
0.0
 40
1.095019785557278
100
AcDbArc
 50
14.2084009272
 51
106.5795194219
  0
ARC
  5
14A
330
1F
100
AcDbEntity
  8
0
  6
Continuous
 62
     7
370
    25
100
AcDbCircle
 10
9135.7197256286
 20
6359.7041847648
 30
0.0
 40
0.4935734595560319
100
AcDbArc
 50
194.0726759087
 51
270.3129524542
  0
ARC
  5
14B
330
1F
100
AcDbEntity
  8
0
  6
Continuous
 62
     7
370
    25
100
AcDbCircle
 10
9137.2654002648
 20
6359.3153990771
 30
0.0
 40
1.095019785556406
100
AcDbArc
 50
73.4204805781
 51
165.7915990729
  0
ARC
  5
14C
330
1F
100
AcDbEntity
  8
0
  6
Continuous
 62
     7
370
    25
100
AcDbCircle
 10
9135.7251174484
 20
6359.7041847648
 30
0.0
 40
0.4935734595478912
100
AcDbArc
 50
269.687047545
 51
345.9273240919
  0
LINE
  5
14D
330
1F
100
AcDbEntity
  8
0
  6
Continuous
 62
     7
370
    25
100
AcDbLine
 10
9136.2038778226
 20
6359.7790394637
 30
0.0
 11
9136.2038778226
 21
6359.5841711656
 31
0.0
  0
ARC
  5
14E
330
1F
100
AcDbEntity
  8
0
  6
Continuous
 62
     7
370
    25
100
AcDbCircle
 10
9137.2654002648
 20
6359.5102673753
 30
0.0
 40
1.095019785554434
100
AcDbArc
 50
73.420480578
 51
165.7915990731
  0
ARC
  5
14F
330
1F
100
AcDbEntity
  8
0
  6
Continuous
 62
     7
370
    25
100
AcDbCircle
 10
9134.1794428122
 20
6359.5102673753
 30
0.0
 40
1.095019785561117
100
AcDbArc
 50
14.2084009273
 51
106.5795194218
  0
LINE
  5
150
330
1F
100
AcDbEntity
  8
0
  6
Continuous
 62
     7
370
    25
100
AcDbLine
 10
9135.2409652544
 20
6359.7790394637
 30
0.0
 11
9135.2409652544
 21
6359.5841711656
 31
0.0
  0
ARC
  5
151
330
1F
100
AcDbEntity
  8
0
  6
Continuous
 62
     7
370
    25
100
AcDbCircle
 10
9135.7224215385
 20
6359.9013978318
 30
0.0
 40
0.4967612341736387
100
AcDbArc
 50
194.2593957863
 51
345.7406042137
  0
LWPOLYLINE
  5
152
330
1F
100
AcDbEntity
  8
0
  6
Continuous
 62
     7
370
    25
100
AcDbPolyline
 90
       25
 70
   128
 43
0.0
 10
8975.7224215385
 20
6175.3100594834
 10
8974.3636215517
 20
6175.4861194595
 10
8973.0974215385
 20
6176.0023011914
 10
8972.0101109373
 20
6176.8234277472
 10
8971.1757881686
 20
6177.8935407089
 10
8970.6513109505
 20
6179.1397136467
 10
8970.4724215385
 20
6180.4770219343
 10
8970.6513109505
 20
6181.8143302219
 10
8971.1757881686
 20
6183.0605031597
 10
8972.0101109373
 20
6184.1306161214
 10
8973.0974215385
 20
6184.9517426771
 10
8974.3636215517
 20
6185.467924409
 10
8975.7224215385
 20
6185.6439843852
 10
8977.0812215253
 20
6185.467924409
 10
8978.3474215385
 20
6184.9517426771
 10
8979.4347321397
 20
6184.1306161214
 10
8980.2690549084
 20
6183.0605031597
 10
8980.7935321265
 20
6181.8143302219
 10
8980.9724215385
 20
6180.4770219343
 10
8980.7935321265
 20
6179.1397136467
 10
8980.2690549084
 20
6177.8935407089
 10
8979.4347321397
 20
6176.8234277472
 10
8978.3474215385
 20
6176.0023011914
 10
8977.0812215253
 20
6175.4861194595
 10
8975.7224215385
 20
6175.3100594834
  0
ARC
  5
153
330
1F
100
AcDbEntity
  8
0
  6
Continuous
 62
     7
370
    25
100
AcDbCircle
 10
8975.7307119849
 20
6179.9447906296
 30
0.0
 40
2.808099134988839
100
AcDbArc
 50
269.8308434786
 51
329.3812361724
  0
ARC
  5
154
330
1F
100
AcDbEntity
  8
0
  6
Continuous
 62
     7
370
    25
100
AcDbCircle
 10
8975.803410021
 20
6179.8924170399
 30
0.0
 40
2.718873815760231
100
AcDbArc
 50
329.5507634012
 51
30.4492365988
  0
ARC
  5
155
330
1F
100
AcDbEntity
  8
0
  6
Continuous
 62
     7
370
    25
100
AcDbCircle
 10
8975.7307119849
 20
6179.8400434501
 30
0.0
 40
2.808099134995213
100
AcDbArc
 50
30.6187638277
 51
90.1691565214
  0
ARC
  5
156
330
1F
100
AcDbEntity
  8
0
  6
Continuous
 62
     7
370
    25
100
AcDbCircle
 10
8975.7141310921
 20
6179.8400434501
 30
0.0
 40
2.808099134979974
100
AcDbArc
 50
89.8308434785
 51
149.3812361725
  0
ARC
  5
157
330
1F
100
AcDbEntity
  8
0
  6
Continuous
 62
     7
370
    25
100
AcDbCircle
 10
8975.641433056
 20
6179.8924170399
 30
0.0
 40
2.718873815739846
100
AcDbArc
 50
149.5507634009
 51
210.4492365991
  0
ARC
  5
158
330
1F
100
AcDbEntity
  8
0
  6
Continuous
 62
     7
370
    25
100
AcDbCircle
 10
8975.7141310921
 20
6179.9447906296
 30
0.0
 40
2.808099134978584
100
AcDbArc
 50
210.6187638275
 51
270.1691565215
  0
ARC
  5
159
330
1F
100
AcDbEntity
  8
0
  6
Continuous
 62
     7
370
    25
100
AcDbCircle
 10
8977.7187425132
 20
6181.0157406291
 30
0.0
 40
0.4984398830182996
100
AcDbArc
 50
30.7077690809
 51
106.4183001428
  0
ARC
  5
15A
330
1F
100
AcDbEntity
  8
0
  6
Continuous
 62
     7
370
    25
100
AcDbCircle
 10
8977.2654002648
 20
6182.5433499377
 30
0.0
 40
1.095019785560245
100
AcDbArc
 50
194.2084009273
 51
286.5795194218
  0
ARC
  5
15B
330
1F
100
AcDbEntity
  8
0
  6
Continuous
 62
     7
370
    25
100
AcDbCircle
 10
8975.7251174484
 20
6182.15456425
 30
0.0
 40
0.4935734595460822
100
AcDbArc
 50
14.0726759082
 51
90.3129524552
  0
ARC
  5
15C
330
1F
100
AcDbEntity
  8
0
  6
Continuous
 62
     7
370
    25
100
AcDbCircle
 10
8974.1794428122
 20
6182.5433499377
 30
0.0
 40
1.095019785558149
100
AcDbArc
 50
253.4204805781
 51
345.7915990729
  0
ARC
  5
15D
330
1F
100
AcDbEntity
  8
0
  6
Continuous
 62
     7
370
    25
100
AcDbCircle
 10
8973.7261005638
 20
6181.0157406291
 30
0.0
 40
0.4984398830229006
100
AcDbArc
 50
73.5816998575
 51
149.2922309181
  0
ARC
  5
15E
330
1F
100
AcDbEntity
  8
0
  6
Continuous
 62
     7
370
    25
100
AcDbCircle
 10
8975.7197256286
 20
6182.15456425
 30
0.0
 40
0.4935734595514993
100
AcDbArc
 50
89.6870475456
 51
165.9273240913
  0
LINE
  5
15F
330
1F
100
AcDbEntity
  8
0
  6
Continuous
 62
     7
370
    25
100
AcDbLine
 10
8978.0593158384
 20
6180.8680071862
 30
0.0
 11
8978.0593158384
 21
6180.6731388881
 31
0.0
  0
LWPOLYLINE
  5
160
330
1F
100
AcDbEntity
  8
0
  6
Continuous
 62
     7
370
    25
100
AcDbPolyline
 90
        3
 70
   128
 43
0.0
 10
8978.0593158384
 20
6180.8680071862
 10
8978.1581782872
 20
6180.9974167007
 10
8978.2036299416
 20
6181.1240560229
  0
ARC
  5
161
330
1F
100
AcDbEntity
  8
0
  6
Continuous
 62
     7
370
    25
100
AcDbCircle
 10
8977.7316325334
 20
6181.0264652827
 30
0.0
 40
0.4818878391469198
100
AcDbArc
 50
312.8435740266
 51
30.3940579071
  0
LWPOLYLINE
  5
162
330
1F
100
AcDbEntity
  8
0
  6
Continuous
 62
     7
370
    25
100
AcDbPolyline
 90
        3
 70
   128
 43
0.0
 10
8973.2412131436
 20
6181.1240559834
 10
8973.2866647898
 20
6180.9974167007
 10
8973.3855272386
 20
6180.8680071862
  0
LINE
  5
163
330
1F
100
AcDbEntity
  8
0
  6
Continuous
 62
     7
370
    25
100
AcDbLine
 10
8973.3855272386
 20
6180.8680071862
 30
0.0
 11
8973.3855272386
 21
6180.6731388881
 31
0.0
  0
ARC
  5
164
330
1F
100
AcDbEntity
  8
0
  6
Continuous
 62
     7
370
    25
100
AcDbCircle
 10
8973.7132105436
 20
6181.0264652827
 30
0.0
 40
0.4818878391469198
100
AcDbArc
 50
149.6059420929
 51
227.1564259732
  0
ARC
  5
165
330
1F
100
AcDbEntity
  8
0
  6
Continuous
 62
     7
370
    25
100
AcDbCircle
 10
8972.6608105575
 20
6179.8924170399
 30
0.0
 40
1.065242165933114
100
AcDbArc
 50
312.8694708924
 51
47.1305291076
  0
ARC
  5
166
330
1F
100
AcDbEntity
  8
0
  6
Continuous
 62
     7
370
    25
100
AcDbCircle
 10
8973.7132105436
 20
6178.758368797
 30
0.0
 40
0.4818878391431733
100
AcDbArc
 50
132.8435740262
 51
210.3940579076
  0
ARC
  5
167
330
1F
100
AcDbEntity
  8
0
  6
Continuous
 62
     7
370
    25
100
AcDbCircle
 10
8977.7316325334
 20
6178.758368797
 30
0.0
 40
0.4818878391453508
100
AcDbArc
 50
329.6059420928
 51
47.1564259737
  0
ARC
  5
168
330
1F
100
AcDbEntity
  8
0
  6
Continuous
 62
     7
370
    25
100
AcDbCircle
 10
8978.7840325195
 20
6179.8924170399
 30
0.0
 40
1.065242165935019
100
AcDbArc
 50
132.8694708924
 51
227.1305291075
  0
ARC
  5
169
330
1F
100
AcDbEntity
  8
0
  6
Continuous
 62
     7
370
    25
100
AcDbCircle
 10
8972.6579579067
 20
6180.0856344358
 30
0.0
 40
1.068393304650701
100
AcDbArc
 50
0.0885345952
 51
47.0786405688
  0
ARC
  5
16A
330
1F
100
AcDbEntity
  8
0
  6
Continuous
 62
     7
370
    25
100
AcDbCircle
 10
8978.7868851704
 20
6180.0856344357
 30
0.0
 40
1.068393304695027
100
AcDbArc
 50
132.9213594321
 51
179.9114654037
  0
ARC
  5
16B
330
1F
100
AcDbEntity
  8
0
  6
Continuous
 62
     7
370
    25
100
AcDbCircle
 10
8973.7255418147
 20
6178.9608606467
 30
0.0
 40
0.4956251742482204
100
AcDbArc
 50
192.2563486606
 51
286.5815879549
  0
LINE
  5
16C
330
1F
100
AcDbEntity
  8
0
  6
Continuous
 62
     7
370
    25
100
AcDbLine
 10
8973.8669835227
 20
6178.4858463768
 30
0.0
 11
8973.8669835227
 21
6178.2909780787
 31
0.0
  0
ARC
  5
16D
330
1F
100
AcDbEntity
  8
0
  6
Continuous
 62
     7
370
    25
100
AcDbCircle
 10
8973.7261005638
 20
6178.7690934506
 30
0.0
 40
0.4984398830231146
100
AcDbArc
 50
210.7077690814
 51
286.4183001422
  0
LINE
  5
16E
330
1F
100
AcDbEntity
  8
0
  6
Continuous
 62
     7
370
    25
100
AcDbLine
 10
8977.5778595543
 20
6178.4858463768
 30
0.0
 11
8977.5778595543
 21
6178.2909780787
 31
0.0
  0
ARC
  5
16F
330
1F
100
AcDbEntity
  8
0
  6
Continuous
 62
     7
370
    25
100
AcDbCircle
 10
8977.7196934296
 20
6178.9601970271
 30
0.0
 40
0.4951013912166474
100
AcDbArc
 50
253.3529991062
 51
347.8090592718
  0
ARC
  5
170
330
1F
100
AcDbEntity
  8
0
  6
Continuous
 62
     7
370
    25
100
AcDbCircle
 10
8977.7187425132
 20
6178.7690934506
 30
0.0
 40
0.4984398830210862
100
AcDbArc
 50
253.5816998573
 51
329.2922309186
  0
ARC
  5
171
330
1F
100
AcDbEntity
  8
0
  6
Continuous
 62
     7
370
    25
100
AcDbCircle
 10
8974.1794428122
 20
6177.241484142
 30
0.0
 40
1.095019785556406
100
AcDbArc
 50
14.2084009271
 51
106.5795194219
  0
ARC
  5
172
330
1F
100
AcDbEntity
  8
0
  6
Continuous
 62
     7
370
    25
100
AcDbCircle
 10
8975.7197256286
 20
6177.6302698297
 30
0.0
 40
0.4935734595558107
100
AcDbArc
 50
194.0726759086
 51
270.3129524542
  0
ARC
  5
173
330
1F
100
AcDbEntity
  8
0
  6
Continuous
 62
     7
370
    25
100
AcDbCircle
 10
8977.2654002648
 20
6177.241484142
 30
0.0
 40
1.095019785555534
100
AcDbArc
 50
73.420480578
 51
165.791599073
  0
ARC
  5
174
330
1F
100
AcDbEntity
  8
0
  6
Continuous
 62
     7
370
    25
100
AcDbCircle
 10
8975.7251174484
 20
6177.6302698297
 30
0.0
 40
0.4935734595511762
100
AcDbArc
 50
269.6870475454
 51
345.9273240918
  0
LINE
  5
175
330
1F
100
AcDbEntity
  8
0
  6
Continuous
 62
     7
370
    25
100
AcDbLine
 10
8976.2038778226
 20
6177.7051245286
 30
0.0
 11
8976.2038778226
 21
6177.5102562304
 31
0.0
  0
ARC
  5
176
330
1F
100
AcDbEntity
  8
0
  6
Continuous
 62
     7
370
    25
100
AcDbCircle
 10
8977.2654002648
 20
6177.4363524401
 30
0.0
 40
1.095019785554211
100
AcDbArc
 50
73.420480578
 51
165.7915990731
  0
ARC
  5
177
330
1F
100
AcDbEntity
  8
0
  6
Continuous
 62
     7
370
    25
100
AcDbCircle
 10
8974.1794428122
 20
6177.4363524401
 30
0.0
 40
1.095019785560245
100
AcDbArc
 50
14.2084009273
 51
106.5795194218
  0
LINE
  5
178
330
1F
100
AcDbEntity
  8
0
  6
Continuous
 62
     7
370
    25
100
AcDbLine
 10
8975.2409652544
 20
6177.7051245286
 30
0.0
 11
8975.2409652544
 21
6177.5102562304
 31
0.0
  0
ARC
  5
179
330
1F
100
AcDbEntity
  8
0
  6
Continuous
 62
     7
370
    25
100
AcDbCircle
 10
8975.7224215385
 20
6177.8274828966
 30
0.0
 40
0.4967612341736387
100
AcDbArc
 50
194.2593957863
 51
345.7406042136
  0
LWPOLYLINE
  5
17A
330
1F
100
AcDbEntity
  8
0
  6
Continuous
 62
     7
370
    25
100
AcDbPolyline
 90
       25
 70
   128
 43
0.0
 10
8975.7224215385
 20
6357.3839744186
 10
8974.3636215517
 20
6357.5600343947
 10
8973.0974215385
 20
6358.0762161266
 10
8972.0101109373
 20
6358.8973426823
 10
8971.1757881686
 20
6359.967455644
 10
8970.6513109505
 20
6361.2136285818
 10
8970.4724215385
 20
6362.5509368694
 10
8970.6513109505
 20
6363.888245157
 10
8971.1757881686
 20
6365.1344180949
 10
8972.0101109373
 20
6366.2045310566
 10
8973.0974215385
 20
6367.0256576123
 10
8974.3636215517
 20
6367.5418393442
 10
8975.7224215385
 20
6367.7178993203
 10
8977.0812215253
 20
6367.5418393442
 10
8978.3474215385
 20
6367.0256576123
 10
8979.4347321397
 20
6366.2045310566
 10
8980.2690549084
 20
6365.1344180949
 10
8980.7935321265
 20
6363.888245157
 10
8980.9724215385
 20
6362.5509368694
 10
8980.7935321265
 20
6361.2136285818
 10
8980.2690549084
 20
6359.967455644
 10
8979.4347321397
 20
6358.8973426823
 10
8978.3474215385
 20
6358.0762161266
 10
8977.0812215253
 20
6357.5600343947
 10
8975.7224215385
 20
6357.3839744186
  0
ARC
  5
17B
330
1F
100
AcDbEntity
  8
0
  6
Continuous
 62
     7
370
    25
100
AcDbCircle
 10
8975.7307119849
 20
6362.0187055647
 30
0.0
 40
2.808099134988839
100
AcDbArc
 50
269.8308434786
 51
329.3812361724
  0
ARC
  5
17C
330
1F
100
AcDbEntity
  8
0
  6
Continuous
 62
     7
370
    25
100
AcDbCircle
 10
8975.803410021
 20
6361.966331975
 30
0.0
 40
2.718873815760231
100
AcDbArc
 50
329.5507634012
 51
30.4492365988
  0
ARC
  5
17D
330
1F
100
AcDbEntity
  8
0
  6
Continuous
 62
     7
370
    25
100
AcDbCircle
 10
8975.7307119849
 20
6361.9139583852
 30
0.0
 40
2.808099134995676
100
AcDbArc
 50
30.6187638277
 51
90.1691565214
  0
ARC
  5
17E
330
1F
100
AcDbEntity
  8
0
  6
Continuous
 62
     7
370
    25
100
AcDbCircle
 10
8975.7141310921
 20
6361.9139583852
 30
0.0
 40
2.808099134981796
100
AcDbArc
 50
89.8308434785
 51
149.3812361724
  0
ARC
  5
17F
330
1F
100
AcDbEntity
  8
0
  6
Continuous
 62
     7
370
    25
100
AcDbCircle
 10
8975.641433056
 20
6361.966331975
 30
0.0
 40
2.718873815739846
100
AcDbArc
 50
149.5507634009
 51
210.4492365991
  0
ARC
  5
180
330
1F
100
AcDbEntity
  8
0
  6
Continuous
 62
     7
370
    25
100
AcDbCircle
 10
8975.7141310921
 20
6362.0187055647
 30
0.0
 40
2.808099134978584
100
AcDbArc
 50
210.6187638275
 51
270.1691565215
  0
ARC
  5
181
330
1F
100
AcDbEntity
  8
0
  6
Continuous
 62
     7
370
    25
100
AcDbCircle
 10
8977.7187425132
 20
6363.0896555642
 30
0.0
 40
0.498439883018764
100
AcDbArc
 50
30.707769081
 51
106.4183001428
  0
ARC
  5
182
330
1F
100
AcDbEntity
  8
0
  6
Continuous
 62
     7
370
    25
100
AcDbCircle
 10
8977.2654002648
 20
6364.6172648729
 30
0.0
 40
1.095019785559747
100
AcDbArc
 50
194.2084009272
 51
286.5795194218
  0
ARC
  5
183
330
1F
100
AcDbEntity
  8
0
  6
Continuous
 62
     7
370
    25
100
AcDbCircle
 10
8975.7251174484
 20
6364.2284791852
 30
0.0
 40
0.4935734595506097
100
AcDbArc
 50
14.0726759085
 51
90.3129524548
  0
ARC
  5
184
330
1F
100
AcDbEntity
  8
0
  6
Continuous
 62
     7
370
    25
100
AcDbCircle
 10
8974.1794428122
 20
6364.6172648729
 30
0.0
 40
1.095019785557314
100
AcDbArc
 50
253.4204805781
 51
345.7915990729
  0
ARC
  5
185
330
1F
100
AcDbEntity
  8
0
  6
Continuous
 62
     7
370
    25
100
AcDbCircle
 10
8973.7261005638
 20
6363.0896555642
 30
0.0
 40
0.4984398830259013
100
AcDbArc
 50
73.5816998579
 51
149.292230918
  0
ARC
  5
186
330
1F
100
AcDbEntity
  8
0
  6
Continuous
 62
     7
370
    25
100
AcDbCircle
 10
8975.7197256286
 20
6364.2284791852
 30
0.0
 40
0.493573459553604
100
AcDbArc
 50
89.6870475461
 51
165.9273240915
  0
LINE
  5
187
330
1F
100
AcDbEntity
  8
0
  6
Continuous
 62
     7
370
    25
100
AcDbLine
 10
8978.0593158384
 20
6362.9419221214
 30
0.0
 11
8978.0593158384
 21
6362.7470538232
 31
0.0
  0
LWPOLYLINE
  5
188
330
1F
100
AcDbEntity
  8
0
  6
Continuous
 62
     7
370
    25
100
AcDbPolyline
 90
        3
 70
   128
 43
0.0
 10
8978.0593158384
 20
6362.9419221214
 10
8978.1581782872
 20
6363.0713316359
 10
8978.2036299385
 20
6363.1979709429
  0
ARC
  5
189
330
1F
100
AcDbEntity
  8
0
  6
Continuous
 62
     7
370
    25
100
AcDbCircle
 10
8977.7316325334
 20
6363.1003802178
 30
0.0
 40
0.4818878391453508
100
AcDbArc
 50
312.8435740265
 51
30.3940579072
  0
LWPOLYLINE
  5
18A
330
1F
100
AcDbEntity
  8
0
  6
Continuous
 62
     7
370
    25
100
AcDbPolyline
 90
        3
 70
   128
 43
0.0
 10
8973.2412131366
 20
6363.1979709523
 10
8973.2866647898
 20
6363.0713316359
 10
8973.3855272386
 20
6362.9419221214
  0
LINE
  5
18B
330
1F
100
AcDbEntity
  8
0
  6
Continuous
 62
     7
370
    25
100
AcDbLine
 10
8973.3855272386
 20
6362.9419221214
 30
0.0
 11
8973.3855272386
 21
6362.7470538232
 31
0.0
  0
ARC
  5
18C
330
1F
100
AcDbEntity
  8
0
  6
Continuous
 62
     7
370
    25
100
AcDbCircle
 10
8973.7132105436
 20
6363.1003802178
 30
0.0
 40
0.4818878391442419
100
AcDbArc
 50
149.6059420926
 51
227.1564259735
  0
ARC
  5
18D
330
1F
100
AcDbEntity
  8
0
  6
Continuous
 62
     7
370
    25
100
AcDbCircle
 10
8972.6608105575
 20
6361.966331975
 30
0.0
 40
1.065242165934352
100
AcDbArc
 50
312.8694708924
 51
47.1305291076
  0
ARC
  5
18E
330
1F
100
AcDbEntity
  8
0
  6
Continuous
 62
     7
370
    25
100
AcDbCircle
 10
8973.7132105436
 20
6360.8322837321
 30
0.0
 40
0.4818878391426729
100
AcDbArc
 50
132.8435740263
 51
210.3940579075
  0
ARC
  5
18F
330
1F
100
AcDbEntity
  8
0
  6
Continuous
 62
     7
370
    25
100
AcDbCircle
 10
8977.7316325334
 20
6360.8322837321
 30
0.0
 40
0.4818878391469809
100
AcDbArc
 50
329.6059420929
 51
47.1564259736
  0
ARC
  5
190
330
1F
100
AcDbEntity
  8
0
  6
Continuous
 62
     7
370
    25
100
AcDbCircle
 10
8978.7840325195
 20
6361.966331975
 30
0.0
 40
1.065242165935685
100
AcDbArc
 50
132.8694708924
 51
227.1305291075
  0
LWPOLYLINE
  5
191
330
1F
100
AcDbEntity
  8
0
  6
Continuous
 62
     7
370
    25
100
AcDbPolyline
 90
        3
 70
   128
 43
0.0
 10
8973.3855272386
 20
6362.9419221214
 10
8973.5299365796
 20
6362.7766180268
 10
8973.6162997898
 20
6362.6317456811
  0
LWPOLYLINE
  5
192
330
1F
100
AcDbEntity
  8
0
  6
Continuous
 62
     7
370
    25
100
AcDbPolyline
 90
        3
 70
   128
 43
0.0
 10
8973.6690231281
 20
6362.5050970912
 10
8973.7039168536
 20
6362.3780817728
 10
8973.7263499358
 20
6362.1612002731
  0
ARC
  5
193
330
1F
100
AcDbEntity
  8
0
  6
Continuous
 62
     7
370
    25
100
AcDbCircle
 10
8978.7868851704
 20
6362.1595493709
 30
0.0
 40
1.068393304690747
100
AcDbArc
 50
132.9213594321
 51
179.9114654038
  0
ARC
  5
194
330
1F
100
AcDbEntity
  8
0
  6
Continuous
 62
     7
370
    25
100
AcDbCircle
 10
8973.7255418149
 20
6361.0347755831
 30
0.0
 40
0.4956251754527161
100
AcDbArc
 50
192.25635858
 51
286.5815878975
  0
LINE
  5
195
330
1F
100
AcDbEntity
  8
0
  6
Continuous
 62
     7
370
    25
100
AcDbLine
 10
8973.8669835227
 20
6360.559761312
 30
0.0
 11
8973.8669835227
 21
6360.3648930138
 31
0.0
  0
ARC
  5
196
330
1F
100
AcDbEntity
  8
0
  6
Continuous
 62
     7
370
    25
100
AcDbCircle
 10
8973.7261005638
 20
6360.8430083858
 30
0.0
 40
0.4984398830202834
100
AcDbArc
 50
210.7077690815
 51
286.4183001426
  0
LINE
  5
197
330
1F
100
AcDbEntity
  8
0
  6
Continuous
 62
     7
370
    25
100
AcDbLine
 10
8977.5778595543
 20
6360.559761312
 30
0.0
 11
8977.5778595543
 21
6360.3648930138
 31
0.0
  0
ARC
  5
198
330
1F
100
AcDbEntity
  8
0
  6
Continuous
 62
     7
370
    25
100
AcDbCircle
 10
8977.7196934296
 20
6361.0341119621
 30
0.0
 40
0.495101391083891
100
AcDbArc
 50
253.3529990988
 51
347.8090603487
  0
ARC
  5
199
330
1F
100
AcDbEntity
  8
0
  6
Continuous
 62
     7
370
    25
100
AcDbCircle
 10
8977.7187425132
 20
6360.8430083858
 30
0.0
 40
0.4984398830220151
100
AcDbArc
 50
253.5816998573
 51
329.2922309184
  0
ARC
  5
19A
330
1F
100
AcDbEntity
  8
0
  6
Continuous
 62
     7
370
    25
100
AcDbCircle
 10
8974.1794428122
 20
6359.3153990771
 30
0.0
 40
1.095019785557278
100
AcDbArc
 50
14.2084009272
 51
106.5795194219
  0
ARC
  5
19B
330
1F
100
AcDbEntity
  8
0
  6
Continuous
 62
     7
370
    25
100
AcDbCircle
 10
8975.7197256286
 20
6359.7041847648
 30
0.0
 40
0.4935734595560319
100
AcDbArc
 50
194.0726759087
 51
270.3129524542
  0
ARC
  5
19C
330
1F
100
AcDbEntity
  8
0
  6
Continuous
 62
     7
370
    25
100
AcDbCircle
 10
8977.2654002648
 20
6359.3153990771
 30
0.0
 40
1.095019785556406
100
AcDbArc
 50
73.4204805781
 51
165.7915990729
  0
ARC
  5
19D
330
1F
100
AcDbEntity
  8
0
  6
Continuous
 62
     7
370
    25
100
AcDbCircle
 10
8975.7251174484
 20
6359.7041847648
 30
0.0
 40
0.4935734595478912
100
AcDbArc
 50
269.687047545
 51
345.9273240919
  0
LINE
  5
19E
330
1F
100
AcDbEntity
  8
0
  6
Continuous
 62
     7
370
    25
100
AcDbLine
 10
8976.2038778226
 20
6359.7790394637
 30
0.0
 11
8976.2038778226
 21
6359.5841711656
 31
0.0
  0
ARC
  5
19F
330
1F
100
AcDbEntity
  8
0
  6
Continuous
 62
     7
370
    25
100
AcDbCircle
 10
8977.2654002648
 20
6359.5102673753
 30
0.0
 40
1.095019785554434
100
AcDbArc
 50
73.420480578
 51
165.7915990731
  0
ARC
  5
1A0
330
1F
100
AcDbEntity
  8
0
  6
Continuous
 62
     7
370
    25
100
AcDbCircle
 10
8974.1794428122
 20
6359.5102673753
 30
0.0
 40
1.095019785561117
100
AcDbArc
 50
14.2084009273
 51
106.5795194218
  0
LINE
  5
1A1
330
1F
100
AcDbEntity
  8
0
  6
Continuous
 62
     7
370
    25
100
AcDbLine
 10
8975.2409652544
 20
6359.7790394637
 30
0.0
 11
8975.2409652544
 21
6359.5841711656
 31
0.0
  0
ARC
  5
1A2
330
1F
100
AcDbEntity
  8
0
  6
Continuous
 62
     7
370
    25
100
AcDbCircle
 10
8975.7224215385
 20
6359.9013978318
 30
0.0
 40
0.4967612341736387
100
AcDbArc
 50
194.2593957863
 51
345.7406042137
  0
LINE
  5
1A3
330
1F
100
AcDbEntity
  8
0
  6
Continuous
 62
     7
370
    25
100
AcDbLine
 10
9152.5210373614
 20
6367.9866909888
 30
0.0
 11
8957.5210373614
 21
6367.9866909888
 31
0.0
  0
LINE
  5
1A4
330
1F
100
AcDbEntity
  8
0
  6
Continuous
 62
     7
370
    25
100
AcDbLine
 10
9152.5210373614
 20
6176.070942814
 30
0.0
 11
9152.5210373614
 21
6367.9866909888
 31
0.0
  0
LINE
  5
1A5
330
1F
100
AcDbEntity
  8
0
  6
Continuous
 62
     7
370
    25
100
AcDbLine
 10
8957.5210373614
 20
6176.070942814
 30
0.0
 11
8972.9801654766
 21
6176.070942814
 31
0.0
  0
LINE
  5
1A6
330
1F
100
AcDbEntity
  8
0
  6
Continuous
 62
     7
370
    25
100
AcDbLine
 10
8978.4646776004
 20
6176.070942814
 30
0.0
 11
9132.9801654766
 21
6176.070942814
 31
0.0
  0
LINE
  5
1A7
330
1F
100
AcDbEntity
  8
0
  6
Continuous
 62
     7
370
    25
100
AcDbLine
 10
9138.4646776004
 20
6176.070942814
 30
0.0
 11
9152.5210373614
 21
6176.070942814
 31
0.0
  0
LINE
  5
1A8
330
1F
100
AcDbEntity
  8
0
  6
Continuous
 62
     7
370
    25
100
AcDbLine
 10
8957.5210373614
 20
6367.9866909888
 30
0.0
 11
8957.5210373614
 21
6176.070942814
 31
0.0
  0
LINE
  5
1A9
330
1F
100
AcDbEntity
  8
0
  6
Continuous
 62
     7
370
    25
100
AcDbLine
 10
9152.5210373614
 20
6367.9866909888
 30
0.0
 11
9152.5210373614
 21
6368.0044062887
 31
0.0
  0
LINE
  5
1AA
330
1F
100
AcDbEntity
  8
0
  6
Continuous
 62
     7
370
    25
100
AcDbLine
 10
8957.5210373614
 20
6367.9866909888
 30
0.0
 11
8957.5210373614
 21
6368.0044062887
 31
0.0
  0
LINE
  5
1AB
330
1F
100
AcDbEntity
  8
0
  6
Continuous
 62
     7
370
    25
100
AcDbLine
 10
8917.5210373614
 20
6419.1432692308
 30
0.0
 11
9392.5210373614
 21
6419.1432692308
 31
0.0
  0
LINE
  5
1AC
330
1F
100
AcDbEntity
  8
0
  6
Continuous
 62
     7
370
    25
100
AcDbLine
 10
9392.5210373614
 20
6419.1432692308
 30
0.0
 11
9392.5210373614
 21
6407.3717392476
 31
0.0
  0
LINE
  5
1AD
330
1F
100
AcDbEntity
  8
0
  6
Continuous
 62
     7
370
    25
100
AcDbLine
 10
9392.5210373614
 20
6407.3717392476
 30
0.0
 11
8917.5210373614
 21
6407.3717392476
 31
0.0
  0
LINE
  5
1AE
330
1F
100
AcDbEntity
  8
0
  6
Continuous
 62
     7
370
    25
100
AcDbLine
 10
8917.5210373614
 20
6407.3717392476
 30
0.0
 11
8917.5210373614
 21
6419.1432692308
 31
0.0
  0
LINE
  5
1AF
330
1F
100
AcDbEntity
  8
0
  6
Continuous
 62
     7
370
    25
100
AcDbLine
 10
9392.5210373614
 20
6419.1432692308
 30
0.0
 11
9560.5603287247
 21
6419.1432692308
 31
0.0
  0
LINE
  5
1B0
330
1F
100
AcDbEntity
  8
0
  6
Continuous
 62
     7
370
    25
100
AcDbLine
 10
9392.5210373614
 20
5920.7889632341
 30
0.0
 11
9392.5210373614
 21
6407.3717392476
 31
0.0
  0
LINE
  5
1B1
330
1F
100
AcDbEntity
  8
0
  6
Continuous
 62
     7
370
    25
100
AcDbLine
 10
8917.5210373614
 20
5920.7889632341
 30
0.0
 11
9392.5210373614
 21
5920.7889632341
 31
0.0
  0
LINE
  5
1B2
330
1F
100
AcDbEntity
  8
0
  6
Continuous
 62
     7
370
    25
100
AcDbLine
 10
9152.5210373614
 20
6368.0044062887
 30
0.0
 11
8957.5210373614
 21
6368.0044062887
 31
0.0
  0
LINE
  5
1B3
330
1F
100
AcDbEntity
  8
0
  6
Continuous
 62
     7
370
    25
100
AcDbLine
 10
8917.5210373614
 20
5920.7889632341
 30
0.0
 11
8917.5210373614
 21
6407.3717392476
 31
0.0
  0
LINE
  5
1B4
330
1F
100
AcDbEntity
  8
0
  6
Continuous
 62
     7
370
    25
100
AcDbLine
 10
9392.5210373614
 20
5920.7889632341
 30
0.0
 11
9392.5210373614
 21
5919.1432692308
 31
0.0
  0
LINE
  5
1B5
330
1F
100
AcDbEntity
  8
0
  6
Continuous
 62
     7
370
    25
100
AcDbLine
 10
9392.5210373614
 20
5919.1432692308
 30
0.0
 11
8917.5210373614
 21
5919.1432692308
 31
0.0
  0
LINE
  5
1B6
330
1F
100
AcDbEntity
  8
0
  6
Continuous
 62
     7
370
    25
100
AcDbLine
 10
8917.5210373614
 20
5919.1432692308
 30
0.0
 11
8917.5210373614
 21
5920.7889632341
 31
0.0
  0
LINE
  5
1B7
330
1F
100
AcDbEntity
  8
0
  6
Continuous
 62
     7
370
    25
100
AcDbLine
 10
9480.8488956341
 20
5919.1432692308
 30
0.0
 11
9392.5210373614
 21
5919.1432692308
 31
0.0
  0
LINE
  5
1B8
330
1F
100
AcDbEntity
  8
0
  6
Continuous
 62
     8
370
    25
100
AcDbLine
 10
9570.4021619644
 20
6407.3717392476
 30
0.0
 11
9392.5210373614
 21
6407.3717392476
 31
0.0
  0
LINE
  5
1B9
330
1F
100
AcDbEntity
  8
0
  6
Continuous
 62
     8
370
    25
100
AcDbLine
 10
9392.5210373614
 20
5920.7889632341
 30
0.0
 11
9482.817262282
 21
5920.7889632341
 31
0.0
  0
LINE
  5
1BA
330
1F
100
AcDbEntity
  8
0
  6
Continuous
 62
     7
370
    25
100
AcDbLine
 10
8390.5614167882
 20
5631.3607561008
 30
0.0
 11
8390.5614167882
 21
5631.2440308513
 31
0.0
  0
LINE
  5
1BB
330
1F
100
AcDbEntity
  8
0
  6
Continuous
 62
     7
370
    25
100
AcDbLine
 10
8470.9608894046
 20
5631.2440308513
 30
0.0
 11
8470.9608894046
 21
5631.3607561008
 31
0.0
  0
LINE
  5
1BC
330
1F
100
AcDbEntity
  8
0
  6
Continuous
 62
     7
370
    25
100
AcDbLine
 10
8252.7299394059
 20
5631.2440308513
 30
0.0
 11
8252.7299394059
 21
5156.2440308513
 31
0.0
  0
LINE
  5
1BD
330
1F
100
AcDbEntity
  8
0
  6
Continuous
 62
     7
370
    25
100
AcDbLine
 10
8608.8085221325
 20
5156.2440308513
 30
0.0
 11
8608.8085221325
 21
5631.2440308513
 31
0.0
  0
ARC
  5
1BE
330
1F
100
AcDbEntity
  8
0
  6
Continuous
 62
     7
370
    25
100
AcDbCircle
 10
8430.7692307692
 20
5156.2440308513
 30
0.0
 40
178.0392913632968
100
AcDbArc
 50
180.0
 51
0.0
  0
LINE
  5
1BF
330
1F
100
AcDbEntity
  8
0
  6
Continuous
 62
     7
370
    25
100
AcDbLine
 10
8470.9608894046
 20
5631.3607561008
 30
0.0
 11
8390.5614167882
 21
5631.3607561008
 31
0.0
  0
ARC
  5
1C0
330
1F
100
AcDbEntity
  8
0
  6
Continuous
 62
     7
370
    25
100
AcDbCircle
 10
8350.7692307692
 20
5411.2440308513
 30
0.0
 40
2.799999999999562
100
AcDbArc
 50
75.0328408211
 51
135.0328408211
  0
ARC
  5
1C1
330
1F
100
AcDbEntity
  8
0
  6
Continuous
 62
     7
370
    25
100
AcDbCircle
 10
8351.3644975298
 20
5413.4707009977
 30
0.0
 40
0.4951350457337406
100
AcDbArc
 50
75.032840821
 51
151.5337624171
  0
ARC
  5
1C2
330
1F
100
AcDbEntity
  8
0
  6
Continuous
 62
     7
370
    25
100
AcDbCircle
 10
8349.9678590268
 20
5414.227948565
 30
0.0
 40
1.093582357150438
100
AcDbArc
 50
238.5319192249
 51
331.5337624174
  0
ARC
  5
1C3
330
1F
100
AcDbEntity
  8
0
  6
Continuous
 62
     7
370
    25
100
AcDbCircle
 10
8349.1385112368
 20
5412.8728820612
 30
0.0
 40
0.4951350457340063
100
AcDbArc
 50
58.5319192245
 51
135.032840821
  0
ARC
  5
1C4
330
1F
100
AcDbEntity
  8
0
  6
Continuous
 62
     7
370
    25
100
AcDbCircle
 10
8347.7843963552
 20
5412.0419814213
 30
0.0
 40
1.093582357152848
100
AcDbArc
 50
298.5319192249
 51
31.5337624173
  0
ARC
  5
1C5
330
1F
100
AcDbEntity
  8
0
  6
Continuous
 62
     7
370
    25
100
AcDbCircle
 10
8348.5432444762
 20
5410.6462119148
 30
0.0
 40
0.4951350457325962
100
AcDbArc
 50
118.5319192246
 51
195.032840821
  0
ARC
  5
1C6
330
1F
100
AcDbEntity
  8
0
  6
Continuous
 62
     7
370
    25
100
AcDbCircle
 10
8350.7692307692
 20
5411.2440308513
 30
0.0
 40
2.800000000001087
100
AcDbArc
 50
135.0328408211
 51
195.0328408211
  0
ARC
  5
1C7
330
1F
100
AcDbEntity
  8
0
  6
Continuous
 62
     7
370
    25
100
AcDbCircle
 10
8349.1385112368
 20
5412.8728820612
 30
0.0
 40
0.4951350457335804
100
AcDbArc
 50
135.032840821
 51
211.5337624173
  0
CIRCLE
  5
1C8
330
1F
100
AcDbEntity
  8
0
  6
Continuous
 62
     7
370
    25
100
AcDbCircle
 10
8350.7692307692
 20
5411.2440308513
 30
0.0
 40
5.250000000000078
  0
ARC
  5
1C9
330
1F
100
AcDbEntity
  8
0
  6
Continuous
 62
     7
370
    25
100
AcDbCircle
 10
8350.7692307692
 20
5411.2440308513
 30
0.0
 40
2.800000000001319
100
AcDbArc
 50
195.0328408211
 51
255.0328408211
  0
ARC
  5
1CA
330
1F
100
AcDbEntity
  8
0
  6
Continuous
 62
     7
370
    25
100
AcDbCircle
 10
8350.7692307692
 20
5411.2440308513
 30
0.0
 40
2.800000000001319
100
AcDbArc
 50
255.0328408211
 51
315.032840821
  0
ARC
  5
1CB
330
1F
100
AcDbEntity
  8
0
  6
Continuous
 62
     7
370
    25
100
AcDbCircle
 10
8350.7692307692
 20
5411.2440308513
 30
0.0
 40
2.799999999999566
100
AcDbArc
 50
315.032840821
 51
15.0328408211
  0
ARC
  5
1CC
330
1F
100
AcDbEntity
  8
0
  6
Continuous
 62
     7
370
    25
100
AcDbCircle
 10
8350.7692307692
 20
5411.2440308513
 30
0.0
 40
2.799999999999566
100
AcDbArc
 50
15.0328408211
 51
75.0328408211
  0
ARC
  5
1CD
330
1F
100
AcDbEntity
  8
0
  6
Continuous
 62
     7
370
    25
100
AcDbCircle
 10
8352.3999503016
 20
5409.6151796413
 30
0.0
 40
0.4951350457321534
100
AcDbArc
 50
315.0328408208
 51
31.533762417
  0
ARC
  5
1CE
330
1F
100
AcDbEntity
  8
0
  6
Continuous
 62
     7
370
    25
100
AcDbCircle
 10
8353.7540651833
 20
5410.4460802813
 30
0.0
 40
1.093582357151111
100
AcDbArc
 50
118.5319192247
 51
211.5337624175
  0
ARC
  5
1CF
330
1F
100
AcDbEntity
  8
0
  6
Continuous
 62
     7
370
    25
100
AcDbCircle
 10
8352.9952170622
 20
5411.8418497878
 30
0.0
 40
0.4951350457330896
100
AcDbArc
 50
298.531919225
 51
15.0328408211
  0
ARC
  5
1D0
330
1F
100
AcDbEntity
  8
0
  6
Continuous
 62
     7
370
    25
100
AcDbCircle
 10
8350.1739640086
 20
5409.0173607048
 30
0.0
 40
0.4951350457323922
100
AcDbArc
 50
255.0328408212
 51
331.5337624174
  0
ARC
  5
1D1
330
1F
100
AcDbEntity
  8
0
  6
Continuous
 62
     7
370
    25
100
AcDbCircle
 10
8351.5706025117
 20
5408.2601131376
 30
0.0
 40
1.093582357153879
100
AcDbArc
 50
58.5319192247
 51
151.5337624173
  0
ARC
  5
1D2
330
1F
100
AcDbEntity
  8
0
  6
Continuous
 62
     7
370
    25
100
AcDbCircle
 10
8352.3999503016
 20
5409.6151796413
 30
0.0
 40
0.4951350457328829
100
AcDbArc
 50
238.5319192249
 51
315.0328408208
  0
ARC
  5
1D3
330
1F
100
AcDbEntity
  8
0
  6
Continuous
 62
     7
370
    25
100
AcDbCircle
 10
8350.1739640086
 20
5409.0173607048
 30
0.0
 40
0.4951350457323922
100
AcDbArc
 50
178.5319192247
 51
255.0328408212
  0
ARC
  5
1D4
330
1F
100
AcDbEntity
  8
0
  6
Continuous
 62
     7
370
    25
100
AcDbCircle
 10
8348.5432444762
 20
5410.6462119148
 30
0.0
 40
0.495135045733182
100
AcDbArc
 50
195.032840821
 51
271.5337624176
  0
ARC
  5
1D5
330
1F
100
AcDbEntity
  8
0
  6
Continuous
 62
     7
370
    25
100
AcDbCircle
 10
8348.5857680976
 20
5409.0580637076
 30
0.0
 40
1.093582357152531
100
AcDbArc
 50
358.5319192247
 51
91.5337624172
  0
ARC
  5
1D6
330
1F
100
AcDbEntity
  8
0
  6
Continuous
 62
     7
370
    25
100
AcDbCircle
 10
8352.9526934408
 20
5413.4299979949
 30
0.0
 40
1.093582357152531
100
AcDbArc
 50
178.5319192247
 51
271.5337624174
  0
ARC
  5
1D7
330
1F
100
AcDbEntity
  8
0
  6
Continuous
 62
     7
370
    25
100
AcDbCircle
 10
8351.3644975298
 20
5413.4707009977
 30
0.0
 40
0.4951350457337406
100
AcDbArc
 50
358.531919225
 51
75.032840821
  0
ARC
  5
1D8
330
1F
100
AcDbEntity
  8
0
  6
Continuous
 62
     7
370
    25
100
AcDbCircle
 10
8352.9952170622
 20
5411.8418497878
 30
0.0
 40
0.4951350457328321
100
AcDbArc
 50
15.0328408211
 51
91.5337624172
  0
ARC
  5
1D9
330
1F
100
AcDbEntity
  8
0
  6
Continuous
 62
     7
370
    25
100
AcDbCircle
 10
8511.9478946541
 20
5414.1000268313
 30
0.0
 40
1.093582357152127
100
AcDbArc
 50
201.0732357286
 51
294.0750789212
  0
ARC
  5
1DA
330
1F
100
AcDbEntity
  8
0
  6
Continuous
 62
     7
370
    25
100
AcDbCircle
 10
8510.4654281349
 20
5413.5287860716
 30
0.0
 40
0.4951350457340936
100
AcDbArc
 50
21.0732357287
 51
97.5741573251
  0
ARC
  5
1DB
330
1F
100
AcDbEntity
  8
0
  6
Continuous
 62
     7
370
    25
100
AcDbCircle
 10
8510.7692307692
 20
5411.2440308513
 30
0.0
 40
2.800000000001424
100
AcDbArc
 50
37.5741573248
 51
97.5741573248
  0
ARC
  5
1DC
330
1F
100
AcDbEntity
  8
0
  6
Continuous
 62
     7
370
    25
100
AcDbCircle
 10
8512.5959855143
 20
5412.6495092605
 30
0.0
 40
0.4951350457331435
100
AcDbArc
 50
37.5741573247
 51
114.075078921
  0
CIRCLE
  5
1DD
330
1F
100
AcDbEntity
  8
0
  6
Continuous
 62
     7
370
    25
100
AcDbCircle
 10
8510.7692307692
 20
5411.2440308513
 30
0.0
 40
5.250000000000447
  0
ARC
  5
1DE
330
1F
100
AcDbEntity
  8
0
  6
Continuous
 62
     7
370
    25
100
AcDbCircle
 10
8510.7692307692
 20
5411.2440308513
 30
0.0
 40
2.800000000001424
100
AcDbArc
 50
97.5741573248
 51
157.5741573248
  0
ARC
  5
1DF
330
1F
100
AcDbEntity
  8
0
  6
Continuous
 62
     7
370
    25
100
AcDbCircle
 10
8510.7692307692
 20
5411.2440308513
 30
0.0
 40
2.79999999999973
100
AcDbArc
 50
157.5741573248
 51
217.5741573248
  0
ARC
  5
1E0
330
1F
100
AcDbEntity
  8
0
  6
Continuous
 62
     7
370
    25
100
AcDbCircle
 10
8510.7692307692
 20
5411.2440308513
 30
0.0
 40
2.799999999997818
100
AcDbArc
 50
217.5741573248
 51
277.5741573248
  0
ARC
  5
1E1
330
1F
100
AcDbEntity
  8
0
  6
Continuous
 62
     7
370
    25
100
AcDbCircle
 10
8510.7692307692
 20
5411.2440308513
 30
0.0
 40
2.800000000000371
100
AcDbArc
 50
277.5741573248
 51
337.5741573249
  0
ARC
  5
1E2
330
1F
100
AcDbEntity
  8
0
  6
Continuous
 62
     7
370
    25
100
AcDbCircle
 10
8510.7692307692
 20
5411.2440308513
 30
0.0
 40
2.800000000000903
100
AcDbArc
 50
337.5741573249
 51
37.5741573248
  0
ARC
  5
1E3
330
1F
100
AcDbEntity
  8
0
  6
Continuous
 62
     7
370
    25
100
AcDbCircle
 10
8512.8997881486
 20
5410.3647540402
 30
0.0
 40
0.495135045733814
100
AcDbArc
 50
337.5741573249
 51
54.075078921
  0
ARC
  5
1E4
330
1F
100
AcDbEntity
  8
0
  6
Continuous
 62
     7
370
    25
100
AcDbCircle
 10
8513.8319277835
 20
5411.6512759745
 30
0.0
 40
1.0935823571521
100
AcDbArc
 50
141.0732357286
 51
234.0750789211
  0
ARC
  5
1E5
330
1F
100
AcDbEntity
  8
0
  6
Continuous
 62
     7
370
    25
100
AcDbCircle
 10
8512.5959855143
 20
5412.6495092605
 30
0.0
 40
0.4951350457335049
100
AcDbArc
 50
321.0732357285
 51
37.5741573247
  0
ARC
  5
1E6
330
1F
100
AcDbEntity
  8
0
  6
Continuous
 62
     7
370
    25
100
AcDbCircle
 10
8510.4654281349
 20
5413.5287860716
 30
0.0
 40
0.4951350457346186
100
AcDbArc
 50
97.5741573251
 51
174.0750789211
  0
ARC
  5
1E7
330
1F
100
AcDbEntity
  8
0
  6
Continuous
 62
     7
370
    25
100
AcDbCircle
 10
8508.8851976398
 20
5413.6927817081
 30
0.0
 40
1.093582357153181
100
AcDbArc
 50
261.0732357285
 51
354.075078921
  0
ARC
  5
1E8
330
1F
100
AcDbEntity
  8
0
  6
Continuous
 62
     7
370
    25
100
AcDbCircle
 10
8508.6386733898
 20
5412.1233076624
 30
0.0
 40
0.4951350457305996
100
AcDbArc
 50
81.0732357285
 51
157.5741573247
  0
ARC
  5
1E9
330
1F
100
AcDbEntity
  8
0
  6
Continuous
 62
     7
370
    25
100
AcDbCircle
 10
8508.9424760242
 20
5409.838552442
 30
0.0
 40
0.4951350457320343
100
AcDbArc
 50
217.5741573245
 51
294.0750789208
  0
ARC
  5
1EA
330
1F
100
AcDbEntity
  8
0
  6
Continuous
 62
     7
370
    25
100
AcDbCircle
 10
8511.0730334036
 20
5408.959275631
 30
0.0
 40
0.4951350457331188
100
AcDbArc
 50
201.0732357284
 51
277.5741573247
  0
ARC
  5
1EB
330
1F
100
AcDbEntity
  8
0
  6
Continuous
 62
     7
370
    25
100
AcDbCircle
 10
8509.5905668843
 20
5408.3880348712
 30
0.0
 40
1.093582357151801
100
AcDbArc
 50
21.0732357285
 51
114.0750789212
  0
ARC
  5
1EC
330
1F
100
AcDbEntity
  8
0
  6
Continuous
 62
     7
370
    25
100
AcDbCircle
 10
8508.9424760242
 20
5409.838552442
 30
0.0
 40
0.4951350457354914
100
AcDbArc
 50
141.0732357286
 51
217.5741573245
  0
ARC
  5
1ED
330
1F
100
AcDbEntity
  8
0
  6
Continuous
 62
     7
370
    25
100
AcDbCircle
 10
8507.706533755
 20
5410.8367857281
 30
0.0
 40
1.093582357151032
100
AcDbArc
 50
321.0732357286
 51
54.0750789212
  0
ARC
  5
1EE
330
1F
100
AcDbEntity
  8
0
  6
Continuous
 62
     7
370
    25
100
AcDbCircle
 10
8508.6386733898
 20
5412.1233076624
 30
0.0
 40
0.4951350457330417
100
AcDbArc
 50
157.5741573247
 51
234.0750789212
  0
ARC
  5
1EF
330
1F
100
AcDbEntity
  8
0
  6
Continuous
 62
     7
370
    25
100
AcDbCircle
 10
8512.6532638986
 20
5408.7952799944
 30
0.0
 40
1.093582357153001
100
AcDbArc
 50
81.0732357286
 51
174.0750789211
  0
ARC
  5
1F0
330
1F
100
AcDbEntity
  8
0
  6
Continuous
 62
     7
370
    25
100
AcDbCircle
 10
8512.8997881486
 20
5410.3647540402
 30
0.0
 40
0.495135045733814
100
AcDbArc
 50
261.0732357287
 51
337.5741573249
  0
ARC
  5
1F1
330
1F
100
AcDbEntity
  8
0
  6
Continuous
 62
     7
370
    25
100
AcDbCircle
 10
8511.0730334036
 20
5408.959275631
 30
0.0
 40
0.4951350457309061
100
AcDbArc
 50
277.5741573247
 51
354.0750789212
  0
LINE
  5
1F2
330
1F
100
AcDbEntity
  8
0
  6
Continuous
 62
     7
370
    25
100
AcDbLine
 10
8297.64673177
 20
5156.2440308513
 30
0.0
 11
8297.64673177
 21
5221.2440308513
 31
0.0
  0
ARC
  5
1F3
330
1F
100
AcDbEntity
  8
0
  6
Continuous
 62
     7
370
    25
100
AcDbCircle
 10
8430.7692307692
 20
5156.2440308513
 30
0.0
 40
133.1224989992006
100
AcDbArc
 50
180.0
 51
0.0
  0
LINE
  5
1F4
330
1F
100
AcDbEntity
  8
0
  6
Continuous
 62
     7
370
    25
100
AcDbLine
 10
8563.8917297684
 20
5221.2440308513
 30
0.0
 11
8563.8917297684
 21
5156.2440308513
 31
0.0
  0
ARC
  5
1F5
330
1F
100
AcDbEntity
  8
0
  6
Continuous
 62
     7
370
    25
100
AcDbCircle
 10
8430.7692307692
 20
5221.2440308513
 30
0.0
 40
133.1224989992006
100
AcDbArc
 50
0.0
 51
180.0
  0
ARC
  5
1F6
330
1F
100
AcDbEntity
  8
0
  6
Continuous
 62
     7
370
    25
100
AcDbCircle
 10
8430.7692307692
 20
5156.2440308513
 30
0.0
 40
168.0392913632968
100
AcDbArc
 50
180.0
 51
0.0
  0
LINE
  5
1F7
330
1F
100
AcDbEntity
  8
0
  6
Continuous
 62
     7
370
    25
100
AcDbLine
 10
8262.7299394059
 20
5631.2440308513
 30
0.0
 11
8262.7299394059
 21
5156.2440308513
 31
0.0
  0
LINE
  5
1F8
330
1F
100
AcDbEntity
  8
0
  6
Continuous
 62
     7
370
    25
100
AcDbLine
 10
8598.8085221325
 20
5156.2440308513
 30
0.0
 11
8598.8085221325
 21
5631.2440308513
 31
0.0
  0
LINE
  5
1F9
330
1F
100
AcDbEntity
  8
0
  6
Continuous
 62
     7
370
    25
100
AcDbLine
 10
8262.7299394059
 20
5631.2440308513
 30
0.0
 11
8598.8085221325
 21
5631.2440308513
 31
0.0
  0
LINE
  5
1FA
330
1F
100
AcDbEntity
  8
0
  6
Continuous
 62
     7
370
    25
100
AcDbLine
 10
8252.7299394059
 20
5631.2440308513
 30
0.0
 11
8262.7299394059
 21
5631.2440308513
 31
0.0
  0
LINE
  5
1FB
330
1F
100
AcDbEntity
  8
0
  6
Continuous
 62
     7
370
    25
100
AcDbLine
 10
8598.8085221325
 20
5631.2440308513
 30
0.0
 11
8608.8085221325
 21
5631.2440308513
 31
0.0
  0
LINE
  5
1FC
330
1F
100
AcDbEntity
  8
0
  6
Continuous
 62
     7
370
    25
100
AcDbLine
 10
8563.8917297684
 20
5221.2440308513
 30
0.0
 11
8560.7692307692
 21
5221.2440308513
 31
0.0
  0
ARC
  5
1FD
330
1F
100
AcDbEntity
  8
0
  6
Continuous
 62
     7
370
    25
100
AcDbCircle
 10
8430.7692307692
 20
5221.2440308513
 30
0.0
 40
130.0000000000018
100
AcDbArc
 50
0.0
 51
180.0
  0
LINE
  5
1FE
330
1F
100
AcDbEntity
  8
0
  6
Continuous
 62
     7
370
    25
100
AcDbLine
 10
8297.64673177
 20
5221.2440308513
 30
0.0
 11
8300.7692307692
 21
5221.2440308513
 31
0.0
  0
LINE
  5
1FF
330
1F
100
AcDbEntity
  8
0
  6
Continuous
 62
     7
370
    25
100
AcDbLine
 10
8560.7692307692
 20
5156.2440308513
 30
0.0
 11
8560.7692307692
 21
5221.2440308513
 31
0.0
  0
LINE
  5
200
330
1F
100
AcDbEntity
  8
0
  6
Continuous
 62
     7
370
    25
100
AcDbLine
 10
8560.7692307692
 20
5156.2440308513
 30
0.0
 11
8563.8917297684
 21
5156.2440308513
 31
0.0
  0
LINE
  5
201
330
1F
100
AcDbEntity
  8
0
  6
Continuous
 62
     7
370
    25
100
AcDbLine
 10
8300.7692307692
 20
5221.2440308513
 30
0.0
 11
8300.7692307692
 21
5156.2440308513
 31
0.0
  0
LINE
  5
202
330
1F
100
AcDbEntity
  8
0
  6
Continuous
 62
     7
370
    25
100
AcDbLine
 10
8300.7692307692
 20
5156.2440308513
 30
0.0
 11
8297.64673177
 21
5156.2440308513
 31
0.0
  0
ARC
  5
203
330
1F
100
AcDbEntity
  8
0
  6
Continuous
 62
     7
370
    25
100
AcDbCircle
 10
8430.7692307692
 20
5156.2440308513
 30
0.0
 40
130.0000000000018
100
AcDbArc
 50
180.0
 51
0.0
  0
ARC
  5
204
330
1F
100
AcDbEntity
  8
0
  6
Continuous
 62
     7
370
    25
100
AcDbCircle
 10
8430.7692307692
 20
5221.2440308513
 30
0.0
 40
120.0
100
AcDbArc
 50
0.0
 51
180.0
  0
LINE
  5
205
330
1F
100
AcDbEntity
  8
0
  6
Continuous
 62
     7
370
    25
100
AcDbLine
 10
8310.7692307692
 20
5221.2440308513
 30
0.0
 11
8306.7692307692
 21
5221.2440308513
 31
0.0
  0
ARC
  5
206
330
1F
100
AcDbEntity
  8
0
  6
Continuous
 62
     7
370
    25
100
AcDbCircle
 10
8430.7692307692
 20
5221.2440308513
 30
0.0
 40
124.0000000000018
100
AcDbArc
 50
0.0
 51
180.0
  0
LINE
  5
207
330
1F
100
AcDbEntity
  8
0
  6
Continuous
 62
     7
370
    25
100
AcDbLine
 10
8550.7692307692
 20
5221.2440308513
 30
0.0
 11
8554.7692307692
 21
5221.2440308513
 31
0.0
  0
LINE
  5
208
330
1F
100
AcDbEntity
  8
0
  6
Continuous
 62
     7
370
    25
100
AcDbLine
 10
8554.7692307692
 20
5221.2440308513
 30
0.0
 11
8554.7692307692
 21
5156.2440308513
 31
0.0
  0
LINE
  5
209
330
1F
100
AcDbEntity
  8
0
  6
Continuous
 62
     7
370
    25
100
AcDbLine
 10
8306.7692307692
 20
5156.2440308513
 30
0.0
 11
8306.7692307692
 21
5221.2440308513
 31
0.0
  0
ARC
  5
20A
330
1F
100
AcDbEntity
  8
0
  6
Continuous
 62
     7
370
    25
100
AcDbCircle
 10
8430.7692307692
 20
5156.2440308513
 30
0.0
 40
124.0000000000018
100
AcDbArc
 50
180.0
 51
0.0
  0
LINE
  5
20B
330
1F
100
AcDbEntity
  8
0
  6
Continuous
 62
     7
370
    25
100
AcDbLine
 10
8554.7692307692
 20
5156.2440308513
 30
0.0
 11
8550.7692307692
 21
5156.2440308513
 31
0.0
  0
LINE
  5
20C
330
1F
100
AcDbEntity
  8
0
  6
Continuous
 62
     7
370
    25
100
AcDbLine
 10
8550.7692307692
 20
5156.2440308513
 30
0.0
 11
8550.7692307692
 21
5221.2440308513
 31
0.0
  0
LINE
  5
20D
330
1F
100
AcDbEntity
  8
0
  6
Continuous
 62
     7
370
    25
100
AcDbLine
 10
8310.7692307692
 20
5221.2440308513
 30
0.0
 11
8310.7692307692
 21
5156.2440308513
 31
0.0
  0
LINE
  5
20E
330
1F
100
AcDbEntity
  8
0
  6
Continuous
 62
     7
370
    25
100
AcDbLine
 10
8306.7692307692
 20
5156.2440308513
 30
0.0
 11
8310.7692307692
 21
5156.2440308513
 31
0.0
  0
ARC
  5
20F
330
1F
100
AcDbEntity
  8
0
  6
Continuous
 62
     7
370
    25
100
AcDbCircle
 10
8430.7692307692
 20
5156.2440308513
 30
0.0
 40
120.0
100
AcDbArc
 50
180.0
 51
0.0
  0
CIRCLE
  5
210
330
1F
100
AcDbEntity
  8
0
  6
Continuous
 62
     7
370
    25
100
AcDbCircle
 10
8430.7719369117
 20
5221.2441490997
 30
0.0
 40
39.99988184313014
  0
ARC
  5
211
330
1F
100
AcDbEntity
  8
0
  6
Continuous
 62
     7
370
    25
100
AcDbCircle
 10
8430.7692307692
 20
5221.2547522681
 30
0.0
 40
34.99999996313505
100
AcDbArc
 50
180.0085785889
 51
359.9914214112
  0
ARC
  5
212
330
1F
100
AcDbEntity
  8
0
  6
Continuous
 62
     7
370
    25
100
AcDbCircle
 10
8430.7692307692
 20
5221.2440308513
 30
0.0
 40
37.95803989154906
100
AcDbArc
 50
179.9910273907
 51
0.0089726094
  0
ARC
  5
213
330
1F
100
AcDbEntity
  8
0
  6
Continuous
 62
     7
370
    25
100
AcDbCircle
 10
8430.7692307692
 20
5221.2440308513
 30
0.0
 40
37.95803989154906
100
AcDbArc
 50
0.0089726094
 51
179.9910273907
  0
ARC
  5
214
330
1F
100
AcDbEntity
  8
0
  6
Continuous
 62
     7
370
    25
100
AcDbCircle
 10
8430.7692307692
 20
5221.2440308513
 30
0.0
 40
35.0000000000004
100
AcDbArc
 50
0.0089726094
 51
179.9910273907
  0
LINE
  5
215
330
1F
100
AcDbEntity
  8
0
  6
Continuous
 62
     7
370
    25
100
AcDbLine
 10
8392.8111913431
 20
5221.2499751401
 30
0.0
 11
8395.7692311984
 21
5221.2495119064
 31
0.0
  0
LINE
  5
216
330
1F
100
AcDbEntity
  8
0
  6
Continuous
 62
     7
370
    25
100
AcDbLine
 10
8465.7692303401
 20
5221.2495119064
 30
0.0
 11
8468.7272701953
 21
5221.2499751401
 31
0.0
  0
ARC
  5
217
330
1F
100
AcDbEntity
  8
0
  6
Continuous
 62
     7
370
    25
100
AcDbCircle
 10
8430.7692307692
 20
5221.2440308513
 30
0.0
 40
35.0000000000004
100
AcDbArc
 50
179.9910273907
 51
0.0089726094
  0
LINE
  5
218
330
1F
100
AcDbEntity
  8
0
  6
Continuous
 62
     8
370
    25
100
AcDbLine
 10
8262.7299394059
 20
5156.2440308513
 30
0.0
 11
8252.7299394059
 21
5156.2440308513
 31
0.0
  0
LINE
  5
219
330
1F
100
AcDbEntity
  8
0
  6
Continuous
 62
     8
370
    25
100
AcDbLine
 10
8598.8085221325
 20
5156.2440308513
 30
0.0
 11
8608.8085221325
 21
5156.2440308513
 31
0.0
  0
ENDSEC
  0
SECTION
  2
OBJECTS
  0
DICTIONARY
  5
C
330
0
100
AcDbDictionary
281
     1
  3
ACAD_GROUP
350
D
  3
ACAD_LAYOUT
350
1A
  3
ACAD_MLINESTYLE
350
17
  3
ACAD_PLOTSETTINGS
350
19
  3
ACAD_PLOTSTYLENAME
350
E
  3
ACAD_SCALELIST
350
47
  3
DWGPROPS
350
21A
  0
DICTIONARY
  5
D
102
{ACAD_REACTORS
330
C
102
}
330
C
100
AcDbDictionary
281
     1
  0
DICTIONARY
  5
1A
102
{ACAD_REACTORS
330
C
102
}
330
C
100
AcDbDictionary
281
     1
  3
Layout1
350
1E
  3
Layout2
350
26
  3
Model
350
22
  0
DICTIONARY
  5
17
102
{ACAD_REACTORS
330
C
102
}
330
C
100
AcDbDictionary
281
     1
  3
Standard
350
18
  0
DICTIONARY
  5
19
102
{ACAD_REACTORS
330
C
102
}
330
C
100
AcDbDictionary
281
     1
  0
ACDBDICTIONARYWDFLT
  5
E
102
{ACAD_REACTORS
330
C
102
}
330
C
100
AcDbDictionary
281
     1
  3
Normal
350
F
100
AcDbDictionaryWithDefault
340
F
  0
DICTIONARY
  5
47
102
{ACAD_REACTORS
330
C
102
}
330
C
100
AcDbDictionary
281
     1
  3
A0
350
48
  3
A1
350
49
  3
A2
350
4A
  3
A3
350
4B
  3
A4
350
4C
  3
A5
350
4D
  3
A6
350
4E
  3
A7
350
4F
  3
A8
350
50
  3
A9
350
51
  3
B0
350
52
  3
B1
350
53
  3
B2
350
54
  3
B3
350
55
  3
B4
350
56
  3
B5
350
57
  3
B6
350
58
  3
B7
350
59
  3
B8
350
5A
  3
B9
350
5B
  3
C0
350
5C
  3
C1
350
5D
  3
C2
350
5E
  3
C3
350
5F
  3
C4
350
60
  3
C5
350
61
  3
C6
350
62
  3
C7
350
63
  3
C8
350
64
  3
C9
350
65
  3
D0
350
66
  3
D1
350
67
  3
D2
350
68
  0
XRECORD
  5
21A
102
{ACAD_REACTORS
330
C
102
}
330
C
100
AcDbXrecord
280
     1
  1
DWGPROPS COOKIE
  2

  3

  4

  6

  7

  8
radek.stransky
  9

300
=
301
=
302
=
303
=
304
=
305
=
306
=
307
=
308
=
309
=
 40
0.0
 41
2459104.43135007
 42
2459104.431350301
  1

 90
        0
  0
LAYOUT
  5
1E
102
{ACAD_REACTORS
330
1A
102
}
330
1A
100
AcDbPlotSettings
  1

  2
none_device
  4

  6

 40
0.0
 41
0.0
 42
0.0
 43
0.0
 44
0.0
 45
0.0
 46
0.0
 47
0.0
 48
0.0
 49
0.0
140
0.0
141
0.0
142
1.0
143
1.0
 70
   688
 72
     1
 73
     0
 74
     5
  7

 75
    16
147
1.0
148
0.0
149
0.0
100
AcDbLayout
  1
Layout1
 70
     1
 71
     1
 10
0.0
 20
0.0
 11
420.0
 21
297.0
 12
0.0
 22
0.0
 32
0.0
 14
1.0000000000E+20
 24
1.0000000000E+20
 34
1.0000000000E+20
 15
-1.0000000000E+20
 25
-1.0000000000E+20
 35
-1.0000000000E+20
146
0.0
 13
0.0
 23
0.0
 33
0.0
 16
1.0
 26
0.0
 36
0.0
 17
0.0
 27
1.0
 37
0.0
 76
     0
330
1B
  0
LAYOUT
  5
26
102
{ACAD_REACTORS
330
1A
102
}
330
1A
100
AcDbPlotSettings
  1

  2
none_device
  4

  6

 40
0.0
 41
0.0
 42
0.0
 43
0.0
 44
0.0
 45
0.0
 46
0.0
 47
0.0
 48
0.0
 49
0.0
140
0.0
141
0.0
142
1.0
143
1.0
 70
   688
 72
     1
 73
     0
 74
     5
  7

 75
    16
147
1.0
148
0.0
149
0.0
100
AcDbLayout
  1
Layout2
 70
     1
 71
     2
 10
0.0
 20
0.0
 11
0.0
 21
0.0
 12
0.0
 22
0.0
 32
0.0
 14
0.0
 24
0.0
 34
0.0
 15
0.0
 25
0.0
 35
0.0
146
0.0
 13
0.0
 23
0.0
 33
0.0
 16
1.0
 26
0.0
 36
0.0
 17
0.0
 27
1.0
 37
0.0
 76
     0
330
23
  0
LAYOUT
  5
22
102
{ACAD_REACTORS
330
1A
102
}
330
1A
100
AcDbPlotSettings
  1

  2
none_device
  4
Letter_(8.50_x_11.00_Inches)
  6

 40
6.35
 41
6.35
 42
6.35000508
 43
6.35000508
 44
215.9
 45
279.4
 46
0.0
 47
0.0
 48
0.0
 49
0.0
140
0.0
141
0.0
142
1.0
143
1.0
 70
  1712
 72
     1
 73
     0
 74
     0
  7

 75
     0
147
1.0
148
0.0
149
0.0
100
AcDbLayout
  1
Model
 70
     1
 71
     0
 10
0.0
 20
0.0
 11
20000.0
 21
10000.0
 12
0.0
 22
0.0
 32
0.0
 14
0.0
 24
0.0
 34
0.0
 15
20000.0
 25
10000.0
 35
0.0
146
0.0
 13
0.0
 23
0.0
 33
0.0
 16
1.0
 26
0.0
 36
0.0
 17
0.0
 27
1.0
 37
0.0
 76
     0
330
1F
331
29
  0
MLINESTYLE
  5
18
102
{ACAD_REACTORS
330
17
102
}
330
17
100
AcDbMlineStyle
  2
Standard
 70
     0
  3

 62
   256
 51
90.0
 52
90.0
 71
     2
 49
0.5
 62
   256
  6
BYLAYER
 49
-0.5
 62
   256
  6
BYLAYER
  0
ACDBPLACEHOLDER
  5
F
102
{ACAD_REACTORS
330
E
102
}
330
E
  0
SCALE
  5
48
102
{ACAD_REACTORS
330
47
102
}
330
47
100
AcDbScale
 70
     0
300
1:1
140
1.0
141
1.0
290
     1
  0
SCALE
  5
49
102
{ACAD_REACTORS
330
47
102
}
330
47
100
AcDbScale
 70
     0
300
1:2
140
1.0
141
2.0
290
     0
  0
SCALE
  5
4A
102
{ACAD_REACTORS
330
47
102
}
330
47
100
AcDbScale
 70
     0
300
1:4
140
1.0
141
4.0
290
     0
  0
SCALE
  5
4B
102
{ACAD_REACTORS
330
47
102
}
330
47
100
AcDbScale
 70
     0
300
1:5
140
1.0
141
5.0
290
     0
  0
SCALE
  5
4C
102
{ACAD_REACTORS
330
47
102
}
330
47
100
AcDbScale
 70
     0
300
1:8
140
1.0
141
8.0
290
     0
  0
SCALE
  5
4D
102
{ACAD_REACTORS
330
47
102
}
330
47
100
AcDbScale
 70
     0
300
1:10
140
1.0
141
10.0
290
     0
  0
SCALE
  5
4E
102
{ACAD_REACTORS
330
47
102
}
330
47
100
AcDbScale
 70
     0
300
1:16
140
1.0
141
16.0
290
     0
  0
SCALE
  5
4F
102
{ACAD_REACTORS
330
47
102
}
330
47
100
AcDbScale
 70
     0
300
1:20
140
1.0
141
20.0
290
     0
  0
SCALE
  5
50
102
{ACAD_REACTORS
330
47
102
}
330
47
100
AcDbScale
 70
     0
300
1:30
140
1.0
141
30.0
290
     0
  0
SCALE
  5
51
102
{ACAD_REACTORS
330
47
102
}
330
47
100
AcDbScale
 70
     0
300
1:40
140
1.0
141
40.0
290
     0
  0
SCALE
  5
52
102
{ACAD_REACTORS
330
47
102
}
330
47
100
AcDbScale
 70
     0
300
1:50
140
1.0
141
50.0
290
     0
  0
SCALE
  5
53
102
{ACAD_REACTORS
330
47
102
}
330
47
100
AcDbScale
 70
     0
300
1:100
140
1.0
141
100.0
290
     0
  0
SCALE
  5
54
102
{ACAD_REACTORS
330
47
102
}
330
47
100
AcDbScale
 70
     0
300
2:1
140
2.0
141
1.0
290
     0
  0
SCALE
  5
55
102
{ACAD_REACTORS
330
47
102
}
330
47
100
AcDbScale
 70
     0
300
4:1
140
4.0
141
1.0
290
     0
  0
SCALE
  5
56
102
{ACAD_REACTORS
330
47
102
}
330
47
100
AcDbScale
 70
     0
300
8:1
140
8.0
141
1.0
290
     0
  0
SCALE
  5
57
102
{ACAD_REACTORS
330
47
102
}
330
47
100
AcDbScale
 70
     0
300
10:1
140
10.0
141
1.0
290
     0
  0
SCALE
  5
58
102
{ACAD_REACTORS
330
47
102
}
330
47
100
AcDbScale
 70
     0
300
100:1
140
100.0
141
1.0
290
     0
  0
SCALE
  5
59
102
{ACAD_REACTORS
330
47
102
}
330
47
100
AcDbScale
 70
     0
300
1/128" = 1'-0"
140
0.0078125
141
12.0
290
     0
  0
SCALE
  5
5A
102
{ACAD_REACTORS
330
47
102
}
330
47
100
AcDbScale
 70
     0
300
1/64" = 1'-0"
140
0.015625
141
12.0
290
     0
  0
SCALE
  5
5B
102
{ACAD_REACTORS
330
47
102
}
330
47
100
AcDbScale
 70
     0
300
1/32" = 1'-0"
140
0.03125
141
12.0
290
     0
  0
SCALE
  5
5C
102
{ACAD_REACTORS
330
47
102
}
330
47
100
AcDbScale
 70
     0
300
1/16" = 1'-0"
140
0.0625
141
12.0
290
     0
  0
SCALE
  5
5D
102
{ACAD_REACTORS
330
47
102
}
330
47
100
AcDbScale
 70
     0
300
3/32" = 1'-0"
140
0.09375
141
12.0
290
     0
  0
SCALE
  5
5E
102
{ACAD_REACTORS
330
47
102
}
330
47
100
AcDbScale
 70
     0
300
1/8" = 1'-0"
140
0.125
141
12.0
290
     0
  0
SCALE
  5
5F
102
{ACAD_REACTORS
330
47
102
}
330
47
100
AcDbScale
 70
     0
300
3/16" = 1'-0"
140
0.1875
141
12.0
290
     0
  0
SCALE
  5
60
102
{ACAD_REACTORS
330
47
102
}
330
47
100
AcDbScale
 70
     0
300
1/4" = 1'-0"
140
0.25
141
12.0
290
     0
  0
SCALE
  5
61
102
{ACAD_REACTORS
330
47
102
}
330
47
100
AcDbScale
 70
     0
300
3/8" = 1'-0"
140
0.375
141
12.0
290
     0
  0
SCALE
  5
62
102
{ACAD_REACTORS
330
47
102
}
330
47
100
AcDbScale
 70
     0
300
1/2" = 1'-0"
140
0.5
141
12.0
290
     0
  0
SCALE
  5
63
102
{ACAD_REACTORS
330
47
102
}
330
47
100
AcDbScale
 70
     0
300
3/4" = 1'-0"
140
0.75
141
12.0
290
     0
  0
SCALE
  5
64
102
{ACAD_REACTORS
330
47
102
}
330
47
100
AcDbScale
 70
     0
300
1" = 1'-0"
140
1.0
141
12.0
290
     0
  0
SCALE
  5
65
102
{ACAD_REACTORS
330
47
102
}
330
47
100
AcDbScale
 70
     0
300
1-1/2" = 1'-0"
140
1.5
141
12.0
290
     0
  0
SCALE
  5
66
102
{ACAD_REACTORS
330
47
102
}
330
47
100
AcDbScale
 70
     0
300
3" = 1'-0"
140
3.0
141
12.0
290
     0
  0
SCALE
  5
67
102
{ACAD_REACTORS
330
47
102
}
330
47
100
AcDbScale
 70
     0
300
6" = 1'-0"
140
6.0
141
12.0
290
     0
  0
SCALE
  5
68
102
{ACAD_REACTORS
330
47
102
}
330
47
100
AcDbScale
 70
     0
300
1'-0" = 1'-0"
140
12.0
141
12.0
290
     0
  0
ENDSEC
  0
EOF
