  0
SECTION
  2
HEADER
  9
$ACADVER
  1
AC1015
  9
$ACADMAINTVER
 70
     6
  9
$DWGCODEPAGE
  3
ANSI_1250
  9
$INSBASE
 10
0.0
 20
0.0
 30
0.0
  9
$EXTMIN
 10
0.0
 20
0.0
 30
0.0
  9
$EXTMAX
 10
20000.0
 20
10000.0
 30
0.0
  9
$LIMMIN
 10
0.0
 20
0.0
  9
$LIMMAX
 10
20000.0
 20
10000.0
  9
$ORTHOMODE
 70
     0
  9
$REGENMODE
 70
     1
  9
$FILLMODE
 70
     1
  9
$QTEXTMODE
 70
     0
  9
$MIRRTEXT
 70
     1
  9
$LTSCALE
 40
1.0
  9
$ATTMODE
 70
     1
  9
$TEXTSIZE
 40
2.0
  9
$TRACEWID
 40
1.0
  9
$TEXTSTYLE
  7
Standard
  9
$CLAYER
  8
0
  9
$CELTYPE
  6
ByLayer
  9
$CECOLOR
 62
   256
  9
$CELTSCALE
 40
1.0
  9
$DISPSILH
 70
     0
  9
$DIMSCALE
 40
1.0
  9
$DIMASZ
 40
2.0
  9
$DIMEXO
 40
1.0
  9
$DIMDLI
 40
3.75
  9
$DIMRND
 40
0.0
  9
$DIMDLE
 40
0.0
  9
$DIMEXE
 40
1.0
  9
$DIMTP
 40
0.0
  9
$DIMTM
 40
0.0
  9
$DIMTXT
 40
2.0
  9
$DIMCEN
 40
2.5
  9
$DIMTSZ
 40
0.0
  9
$DIMTOL
 70
     0
  9
$DIMLIM
 70
     0
  9
$DIMTIH
 70
     1
  9
$DIMTOH
 70
     1
  9
$DIMSE1
 70
     0
  9
$DIMSE2
 70
     0
  9
$DIMTAD
 70
     1
  9
$DIMZIN
 70
     0
  9
$DIMBLK
  1

  9
$DIMASO
 70
     1
  9
$DIMSHO
 70
     1
  9
$DIMPOST
  1

  9
$DIMAPOST
  1

  9
$DIMALT
 70
     0
  9
$DIMALTD
 70
     3
  9
$DIMALTF
 40
0.0393700787
  9
$DIMLFAC
 40
1.0
  9
$DIMTOFL
 70
     1
  9
$DIMTVP
 40
0.0
  9
$DIMTIX
 70
     0
  9
$DIMSOXD
 70
     0
  9
$DIMSAH
 70
     0
  9
$DIMBLK1
  1

  9
$DIMBLK2
  1

  9
$DIMSTYLE
  2
ISO-25
  9
$DIMCLRD
 70
     0
  9
$DIMCLRE
 70
     0
  9
$DIMCLRT
 70
     0
  9
$DIMTFAC
 40
1.0
  9
$DIMGAP
 40
1.524
  9
$DIMJUST
 70
     0
  9
$DIMSD1
 70
     0
  9
$DIMSD2
 70
     0
  9
$DIMTOLJ
 70
     0
  9
$DIMTZIN
 70
     0
  9
$DIMALTZ
 70
     0
  9
$DIMALTTZ
 70
     0
  9
$DIMUPT
 70
     0
  9
$DIMDEC
 70
     2
  9
$DIMTDEC
 70
     0
  9
$DIMALTU
 70
     2
  9
$DIMALTTD
 70
     3
  9
$DIMTXSTY
  7
Standard
  9
$DIMAUNIT
 70
     0
  9
$DIMADEC
 70
     2
  9
$DIMALTRND
 40
0.0
  9
$DIMAZIN
 70
     0
  9
$DIMDSEP
 70
    44
  9
$DIMATFIT
 70
     3
  9
$DIMFRAC
 70
     0
  9
$DIMLDRBLK
  1

  9
$DIMLUNIT
 70
     2
  9
$DIMLWD
 70
    -2
  9
$DIMLWE
 70
    -2
  9
$DIMTMOVE
 70
     0
  9
$LUNITS
 70
     2
  9
$LUPREC
 70
     3
  9
$SKETCHINC
 40
1.0
  9
$FILLETRAD
 40
10.0
  9
$AUNITS
 70
     0
  9
$AUPREC
 70
     2
  9
$MENU
  1
.
  9
$ELEVATION
 40
0.0
  9
$PELEVATION
 40
0.0
  9
$THICKNESS
 40
0.0
  9
$LIMCHECK
 70
     0
  9
$CHAMFERA
 40
0.0
  9
$CHAMFERB
 40
0.0
  9
$CHAMFERC
 40
0.0
  9
$CHAMFERD
 40
0.0
  9
$SKPOLY
 70
     0
  9
$TDCREATE
 40
2460286.364604491
  9
$TDUCREATE
 40
2460286.322937824
  9
$TDUPDATE
 40
2460286.364606215
  9
$TDUUPDATE
 40
2460286.322939549
  9
$TDINDWG
 40
0.0000000116
  9
$TDUSRTIMER
 40
0.0000000116
  9
$USRTIMER
 70
     1
  9
$ANGBASE
 50
0.0
  9
$ANGDIR
 70
     0
  9
$PDMODE
 70
     0
  9
$PDSIZE
 40
-1.0
  9
$PLINEWID
 40
0.0
  9
$SPLFRAME
 70
     0
  9
$SPLINETYPE
 70
     6
  9
$SPLINESEGS
 70
     8
  9
$HANDSEED
  5
154
  9
$SURFTAB1
 70
     6
  9
$SURFTAB2
 70
     6
  9
$SURFTYPE
 70
     6
  9
$SURFU
 70
     6
  9
$SURFV
 70
     6
  9
$UCSBASE
  2

  9
$UCSNAME
  2

  9
$UCSORG
 10
0.0
 20
0.0
 30
0.0
  9
$UCSXDIR
 10
1.0
 20
0.0
 30
0.0
  9
$UCSYDIR
 10
0.0
 20
1.0
 30
0.0
  9
$UCSORTHOREF
  2

  9
$UCSORTHOVIEW
 70
     0
  9
$UCSORGTOP
 10
0.0
 20
0.0
 30
0.0
  9
$UCSORGBOTTOM
 10
0.0
 20
0.0
 30
0.0
  9
$UCSORGLEFT
 10
0.0
 20
0.0
 30
0.0
  9
$UCSORGRIGHT
 10
0.0
 20
0.0
 30
0.0
  9
$UCSORGFRONT
 10
0.0
 20
0.0
 30
0.0
  9
$UCSORGBACK
 10
0.0
 20
0.0
 30
0.0
  9
$PUCSBASE
  2

  9
$PUCSNAME
  2

  9
$PUCSORG
 10
0.0
 20
0.0
 30
0.0
  9
$PUCSXDIR
 10
1.0
 20
0.0
 30
0.0
  9
$PUCSYDIR
 10
0.0
 20
1.0
 30
0.0
  9
$PUCSORTHOREF
  2

  9
$PUCSORTHOVIEW
 70
     0
  9
$PUCSORGTOP
 10
0.0
 20
0.0
 30
0.0
  9
$PUCSORGBOTTOM
 10
0.0
 20
0.0
 30
0.0
  9
$PUCSORGLEFT
 10
0.0
 20
0.0
 30
0.0
  9
$PUCSORGRIGHT
 10
0.0
 20
0.0
 30
0.0
  9
$PUCSORGFRONT
 10
0.0
 20
0.0
 30
0.0
  9
$PUCSORGBACK
 10
0.0
 20
0.0
 30
0.0
  9
$USERI1
 70
     0
  9
$USERI2
 70
     0
  9
$USERI3
 70
     0
  9
$USERI4
 70
     0
  9
$USERI5
 70
     0
  9
$USERR1
 40
0.0
  9
$USERR2
 40
0.0
  9
$USERR3
 40
0.0
  9
$USERR4
 40
0.0
  9
$USERR5
 40
0.0
  9
$WORLDVIEW
 70
     1
  9
$SHADEDGE
 70
     3
  9
$SHADEDIF
 70
    70
  9
$TILEMODE
 70
     1
  9
$MAXACTVP
 70
    64
  9
$PINSBASE
 10
0.0
 20
0.0
 30
0.0
  9
$PLIMCHECK
 70
     0
  9
$PEXTMIN
 10
1.0000000000E+20
 20
1.0000000000E+20
 30
1.0000000000E+20
  9
$PEXTMAX
 10
-1.0000000000E+20
 20
-1.0000000000E+20
 30
-1.0000000000E+20
  9
$PLIMMIN
 10
0.0
 20
0.0
  9
$PLIMMAX
 10
420.0
 20
297.0
  9
$UNITMODE
 70
     0
  9
$VISRETAIN
 70
     1
  9
$PLINEGEN
 70
     0
  9
$PSLTSCALE
 70
     1
  9
$TREEDEPTH
 70
  3020
  9
$CMLSTYLE
  2
Standard
  9
$CMLJUST
 70
     0
  9
$CMLSCALE
 40
20.0
  9
$PROXYGRAPHICS
 70
     1
  9
$MEASUREMENT
 70
     1
  9
$CELWEIGHT
370
    -1
  9
$ENDCAPS
280
     0
  9
$JOINSTYLE
280
     0
  9
$LWDISPLAY
290
     1
  9
$INSUNITS
 70
     4
  9
$HYPERLINKBASE
  1

  9
$STYLESHEET
  1

  9
$XEDIT
290
     1
  9
$CEPSNTYPE
380
     0
  9
$PSTYLEMODE
290
     1
  9
$FINGERPRINTGUID
  2
{e1a98f9e-db59-4d43-9ee5-91006fe0f67f}
  9
$VERSIONGUID
  2
{FAEB1C32-E019-11D5-929B-00C0DF256EC4}
  9
$EXTNAMES
290
     1
  9
$PSVPSCALE
 40
0.0
  9
$OLESTARTUP
290
     0
  0
ENDSEC
  0
SECTION
  2
CLASSES
  0
CLASS
  1
ACDBDICTIONARYWDFLT
  2
AcDbDictionaryWithDefault
  3
ObjectDBX Classes
 90
        0
280
     0
281
     0
  0
CLASS
  1
VISUALSTYLE
  2
AcDbVisualStyle
  3
ObjectDBX Classes
 90
     4095
280
     0
281
     0
  0
CLASS
  1
MATERIAL
  2
AcDbMaterial
  3
ObjectDBX Classes
 90
     1153
280
     0
281
     0
  0
CLASS
  1
SCALE
  2
AcDbScale
  3
ObjectDBX Classes
 90
     1153
280
     0
281
     0
  0
CLASS
  1
TABLESTYLE
  2
AcDbTableStyle
  3
ObjectDBX Classes
 90
     4095
280
     0
281
     0
  0
CLASS
  1
MLEADERSTYLE
  2
AcDbMLeaderStyle
  3
ACDB_MLEADERSTYLE_CLASS
 90
     4095
280
     0
281
     0
  0
CLASS
  1
SUN
  2
AcDbSun
  3
SCENEOE
 90
     1153
280
     0
281
     0
  0
CLASS
  1
ACDBPLACEHOLDER
  2
AcDbPlaceHolder
  3
ObjectDBX Classes
 90
        0
280
     0
281
     0
  0
CLASS
  1
LAYOUT
  2
AcDbLayout
  3
ObjectDBX Classes
 90
        0
280
     0
281
     0
  0
ENDSEC
  0
SECTION
  2
TABLES
  0
TABLE
  2
VPORT
  5
8
330
0
100
AcDbSymbolTable
 70
     1
  0
VPORT
  5
29
330
8
100
AcDbSymbolTableRecord
100
AcDbViewportTableRecord
  2
*Active
 70
     0
 10
0.0
 20
0.0
 11
1.0
 21
1.0
 12
10000.0
 22
5000.0
 13
0.0
 23
0.0
 14
10.0
 24
10.0
 15
10.0
 25
10.0
 16
0.0
 26
0.0
 36
1.0
 17
0.0
 27
0.0
 37
0.0
 40
10000.0
 41
2.0
 42
50.0
 43
0.0
 44
0.0
 50
0.0
 51
0.0
 71
     0
 72
  2000
 73
     1
 74
     3
 75
     0
 76
     0
 77
     0
 78
     0
281
     0
 65
     1
110
0.0
120
0.0
130
0.0
111
1.0
121
0.0
131
0.0
112
0.0
122
1.0
132
0.0
 79
     0
146
0.0
  0
ENDTAB
  0
TABLE
  2
LTYPE
  5
5
330
0
100
AcDbSymbolTable
 70
     6
  0
LTYPE
  5
14
330
5
100
AcDbSymbolTableRecord
100
AcDbLinetypeTableRecord
  2
ByBlock
 70
     0
  3

 72
    65
 73
     0
 40
0.0
  0
LTYPE
  5
15
330
5
100
AcDbSymbolTableRecord
100
AcDbLinetypeTableRecord
  2
ByLayer
 70
     0
  3

 72
    65
 73
     0
 40
0.0
  0
LTYPE
  5
16
330
5
100
AcDbSymbolTableRecord
100
AcDbLinetypeTableRecord
  2
Continuous
 70
     0
  3
Solid line
 72
    65
 73
     0
 40
0.0
  0
LTYPE
  5
6E
330
5
100
AcDbSymbolTableRecord
100
AcDbLinetypeTableRecord
  2
HIDDEN
 70
     0
  3
Hidden __ __ __ __ __ __ __ __ __ __ __ __ __ __
 72
    65
 73
     2
 40
1.905
 49
1.27
 74
     0
 49
-0.635
 74
     0
  0
LTYPE
  5
6F
330
5
100
AcDbSymbolTableRecord
100
AcDbLinetypeTableRecord
  2
PHANTOM
 70
     0
  3
Phantom ______  __  __  ______  __  __  ______
 72
    65
 73
     6
 40
12.7
 49
6.35
 74
     0
 49
-1.27
 74
     0
 49
1.27
 74
     0
 49
-1.27
 74
     0
 49
1.27
 74
     0
 49
-1.27
 74
     0
  0
LTYPE
  5
70
330
5
100
AcDbSymbolTableRecord
100
AcDbLinetypeTableRecord
  2
CENTER
 70
     0
  3
Center ____ _ ____ _ ____ _ ____ _ ____ _ ____
 72
    65
 73
     4
 40
10.16
 49
6.35
 74
     0
 49
-1.27
 74
     0
 49
1.27
 74
     0
 49
-1.27
 74
     0
  0
LTYPE
  5
71
330
5
100
AcDbSymbolTableRecord
100
AcDbLinetypeTableRecord
  2
CENTERX2
 70
     0
  3
Center (2x) ________  __  ________  __  _____
 72
    65
 73
     4
 40
20.32
 49
12.7
 74
     0
 49
-2.54
 74
     0
 49
2.54
 74
     0
 49
-2.54
 74
     0
  0
LTYPE
  5
72
330
5
100
AcDbSymbolTableRecord
100
AcDbLinetypeTableRecord
  2
DOT2
 70
     0
  3
Dot (.5x) ........................................
 72
    65
 73
     2
 40
0.635
 49
0.0
 74
     0
 49
-0.635
 74
     0
  0
ENDTAB
  0
TABLE
  2
LAYER
  5
2
330
0
100
AcDbSymbolTable
 70
    13
  0
LAYER
  5
10
330
2
100
AcDbSymbolTableRecord
100
AcDbLayerTableRecord
  2
0
 70
     0
 62
     7
  6
Continuous
370
    -3
390
F
  0
LAYER
  5
73
330
2
100
AcDbSymbolTableRecord
100
AcDbLayerTableRecord
  2
FORMAT
 70
     0
 62
     7
  6
Continuous
370
    -3
390
F
  0
LAYER
  5
74
330
2
100
AcDbSymbolTableRecord
100
AcDbLayerTableRecord
  2
OSA
 70
     0
 62
     7
  6
CENTER
370
    -3
390
F
  0
LAYER
  5
75
330
2
100
AcDbSymbolTableRecord
100
AcDbLayerTableRecord
  2
0_35
 70
     0
 62
     7
  6
Continuous
370
    35
390
F
  0
LAYER
  5
76
330
2
100
AcDbSymbolTableRecord
100
AcDbLayerTableRecord
  2
0_5
 70
     0
 62
     7
  6
Continuous
370
    50
390
F
  0
LAYER
  5
77
330
2
100
AcDbSymbolTableRecord
100
AcDbLayerTableRecord
  2
0_25
 70
     0
 62
     7
  6
Continuous
370
    25
390
F
  0
LAYER
  5
78
330
2
100
AcDbSymbolTableRecord
100
AcDbLayerTableRecord
  2
0_18
 70
     0
 62
     7
  6
Continuous
370
    -3
390
F
  0
LAYER
  5
79
330
2
100
AcDbSymbolTableRecord
100
AcDbLayerTableRecord
  2
SLD-0
 70
     0
 62
   179
  6
Continuous
370
    -3
390
F
  0
LAYER
  5
7A
330
2
100
AcDbSymbolTableRecord
100
AcDbLayerTableRecord
  2
KOTY
 70
     0
 62
     7
  6
Continuous
370
    -3
390
F
  0
LAYER
  5
7B
330
2
100
AcDbSymbolTableRecord
100
AcDbLayerTableRecord
  2
SILNA
 70
     0
 62
   179
  6
Continuous
370
    -3
390
F
  0
LAYER
  5
7C
330
2
100
AcDbSymbolTableRecord
100
AcDbLayerTableRecord
  2
0_18_1
 70
     0
 62
   179
  6
Continuous
370
    -3
390
F
  0
LAYER
  5
7D
330
2
100
AcDbSymbolTableRecord
100
AcDbLayerTableRecord
  2
0_35_1
 70
     0
 62
   179
  6
Continuous
370
    35
390
F
  0
LAYER
  5
7E
330
2
100
AcDbSymbolTableRecord
100
AcDbLayerTableRecord
  2
0_5_1
 70
     0
 62
   179
  6
Continuous
370
    50
390
F
  0
ENDTAB
  0
TABLE
  2
STYLE
  5
3
330
0
100
AcDbSymbolTable
 70
     1
  0
STYLE
  5
11
330
3
100
AcDbSymbolTableRecord
100
AcDbTextStyleTableRecord
  2
Standard
 70
     0
 40
0.0
 41
1.0
 50
0.0
 71
     0
 42
2.0
  3
txt
  4

  0
ENDTAB
  0
TABLE
  2
VIEW
  5
6
330
0
100
AcDbSymbolTable
 70
     0
  0
ENDTAB
  0
TABLE
  2
UCS
  5
7
330
0
100
AcDbSymbolTable
 70
     0
  0
ENDTAB
  0
TABLE
  2
APPID
  5
9
330
0
100
AcDbSymbolTable
 70
     1
  0
APPID
  5
12
330
9
100
AcDbSymbolTableRecord
100
AcDbRegAppTableRecord
  2
ACAD
 70
     0
  0
ENDTAB
  0
TABLE
  2
DIMSTYLE
  5
A
330
0
100
AcDbSymbolTable
 70
     1
100
AcDbDimStyleTable
  0
DIMSTYLE
105
27
330
A
100
AcDbSymbolTableRecord
100
AcDbDimStyleTableRecord
  2
ISO-25
 70
     0
 41
2.5
 42
0.625
 43
3.75
 44
1.25
 73
     0
 74
     0
 77
     1
 78
     8
140
2.5
141
2.5
143
0.0393700787
147
0.625
171
     3
172
     1
178
     0
271
     2
272
     2
274
     3
278
    44
283
     0
284
     8
340
11
  0
ENDTAB
  0
TABLE
  2
BLOCK_RECORD
  5
1
330
0
100
AcDbSymbolTable
 70
     1
  0
BLOCK_RECORD
  5
1F
330
1
100
AcDbSymbolTableRecord
100
AcDbBlockTableRecord
  2
*Model_Space
340
22
  0
BLOCK_RECORD
  5
1B
330
1
100
AcDbSymbolTableRecord
100
AcDbBlockTableRecord
  2
*Paper_Space
340
1E
  0
BLOCK_RECORD
  5
23
330
1
100
AcDbSymbolTableRecord
100
AcDbBlockTableRecord
  2
*Paper_Space0
340
26
  0
ENDTAB
  0
ENDSEC
  0
SECTION
  2
BLOCKS
  0
BLOCK
  5
20
330
1F
100
AcDbEntity
  8
0
100
AcDbBlockBegin
  2
*Model_Space
 70
     0
 10
0.0
 20
0.0
 30
0.0
  3
*Model_Space
  1

  0
ENDBLK
  5
21
330
1F
100
AcDbEntity
  8
0
100
AcDbBlockEnd
  0
BLOCK
  5
1C
330
1B
100
AcDbEntity
 67
     1
  8
0
100
AcDbBlockBegin
  2
*Paper_Space
 70
     0
 10
0.0
 20
0.0
 30
0.0
  3
*Paper_Space
  1

  0
ENDBLK
  5
1D
330
1B
100
AcDbEntity
 67
     1
  8
0
100
AcDbBlockEnd
  0
BLOCK
  5
24
330
23
100
AcDbEntity
  8
0
100
AcDbBlockBegin
  2
*Paper_Space0
 70
     0
 10
0.0
 20
0.0
 30
0.0
  3
*Paper_Space0
  1

  0
ENDBLK
  5
25
330
23
100
AcDbEntity
  8
0
100
AcDbBlockEnd
  0
ENDSEC
  0
SECTION
  2
ENTITIES
  0
SPLINE
  5
7F
330
1F
100
AcDbEntity
  8
0
  6
Continuous
 62
     7
370
    25
100
AcDbSpline
210
0.0
220
0.0
230
1.0
 70
     8
 71
     3
 72
    35
 73
    31
 74
     0
 42
0.00000001
 43
0.00000001
 40
0.0
 40
0.0
 40
0.0
 40
0.0
 40
0.0564712121235396
 40
0.1100031124915927
 40
0.1605979127302682
 40
0.2082577175067139
 40
0.252984523514465
 40
0.2947802184385594
 40
0.3336465801012205
 40
0.3667021666974143
 40
0.397298904071015
 40
0.425437915986074
 40
0.4511202476573757
 40
0.4743468659978
 40
0.4951186602413813
 40
0.5112776609012775
 40
0.5289297646376337
 40
0.548755761951094
 40
0.5707543297581245
 40
0.5949232255835544
 40
0.6207701627515889
 40
0.6487042150221121
 40
0.6787213195614918
 40
0.7108168789283436
 40
0.7517287682566952
 40
0.795569551667925
 40
0.842328799557332
 40
0.8919951924710432
 40
0.9445565722865751
 40
1.0
 40
1.0
 40
1.0
 40
1.0
 10
5698.550245290585
 20
5106.317174211213
 30
0.0
 10
5700.729080953764
 20
5098.860618581754
 30
0.0
 10
5704.973344456256
 20
5084.335619084438
 30
0.0
 10
5711.168307327703
 20
5063.123052186746
 30
0.0
 10
5717.021895627155
 20
5043.069840155797
 30
0.0
 10
5722.534168648811
 20
5024.175501898621
 30
0.0
 10
5727.705358506209
 20
5006.440155621979
 30
0.0
 10
5732.535756597448
 20
4989.863772244622
 30
0.0
 10
5736.914700558602
 20
4974.827574856013
 30
0.0
 10
5740.860742985235
 20
4961.269981005376
 30
0.0
 10
5744.392428687526
 20
4949.12935992254
 30
0.0
 10
5747.639083734483
 20
4937.962581387319
 30
0.0
 10
5750.60105231608
 20
4927.769686469714
 30
0.0
 10
5753.278728719534
 20
4918.550538308617
 30
0.0
 10
5755.58941617803
 20
4910.591191594782
 30
0.0
 10
5757.685453446847
 20
4903.368233821858
 30
0.0
 10
5759.742216292097
 20
4896.278024792628
 30
0.0
 10
5762.020116372049
 20
4888.421776682212
 30
0.0
 10
5764.544833382093
 20
4879.709588265386
 30
0.0
 10
5767.29721151787
 20
4870.205959363935
 30
0.0
 10
5770.273781591093
 20
4859.920947935674
 30
0.0
 10
5773.470878100246
 20
4848.864654577443
 30
0.0
 10
5776.903191881336
 20
4836.98264242608
 30
0.0
 10
5780.826023613691
 20
4823.384938201564
 30
0.0
 10
5785.26897547403
 20
4807.956644049831
 30
0.0
 10
5790.259575004604
 20
4790.582005262318
 30
0.0
 10
5795.568673058868
 20
4772.03726104122
 30
0.0
 10
5801.187699939907
 20
4752.321863747254
 30
0.0
 10
5807.110455749942
 20
4731.438014589607
 30
0.0
 10
5811.136418851044
 20
4717.111599458376
 30
0.0
 10
5813.20311568871
 20
4709.757245704188
 30
0.0
  0
ARC
  5
80
330
1F
100
AcDbEntity
  8
0
  6
Continuous
 62
     7
370
    25
100
AcDbCircle
 10
5700.5045222788
 20
5106.7572457042
 30
0.0
 40
1.999999999999914
100
AcDbArc
 50
89.9998672108
 51
196.539262813
  0
ARC
  5
81
330
1F
100
AcDbEntity
  8
0
  6
Continuous
 62
     7
370
    25
100
AcDbCircle
 10
6376.8340834911
 20
5368.2572457042
 30
0.0
 40
4.324969328314234
100
AcDbArc
 50
26.059831153
 51
61.4762140417
  0
ARC
  5
82
330
1F
100
AcDbEntity
  8
0
  6
Continuous
 62
     7
370
    25
100
AcDbCircle
 10
6376.8340834911
 20
5368.2572457042
 30
0.0
 40
4.324969328314634
100
AcDbArc
 50
298.5237859583
 51
333.940168847
  0
LINE
  5
83
330
1F
100
AcDbEntity
  8
0
  6
Continuous
 62
     7
370
    25
100
AcDbLine
 10
6378.8993582164
 20
5372.0572457042
 30
0.0
 11
6378.5193582164
 21
5372.0572457042
 31
0.0
  0
LINE
  5
84
330
1F
100
AcDbEntity
  8
0
  6
Continuous
 62
     7
370
    25
100
AcDbLine
 10
6378.5193582164
 20
5364.4572457042
 30
0.0
 11
6378.8993582164
 21
5364.4572457042
 31
0.0
  0
ARC
  5
85
330
1F
100
AcDbEntity
  8
0
  6
Continuous
 62
     7
370
    25
100
AcDbCircle
 10
6376.8340834911
 20
5051.2572457042
 30
0.0
 40
4.324969328314234
100
AcDbArc
 50
26.059831153
 51
61.4762140417
  0
ARC
  5
86
330
1F
100
AcDbEntity
  8
0
  6
Continuous
 62
     7
370
    25
100
AcDbCircle
 10
6376.8340834911
 20
5051.2572457042
 30
0.0
 40
4.324969328314634
100
AcDbArc
 50
298.5237859583
 51
333.940168847
  0
LINE
  5
87
330
1F
100
AcDbEntity
  8
0
  6
Continuous
 62
     7
370
    25
100
AcDbLine
 10
6378.8993582164
 20
5055.0572457042
 30
0.0
 11
6378.5193582164
 21
5055.0572457042
 31
0.0
  0
LINE
  5
88
330
1F
100
AcDbEntity
  8
0
  6
Continuous
 62
     7
370
    25
100
AcDbLine
 10
6378.5193582164
 20
5047.4572457042
 30
0.0
 11
6378.8993582164
 21
5047.4572457042
 31
0.0
  0
ARC
  5
89
330
1F
100
AcDbEntity
  8
0
  6
Continuous
 62
     7
370
    25
100
AcDbCircle
 10
6376.8340834911
 20
4901.2572457042
 30
0.0
 40
4.324969328314602
100
AcDbArc
 50
26.059831153
 51
61.4762140417
  0
ARC
  5
8A
330
1F
100
AcDbEntity
  8
0
  6
Continuous
 62
     7
370
    25
100
AcDbCircle
 10
6376.8340834911
 20
4901.2572457042
 30
0.0
 40
4.324969328314602
100
AcDbArc
 50
298.5237859583
 51
333.940168847
  0
LINE
  5
8B
330
1F
100
AcDbEntity
  8
0
  6
Continuous
 62
     7
370
    25
100
AcDbLine
 10
6378.8993582164
 20
4905.0572457042
 30
0.0
 11
6378.5193582164
 21
4905.0572457042
 31
0.0
  0
LINE
  5
8C
330
1F
100
AcDbEntity
  8
0
  6
Continuous
 62
     7
370
    25
100
AcDbLine
 10
6378.5193582164
 20
4897.4572457042
 30
0.0
 11
6378.8993582164
 21
4897.4572457042
 31
0.0
  0
ARC
  5
8D
330
1F
100
AcDbEntity
  8
0
  6
Continuous
 62
     7
370
    25
100
AcDbCircle
 10
6376.8340834911
 20
5218.2572457042
 30
0.0
 40
4.324969328314634
100
AcDbArc
 50
26.059831153
 51
61.4762140417
  0
ARC
  5
8E
330
1F
100
AcDbEntity
  8
0
  6
Continuous
 62
     7
370
    25
100
AcDbCircle
 10
6376.8340834911
 20
5218.2572457042
 30
0.0
 40
4.324969328314602
100
AcDbArc
 50
298.5237859583
 51
333.940168847
  0
LINE
  5
8F
330
1F
100
AcDbEntity
  8
0
  6
Continuous
 62
     7
370
    25
100
AcDbLine
 10
6378.8993582164
 20
5222.0572457042
 30
0.0
 11
6378.5193582164
 21
5222.0572457042
 31
0.0
  0
LINE
  5
90
330
1F
100
AcDbEntity
  8
0
  6
Continuous
 62
     7
370
    25
100
AcDbLine
 10
6378.5193582164
 20
5214.4572457042
 30
0.0
 11
6378.8993582164
 21
5214.4572457042
 31
0.0
  0
LINE
  5
91
330
1F
100
AcDbEntity
  8
0
  6
Continuous
 62
     7
370
    25
100
AcDbLine
 10
6378.8193582164
 20
5445.7572457042
 30
0.0
 11
6380.3193582164
 21
5447.2572457042
 31
0.0
  0
LINE
  5
92
330
1F
100
AcDbEntity
  8
0
  6
Continuous
 62
     7
370
    25
100
AcDbLine
 10
6380.3193582164
 20
5472.2572457042
 30
0.0
 11
6378.8193582164
 21
5473.7572457042
 31
0.0
  0
LINE
  5
93
330
1F
100
AcDbEntity
  8
0
  6
Continuous
 62
     7
370
    25
100
AcDbLine
 10
6378.4193582164
 20
5445.7572457042
 30
0.0
 11
6378.8193582164
 21
5445.7572457042
 31
0.0
  0
LINE
  5
94
330
1F
100
AcDbEntity
  8
0
  6
Continuous
 62
     7
370
    25
100
AcDbLine
 10
6378.8193582164
 20
5473.7572457042
 30
0.0
 11
6378.4193582164
 21
5473.7572457042
 31
0.0
  0
LINE
  5
95
330
1F
100
AcDbEntity
  8
0
  6
Continuous
 62
     7
370
    25
100
AcDbLine
 10
6378.4193582164
 20
5495.7572457042
 30
0.0
 11
6378.8193582164
 21
5495.7572457042
 31
0.0
  0
LINE
  5
96
330
1F
100
AcDbEntity
  8
0
  6
Continuous
 62
     7
370
    25
100
AcDbLine
 10
6378.8193582164
 20
5523.7572457042
 30
0.0
 11
6378.4193582164
 21
5523.7572457042
 31
0.0
  0
LINE
  5
97
330
1F
100
AcDbEntity
  8
0
  6
Continuous
 62
     7
370
    25
100
AcDbLine
 10
6378.8193582164
 20
5495.7572457042
 30
0.0
 11
6380.3193582164
 21
5497.2572457042
 31
0.0
  0
LINE
  5
98
330
1F
100
AcDbEntity
  8
0
  6
Continuous
 62
     7
370
    25
100
AcDbLine
 10
6380.3193582164
 20
5522.2572457042
 30
0.0
 11
6378.8193582164
 21
5523.7572457042
 31
0.0
  0
LINE
  5
99
330
1F
100
AcDbEntity
  8
0
  6
Continuous
 62
     7
370
    25
100
AcDbLine
 10
6318.4193582164
 20
5562.2572457042
 30
0.0
 11
6318.4193582164
 21
5559.7572457042
 31
0.0
  0
LINE
  5
9A
330
1F
100
AcDbEntity
  8
0
  6
Continuous
 62
     7
370
    25
100
AcDbLine
 10
6363.4193582164
 20
5559.7572457042
 30
0.0
 11
6363.4193582164
 21
5562.2572457042
 31
0.0
  0
ARC
  5
9B
330
1F
100
AcDbEntity
  8
0
  6
Continuous
 62
     7
370
    25
100
AcDbCircle
 10
6340.9193582164
 20
5562.2572457042
 30
0.0
 40
22.5
100
AcDbArc
 50
0.0
 51
180.0
  0
LINE
  5
9C
330
1F
100
AcDbEntity
  8
0
  6
Continuous
 62
     7
370
    25
100
AcDbLine
 10
6151.6686555552
 20
4709.7572457042
 30
0.0
 11
6378.4193582164
 21
4709.7572457042
 31
0.0
  0
LINE
  5
9D
330
1F
100
AcDbEntity
  8
0
  6
Continuous
 62
     7
370
    25
100
AcDbLine
 10
6018.4193582164
 20
5108.7572457042
 30
0.0
 11
6018.4193582164
 21
5559.7572457042
 31
0.0
  0
LINE
  5
9E
330
1F
100
AcDbEntity
  8
0
  6
Continuous
 62
     7
370
    25
100
AcDbLine
 10
6018.4193582164
 20
5559.7572457042
 30
0.0
 11
6378.4193582164
 21
5559.7572457042
 31
0.0
  0
LINE
  5
9F
330
1F
100
AcDbEntity
  8
0
  6
Continuous
 62
     7
370
    25
100
AcDbLine
 10
6378.4193582164
 20
4709.7572457042
 30
0.0
 11
6378.4193582164
 21
5559.7572457042
 31
0.0
  0
LINE
  5
A0
330
1F
100
AcDbEntity
  8
0
  6
Continuous
 62
     7
370
    25
100
AcDbLine
 10
6018.4193582164
 20
5582.7572457042
 30
0.0
 11
6331.6457397209
 21
5582.7572457042
 31
0.0
  0
LINE
  5
A1
330
1F
100
AcDbEntity
  8
0
  6
Continuous
 62
     7
370
    25
100
AcDbLine
 10
6350.1929767119
 20
5582.7572457042
 30
0.0
 11
6378.4193582164
 21
5582.7572457042
 31
0.0
  0
LINE
  5
A2
330
1F
100
AcDbEntity
  8
0
  6
Continuous
 62
     7
370
    25
100
AcDbLine
 10
6018.4193582164
 20
5582.7572457042
 30
0.0
 11
6018.4193582164
 21
5559.7572457042
 31
0.0
  0
LINE
  5
A3
330
1F
100
AcDbEntity
  8
0
  6
Continuous
 62
     7
370
    25
100
AcDbLine
 10
6378.4193582164
 20
5582.7572457042
 30
0.0
 11
6378.4193582164
 21
5559.7572457042
 31
0.0
  0
LINE
  5
A4
330
1F
100
AcDbEntity
  8
0
  6
Continuous
 62
     7
370
    25
100
AcDbLine
 10
6378.5193582164
 20
5404.7572457042
 30
0.0
 11
6378.4193582164
 21
5404.7572457042
 31
0.0
  0
LINE
  5
A5
330
1F
100
AcDbEntity
  8
0
  6
Continuous
 62
     7
370
    25
100
AcDbLine
 10
6378.5193582164
 20
5404.7572457042
 30
0.0
 11
6378.5193582164
 21
4864.7572457042
 31
0.0
  0
LINE
  5
A6
330
1F
100
AcDbEntity
  8
0
  6
Continuous
 62
     7
370
    25
100
AcDbLine
 10
6378.5193582164
 20
4864.7572457042
 30
0.0
 11
6378.4193582164
 21
4864.7572457042
 31
0.0
  0
LINE
  5
A7
330
1F
100
AcDbEntity
  8
0
  6
Continuous
 62
     7
370
    25
100
AcDbLine
 10
5698.6308408087
 20
5106.1963516354
 30
0.0
 11
5698.6325325589
 21
5106.1968752277
 31
0.0
  0
SPLINE
  5
A8
330
1F
100
AcDbEntity
  8
0
  6
Continuous
 62
     7
370
    25
100
AcDbSpline
210
0.0
220
0.0
230
1.0
 70
     8
 71
     3
 72
    18
 73
    14
 74
     0
 42
0.00000001
 43
0.00000001
 40
0.0
 40
0.0
 40
0.0
 40
0.0
 40
0.0575901886692459
 40
0.1152024400124626
 40
0.2015028688562099
 40
0.2878776108695509
 40
0.3744766394257899
 40
0.4611507947893463
 40
0.5953508090737762
 40
0.7298235679459487
 40
0.8645722950978482
 40
0.93226820314007
 40
1.0
 40
1.0
 40
1.0
 40
1.0
 10
5993.844930632589
 20
5106.309850384512
 30
0.0
 10
5992.295643686005
 20
5106.309271027272
 30
0.0
 10
5989.196476264433
 20
5106.308112090842
 30
0.0
 10
5983.68455537508
 20
5106.305748869571
 30
0.0
 10
5977.291750780067
 20
5106.302694498036
 30
0.0
 10
5969.964249451422
 20
5106.298745316371
 30
0.0
 10
5962.504716552134
 20
5106.294289063099
 30
0.0
 10
5953.534028227512
 20
5106.288433243447
 30
0.0
 10
5942.97510856553
 20
5106.280822271798
 30
0.0
 10
5930.750373213099
 20
5106.271078369758
 30
0.0
 10
5920.360725935952
 20
5106.262026461272
 30
0.0
 10
5911.939792381588
 20
5106.254329721795
 30
0.0
 10
5907.682188493187
 20
5106.250191822731
 30
0.0
 10
5905.552822408991
 20
5106.24812232492
 30
0.0
  0
SPLINE
  5
A9
330
1F
100
AcDbEntity
  8
0
  6
Continuous
 62
     7
370
    25
100
AcDbSpline
210
0.0
220
0.0
230
1.0
 70
     8
 71
     3
 72
    16
 73
    12
 74
     0
 42
0.00000001
 43
0.00000001
 40
0.0
 40
0.0
 40
0.0
 40
0.0
 40
0.0844871977748923
 40
0.1689743633845441
 40
0.2534802155586076
 40
0.3380422352695082
 40
0.4226229608800031
 40
0.5667340631750056
 40
0.7109380048567179
 40
0.8554219907570142
 40
1.0
 40
1.0
 40
1.0
 40
1.0
 10
6030.093002256185
 20
5106.317174211213
 30
0.0
 10
6029.146071848516
 20
5106.317136685745
 30
0.0
 10
6027.252211393686
 20
5106.317061634825
 30
0.0
 10
6024.35838311777
 20
5106.31673300861
 30
0.0
 10
6021.425958577236
 20
5106.316362956704
 30
0.0
 10
6018.451391235242
 20
5106.315932201475
 30
0.0
 10
6014.729291531999
 20
5106.315335315097
 30
0.0
 10
6010.221463964474
 20
5106.314499033821
 30
0.0
 10
6004.877775179223
 20
5106.31328901277
 30
0.0
 10
5999.428742666958
 20
5106.311818051186
 30
0.0
 10
5995.706604877932
 20
5106.310506415617
 30
0.0
 10
5993.844930632589
 20
5106.309850384512
 30
0.0
  0
LINE
  5
AA
330
1F
100
AcDbEntity
  8
0
  6
Continuous
 62
     7
370
    25
100
AcDbLine
 10
6198.1334406696
 20
5106.3171742112
 30
0.0
 11
6030.0930022562
 21
5106.3171742112
 31
0.0
  0
LINE
  5
AB
330
1F
100
AcDbEntity
  8
0
  6
Continuous
 62
     7
370
    25
100
AcDbLine
 10
6198.1334406696
 20
5106.3171742112
 30
0.0
 11
6151.6686555552
 21
4709.7572457042
 31
0.0
  0
LINE
  5
AC
330
1F
100
AcDbEntity
  8
0
  6
Continuous
 62
     7
370
    25
100
AcDbLine
 10
5966.8425779105
 20
4709.7572457042
 30
0.0
 11
6151.6686555552
 21
4709.7572457042
 31
0.0
  0
LINE
  5
AD
330
1F
100
AcDbEntity
  8
0
  6
Continuous
 62
     7
370
    25
100
AcDbLine
 10
5813.2029787721
 20
4709.7572457042
 30
0.0
 11
5966.8425779105
 21
4709.7572457042
 31
0.0
  0
ARC
  5
AE
330
1F
100
AcDbEntity
  8
0
  6
Continuous
 62
     7
370
    25
100
AcDbCircle
 10
5902.6921825772
 20
5106.9690721963
 30
0.0
 40
2.950089653629502
100
AcDbArc
 50
345.8546639358
 51
37.3110706561
  0
SPLINE
  5
AF
330
1F
100
AcDbEntity
  8
0
  6
Continuous
 62
     7
370
    25
100
AcDbSpline
210
0.0
220
0.0
230
1.0
 70
    24
 71
     3
 72
    36
 73
    32
 74
     0
 42
0.00000001
 43
0.00000001
 40
0.0
 40
0.0
 40
0.0
 40
0.0
 40
0.0051263462273688
 40
0.0370894340794806
 40
0.0864447279231765
 40
0.115556488415603
 40
0.1561047156189616
 40
0.1882667139226588
 40
0.2204286699981033
 40
0.2697838303931664
 40
0.2988952725098022
 40
0.3394432641052228
 40
0.371604314113017
 40
0.4037654082945781
 40
0.4370212905215138
 40
0.4702772013440143
 40
0.5092193313617975
 40
0.5482116636901703
 40
0.5871537718385507
 40
0.6374736929175125
 40
0.6739454850709621
 40
0.7098959798473686
 40
0.7402003343468037
 40
0.7705047209709988
 40
0.8000196509068395
 40
0.8255577391774969
 40
0.851095820949935
 40
0.8895604770591399
 40
0.9217308174961565
 40
0.9539011336429815
 40
1.0
 40
1.0
 40
1.0
 40
1.0
 10
5700.539898301878
 20
5108.757245704188
 30
0.0
 10
5700.528742372781
 20
5108.757245704188
 30
0.0
 10
5700.448028531295
 20
5108.757245704188
 30
0.0
 10
5700.903622445848
 20
5108.757245704188
 30
0.0
 10
5702.088386535788
 20
5108.757245704188
 30
0.0
 10
5704.279252484032
 20
5108.757245704188
 30
0.0
 10
5706.773361772359
 20
5108.757245704188
 30
0.0
 10
5710.013562045877
 20
5108.757245704188
 30
0.0
 10
5714.150288519339
 20
5108.757245704188
 30
0.0
 10
5718.935407926578
 20
5108.757245704188
 30
0.0
 10
5724.82892415623
 20
5108.757245704188
 30
0.0
 10
5730.423951029613
 20
5108.757245704188
 30
0.0
 10
5736.750008125261
 20
5108.757245704188
 30
0.0
 10
5743.079085251325
 20
5108.757245704188
 30
0.0
 10
5749.913850764692
 20
5108.757245704188
 30
0.0
 10
5757.660175428653
 20
5108.757245704188
 30
0.0
 10
5766.306441555987
 20
5108.757245704188
 30
0.0
 10
5775.884481325244
 20
5108.757245704188
 30
0.0
 10
5786.878539221978
 20
5108.757245704188
 30
0.0
 10
5798.144765685763
 20
5108.757245704188
 30
0.0
 10
5809.514980501491
 20
5108.757245704188
 30
0.0
 10
5819.252233696046
 20
5108.757245704188
 30
0.0
 10
5828.556715440218
 20
5108.757245704188
 30
0.0
 10
5837.344376383545
 20
5108.757245704188
 30
0.0
 10
5845.73834455454
 20
5108.757245704188
 30
0.0
 10
5853.703294933648
 20
5108.757245704188
 30
0.0
 10
5862.573815352493
 20
5108.757245704188
 30
0.0
 10
5872.107295673559
 20
5108.757245704188
 30
0.0
 10
5882.249263513342
 20
5108.757245704188
 30
0.0
 10
5893.077850055048
 20
5108.757245704188
 30
0.0
 10
5900.605142009738
 20
5108.757245704188
 30
0.0
 10
5905.038555196756
 20
5108.757245704188
 30
0.0
  0
LWPOLYLINE
  5
B0
330
1F
100
AcDbEntity
  8
0
  6
Continuous
 62
     7
370
    25
100
AcDbPolyline
 90
        9
 70
   128
 43
0.0
 10
5993.8449306326
 20
5106.3098503845
 10
5993.8739349878
 20
5106.7551331848
 10
5993.845469027
 20
5107.2005220575
 10
5993.7609620644
 20
5107.6236534252
 10
5993.6246573091
 20
5108.0032812897
 10
5993.443398807
 20
5108.3203440227
 10
5993.2262877926
 20
5108.5589214757
 10
5992.9842257035
 20
5108.7070343521
 10
5992.7293668045
 20
5108.7572457042
  0
SPLINE
  5
B1
330
1F
100
AcDbEntity
  8
0
  6
Continuous
 62
     7
370
    25
100
AcDbSpline
210
0.0
220
0.0
230
1.0
 70
    24
 71
     3
 72
    17
 73
    13
 74
     0
 42
0.00000001
 43
0.00000001
 40
0.0
 40
0.0
 40
0.0
 40
0.0
 40
0.1090356449837118
 40
0.2180723565713097
 40
0.3277164799584626
 40
0.437360573708677
 40
0.54889676498093
 40
0.6604329367819365
 40
0.7726157180066633
 40
0.8847984873089727
 40
0.9423882196301292
 40
0.9999999999999999
 40
0.9999999999999999
 40
0.9999999999999999
 40
0.9999999999999999
 10
5905.038555196756
 20
5108.757245704188
 30
0.0
 10
5908.439596059219
 20
5108.757245704188
 30
0.0
 10
5915.241711053663
 20
5108.757245704188
 30
0.0
 10
5925.31530552596
 20
5108.757245704188
 30
0.0
 10
5935.282834569933
 20
5108.757245704188
 30
0.0
 10
5945.175350670272
 20
5108.757245704188
 30
0.0
 10
5954.960244288766
 20
5108.757245704188
 30
0.0
 10
5964.638048846851
 20
5108.757245704188
 30
0.0
 10
5974.138732256448
 20
5108.757245704188
 30
0.0
 10
5981.934476498292
 20
5108.757245704188
 30
0.0
 10
5988.111900458473
 20
5108.757245704188
 30
0.0
 10
5991.190014985662
 20
5108.757245704188
 30
0.0
 10
5992.729366804499
 20
5108.757245704188
 30
0.0
  0
LWPOLYLINE
  5
B2
330
1F
100
AcDbEntity
  8
0
  6
Continuous
 62
     7
370
    25
100
AcDbPolyline
 90
        9
 70
   128
 43
0.0
 10
6030.0930022562
 20
5106.3171742112
 10
6030.1276585559
 20
5106.7617053311
 10
6030.0916008055
 20
5107.2060134584
 10
6029.9866319829
 20
5107.6278820722
 10
6029.8180007926
 20
5108.0062166834
 10
6029.5941392172
 20
5108.3220996125
 10
6029.326240897
 20
5108.5597359203
 10
6029.0277014201
 20
5108.7072431955
 10
6028.7134485093
 20
5108.7572457042
  0
SPLINE
  5
B3
330
1F
100
AcDbEntity
  8
0
  6
Continuous
 62
     7
370
    25
100
AcDbSpline
210
0.0
220
0.0
230
1.0
 70
    24
 71
     3
 72
    11
 73
     7
 74
     0
 42
0.00000001
 43
0.00000001
 40
0.0
 40
0.0
 40
0.0
 40
0.0
 40
0.2487899141586364
 40
0.4980593257147244
 40
0.7487849511135165
 40
1.0
 40
1.0
 40
1.0
 40
1.0
 10
5992.729366804499
 20
5108.757245704188
 30
0.0
 10
5995.898072536962
 20
5108.757245704188
 30
0.0
 10
6002.241591106982
 20
5108.757245704188
 30
0.0
 10
6011.380093420649
 20
5108.757245704188
 30
0.0
 10
6020.26337417892
 20
5108.757245704188
 30
0.0
 10
6025.894926694107
 20
5108.757245704188
 30
0.0
 10
6028.713448509308
 20
5108.757245704188
 30
0.0
  0
LINE
  5
B4
330
1F
100
AcDbEntity
  8
0
  6
Continuous
 62
     7
370
    25
100
AcDbLine
 10
6198.1577327962
 20
5106.5244986093
 30
0.0
 11
6198.1334406696
 21
5106.3171742112
 31
0.0
  0
SPLINE
  5
B5
330
1F
100
AcDbEntity
  8
0
  6
Continuous
 62
     7
370
    25
100
AcDbSpline
210
0.0
220
0.0
230
1.0
 70
     8
 71
     3
 72
    14
 73
    10
 74
     0
 42
0.00000001
 43
0.00000001
 40
0.0
 40
0.0
 40
0.0
 40
0.0
 40
0.1796172964536589
 40
0.3591157593987168
 40
0.5423008471758248
 40
0.7373673728940711
 40
0.9470955755819042
 40
0.9969532746956725
 40
1.0
 40
1.0
 40
1.0
 40
1.0
 10
6198.157732796236
 20
5106.524498609346
 30
0.0
 10
6198.162979913713
 20
5106.735493708218
 30
0.0
 10
6198.173470677209
 20
5107.157344313125
 30
0.0
 10
6197.940078894168
 20
5107.755013268552
 30
0.0
 10
6197.546687342724
 20
5108.255956587757
 30
0.0
 10
6196.998069769214
 20
5108.618966106785
 30
0.0
 10
6196.513713311067
 20
5108.744345530649
 30
0.0
 10
6196.23147743419
 20
5108.75714840924
 30
0.0
 10
6196.174597485741
 20
5108.757240406156
 30
0.0
 10
6196.171321813052
 20
5108.757245704188
 30
0.0
  0
LINE
  5
B6
330
1F
100
AcDbEntity
  8
0
  6
Continuous
 62
     7
370
    25
100
AcDbLine
 10
6028.7134485093
 20
5108.7572457042
 30
0.0
 11
6196.1713218131
 21
5108.7572457042
 31
0.0
  0
LINE
  5
B7
330
1F
100
AcDbEntity
  8
0
  6
Continuous
 62
     7
370
    25
100
AcDbLine
 10
6198.1577372226
 20
5106.5244986093
 30
0.0
 11
6198.1577327962
 21
5106.5244986093
 31
0.0
  0
LINE
  5
B8
330
1F
100
AcDbEntity
  8
0
  6
Continuous
 62
     7
370
    25
100
AcDbLine
 10
6198.1577372226
 20
5106.5244986093
 30
0.0
 11
6196.8522058342
 21
5095.3822672726
 31
0.0
  0
LINE
  5
B9
330
1F
100
AcDbEntity
  8
0
  6
Continuous
 62
     7
370
    25
100
AcDbLine
 10
6153.2357971478
 20
4723.1322241358
 30
0.0
 11
6151.6686555552
 21
4709.7572457042
 31
0.0
  0
LINE
  5
BA
330
1F
100
AcDbEntity
  8
0
  6
Continuous
 62
     7
370
    25
100
AcDbLine
 10
6380.7193582164
 20
5370.1572457042
 30
0.0
 11
6380.7193582164
 21
5366.3572457042
 31
0.0
  0
LINE
  5
BB
330
1F
100
AcDbEntity
  8
0
  6
Continuous
 62
     7
370
    25
100
AcDbLine
 10
6378.8993582164
 20
5371.7692991566
 30
0.0
 11
6378.8993582164
 21
5364.4572457042
 31
0.0
  0
LINE
  5
BC
330
1F
100
AcDbEntity
  8
0
  6
Continuous
 62
     7
370
    25
100
AcDbLine
 10
6378.8993582164
 20
5372.0572457042
 30
0.0
 11
6378.8993582164
 21
5371.7692991566
 31
0.0
  0
LINE
  5
BD
330
1F
100
AcDbEntity
  8
0
  6
Continuous
 62
     7
370
    25
100
AcDbLine
 10
6380.7193582164
 20
5053.1572457042
 30
0.0
 11
6380.7193582164
 21
5049.3572457042
 31
0.0
  0
LINE
  5
BE
330
1F
100
AcDbEntity
  8
0
  6
Continuous
 62
     7
370
    25
100
AcDbLine
 10
6378.8993582164
 20
5055.0572457042
 30
0.0
 11
6378.8993582164
 21
5047.4572457042
 31
0.0
  0
LINE
  5
BF
330
1F
100
AcDbEntity
  8
0
  6
Continuous
 62
     7
370
    25
100
AcDbLine
 10
6380.7193582164
 20
4903.1572457042
 30
0.0
 11
6380.7193582164
 21
4899.3572457042
 31
0.0
  0
LINE
  5
C0
330
1F
100
AcDbEntity
  8
0
  6
Continuous
 62
     7
370
    25
100
AcDbLine
 10
6378.8993582164
 20
4905.0572457042
 30
0.0
 11
6378.8993582164
 21
4897.4572457042
 31
0.0
  0
LINE
  5
C1
330
1F
100
AcDbEntity
  8
0
  6
Continuous
 62
     7
370
    25
100
AcDbLine
 10
6380.7193582164
 20
5220.1572457042
 30
0.0
 11
6380.7193582164
 21
5216.3572457042
 31
0.0
  0
LINE
  5
C2
330
1F
100
AcDbEntity
  8
0
  6
Continuous
 62
     7
370
    25
100
AcDbLine
 10
6378.8993582164
 20
5222.0572457042
 30
0.0
 11
6378.8993582164
 21
5214.4572457042
 31
0.0
  0
LINE
  5
C3
330
1F
100
AcDbEntity
  8
0
  6
Continuous
 62
     7
370
    25
100
AcDbLine
 10
6380.3193582164
 20
5472.2572457042
 30
0.0
 11
6380.3193582164
 21
5447.2572457042
 31
0.0
  0
LINE
  5
C4
330
1F
100
AcDbEntity
  8
0
  6
Continuous
 62
     7
370
    25
100
AcDbLine
 10
6378.8193582164
 20
5445.7572457042
 30
0.0
 11
6378.8193582164
 21
5473.7572457042
 31
0.0
  0
LINE
  5
C5
330
1F
100
AcDbEntity
  8
0
  6
Continuous
 62
     7
370
    25
100
AcDbLine
 10
6378.8193582164
 20
5495.7572457042
 30
0.0
 11
6378.8193582164
 21
5523.7572457042
 31
0.0
  0
LINE
  5
C6
330
1F
100
AcDbEntity
  8
0
  6
Continuous
 62
     7
370
    25
100
AcDbLine
 10
6380.3193582164
 20
5522.2572457042
 30
0.0
 11
6380.3193582164
 21
5497.2572457042
 31
0.0
  0
LWPOLYLINE
  5
C7
330
1F
100
AcDbEntity
  8
0
  6
Continuous
 62
     7
370
    25
100
AcDbPolyline
 90
       20
 70
   128
 43
0.0
 10
6331.4890183289
 20
5580.378707544
 10
6332.1741904163
 20
5580.2490767232
 10
6332.6017878117
 20
5579.8742317717
 10
6332.7254737024
 20
5579.2947929563
 10
6332.5318448028
 20
5578.5735514636
 10
6332.0418838089
 20
5577.7886650005
 10
6331.3086855968
 20
5577.025188194
 10
6330.4117035694
 20
5576.3658556028
 10
6329.4481396477
 20
5575.8821161436
 10
6328.5224109337
 20
5575.6263904929
 10
6327.7348344977
 20
5575.6263904929
 10
6327.1707564672
 20
5575.8821161436
 10
6326.8913034493
 20
5576.3658556028
 10
6326.9267585146
 20
5577.025188194
 10
6327.2732795566
 20
5577.7886650005
 10
6327.8933156438
 20
5578.5735514636
 10
6328.719676245
 20
5579.2947929563
 10
6329.662812367
 20
5579.8742317717
 10
6330.6205205766
 20
5580.2490767232
 10
6331.4890183289
 20
5580.378707544
  0
LWPOLYLINE
  5
C8
330
1F
100
AcDbEntity
  8
0
  6
Continuous
 62
     7
370
    25
100
AcDbPolyline
 90
        9
 70
   128
 43
0.0
 10
6331.4890183289
 20
5579.1292941768
 10
6330.7173726193
 20
5578.9947309299
 10
6329.8729018054
 20
5578.6115272238
 10
6329.0841689132
 20
5578.038022349
 10
6328.4712513759
 20
5577.3615272238
 10
6328.1274603323
 20
5576.6850320987
 10
6328.1051348524
 20
5576.1115272238
 10
6328.4076737881
 20
5575.7283235177
 10
6328.6147767148
 20
5575.6414848381
  0
LWPOLYLINE
  5
C9
330
1F
100
AcDbEntity
  8
0
  6
Continuous
 62
     7
370
    25
100
AcDbPolyline
 90
        4
 70
   128
 43
0.0
 10
6332.4021037135
 20
5578.3195294419
 10
6332.3729018054
 20
5578.6115272238
 10
6332.0703628697
 20
5578.9947309299
 10
6331.4890183289
 20
5579.1292941768
  0
SPLINE
  5
CA
330
1F
100
AcDbEntity
  8
0
  6
Continuous
 62
     8
370
    25
100
AcDbSpline
210
0.0
220
0.0
230
1.0
 70
     8
 71
     3
 72
    37
 73
    33
 74
     0
 42
0.00000001
 43
0.00000001
 40
0.0
 40
0.0
 40
0.0
 40
0.0
 40
0.0461040668615948
 40
0.0802740607838951
 40
0.1145800690195708
 40
0.1570766781889868
 40
0.1932078090793418
 40
0.2294996669892656
 40
0.264713581181483
 40
0.300076204769566
 40
0.3386165674187041
 40
0.3756452505472941
 40
0.4128470717877362
 40
0.4457986202066545
 40
0.4788719760760248
 40
0.5136200880543236
 40
0.5516363353303365
 40
0.5962197257318416
 40
0.6271965182728322
 40
0.6582743507512836
 40
0.6887951414249958
 40
0.7194125151995905
 40
0.7494385614168622
 40
0.7795565715933298
 40
0.8100129129482884
 40
0.8405653399416178
 40
0.8710755415688304
 40
0.9016823939207074
 40
0.9322461013496208
 40
0.9629069831913565
 40
0.9889430374808227
 40
0.9999999999999999
 40
0.9999999999999999
 40
0.9999999999999999
 40
0.9999999999999999
 10
5905.552822408991
 20
5106.24812232492
 30
0.0
 10
5901.065922623037
 20
5106.242186326574
 30
0.0
 10
5893.253560489561
 20
5106.231850867591
 30
0.0
 10
5881.88095272926
 20
5106.218098714518
 30
0.0
 10
5870.796668237691
 20
5106.205461464454
 30
0.0
 10
5859.463982034558
 20
5106.193436053715
 30
0.0
 10
5847.952023129549
 20
5106.182162152047
 30
0.0
 10
5837.23103389575
 20
5106.172426854027
 30
0.0
 10
5826.694713073076
 20
5106.163650202819
 30
0.0
 10
5816.090479721141
 20
5106.155564028571
 30
0.0
 10
5805.520608981911
 20
5106.148344748681
 30
0.0
 10
5795.048602942316
 20
5106.142037528073
 30
0.0
 10
5785.396008916141
 20
5106.137057312263
 30
0.0
 10
5776.41502107098
 20
5106.133171548238
 30
0.0
 10
5767.968814573973
 20
5106.13024500759
 30
0.0
 10
5759.478192942625
 20
5106.128099772405
 30
0.0
 10
5750.557118907886
 20
5106.126849877372
 30
0.0
 10
5742.508383078094
 20
5106.126874261278
 30
0.0
 10
5735.500834125924
 20
5106.127957090798
 30
0.0
 10
5729.826824799669
 20
5106.129656126565
 30
0.0
 10
5724.598952416391
 20
5106.132088011039
 30
0.0
 10
5719.8621366865
 20
5106.135215338802
 30
0.0
 10
5715.588311799745
 20
5106.139034636438
 30
0.0
 10
5711.771448099991
 20
5106.143530433855
 30
0.0
 10
5708.400556221353
 20
5106.148755623072
 30
0.0
 10
5705.498861995577
 20
5106.154674037463
 30
0.0
 10
5703.085869161356
 20
5106.161290529683
 30
0.0
 10
5701.177333023473
 20
5106.168555269046
 30
0.0
 10
5699.766982337163
 20
5106.176472925666
 30
0.0
 10
5698.943598441149
 20
5106.184627046146
 30
0.0
 10
5698.584618880907
 20
5106.191278416498
 30
0.0
 10
5698.620226595979
 20
5106.195186642388
 30
0.0
 10
5698.630840808703
 20
5106.196351635448
 30
0.0
  0
LINE
  5
CB
330
1F
100
AcDbEntity
  8
0
  6
Continuous
 62
     8
370
    25
100
AcDbLine
 10
6356.8292607931
 20
5562.2572457042
 30
0.0
 11
6363.4193582164
 21
5562.2572457042
 31
0.0
  0
LINE
  5
CC
330
1F
100
AcDbEntity
  8
0
  6
Continuous
 62
     8
370
    25
100
AcDbLine
 10
6318.4193582164
 20
5562.2572457042
 30
0.0
 11
6356.8292607931
 21
5562.2572457042
 31
0.0
  0
LINE
  5
CD
330
1F
100
AcDbEntity
  8
0
  6
Continuous
 62
     7
370
    25
100
AcDbLine
 10
7548.3503212107
 20
5108.7572457042
 30
0.0
 11
7548.3503212107
 21
5559.7572457042
 31
0.0
  0
SPLINE
  5
CE
330
1F
100
AcDbEntity
  8
0
  6
Continuous
 62
     7
370
    25
100
AcDbSpline
210
0.0
220
0.0
230
1.0
 70
     8
 71
     3
 72
    35
 73
    31
 74
     0
 42
0.00000001
 43
0.00000001
 40
0.0
 40
0.0
 40
0.0
 40
0.0
 40
0.053013313215487
 40
0.1033998047448534
 40
0.1511481704402727
 40
0.1962477504582679
 40
0.2386885749125596
 40
0.278461406999496
 40
0.3155577727793649
 40
0.3499699946651824
 40
0.3785778364025602
 40
0.4050114996895209
 40
0.4292672617966519
 40
0.4513420820527221
 40
0.471233695701409
 40
0.4889407647220809
 40
0.5051444294355718
 40
0.5279381525384403
 40
0.5536549352159491
 40
0.5822959462295821
 40
0.6138624646067421
 40
0.6483558804564066
 40
0.6857776952210446
 40
0.7261295215681092
 40
0.7656941002691435
 40
0.8077235587505934
 40
0.8522193833906462
 40
0.8991831373498927
 40
0.9486164598666973
 40
1.0
 40
1.0
 40
1.0
 40
1.0
 10
7753.566563738347
 20
4709.757245704188
 30
0.0
 10
7755.541467985781
 20
4716.785700302612
 30
0.0
 10
7759.393419527548
 20
4730.494347980998
 30
0.0
 10
7765.066053738376
 20
4750.505313078048
 30
0.0
 10
7770.46284237322
 20
4769.451638503449
 30
0.0
 10
7775.578341873511
 20
4787.331302734092
 30
0.0
 10
7780.404775593926
 20
4804.144810229109
 30
0.0
 10
7784.936944297314
 20
4819.892038736305
 30
0.0
 10
7789.17069474177
 20
4834.573019910354
 30
0.0
 10
7792.984396086758
 20
4847.777127305797
 30
0.0
 10
7796.395362788263
 20
4859.573488992539
 30
0.0
 10
7799.421748251608
 20
4870.030798403189
 30
0.0
 10
7802.201311204131
 20
4879.628355652399
 30
0.0
 10
7804.733439312387
 20
4888.366156554184
 30
0.0
 10
7807.017672790052
 20
4896.244269975576
 30
0.0
 10
7809.079688499245
 20
4903.352596940367
 30
0.0
 10
7811.256057695184
 20
4910.852381647793
 30
0.0
 10
7813.740527382024
 20
4919.410142966535
 30
0.0
 10
7816.703917153416
 20
4929.61229929409
 30
0.0
 10
7820.005716735251
 20
4940.973300429192
 30
0.0
 10
7823.646433444793
 20
4953.493304569668
 30
0.0
 10
7827.626514107506
 20
4967.172264036835
 30
0.0
 10
7831.946410778615
 20
4982.010194748401
 30
0.0
 10
7836.463380756395
 20
4997.515653694665
 30
0.0
 10
7841.159554663846
 20
5013.627045588185
 30
0.0
 10
7846.017011770563
 20
5030.282804032808
 30
0.0
 10
7851.161141213221
 20
5047.912437040033
 30
0.0
 10
7856.592103747947
 20
5066.515840477046
 30
0.0
 10
7862.289831078977
 20
5086.024647933415
 30
0.0
 10
7866.177644497683
 20
5099.329667932235
 30
0.0
 10
7868.159154451273
 20
5106.110865155723
 30
0.0
  0
ARC
  5
CF
330
1F
100
AcDbEntity
  8
0
  6
Continuous
 62
     7
370
    25
100
AcDbCircle
 10
7866.2651550314
 20
5106.7572457092
 30
0.0
 40
1.999999994973059
100
AcDbArc
 50
343.0410771637
 51
90.000119965
  0
ARC
  5
D0
330
1F
100
AcDbEntity
  8
0
  6
Continuous
 62
     7
370
    25
100
AcDbCircle
 10
7225.8503212107
 20
5562.2572457042
 30
0.0
 40
22.5
100
AcDbArc
 50
0.0
 51
180.0
  0
LINE
  5
D1
330
1F
100
AcDbEntity
  8
0
  6
Continuous
 62
     7
370
    25
100
AcDbLine
 10
7203.3503212107
 20
5562.2572457042
 30
0.0
 11
7203.3503212107
 21
5559.7572457042
 31
0.0
  0
LINE
  5
D2
330
1F
100
AcDbEntity
  8
0
  6
Continuous
 62
     7
370
    25
100
AcDbLine
 10
7248.3503212107
 20
5559.7572457042
 30
0.0
 11
7248.3503212107
 21
5562.2572457042
 31
0.0
  0
LINE
  5
D3
330
1F
100
AcDbEntity
  8
0
  6
Continuous
 62
     7
370
    25
100
AcDbLine
 10
7108.3503212107
 20
4709.7572457042
 30
0.0
 11
7108.3503212107
 21
5582.7572457042
 31
0.0
  0
LINE
  5
D4
330
1F
100
AcDbEntity
  8
0
  6
Continuous
 62
     7
370
    25
100
AcDbLine
 10
7108.3503212107
 20
5582.7572457042
 30
0.0
 11
7188.3503212107
 21
5582.7572457042
 31
0.0
  0
LINE
  5
D5
330
1F
100
AcDbEntity
  8
0
  6
Continuous
 62
     7
370
    25
100
AcDbLine
 10
7188.3503212107
 20
5582.7572457042
 30
0.0
 11
7188.3503212107
 21
5559.7572457042
 31
0.0
  0
LINE
  5
D6
330
1F
100
AcDbEntity
  8
0
  6
Continuous
 62
     7
370
    25
100
AcDbLine
 10
7188.3503212107
 20
5559.7572457042
 30
0.0
 11
7368.3503212107
 21
5559.7572457042
 31
0.0
  0
LINE
  5
D7
330
1F
100
AcDbEntity
  8
0
  6
Continuous
 62
     7
370
    25
100
AcDbLine
 10
7368.3503212107
 20
4709.7572457042
 30
0.0
 11
7368.3503212107
 21
5559.7572457042
 31
0.0
  0
LINE
  5
D8
330
1F
100
AcDbEntity
  8
0
  6
Continuous
 62
     7
370
    25
100
AcDbLine
 10
7108.3503212107
 20
4709.7572457042
 30
0.0
 11
7368.3503212107
 21
4709.7572457042
 31
0.0
  0
LINE
  5
D9
330
1F
100
AcDbEntity
  8
0
  6
Continuous
 62
     7
370
    25
100
AcDbLine
 10
7368.3503212107
 20
5559.7572457042
 30
0.0
 11
7548.3503212107
 21
5559.7572457042
 31
0.0
  0
LINE
  5
DA
330
1F
100
AcDbEntity
  8
0
  6
Continuous
 62
     7
370
    25
100
AcDbLine
 10
7368.3503212107
 20
4709.7572457042
 30
0.0
 11
7540.9049659165
 21
4709.7572457042
 31
0.0
  0
SPLINE
  5
DB
330
1F
100
AcDbEntity
  8
0
  6
Continuous
 62
     7
370
    25
100
AcDbSpline
210
0.0
220
0.0
230
1.0
 70
     8
 71
     3
 72
    14
 73
    10
 74
     0
 42
0.00000001
 43
0.00000001
 40
0.0
 40
0.0
 40
0.0
 40
0.0
 40
0.1152817304336507
 40
0.2850688196421979
 40
0.4554242431348483
 40
0.5909843706964064
 40
0.7265444771714588
 40
0.8632722462615428
 40
1.0
 40
1.0
 40
1.0
 40
1.0
 10
7661.216857023041
 20
5106.248122324913
 30
0.0
 10
7657.597683831538
 20
5106.251593351126
 30
0.0
 10
7648.64818744645
 20
5106.260176509461
 30
0.0
 10
7634.610000950174
 20
5106.272308901269
 30
0.0
 10
7620.255082665877
 20
5106.283526330873
 30
0.0
 10
7607.244514769578
 20
5106.292496431688
 30
0.0
 10
7595.508517136972
 20
5106.299569695876
 30
0.0
 10
7584.019371755398
 20
5106.305508982076
 30
0.0
 10
7576.62295630976
 20
5106.308403250422
 30
0.0
 10
7572.924748794558
 20
5106.309850384512
 30
0.0
  0
LINE
  5
DC
330
1F
100
AcDbEntity
  8
0
  6
Continuous
 62
     7
370
    25
100
AcDbLine
 10
7868.0981101638
 20
5106.1969223983
 30
0.0
 11
7868.086071222
 21
5106.1964384627
 31
0.0
  0
LINE
  5
DD
330
1F
100
AcDbEntity
  8
0
  6
Continuous
 62
     7
370
    25
100
AcDbLine
 10
7599.9271015153
 20
4709.7572457042
 30
0.0
 11
7753.5652384362
 21
4709.7572457042
 31
0.0
  0
LINE
  5
DE
330
1F
100
AcDbEntity
  8
0
  6
Continuous
 62
     7
370
    25
100
AcDbLine
 10
7415.1010238718
 20
4709.7572457042
 30
0.0
 11
7599.9271015153
 21
4709.7572457042
 31
0.0
  0
LINE
  5
DF
330
1F
100
AcDbEntity
  8
0
  6
Continuous
 62
     7
370
    25
100
AcDbLine
 10
7415.1010238718
 20
4709.7572457042
 30
0.0
 11
7368.6362387574
 21
5106.3171742112
 31
0.0
  0
LINE
  5
E0
330
1F
100
AcDbEntity
  8
0
  6
Continuous
 62
     7
370
    25
100
AcDbLine
 10
7536.6766771712
 20
5106.3171742112
 30
0.0
 11
7368.6362387574
 21
5106.3171742112
 31
0.0
  0
SPLINE
  5
E1
330
1F
100
AcDbEntity
  8
0
  6
Continuous
 62
     7
370
    25
100
AcDbSpline
210
0.0
220
0.0
230
1.0
 70
     8
 71
     3
 72
    11
 73
     7
 74
     0
 42
0.00000001
 43
0.00000001
 40
0.0
 40
0.0
 40
0.0
 40
0.0
 40
0.0844950609604817
 40
0.4226161766368844
 40
0.7109348338775382
 40
1.0
 40
1.0
 40
1.0
 40
1.0
 10
7572.924748794558
 20
5106.309850384512
 30
0.0
 10
7571.834759275665
 20
5106.310242977554
 30
0.0
 10
7566.382994429153
 20
5106.312206597298
 30
0.0
 10
7557.489241152907
 20
5106.31439719436
 30
0.0
 10
7546.488258622583
 20
5106.316350439966
 30
0.0
 10
7539.950022118896
 20
5106.316899384217
 30
0.0
 10
7536.676677171201
 20
5106.317174211213
 30
0.0
  0
ARC
  5
E2
330
1F
100
AcDbEntity
  8
0
  6
Continuous
 62
     7
370
    25
100
AcDbCircle
 10
7664.0774968551
 20
5106.9690721963
 30
0.0
 40
2.950089653881816
100
AcDbArc
 50
142.6889293477
 51
194.1453360631
  0
SPLINE
  5
E3
330
1F
100
AcDbEntity
  8
0
  6
Continuous
 62
     7
370
    25
100
AcDbSpline
210
0.0
220
0.0
230
1.0
 70
    24
 71
     3
 72
    29
 73
    25
 74
     0
 42
0.00000001
 43
0.00000001
 40
0.0
 40
0.0
 40
0.0
 40
0.0
 40
0.0457469711975708
 40
0.0916574114611826
 40
0.1375678918167482
 40
0.1833149178805142
 40
0.2290646610256927
 40
0.2749778937533648
 40
0.3208911034755568
 40
0.3666408151375174
 40
0.4123898830562586
 40
0.4583023551957982
 40
0.5042148325863169
 40
0.5499639076910603
 40
0.5957251736883957
 40
0.6416500266498472
 40
0.6875748427511704
 40
0.733336058305004
 40
0.7790886499114528
 40
0.825004687429205
 40
0.870920711093507
 40
0.9166732837413997
 40
0.962433860358232
 40
1.0
 40
1.0
 40
1.0
 40
1.0
 10
7661.731124235217
 20
5108.757245704188
 30
0.0
 10
7666.131459030218
 20
5108.757245704188
 30
0.0
 10
7674.947852472541
 20
5108.757245704188
 30
0.0
 10
7688.472786084896
 20
5108.757245704188
 30
0.0
 10
7702.088896416588
 20
5108.757245704188
 30
0.0
 10
7715.715381761132
 20
5108.757245704188
 30
0.0
 10
7729.260268480765
 20
5108.757245704188
 30
0.0
 10
7742.64623230609
 20
5108.757245704188
 30
0.0
 10
7755.765881601532
 20
5108.757245704188
 30
0.0
 10
7768.510671796971
 20
5108.757245704188
 30
0.0
 10
7780.790793152685
 20
5108.757245704188
 30
0.0
 10
7792.545461300458
 20
5108.757245704188
 30
0.0
 10
7803.684162181264
 20
5108.757245704188
 30
0.0
 10
7814.112641250998
 20
5108.757245704188
 30
0.0
 10
7823.745489749576
 20
5108.757245704188
 30
0.0
 10
7832.546650272959
 20
5108.757245704188
 30
0.0
 10
7840.450872488593
 20
5108.757245704188
 30
0.0
 10
7847.386154167676
 20
5108.757245704188
 30
0.0
 10
7853.282681791904
 20
5108.757245704188
 30
0.0
 10
7858.131538401144
 20
5108.757245704188
 30
0.0
 10
7861.913298875858
 20
5108.757245704188
 30
0.0
 10
7864.547260892304
 20
5108.757245704188
 30
0.0
 10
7866.043389816198
 20
5108.757245704188
 30
0.0
 10
7866.126856713417
 20
5108.757245704188
 30
0.0
 10
7866.164486050766
 20
5108.757245704188
 30
0.0
  0
LWPOLYLINE
  5
E4
330
1F
100
AcDbEntity
  8
0
  6
Continuous
 62
     7
370
    25
100
AcDbPolyline
 90
        9
 70
   128
 43
0.0
 10
7572.9247487946
 20
5106.3098503845
 10
7572.8957444393
 20
5106.7551331848
 10
7572.9242104002
 20
5107.2005220575
 10
7573.0087173627
 20
5107.6236534252
 10
7573.145022118
 20
5108.0032812897
 10
7573.3262806202
 20
5108.3203440227
 10
7573.5433916345
 20
5108.5589214757
 10
7573.7854537236
 20
5108.7070343521
 10
7574.0403126226
 20
5108.7572457042
  0
SPLINE
  5
E5
330
1F
100
AcDbEntity
  8
0
  6
Continuous
 62
     7
370
    25
100
AcDbSpline
210
0.0
220
0.0
230
1.0
 70
    24
 71
     3
 72
    14
 73
    10
 74
     0
 42
0.00000001
 43
0.00000001
 40
0.0
 40
0.0
 40
0.0
 40
0.0
 40
0.1457512863598529
 40
0.2915920346581119
 40
0.4373432880133907
 40
0.586438526824029
 40
0.7356295265151217
 40
0.8847247367711362
 40
1.0
 40
1.0
 40
1.0
 40
1.0
 10
7574.040312622647
 20
5108.757245704188
 30
0.0
 10
7577.958383320173
 20
5108.757245704188
 30
0.0
 10
7585.796929621613
 20
5108.757245704188
 30
0.0
 10
7598.034047917217
 20
5108.757245704188
 30
0.0
 10
7610.680959292192
 20
5108.757245704188
 30
0.0
 10
7623.753661405421
 20
5108.757245704188
 30
0.0
 10
7637.218247052442
 20
5108.757245704188
 30
0.0
 10
7649.893174699592
 20
5108.757245704188
 30
0.0
 10
7658.136660721359
 20
5108.757245704188
 30
0.0
 10
7661.731124235217
 20
5108.757245704188
 30
0.0
  0
LWPOLYLINE
  5
E6
330
1F
100
AcDbEntity
  8
0
  6
Continuous
 62
     7
370
    25
100
AcDbPolyline
 90
        9
 70
   128
 43
0.0
 10
7536.6766771712
 20
5106.3171742112
 10
7536.6420208715
 20
5106.7617053311
 10
7536.6780786219
 20
5107.2060134584
 10
7536.7830474445
 20
5107.6278820722
 10
7536.9516786348
 20
5108.0062166834
 10
7537.1755402102
 20
5108.3220996125
 10
7537.4434385304
 20
5108.5597359203
 10
7537.7419780073
 20
5108.7072431955
 10
7538.0562309181
 20
5108.7572457042
  0
SPLINE
  5
E7
330
1F
100
AcDbEntity
  8
0
  6
Continuous
 62
     7
370
    25
100
AcDbSpline
210
0.0
220
0.0
230
1.0
 70
    24
 71
     3
 72
    11
 73
     7
 74
     0
 42
0.00000001
 43
0.00000001
 40
0.0
 40
0.0
 40
0.0
 40
0.0
 40
0.0851125836115493
 40
0.4257061745484481
 40
0.712485926095965
 40
1.0
 40
1.0
 40
1.0
 40
1.0
 10
7538.056230918082
 20
5108.757245704188
 30
0.0
 10
7539.003483537907
 20
5108.757245704188
 30
0.0
 10
7543.741340996879
 20
5108.757245704188
 30
0.0
 10
7552.00453367104
 20
5108.757245704188
 30
0.0
 10
7563.079750729816
 20
5108.757245704188
 30
0.0
 10
7570.383678929173
 20
5108.757245704188
 30
0.0
 10
7574.040312622647
 20
5108.757245704188
 30
0.0
  0
SPLINE
  5
E8
330
1F
100
AcDbEntity
  8
0
  6
Continuous
 62
     7
370
    25
100
AcDbSpline
210
0.0
220
0.0
230
1.0
 70
     8
 71
     3
 72
    14
 73
    10
 74
     0
 42
0.00000001
 43
0.00000001
 40
0.0
 40
0.0
 40
0.0
 40
0.0
 40
0.003046725292986
 40
0.0529044244180891
 40
0.262632627105936
 40
0.4576991528241705
 40
0.6408842406012748
 40
0.8203827035463389
 40
1.0
 40
1.0
 40
1.0
 40
1.0
 10
7370.598357614006
 20
5108.757245704188
 30
0.0
 10
7370.595081941325
 20
5108.757240406157
 30
0.0
 10
7370.538201992808
 20
5108.75714840924
 30
0.0
 10
7370.255966116146
 20
5108.744345530655
 30
0.0
 10
7369.771609657791
 20
5108.618966106785
 30
0.0
 10
7369.222992084346
 20
5108.255956587757
 30
0.0
 10
7368.829600532886
 20
5107.755013268552
 30
0.0
 10
7368.596208749847
 20
5107.157344313125
 30
0.0
 10
7368.606699513345
 20
5106.735493708218
 30
0.0
 10
7368.611946630821
 20
5106.524498609346
 30
0.0
  0
LINE
  5
E9
330
1F
100
AcDbEntity
  8
0
  6
Continuous
 62
     7
370
    25
100
AcDbLine
 10
7368.6362387574
 20
5106.3171742112
 30
0.0
 11
7368.6119466308
 21
5106.5244986093
 31
0.0
  0
LINE
  5
EA
330
1F
100
AcDbEntity
  8
0
  6
Continuous
 62
     7
370
    25
100
AcDbLine
 10
7370.598357614
 20
5108.7572457042
 30
0.0
 11
7538.0562309181
 21
5108.7572457042
 31
0.0
  0
LINE
  5
EB
330
1F
100
AcDbEntity
  8
0
  6
Continuous
 62
     7
370
    25
100
AcDbLine
 10
7368.6119466308
 20
5106.5244986093
 30
0.0
 11
7368.6119422044
 21
5106.5244986093
 31
0.0
  0
LINE
  5
EC
330
1F
100
AcDbEntity
  8
0
  6
Continuous
 62
     7
370
    25
100
AcDbLine
 10
7368.6119422044
 20
5106.5244986093
 30
0.0
 11
7369.9174735929
 21
5095.3822672726
 31
0.0
  0
LINE
  5
ED
330
1F
100
AcDbEntity
  8
0
  6
Continuous
 62
     7
370
    25
100
AcDbLine
 10
7413.5338822792
 20
4723.1322241358
 30
0.0
 11
7415.1010238718
 21
4709.7572457042
 31
0.0
  0
LWPOLYLINE
  5
EE
330
1F
100
AcDbEntity
  8
0
  6
Continuous
 62
     7
370
    25
100
AcDbPolyline
 90
       20
 70
   128
 43
0.0
 10
7235.2806610982
 20
5580.378707544
 10
7236.1491588505
 20
5580.2490767232
 10
7237.1068670601
 20
5579.8742317717
 10
7238.050003182
 20
5579.2947929563
 10
7238.8763637833
 20
5578.5735514636
 10
7239.4963998704
 20
5577.7886650005
 10
7239.8429209125
 20
5577.025188194
 10
7239.8783759778
 20
5576.3658556028
 10
7239.5989229599
 20
5575.8821161436
 10
7239.0348449293
 20
5575.6263904929
 10
7238.2472684934
 20
5575.6263904929
 10
7237.3215397794
 20
5575.8821161436
 10
7236.3579758576
 20
5576.3658556028
 10
7235.4609938303
 20
5577.025188194
 10
7234.7277956181
 20
5577.7886650005
 10
7234.2378346242
 20
5578.5735514636
 10
7234.0442057247
 20
5579.2947929563
 10
7234.1678916154
 20
5579.8742317717
 10
7234.5954890107
 20
5580.2490767232
 10
7235.2806610982
 20
5580.378707544
  0
LWPOLYLINE
  5
EF
330
1F
100
AcDbEntity
  8
0
  6
Continuous
 62
     7
370
    25
100
AcDbPolyline
 90
        4
 70
   128
 43
0.0
 10
7235.2806610982
 20
5579.1292941768
 10
7234.6993165574
 20
5578.9947309299
 10
7234.3967776217
 20
5578.6115272238
 10
7234.3675757131
 20
5578.3195294495
  0
LWPOLYLINE
  5
F0
330
1F
100
AcDbEntity
  8
0
  6
Continuous
 62
     7
370
    25
100
AcDbPolyline
 90
        9
 70
   128
 43
0.0
 10
7238.1549027211
 20
5575.6414848406
 10
7238.362005639
 20
5575.7283235177
 10
7238.6645445747
 20
5576.1115272238
 10
7238.6422190947
 20
5576.6850320987
 10
7238.2984280512
 20
5577.3615272238
 10
7237.6855105138
 20
5578.038022349
 10
7236.8967776217
 20
5578.6115272238
 10
7236.0523068077
 20
5578.9947309299
 10
7235.2806610982
 20
5579.1292941768
  0
SPLINE
  5
F1
330
1F
100
AcDbEntity
  8
0
  6
Continuous
 62
     8
370
    25
100
AcDbSpline
210
0.0
220
0.0
230
1.0
 70
     8
 71
     3
 72
    31
 73
    27
 74
     0
 42
0.00000001
 43
0.00000001
 40
0.0
 40
0.0
 40
0.0
 40
0.0
 40
0.0368214651072992
 40
0.0833227791588387
 40
0.1284997109239332
 40
0.1736766141995836
 40
0.2201647100606268
 40
0.2666528376465996
 40
0.3118360879023798
 40
0.3570193520737899
 40
0.4035145351416086
 40
0.4500097037355669
 40
0.4951816460233704
 40
0.5403535709421058
 40
0.5868360199852536
 40
0.633318501929421
 40
0.6784933860617043
 40
0.7236682683362116
 40
0.7701546287858612
 40
0.8166409464093339
 40
0.8426773936618017
 40
0.8687737715774583
 40
0.9013405939004036
 40
0.9339073802566269
 40
0.9669536929602028
 40
1.0
 40
1.0
 40
1.0
 40
1.0
 10
7868.086071221979
 20
5106.196438462708
 30
0.0
 10
7868.052436655603
 20
5106.192635226139
 30
0.0
 10
7867.976325465076
 20
5106.184028935224
 30
0.0
 10
7866.454757326784
 20
5106.172383265535
 30
0.0
 10
7863.818645848328
 20
5106.161253189649
 30
0.0
 10
7860.044077782354
 20
5106.151613507092
 30
0.0
 10
7855.127298316763
 20
5106.143418092958
 30
0.0
 10
7849.124304021866
 20
5106.136819077034
 30
0.0
 10
7842.152395259213
 20
5106.131891042583
 30
0.0
 10
7834.226255820623
 20
5106.128555443984
 30
0.0
 10
7825.293509938009
 20
5106.126860129521
 30
0.0
 10
7815.492528644704
 20
5106.126852476214
 30
0.0
 10
7804.998656761393
 20
5106.128505826759
 30
0.0
 10
7793.810416879529
 20
5106.131772271673
 30
0.0
 10
7781.874196522684
 20
5106.136717084894
 30
0.0
 10
7769.381752764341
 20
5106.143295481572
 30
0.0
 10
7756.548691044807
 20
5106.151387361531
 30
0.0
 10
7743.355175051844
 20
5106.160979383048
 30
0.0
 10
7729.756626675317
 20
5106.172161872588
 30
0.0
 10
7717.884809529037
 20
5106.183038480181
 30
0.0
 10
7708.004958274862
 20
5106.192813100578
 30
0.0
 10
7699.510987595144
 20
5106.201684925562
 30
0.0
 10
7690.374255860257
 20
5106.211758402241
 30
0.0
 10
7680.596058677575
 20
5106.223230562297
 30
0.0
 10
7670.846330859938
 20
5106.23530108975
 30
0.0
 10
7664.426681451964
 20
5106.243848580103
 30
0.0
 10
7661.216857023041
 20
5106.248122324913
 30
0.0
  0
LINE
  5
F2
330
1F
100
AcDbEntity
  8
0
  6
Continuous
 62
     8
370
    25
100
AcDbLine
 10
7203.3503212107
 20
5562.2572457042
 30
0.0
 11
7248.3503212107
 21
5562.2572457042
 31
0.0
  0
LINE
  5
F3
330
1F
100
AcDbEntity
  8
0
  6
Continuous
 62
     7
370
    25
100
AcDbLine
 10
6018.2503391002
 20
4073.5621223885
 30
0.0
 11
5944.3314771569
 21
4073.5621179626
 31
0.0
  0
SPLINE
  5
F4
330
1F
100
AcDbEntity
  8
0
  6
Continuous
 62
     7
370
    25
100
AcDbSpline
210
0.0
220
0.0
230
1.0
 70
     8
 71
     3
 72
    11
 73
     7
 74
     0
 42
0.00000001
 43
0.00000001
 40
0.0
 40
0.0
 40
0.0
 40
0.0
 40
0.1856244611367033
 40
0.7003201163385611
 40
0.95766374407481
 40
0.9999999999999999
 40
0.9999999999999999
 40
0.9999999999999999
 40
0.9999999999999999
 10
5944.315183971345
 20
4073.555369103545
 30
0.0
 10
5933.916899643063
 20
4063.159134790451
 30
0.0
 10
5894.686468233804
 20
4023.936437635973
 30
0.0
 10
5841.100174351662
 20
3970.241013627217
 30
0.0
 10
5795.378599421469
 20
3924.732022216609
 30
0.0
 10
5778.667886176977
 20
3907.871512899992
 30
0.0
 10
5776.307137020352
 20
3905.489601812948
 30
0.0
  0
LINE
  5
F5
330
1F
100
AcDbEntity
  8
0
  6
Continuous
 62
     7
370
    25
100
AcDbLine
 10
6198.171321764
 20
3819.7222733555
 30
0.0
 11
6198.17132619
 21
3893.6411357296
 31
0.0
  0
SPLINE
  5
F6
330
1F
100
AcDbEntity
  8
0
  6
Continuous
 62
     7
370
    25
100
AcDbSpline
210
0.0
220
0.0
230
1.0
 70
     8
 71
     3
 72
    11
 73
     7
 74
     0
 42
0.00000001
 43
0.00000001
 40
0.0
 40
0.0
 40
0.0
 40
0.0
 40
0.0329390199654218
 40
0.0934407565855994
 40
0.6813275979242559
 40
0.9999999999999999
 40
0.9999999999999999
 40
0.9999999999999999
 40
0.9999999999999999
 10
6030.102422747436
 20
3651.694282553161
 30
0.0
 10
6031.957812421441
 20
3653.528825790552
 30
0.0
 10
6037.221144939596
 20
3658.733021552013
 30
0.0
 10
6075.314435965431
 20
3696.965522916259
 30
0.0
 10
6129.547556794567
 20
3751.066792274705
 30
0.0
 10
6180.317866588145
 20
3801.853507159087
 30
0.0
 10
6198.164572905002
 20
3819.705980169882
 30
0.0
  0
SPLINE
  5
F7
330
1F
100
AcDbEntity
  8
0
  6
Continuous
 62
     7
370
    25
100
AcDbSpline
210
0.0
220
0.0
230
1.0
 70
     8
 71
     3
 72
    18
 73
    14
 74
     0
 42
0.00000001
 43
0.00000001
 40
0.0
 40
0.0
 40
0.0
 40
0.0
 40
0.0661934313645167
 40
0.1627523631263684
 40
0.259345653577827
 40
0.3560314138787458
 40
0.452876477117315
 40
0.5499462258599795
 40
0.6473045383751302
 40
0.745013730475108
 40
0.8432329317429411
 40
0.9284771648475365
 40
1.0
 40
1.0
 40
1.0
 40
1.0
 10
5745.923085950565
 20
3869.253298861015
 30
0.0
 10
5744.687095633579
 20
3867.477649206763
 30
0.0
 10
5741.648118189079
 20
3863.11179036916
 30
0.0
 10
5737.086652644958
 20
3855.964875389298
 30
0.0
 10
5732.226979280376
 20
3847.832550352466
 30
0.0
 10
5727.643619225984
 20
3839.529813473044
 30
0.0
 10
5723.328678705784
 20
3831.067303989054
 30
0.0
 10
5719.287529058691
 20
3822.446313053671
 30
0.0
 10
5715.520351631453
 20
3813.671413223511
 30
0.0
 10
5712.034284149531
 20
3804.740639149546
 30
0.0
 10
5708.958337012595
 20
3796.080562437064
 30
0.0
 10
5706.377752158211
 20
3788.154151044971
 30
0.0
 10
5705.009184137509
 20
3783.216327539535
 30
0.0
 10
5704.384793657878
 20
3780.963512962354
 30
0.0
  0
SPLINE
  5
F8
330
1F
100
AcDbEntity
  8
0
  6
Continuous
 62
     7
370
    25
100
AcDbSpline
210
0.0
220
0.0
230
1.0
 70
     8
 71
     3
 72
    56
 73
    52
 74
     0
 42
0.00000001
 43
0.00000001
 40
0.0
 40
0.0
 40
0.0
 40
0.0
 40
0.0171296266778996
 40
0.0370077621730319
 40
0.0579366054274928
 40
0.0787350424859293
 40
0.0995279426243427
 40
0.1203632306981286
 40
0.1412665138736267
 40
0.161713980393791
 40
0.182236173541898
 40
0.2028842938782568
 40
0.2236476567315439
 40
0.2445129727821001
 40
0.2654644254450035
 40
0.2864840725635281
 40
0.3075523192158492
 40
0.3286484511851018
 40
0.3497487789988903
 40
0.3708274772998432
 40
0.3918643276789044
 40
0.4128405898726156
 40
0.4337395328891553
 40
0.4545469036940819
 40
0.4752513190994972
 40
0.4958445730137511
 40
0.5162988791794273
 40
0.5369001440403502
 40
0.5576851296215639
 40
0.5785212239713197
 40
0.5993926361662613
 40
0.6202821084418061
 40
0.6411672507668713
 40
0.6620282771329576
 40
0.6828476273086035
 40
0.7036205454076359
 40
0.7243110139181859
 40
0.7450771702662431
 40
0.7659449242534305
 40
0.7868781618553011
 40
0.8078389805060135
 40
0.8287789923942637
 40
0.8496560802187229
 40
0.8704333129401584
 40
0.8890347081716427
 40
0.9086769435090546
 40
0.9286153334726627
 40
0.949237781067725
 40
0.9706055117697286
 40
0.9927872690152595
 40
1.0
 40
1.0
 40
1.0
 40
1.0
 10
5704.391445167922
 20
3780.960620723322
 30
0.0
 10
5703.887364460158
 20
3779.056926100162
 30
0.0
 10
5702.798321523043
 20
3774.94408235939
 30
0.0
 10
5701.413276918974
 20
3768.426874852154
 30
0.0
 10
5700.214970078357
 20
3761.445480748492
 30
0.0
 10
5699.319025900811
 20
3754.312190792511
 30
0.0
 10
5698.737769855211
 20
3747.157455644956
 30
0.0
 10
5698.470414334052
 20
3739.972005069643
 30
0.0
 10
5698.521250091342
 20
3732.821317089492
 30
0.0
 10
5698.895920726713
 20
3725.716408725144
 30
0.0
 10
5699.580279445456
 20
3718.664186872116
 30
0.0
 10
5700.578730662593
 20
3711.612846894489
 30
0.0
 10
5701.891482498254
 20
3704.57309347007
 30
0.0
 10
5703.517402484217
 20
3697.563211115597
 30
0.0
 10
5705.454118872409
 20
3690.602173920453
 30
0.0
 10
5707.698074196333
 20
3683.709477985807
 30
0.0
 10
5710.24445541485
 20
3676.904921128126
 30
0.0
 10
5713.087092551762
 20
3670.208621762031
 30
0.0
 10
5716.21832169005
 20
3663.640971495519
 30
0.0
 10
5719.629212542169
 20
3657.22182220118
 30
0.0
 10
5723.309859050368
 20
3650.969979422684
 30
0.0
 10
5727.249758641748
 20
3644.902797560593
 30
0.0
 10
5731.437734358362
 20
3639.036484235014
 30
0.0
 10
5735.862171290405
 20
3633.386010562386
 30
0.0
 10
5740.511007930384
 20
3627.964855303335
 30
0.0
 10
5745.370848572236
 20
3622.787489168732
 30
0.0
 10
5750.449516306842
 20
3617.841783187008
 30
0.0
 10
5755.753836238574
 20
3613.105829739937
 30
0.0
 10
5761.294113075656
 20
3608.578406999143
 30
0.0
 10
5767.051836241493
 20
3604.278869027316
 30
0.0
 10
5773.001975618176
 20
3600.22841427138
 30
0.0
 10
5779.128431255189
 20
3596.439199526038
 30
0.0
 10
5785.414012557496
 20
3592.922660885582
 30
0.0
 10
5791.840830049503
 20
3589.689302562802
 30
0.0
 10
5798.392006105983
 20
3586.747276079442
 30
0.0
 10
5805.049171143405
 20
3584.106276382956
 30
0.0
 10
5811.811232025806
 20
3581.765595293175
 30
0.0
 10
5818.67955679273
 20
3579.719642424362
 30
0.0
 10
5825.657611376248
 20
3577.968223746018
 30
0.0
 10
5832.727238155914
 20
3576.5178217293
 30
0.0
 10
5839.861596893178
 20
3575.375758790772
 30
0.0
 10
5847.032671584175
 20
3574.547377001043
 30
0.0
 10
5854.212180127006
 20
3574.036666331216
 30
0.0
 10
5861.138446648658
 20
3573.849464789964
 30
0.0
 10
5867.924206369316
 20
3573.958640714281
 30
0.0
 10
5874.60179099722
 20
3574.375530282805
 30
0.0
 10
5881.48530177757
 20
3575.107644953681
 30
0.0
 10
5888.529553452057
 20
3576.15201087571
 30
0.0
 10
5895.774493836351
 20
3577.54439243692
 30
0.0
 10
5901.473690319553
 20
3578.811061547024
 30
0.0
 10
5904.733443698576
 20
3579.701235563977
 30
0.0
 10
5905.533312164232
 20
3579.919663783022
 30
0.0
  0
SPLINE
  5
F9
330
1F
100
AcDbEntity
  8
0
  6
Continuous
 62
     7
370
    25
100
AcDbSpline
210
0.0
220
0.0
230
1.0
 70
     8
 71
     3
 72
    18
 73
    14
 74
     0
 42
0.00000001
 43
0.00000001
 40
0.0
 40
0.0
 40
0.0
 40
0.0
 40
0.0684752195247077
 40
0.1517602007851155
 40
0.2420847885558895
 40
0.3424195947273506
 40
0.4401507348728816
 40
0.5377674978951518
 40
0.6352783435162082
 40
0.7326539127845152
 40
0.8298680440275714
 40
0.926898318368435
 40
1.0
 40
1.0
 40
1.0
 40
1.0
 10
5905.572000120917
 20
3579.777933474896
 30
0.0
 10
5907.729392489478
 20
3580.373526631828
 30
0.0
 10
5912.5107761973
 20
3581.69352732273
 30
0.0
 10
5920.039602192081
 20
3584.132674998869
 30
0.0
 10
5928.484127110984
 20
3587.108523631652
 30
0.0
 10
5937.279244893607
 20
3590.501804750261
 30
0.0
 10
5946.172190749191
 20
3594.287486282512
 30
0.0
 10
5954.852285755525
 20
3598.324322469597
 30
0.0
 10
5963.38290244047
 20
3602.642285341919
 30
0.0
 10
5971.755680189332
 20
3607.232202700632
 30
0.0
 10
5979.951544333868
 20
3612.098732845184
 30
0.0
 10
5987.333081473915
 20
3616.778744534019
 30
0.0
 10
5991.897476715573
 20
3619.954749624884
 30
0.0
 10
5993.858689504137
 20
3621.319403970304
 30
0.0
  0
SPLINE
  5
FA
330
1F
100
AcDbEntity
  8
0
  6
Continuous
 62
     7
370
    25
100
AcDbSpline
210
0.0
220
0.0
230
1.0
 70
     8
 71
     3
 72
    13
 73
     9
 74
     0
 42
0.00000001
 43
0.00000001
 40
0.0
 40
0.0
 40
0.0
 40
0.0
 40
0.1350975687255709
 40
0.3303059927614534
 40
0.5077385257851137
 40
0.6972940580327274
 40
0.8790777095423069
 40
1.0
 40
1.0
 40
1.0
 40
1.0
 10
5776.319130298118
 20
3905.477935452338
 30
0.0
 10
5774.824602673963
 20
3903.957006608758
 30
0.0
 10
5771.170566296681
 20
3900.238420727922
 30
0.0
 10
5765.739593253858
 20
3894.343697714637
 30
0.0
 10
5759.898747232934
 20
3887.661998827935
 30
0.0
 10
5754.463042011753
 20
3880.916717366547
 30
0.0
 10
5749.759409473867
 20
3874.730083157674
 30
0.0
 10
5747.028729446909
 20
3870.809347573106
 30
0.0
 10
5745.937901558891
 20
3869.243126824073
 30
0.0
  0
SPLINE
  5
FB
330
1F
100
AcDbEntity
  8
0
  6
Continuous
 62
     7
370
    25
100
AcDbSpline
210
0.0
220
0.0
230
1.0
 70
     8
 71
     3
 72
    13
 73
     9
 74
     0
 42
0.00000001
 43
0.00000001
 40
0.0
 40
0.0
 40
0.0
 40
0.0
 40
0.10403537916089
 40
0.3021761824231678
 40
0.4744168228519425
 40
0.6556608873599262
 40
0.8433733221323946
 40
1.0
 40
1.0
 40
1.0
 40
1.0
 10
5993.849685088276
 20
3621.332469287553
 30
0.0
 10
5995.199917404894
 20
3622.267006556887
 30
0.0
 10
5999.121737559836
 20
3624.981418775666
 30
0.0
 10
6005.085990819141
 20
3629.513161436947
 30
0.0
 10
6011.876763279213
 20
3634.963282418994
 30
0.0
 10
6018.326076289273
 20
3640.566723507417
 30
0.0
 10
6024.438146706533
 20
3646.177188378269
 30
0.0
 10
6028.325420997666
 20
3649.975591987397
 30
0.0
 10
6030.093593232042
 20
3651.703340351319
 30
0.0
  0
LINE
  5
FC
330
1F
100
AcDbEntity
  8
0
  6
Continuous
 62
     7
370
    25
100
AcDbLine
 10
6102.5554522727
 20
3921.3777059763
 30
0.0
 11
6102.7324476967
 21
3921.5547014003
 31
0.0
  0
LINE
  5
FD
330
1F
100
AcDbEntity
  8
0
  6
Continuous
 62
     7
370
    25
100
AcDbLine
 10
6046.1555763357
 20
3978.1149150291
 30
0.0
 11
6046.0043191558
 21
3977.9636578492
 31
0.0
  0
ARC
  5
FE
330
1F
100
AcDbEntity
  8
0
  6
Continuous
 62
     7
370
    25
100
AcDbCircle
 10
6376.8340834911
 20
4135.3101544149
 30
0.0
 40
4.324969328314634
100
AcDbArc
 50
26.059831153
 51
61.4762140417
  0
ARC
  5
FF
330
1F
100
AcDbEntity
  8
0
  6
Continuous
 62
     7
370
    25
100
AcDbCircle
 10
6376.8340834911
 20
4135.3101544149
 30
0.0
 40
4.324969328314234
100
AcDbArc
 50
298.5237859583
 51
333.940168847
  0
LINE
  5
100
330
1F
100
AcDbEntity
  8
0
  6
Continuous
 62
     7
370
    25
100
AcDbLine
 10
6378.8993582164
 20
4139.1101544149
 30
0.0
 11
6378.5193582164
 21
4139.1101544149
 31
0.0
  0
LINE
  5
101
330
1F
100
AcDbEntity
  8
0
  6
Continuous
 62
     7
370
    25
100
AcDbLine
 10
6378.5193582164
 20
4131.5101544149
 30
0.0
 11
6378.8993582164
 21
4131.5101544149
 31
0.0
  0
LINE
  5
102
330
1F
100
AcDbEntity
  8
0
  6
Continuous
 62
     7
370
    25
100
AcDbLine
 10
6378.8993582164
 20
4301.1101544149
 30
0.0
 11
6378.5193582164
 21
4301.1101544149
 31
0.0
  0
LINE
  5
103
330
1F
100
AcDbEntity
  8
0
  6
Continuous
 62
     7
370
    25
100
AcDbLine
 10
6378.5193582164
 20
4293.5101544149
 30
0.0
 11
6378.8993582164
 21
4293.5101544149
 31
0.0
  0
ARC
  5
104
330
1F
100
AcDbEntity
  8
0
  6
Continuous
 62
     7
370
    25
100
AcDbCircle
 10
6376.8340834911
 20
4297.3101544149
 30
0.0
 40
4.324969328315033
100
AcDbArc
 50
26.059831153
 51
61.4762140417
  0
ARC
  5
105
330
1F
100
AcDbEntity
  8
0
  6
Continuous
 62
     7
370
    25
100
AcDbCircle
 10
6376.8340834911
 20
4297.3101544149
 30
0.0
 40
4.324969328313834
100
AcDbArc
 50
298.5237859583
 51
333.940168847
  0
LINE
  5
106
330
1F
100
AcDbEntity
  8
0
  6
Continuous
 62
     7
370
    25
100
AcDbLine
 10
6378.4193582164
 20
4139.8101544149
 30
0.0
 11
6378.8193582164
 21
4139.8101544149
 31
0.0
  0
LINE
  5
107
330
1F
100
AcDbEntity
  8
0
  6
Continuous
 62
     7
370
    25
100
AcDbLine
 10
6378.8193582164
 20
4167.8101544149
 30
0.0
 11
6378.4193582164
 21
4167.8101544149
 31
0.0
  0
LINE
  5
108
330
1F
100
AcDbEntity
  8
0
  6
Continuous
 62
     7
370
    25
100
AcDbLine
 10
6378.8193582164
 20
4139.8101544149
 30
0.0
 11
6380.3193582164
 21
4141.3101544149
 31
0.0
  0
LINE
  5
109
330
1F
100
AcDbEntity
  8
0
  6
Continuous
 62
     7
370
    25
100
AcDbLine
 10
6380.3193582164
 20
4166.3101544149
 30
0.0
 11
6378.8193582164
 21
4167.8101544149
 31
0.0
  0
LINE
  5
10A
330
1F
100
AcDbEntity
  8
0
  6
Continuous
 62
     7
370
    25
100
AcDbLine
 10
6018.4193582164
 20
4253.8101544149
 30
0.0
 11
6378.4193582164
 21
4253.8101544149
 31
0.0
  0
LINE
  5
10B
330
1F
100
AcDbEntity
  8
0
  6
Continuous
 62
     7
370
    25
100
AcDbLine
 10
6018.4193582164
 20
4333.8101544149
 30
0.0
 11
6018.4193582164
 21
4253.8101544149
 31
0.0
  0
LINE
  5
10C
330
1F
100
AcDbEntity
  8
0
  6
Continuous
 62
     7
370
    25
100
AcDbLine
 10
6378.4193582164
 20
4333.8101544149
 30
0.0
 11
6018.4193582164
 21
4333.8101544149
 31
0.0
  0
LINE
  5
10D
330
1F
100
AcDbEntity
  8
0
  6
Continuous
 62
     7
370
    25
100
AcDbLine
 10
6378.4193582164
 20
4253.8101544149
 30
0.0
 11
6378.4193582164
 21
4333.8101544149
 31
0.0
  0
ARC
  5
10E
330
1F
100
AcDbEntity
  8
0
  6
Continuous
 62
     7
370
    25
100
AcDbCircle
 10
6198.4193582164
 20
4073.8101544149
 30
0.0
 40
180.0000000000009
100
AcDbArc
 50
180.0
 51
0.0
  0
CIRCLE
  5
10F
330
1F
100
AcDbEntity
  8
0
  6
Continuous
 62
     7
370
    25
100
AcDbCircle
 10
6198.4193582164
 20
4073.8101544149
 30
0.0
 40
156.4999999999995
  0
LINE
  5
110
330
1F
100
AcDbEntity
  8
0
  6
Continuous
 62
     7
370
    25
100
AcDbLine
 10
6018.4193582164
 20
4253.8101544149
 30
0.0
 11
6018.4193582164
 21
4073.8101544149
 31
0.0
  0
LINE
  5
111
330
1F
100
AcDbEntity
  8
0
  6
Continuous
 62
     7
370
    25
100
AcDbLine
 10
6378.4193582164
 20
4073.8101544149
 30
0.0
 11
6378.4193582164
 21
4253.8101544149
 31
0.0
  0
SPLINE
  5
112
330
1F
100
AcDbEntity
  8
0
  6
Continuous
 62
     7
370
    25
100
AcDbSpline
210
0.0
220
0.0
230
1.0
 70
    11
 71
     3
 72
    70
 73
    66
 74
     0
 42
0.00000001
 43
0.00000001
 40
0.0
 40
0.0
 40
0.0
 40
0.0
 40
0.03125
 40
0.03125
 40
0.0625
 40
0.0625
 40
0.09375
 40
0.09375
 40
0.125
 40
0.125
 40
0.1562500000000001
 40
0.1562500000000001
 40
0.1875000000000001
 40
0.1875000000000001
 40
0.2187500000000001
 40
0.2187500000000001
 40
0.2500000000000001
 40
0.2500000000000001
 40
0.28125
 40
0.28125
 40
0.3125
 40
0.3125
 40
0.34375
 40
0.34375
 40
0.375
 40
0.375
 40
0.40625
 40
0.40625
 40
0.4375
 40
0.4375
 40
0.46875
 40
0.46875
 40
0.5
 40
0.5
 40
0.53125
 40
0.53125
 40
0.5625
 40
0.5625
 40
0.59375
 40
0.59375
 40
0.625
 40
0.625
 40
0.65625
 40
0.65625
 40
0.6875
 40
0.6875
 40
0.71875
 40
0.71875
 40
0.75
 40
0.75
 40
0.78125
 40
0.78125
 40
0.8125
 40
0.8125
 40
0.84375
 40
0.84375
 40
0.875
 40
0.875
 40
0.90625
 40
0.90625
 40
0.9375
 40
0.9375
 40
0.96875
 40
0.96875
 40
1.0
 40
1.0
 40
1.0
 40
1.0
 10
6195.925511163759
 20
4092.759467849095
 30
0.0
 10
6196.173203437356
 20
4092.924376025417
 30
0.0
 10
6196.433054280341
 20
4093.062269001037
 30
0.0
 10
6196.97613761812
 20
4093.286103488571
 30
0.0
 10
6197.262677862501
 20
4093.372541041877
 30
0.0
 10
6197.84270108056
 20
4093.486380710009
 30
0.0
 10
6198.135144826473
 20
4093.514391617506
 30
0.0
 10
6198.724862867822
 20
4093.512996520152
 30
0.0
 10
6199.023609605344
 20
4093.482644748196
 30
0.0
 10
6199.600231637623
 20
4093.365954968628
 30
0.0
 10
6199.8813205588
 20
4093.279929623079
 30
0.0
 10
6200.428685904258
 20
4093.051106132879
 30
0.0
 10
6200.689788367627
 20
4092.910014178747
 30
0.0
 10
6201.176445454669
 20
4092.582254727791
 30
0.0
 10
6201.405631966596
 20
4092.393005119586
 30
0.0
 10
6201.822270973265
 20
4091.973043369191
 30
0.0
 10
6202.007228334641
 20
4091.745602321817
 30
0.0
 10
6202.331554422733
 20
4091.256648196145
 30
0.0
 10
6202.471693683887
 20
4090.992273089726
 30
0.0
 10
6202.694368757208
 20
4090.449127411126
 30
0.0
 10
6202.778500835539
 20
4090.168933117033
 30
0.0
 10
6202.891856297908
 20
4089.591143626913
 30
0.0
 10
6202.92008413951
 20
4089.294779494885
 30
0.0
 10
6202.918603457638
 20
4088.709851379518
 30
0.0
 10
6202.889618223609
 20
4088.418106785828
 30
0.0
 10
6202.772779325016
 20
4087.836553996976
 30
0.0
 10
6202.686850124971
 20
4087.556256190586
 30
0.0
 10
6202.462129868673
 20
4087.015796144735
 30
0.0
 10
6202.321423290844
 20
4086.753008174655
 30
0.0
 10
6201.993214951718
 20
4086.263358041864
 30
0.0
 10
6201.807067875389
 20
4086.037157899126
 30
0.0
 10
6201.391030409221
 20
4085.621718505973
 30
0.0
 10
6201.159069709609
 20
4085.431759997749
 30
0.0
 10
6200.669949538086
 20
4085.10586842648
 30
0.0
 10
6200.410951673918
 20
4084.967560444506
 30
0.0
 10
6199.86338426108
 20
4084.74140839337
 30
0.0
 10
6199.57819018678
 20
4084.655567669476
 30
0.0
 10
6199.001865378739
 20
4084.541911449805
 30
0.0
 10
6198.706440351841
 20
4084.513065111778
 30
0.0
 10
6198.112504053844
 20
4084.514369928767
 30
0.0
 10
6197.819918844169
 20
4084.544123696198
 30
0.0
 10
6197.243263383008
 20
4084.660167826543
 30
0.0
 10
6196.956297646674
 20
4084.747991313445
 30
0.0
 10
6196.412388126293
 20
4084.975273212928
 30
0.0
 10
6196.153931215445
 20
4085.114357835836
 30
0.0
 10
6195.664109837807
 20
4085.443596420509
 30
0.0
 10
6195.433720401118
 20
4085.63406765279
 30
0.0
 10
6195.020360159248
 20
4086.050126866669
 30
0.0
 10
6194.834529604889
 20
4086.277443541745
 30
0.0
 10
6194.506133508559
 20
4086.772099108892
 30
0.0
 10
6194.368750304273
 20
4087.031726782697
 30
0.0
 10
6194.146138052368
 20
4087.573131038024
 30
0.0
 10
6194.060265383415
 20
4087.858290518459
 30
0.0
 10
6193.946882937814
 20
4088.436089424868
 30
0.0
 10
6193.918922644301
 20
4088.727190523376
 30
0.0
 10
6193.919803947305
 20
4089.31374535052
 30
0.0
 10
6193.949586772687
 20
4089.611190126265
 30
0.0
 10
6194.064797660172
 20
4090.18573294588
 30
0.0
 10
6194.149849286387
 20
4090.465732019931
 30
0.0
 10
6194.376039541232
 20
4091.010869207583
 30
0.0
 10
6194.516414486552
 20
4091.272633678889
 30
0.0
 10
6194.842022705112
 20
4091.759319829343
 30
0.0
 10
6195.029064355098
 20
4091.987594566815
 30
0.0
 10
6195.449051907409
 20
4092.40713887236
 30
0.0
 10
6195.677818890164
 20
4092.594559672773
 30
0.0
 10
6195.925511163759
 20
4092.759467849095
 30
0.0
  0
SPLINE
  5
113
330
1F
100
AcDbEntity
  8
0
  6
Continuous
 62
     7
370
    25
100
AcDbSpline
210
0.0
220
0.0
230
1.0
 70
    11
 71
     3
 72
    70
 73
    66
 74
     0
 42
0.00000001
 43
0.00000001
 40
0.0
 40
0.0
 40
0.0
 40
0.0
 40
0.03125
 40
0.03125
 40
0.0625
 40
0.0625
 40
0.09375
 40
0.09375
 40
0.125
 40
0.125
 40
0.15625
 40
0.15625
 40
0.1875
 40
0.1875
 40
0.21875
 40
0.21875
 40
0.25
 40
0.25
 40
0.28125
 40
0.28125
 40
0.3125
 40
0.3125
 40
0.34375
 40
0.34375
 40
0.375
 40
0.375
 40
0.40625
 40
0.40625
 40
0.4375
 40
0.4375
 40
0.46875
 40
0.46875
 40
0.5
 40
0.5
 40
0.53125
 40
0.53125
 40
0.5625
 40
0.5625
 40
0.59375
 40
0.59375
 40
0.625
 40
0.625
 40
0.65625
 40
0.65625
 40
0.6875
 40
0.6875
 40
0.71875
 40
0.71875
 40
0.75
 40
0.75
 40
0.78125
 40
0.78125
 40
0.8125
 40
0.8125
 40
0.84375
 40
0.84375
 40
0.875
 40
0.875
 40
0.90625
 40
0.90625
 40
0.9375
 40
0.9375
 40
0.96875
 40
0.96875
 40
1.0
 40
1.0
 40
1.0
 40
1.0
 10
6185.316717999007
 20
4088.364609623187
 30
0.0
 10
6185.56464425678
 20
4088.529883046469
 30
0.0
 10
6185.824603789669
 20
4088.667962548901
 30
0.0
 10
6186.367569084511
 20
4088.892039738904
 30
0.0
 10
6186.653856176947
 20
4088.978529382126
 30
0.0
 10
6187.233126964203
 20
4089.092575127574
 30
0.0
 10
6187.525041246061
 20
4089.120725680707
 30
0.0
 10
6188.113380535098
 20
4089.119881819305
 30
0.0
 10
6188.411301973884
 20
4089.089956929491
 30
0.0
 10
6188.98638393652
 20
4088.974457375976
 30
0.0
 10
6189.266694311391
 20
4088.889196734254
 30
0.0
 10
6189.8125179259
 20
4088.662374334304
 30
0.0
 10
6190.073298909262
 20
4088.522291884997
 30
0.0
 10
6190.559322986522
 20
4088.196884926344
 30
0.0
 10
6190.788098900955
 20
4088.009195056125
 30
0.0
 10
6191.205478392323
 20
4087.591276819363
 30
0.0
 10
6191.390909407356
 20
4087.364861382772
 30
0.0
 10
6191.716421819874
 20
4086.87799447069
 30
0.0
 10
6191.857455982396
 20
4086.614467523712
 30
0.0
 10
6192.082348922371
 20
4086.071805931095
 30
0.0
 10
6192.167550105857
 20
4085.791825407445
 30
0.0
 10
6192.283068212361
 20
4085.214440259796
 30
0.0
 10
6192.312522970013
 20
4084.917086876476
 30
0.0
 10
6192.312987207092
 20
4084.330654543567
 30
0.0
 10
6192.284840903084
 20
4084.038310715818
 30
0.0
 10
6192.169514159535
 20
4083.455438049351
 30
0.0
 10
6192.083740638357
 20
4083.172937695269
 30
0.0
 10
6191.859488080051
 20
4082.630295583541
 30
0.0
 10
6191.719039515895
 20
4082.366749787396
 30
0.0
 10
6191.390279018931
 20
4081.874601556753
 30
0.0
 10
6191.203815762964
 20
4081.64751583754
 30
0.0
 10
6190.787323228955
 20
4081.23080528919
 30
0.0
 10
6190.555030022837
 20
4081.040282553025
 30
0.0
 10
6190.065291374437
 20
4080.713553251062
 30
0.0
 10
6189.806143344541
 20
4080.57504862639
 30
0.0
 10
6189.258760017698
 20
4080.348682060309
 30
0.0
 10
6188.973665297102
 20
4080.262743532801
 30
0.0
 10
6188.398025706414
 20
4080.148894667238
 30
0.0
 10
6188.103202088572
 20
4080.119926846517
 30
0.0
 10
6187.51060634633
 20
4080.12069752203
 30
0.0
 10
6187.218760468568
 20
4080.15005757755
 30
0.0
 10
6186.643697724557
 20
4080.264935249822
 30
0.0
 10
6186.357596517476
 20
4080.351955069452
 30
0.0
 10
6185.814926266155
 20
4080.577412769655
 30
0.0
 10
6185.55700000736
 20
4080.715436037514
 30
0.0
 10
6185.068028275087
 20
4081.04218983289
 30
0.0
 10
6184.837556842617
 20
4081.231534333813
 30
0.0
 10
6184.423800206354
 20
4081.64531631659
 30
0.0
 10
6184.237641543116
 20
4081.871449090892
 30
0.0
 10
6183.908277102976
 20
4082.363603927878
 30
0.0
 10
6183.769553641553
 20
4082.623282137935
 30
0.0
 10
6183.545002126041
 20
4083.16364240286
 30
0.0
 10
6183.458117793415
 20
4083.448035070132
 30
0.0
 10
6183.342310954999
 20
4084.026827456933
 30
0.0
 10
6183.313299928626
 20
4084.31839308767
 30
0.0
 10
6183.312228052303
 20
4084.905800886892
 30
0.0
 10
6183.341123549046
 20
4085.20424608718
 30
0.0
 10
6183.45515437724
 20
4085.781251200269
 30
0.0
 10
6183.539796064597
 20
4086.062280048325
 30
0.0
 10
6183.765282229024
 20
4086.609133459942
 30
0.0
 10
6183.905905850241
 20
4086.872597009742
 30
0.0
 10
6184.231855149883
 20
4087.361372332159
 30
0.0
 10
6184.418836470571
 20
4087.590145671437
 30
0.0
 10
6184.839648180548
 20
4088.011363322398
 30
0.0
 10
6185.068791741232
 20
4088.199336199905
 30
0.0
 10
6185.316717999007
 20
4088.364609623187
 30
0.0
  0
SPLINE
  5
114
330
1F
100
AcDbEntity
  8
0
  6
Continuous
 62
     7
370
    25
100
AcDbSpline
210
0.0
220
0.0
230
1.0
 70
    11
 71
     3
 72
    70
 73
    66
 74
     0
 42
0.00000001
 43
0.00000001
 40
0.0
 40
0.0
 40
0.0
 40
0.0
 40
0.03125
 40
0.03125
 40
0.0625
 40
0.0625
 40
0.09375
 40
0.09375
 40
0.125
 40
0.125
 40
0.15625
 40
0.15625
 40
0.1875
 40
0.1875
 40
0.21875
 40
0.21875
 40
0.25
 40
0.25
 40
0.28125
 40
0.28125
 40
0.3125
 40
0.3125
 40
0.34375
 40
0.34375
 40
0.375
 40
0.375
 40
0.40625
 40
0.40625
 40
0.4375
 40
0.4375
 40
0.46875
 40
0.46875
 40
0.5
 40
0.5
 40
0.53125
 40
0.53125
 40
0.5625
 40
0.5625
 40
0.59375
 40
0.59375
 40
0.625
 40
0.625
 40
0.65625
 40
0.65625
 40
0.6875
 40
0.6875
 40
0.71875
 40
0.71875
 40
0.75
 40
0.75
 40
0.78125
 40
0.78125
 40
0.8125
 40
0.8125
 40
0.84375
 40
0.84375
 40
0.875
 40
0.875
 40
0.90625
 40
0.90625
 40
0.9375
 40
0.9375
 40
0.96875
 40
0.96875
 40
1.0
 40
1.0
 40
1.0
 40
1.0
 10
6180.231412076682
 20
4077.189710346525
 30
0.0
 10
6180.441249187096
 20
4077.400336489423
 30
0.0
 10
6180.668145767882
 20
4077.586749438875
 30
0.0
 10
6181.154569211857
 20
4077.913262455484
 30
0.0
 10
6181.417138767109
 20
4078.054482024725
 30
0.0
 10
6181.960911311774
 20
4078.280986929458
 30
0.0
 10
6182.240702611321
 20
4078.366506263711
 30
0.0
 10
6182.815916807271
 20
4078.482705640913
 30
0.0
 10
6183.113326263215
 20
4078.512834486046
 30
0.0
 10
6183.6991795371
 20
4078.514540669373
 30
0.0
 10
6183.990475785161
 20
4078.487060629026
 30
0.0
 10
6184.569735098486
 20
4078.374177281212
 30
0.0
 10
6184.853854786358
 20
4078.288962490593
 30
0.0
 10
6185.395341370007
 20
4078.067233939103
 30
0.0
 10
6185.65659035754
 20
4077.929377601272
 30
0.0
 10
6186.150412346679
 20
4077.602443194001
 30
0.0
 10
6186.377784952338
 20
4077.41719628744
 30
0.0
 10
6186.794555057323
 20
4077.004371582751
 30
0.0
 10
6186.985641191034
 20
4076.773861701662
 30
0.0
 10
6187.315126151879
 20
4076.285230884188
 30
0.0
 10
6187.454607999319
 20
4076.027102530548
 30
0.0
 10
6187.682898725585
 20
4075.483137184905
 30
0.0
 10
6187.771047889541
 20
4075.196582855679
 30
0.0
 10
6187.887944599433
 20
4074.620447825431
 30
0.0
 10
6187.9182193862
 20
4074.327819246125
 30
0.0
 10
6187.920434609046
 20
4073.733118263494
 30
0.0
 10
6187.892104679298
 20
4073.438523123583
 30
0.0
 10
6187.779366306633
 20
4072.861913938247
 30
0.0
 10
6187.693735341602
 20
4072.575919430397
 30
0.0
 10
6187.468697413321
 20
4072.028666611726
 30
0.0
 10
6187.330856583322
 20
4071.769442974577
 30
0.0
 10
6187.005390592121
 20
4071.279312620463
 30
0.0
 10
6186.815723124494
 20
4071.047057437012
 30
0.0
 10
6186.401198215228
 20
4070.630670682989
 30
0.0
 10
6186.175163533619
 20
4070.444004684738
 30
0.0
 10
6185.684939517076
 20
4070.114427687166
 30
0.0
 10
6185.423177516219
 20
4069.97386083406
 30
0.0
 10
6184.883056242624
 20
4069.748353899525
 30
0.0
 10
6184.600981516818
 20
4069.661548030957
 30
0.0
 10
6184.02104270142
 20
4069.544311383598
 30
0.0
 10
6183.729698869525
 20
4069.514890321939
 30
0.0
 10
6183.144349560124
 20
4069.512592353121
 30
0.0
 10
6182.847124539488
 20
4069.540577419034
 30
0.0
 10
6182.270310581445
 20
4069.652969781876
 30
0.0
 10
6181.9900531294
 20
4069.73661943354
 30
0.0
 10
6181.445851683015
 20
4069.958874957249
 30
0.0
 10
6181.181616730403
 20
4070.098557019624
 30
0.0
 10
6180.692729032929
 20
4070.421857977051
 30
0.0
 10
6180.464902387131
 20
4070.6065076458
 30
0.0
 10
6180.043610284054
 20
4071.023365497592
 30
0.0
 10
6179.854873261685
 20
4071.251377505628
 30
0.0
 10
6179.526484678473
 20
4071.737404622004
 30
0.0
 10
6179.384640579863
 20
4071.999068259127
 30
0.0
 10
6179.155401365597
 20
4072.545242745409
 30
0.0
 10
6179.068956090488
 20
4072.826023169119
 30
0.0
 10
6178.951334944068
 20
4073.402675751853
 30
0.0
 10
6178.920543963382
 20
4073.70148892289
 30
0.0
 10
6178.91824119025
 20
4074.290753797899
 30
0.0
 10
6178.945756583315
 20
4074.583284015042
 30
0.0
 10
6179.058836035117
 20
4075.164087571969
 30
0.0
 10
6179.144720491922
 20
4075.45026691432
 30
0.0
 10
6179.367667533882
 20
4075.993614651323
 30
0.0
 10
6179.505633513502
 20
4076.25449826989
 30
0.0
 10
6179.834448475589
 20
4076.7499102782
 30
0.0
 10
6180.021574966268
 20
4076.979084203628
 30
0.0
 10
6180.231412076682
 20
4077.189710346525
 30
0.0
  0
SPLINE
  5
115
330
1F
100
AcDbEntity
  8
0
  6
Continuous
 62
     7
370
    25
100
AcDbSpline
210
0.0
220
0.0
230
1.0
 70
    11
 71
     3
 72
    70
 73
    66
 74
     0
 42
0.00000001
 43
0.00000001
 40
0.0
 40
0.0
 40
0.0
 40
0.0
 40
0.03125
 40
0.03125
 40
0.0625
 40
0.0625
 40
0.09375
 40
0.09375
 40
0.125
 40
0.125
 40
0.15625
 40
0.15625
 40
0.1875
 40
0.1875
 40
0.21875
 40
0.21875
 40
0.25
 40
0.25
 40
0.28125
 40
0.28125
 40
0.3125
 40
0.3125
 40
0.34375
 40
0.34375
 40
0.375
 40
0.375
 40
0.40625
 40
0.40625
 40
0.4375
 40
0.4375
 40
0.46875
 40
0.46875
 40
0.5
 40
0.5
 40
0.53125
 40
0.53125
 40
0.5625
 40
0.5625
 40
0.59375
 40
0.59375
 40
0.625
 40
0.625
 40
0.65625
 40
0.65625
 40
0.6875
 40
0.6875
 40
0.71875
 40
0.71875
 40
0.75
 40
0.75
 40
0.78125
 40
0.78125
 40
0.8125
 40
0.8125
 40
0.84375
 40
0.84375
 40
0.875
 40
0.875
 40
0.90625
 40
0.90625
 40
0.9375
 40
0.9375
 40
0.96875
 40
0.96875
 40
1.0
 40
1.0
 40
1.0
 40
1.0
 10
6184.602385050681
 20
4066.560438919581
 30
0.0
 10
6184.81022527653
 20
4066.772038557231
 30
0.0
 10
6185.035331534878
 20
4066.959778714405
 30
0.0
 10
6185.51867731965
 20
4067.289472915766
 30
0.0
 10
6185.779934518559
 20
4067.432571459013
 30
0.0
 10
6186.321965076457
 20
4067.663193148126
 30
0.0
 10
6186.60122353766
 20
4067.750886959575
 30
0.0
 10
6187.176086607106
 20
4067.871509245061
 30
0.0
 10
6187.473833535613
 20
4067.90391766372
 30
0.0
 10
6188.060978028763
 20
4067.909835169431
 30
0.0
 10
6188.353181961986
 20
4067.884324399326
 30
0.0
 10
6188.934787876397
 20
4067.775010542798
 30
0.0
 10
6189.220472320017
 20
4067.691318396834
 30
0.0
 10
6189.765050893888
 20
4067.472162795712
 30
0.0
 10
6190.028026383654
 20
4067.335307416115
 30
0.0
 10
6190.525047804966
 20
4067.010113575056
 30
0.0
 10
6190.753988085458
 20
4066.825531153036
 30
0.0
 10
6191.173863513343
 20
4066.413671196427
 30
0.0
 10
6191.366444310601
 20
4066.183487473731
 30
0.0
 10
6191.698439740336
 20
4065.695873775099
 30
0.0
 10
6191.839182049057
 20
4065.43812744996
 30
0.0
 10
6192.070018059812
 20
4064.894679860889
 30
0.0
 10
6192.159223768058
 20
4064.60893498082
 30
0.0
 10
6192.278523792826
 20
4064.034078337844
 30
0.0
 10
6192.310104146155
 20
4063.741927255563
 30
0.0
 10
6192.315091703427
 20
4063.147837615548
 30
0.0
 10
6192.288325964516
 20
4062.8547477362
 30
0.0
 10
6192.178936924885
 20
4062.279147047938
 30
0.0
 10
6192.095022672501
 20
4061.993237476446
 30
0.0
 10
6191.874087909076
 20
4061.44689781844
 30
0.0
 10
6191.738342823577
 20
4061.18768240818
 30
0.0
 10
6191.416960054036
 20
4060.696794792167
 30
0.0
 10
6191.229429851737
 20
4060.463945506679
 30
0.0
 10
6190.818947688941
 20
4060.045757178098
 30
0.0
 10
6190.594740365167
 20
4059.857798878156
 30
0.0
 10
6190.107619365593
 20
4059.525016304476
 30
0.0
 10
6189.847173672679
 20
4059.382586992029
 30
0.0
 10
6189.308934728838
 20
4059.153042334251
 30
0.0
 10
6189.027566385876
 20
4059.064064860017
 30
0.0
 10
6188.447728615775
 20
4058.942290206081
 30
0.0
 10
6188.156121483017
 20
4058.910650357932
 30
0.0
 10
6187.569631308102
 20
4058.904117768926
 30
0.0
 10
6187.271454409187
 20
4058.930067687502
 30
0.0
 10
6186.692115803356
 20
4059.038920540831
 30
0.0
 10
6186.410449962242
 20
4059.121024928717
 30
0.0
 10
6185.863145758713
 20
4059.340661352615
 30
0.0
 10
6185.597221606155
 20
4059.479279120466
 30
0.0
 10
6185.105069564428
 20
4059.800882262899
 30
0.0
 10
6184.875612372279
 20
4059.984896096229
 30
0.0
 10
6184.451048740497
 20
4060.400903027126
 30
0.0
 10
6184.261112279321
 20
4060.628237378551
 30
0.0
 10
6183.930007972563
 20
4061.113517036496
 30
0.0
 10
6183.786729229434
 20
4061.375186228004
 30
0.0
 10
6183.555289244027
 20
4061.919972866518
 30
0.0
 10
6183.467659551179
 20
4062.200195612683
 30
0.0
 10
6183.347533701556
 20
4062.776008288679
 30
0.0
 10
6183.315482276716
 20
4063.07415151228
 30
0.0
 10
6183.310371141597
 20
4063.661780248305
 30
0.0
 10
6183.336334945376
 20
4063.953747847674
 30
0.0
 10
6183.446130808723
 20
4064.533936106993
 30
0.0
 10
6183.53003618203
 20
4064.819181680082
 30
0.0
 10
6183.749015115309
 20
4065.362011588166
 30
0.0
 10
6183.885121007907
 20
4065.62328243123
 30
0.0
 10
6184.20955482553
 20
4066.119060125237
 30
0.0
 10
6184.394544824831
 20
4066.34883928193
 30
0.0
 10
6184.602385050681
 20
4066.560438919581
 30
0.0
  0
SPLINE
  5
116
330
1F
100
AcDbEntity
  8
0
  6
Continuous
 62
     7
370
    25
100
AcDbSpline
210
0.0
220
0.0
230
1.0
 70
    11
 71
     3
 72
    70
 73
    66
 74
     0
 42
0.00000001
 43
0.00000001
 40
0.0
 40
0.0
 40
0.0
 40
0.0
 40
0.03125
 40
0.03125
 40
0.0625
 40
0.0625
 40
0.09375
 40
0.09375
 40
0.125
 40
0.125
 40
0.15625
 40
0.15625
 40
0.1875
 40
0.1875
 40
0.21875
 40
0.21875
 40
0.25
 40
0.25
 40
0.28125
 40
0.28125
 40
0.3125
 40
0.3125
 40
0.34375
 40
0.34375
 40
0.375
 40
0.375
 40
0.40625
 40
0.40625
 40
0.4375
 40
0.4375
 40
0.46875
 40
0.46875
 40
0.5
 40
0.5
 40
0.53125
 40
0.53125
 40
0.5625
 40
0.5625
 40
0.59375
 40
0.59375
 40
0.625
 40
0.625
 40
0.65625
 40
0.65625
 40
0.6875
 40
0.6875
 40
0.71875
 40
0.71875
 40
0.75
 40
0.75
 40
0.78125
 40
0.78125
 40
0.8125
 40
0.8125
 40
0.84375
 40
0.84375
 40
0.875
 40
0.875
 40
0.90625
 40
0.90625
 40
0.9375
 40
0.9375
 40
0.96875
 40
0.96875
 40
1.0
 40
1.0
 40
1.0
 40
1.0
 10
6195.88754677117
 20
4062.733912408803
 30
0.0
 10
6196.133529587829
 20
4062.901317695705
 30
0.0
 10
6196.391938071612
 20
4063.041833650442
 30
0.0
 10
6196.932647106044
 20
4063.271162422471
 30
0.0
 10
6197.218246157353
 20
4063.360504998398
 30
0.0
 10
6197.797007838489
 20
4063.480249616294
 30
0.0
 10
6198.089111182308
 20
4063.511245241705
 30
0.0
 10
6198.678724605966
 20
4063.515888961218
 30
0.0
 10
6198.977736007723
 20
4063.488606298948
 30
0.0
 10
6199.555475752626
 20
4063.3778502736
 30
0.0
 10
6199.837406050709
 20
4063.294724428816
 30
0.0
 10
6200.387034546544
 20
4063.071566028758
 30
0.0
 10
6200.649602657345
 20
4062.933154945832
 30
0.0
 10
6201.139603757322
 20
4062.610417564159
 30
0.0
 10
6201.370702998879
 20
4062.423556625965
 30
0.0
 10
6201.7916949138
 20
4062.007843933736
 30
0.0
 10
6201.978996731562
 20
4061.782289780528
 30
0.0
 10
6202.308347409187
 20
4061.29665254444
 30
0.0
 10
6202.45120801893
 20
4061.033698242826
 30
0.0
 10
6202.67947214838
 20
4060.492763153277
 30
0.0
 10
6202.766473709668
 20
4060.213404819413
 30
0.0
 10
6202.885733410643
 20
4059.636748720047
 30
0.0
 10
6202.916989464257
 20
4059.340621062208
 30
0.0
 10
6202.921463739262
 20
4058.755625804619
 30
0.0
 10
6202.895447544109
 20
4058.463603841963
 30
0.0
 10
6202.784508379731
 20
4057.8808108879
 30
0.0
 10
6202.701419143183
 20
4057.599630796346
 30
0.0
 10
6202.482183405134
 20
4057.056896037189
 30
0.0
 10
6202.344150945714
 20
4056.792699463655
 30
0.0
 10
6202.020922602316
 20
4056.299741865199
 30
0.0
 10
6201.837083697342
 20
4056.071673356381
 30
0.0
 10
6201.425311500365
 20
4055.652062378332
 30
0.0
 10
6201.195311538629
 20
4055.459775336001
 30
0.0
 10
6200.70957464725
 20
4055.128960413188
 30
0.0
 10
6200.452027793552
 20
4054.988042507722
 30
0.0
 10
6199.906874197809
 20
4054.756358461716
 30
0.0
 10
6199.622599248364
 20
4054.667621708168
 30
0.0
 10
6199.047543943763
 20
4054.548101876629
 30
0.0
 10
6198.752493083719
 20
4054.516241205024
 30
0.0
 10
6198.15862892179
 20
4054.511463375427
 30
0.0
 10
6197.865785193223
 20
4054.538213922469
 30
0.0
 10
6197.288039637253
 20
4054.648320467644
 30
0.0
 10
6197.000219078165
 20
4054.73317957476
 30
0.0
 10
6196.454019458337
 20
4054.954850714334
 30
0.0
 10
6196.194159458838
 20
4055.091263669948
 30
0.0
 10
6195.701010668668
 20
4055.415421633592
 30
0.0
 10
6195.468653132963
 20
4055.603524957327
 30
0.0
 10
6195.051018342403
 20
4056.015326058949
 30
0.0
 10
6194.862857804905
 20
4056.240723582026
 30
0.0
 10
6194.529395160662
 20
4056.731970971167
 30
0.0
 10
6194.389309384786
 20
4056.990246562834
 30
0.0
 10
6194.161133102646
 20
4057.529387546158
 30
0.0
 10
6194.072336443368
 20
4057.813661032702
 30
0.0
 10
6193.953021757264
 20
4058.390371727739
 30
0.0
 10
6193.922083975672
 20
4058.68121154483
 30
0.0
 10
6193.916973937775
 20
4059.267801930914
 30
0.0
 10
6193.943723476387
 20
4059.565576051176
 30
0.0
 10
6194.053088671812
 20
4060.141339763494
 30
0.0
 10
6194.135295040791
 20
4060.422214609267
 30
0.0
 10
6194.35593824395
 20
4060.969648904636
 30
0.0
 10
6194.493660577486
 20
4061.232856309427
 30
0.0
 10
6194.814318864816
 20
4061.722842757215
 30
0.0
 10
6194.999026024294
 20
4061.952996853312
 30
0.0
 10
6195.414722943941
 20
4062.376780555292
 30
0.0
 10
6195.64156395451
 20
4062.566507121901
 30
0.0
 10
6195.88754677117
 20
4062.733912408803
 30
0.0
  0
SPLINE
  5
117
330
1F
100
AcDbEntity
  8
0
  6
Continuous
 62
     7
370
    25
100
AcDbSpline
210
0.0
220
0.0
230
1.0
 70
    11
 71
     3
 72
    70
 73
    66
 74
     0
 42
0.00000001
 43
0.00000001
 40
0.0
 40
0.0
 40
0.0
 40
0.0
 40
0.03125
 40
0.03125
 40
0.0625
 40
0.0625
 40
0.09375
 40
0.09375
 40
0.125
 40
0.125
 40
0.15625
 40
0.15625
 40
0.1875
 40
0.1875
 40
0.21875
 40
0.21875
 40
0.25
 40
0.25
 40
0.28125
 40
0.28125
 40
0.3125
 40
0.3125
 40
0.34375
 40
0.34375
 40
0.375
 40
0.375
 40
0.40625
 40
0.40625
 40
0.4375
 40
0.4375
 40
0.46875
 40
0.46875
 40
0.5
 40
0.5
 40
0.53125
 40
0.53125
 40
0.5625
 40
0.5625
 40
0.59375
 40
0.59375
 40
0.625
 40
0.625
 40
0.65625
 40
0.65625
 40
0.6875
 40
0.6875
 40
0.71875
 40
0.71875
 40
0.75
 40
0.75
 40
0.78125
 40
0.78125
 40
0.8125
 40
0.8125
 40
0.84375
 40
0.84375
 40
0.875
 40
0.875
 40
0.90625
 40
0.90625
 40
0.9375
 40
0.9375
 40
0.96875
 40
0.96875
 40
1.0
 40
1.0
 40
1.0
 40
1.0
 10
6195.238091496398
 20
4077.196400811627
 30
0.0
 10
6195.448355776099
 20
4077.406570788306
 30
0.0
 10
6195.675728994923
 20
4077.592596863667
 30
0.0
 10
6196.163293926319
 20
4077.918336004061
 30
0.0
 10
6196.426571685824
 20
4078.059173517407
 30
0.0
 10
6196.971683171851
 20
4078.2846828033
 30
0.0
 10
6197.252203306062
 20
4078.369648497843
 30
0.0
 10
6197.829029658402
 20
4078.484499886399
 30
0.0
 10
6198.127207400691
 20
4078.513798690863
 30
0.0
 10
6198.714337259424
 20
4078.513614186772
 30
0.0
 10
6199.006243173479
 20
4078.485072467458
 30
0.0
 10
6199.586657781786
 20
4078.369732126103
 30
0.0
 10
6199.870705009303
 20
4078.283306717352
 30
0.0
 10
6200.412232576316
 20
4078.058993293617
 30
0.0
 10
6200.673761455447
 20
4077.919517481691
 30
0.0
 10
6201.166158169984
 20
4077.590406557023
 30
0.0
 10
6201.392785496312
 20
4077.404113009609
 30
0.0
 10
6201.807942694441
 20
4076.989210018882
 30
0.0
 10
6201.998017378872
 20
4076.757748388994
 30
0.0
 10
6202.324848665698
 20
4076.268415235633
 30
0.0
 10
6202.463090748083
 20
4076.009981865415
 30
0.0
 10
6202.688947425524
 20
4075.465428213113
 30
0.0
 10
6202.775632446494
 20
4075.179408843073
 30
0.0
 10
6202.890072827547
 20
4074.604212893589
 30
0.0
 10
6202.919272267768
 20
4074.312004570754
 30
0.0
 10
6202.919443789759
 20
4073.718007582377
 30
0.0
 10
6202.890302313031
 20
4073.424987235439
 30
0.0
 10
6202.776140248317
 20
4072.849927470777
 30
0.0
 10
6202.689809592494
 20
4072.564443351455
 30
0.0
 10
6202.463919708303
 20
4072.019053449489
 30
0.0
 10
6202.325717859886
 20
4071.760541439326
 30
0.0
 10
6201.999425199564
 20
4071.271532418454
 30
0.0
 10
6201.809378368625
 20
4071.039819485668
 30
0.0
 10
6201.394121140148
 20
4070.624454957217
 30
0.0
 10
6201.167643253934
 20
4070.43818769886
 30
0.0
 10
6200.676222505243
 20
4070.109353951789
 30
0.0
 10
6200.413924111258
 20
4069.969253068562
 30
0.0
 10
6199.87247155824
 20
4069.744706826601
 30
0.0
 10
6199.589492713681
 20
4069.658407575966
 30
0.0
 10
6199.008150833652
 20
4069.542558249715
 30
0.0
 10
6198.716101426643
 20
4069.513926764516
 30
0.0
 10
6198.129328551261
 20
4069.513489061484
 30
0.0
 10
6197.831392206237
 20
4069.542582055112
 30
0.0
 10
6197.253914856884
 20
4069.657285991887
 30
0.0
 10
6196.973403509685
 20
4069.74217343518
 30
0.0
 10
6196.428870185227
 20
4069.967135456765
 30
0.0
 10
6196.165037927441
 20
4070.108061618024
 30
0.0
 10
6195.677146054822
 20
4070.433721238143
 30
0.0
 10
6195.4498891946
 20
4070.619550744503
 30
0.0
 10
6195.029934812084
 20
4071.038836975918
 30
0.0
 10
6194.842807528215
 20
4071.267036291235
 30
0.0
 10
6194.516728106083
 20
4071.754195393631
 30
0.0
 10
6194.375939814879
 20
4072.016705905119
 30
0.0
 10
6194.149597211472
 20
4072.56236750368
 30
0.0
 10
6194.064415712892
 20
4072.842894813772
 30
0.0
 10
6193.949149372069
 20
4073.419099665964
 30
0.0
 10
6193.919527694389
 20
4073.717338670866
 30
0.0
 10
6193.919190222829
 20
4074.304905462615
 30
0.0
 10
6193.94751630759
 20
4074.5967188695
 30
0.0
 10
6194.062116170873
 20
4075.176339470338
 30
0.0
 10
6194.14849210823
 20
4075.46132960807
 30
0.0
 10
6194.372359294687
 20
4076.003105876453
 30
0.0
 10
6194.51088304195
 20
4076.263589962578
 30
0.0
 10
6194.840368166755
 20
4076.757605945694
 30
0.0
 10
6195.027827216696
 20
4076.986230834948
 30
0.0
 10
6195.238091496398
 20
4077.196400811627
 30
0.0
  0
SPLINE
  5
118
330
1F
100
AcDbEntity
  8
0
  6
Continuous
 62
     7
370
    25
100
AcDbSpline
210
0.0
220
0.0
230
1.0
 70
    11
 71
     3
 72
    70
 73
    66
 74
     0
 42
0.00000001
 43
0.00000001
 40
0.0
 40
0.0
 40
0.0
 40
0.0
 40
0.0312499999999987
 40
0.0312499999999987
 40
0.0624999999999975
 40
0.0624999999999975
 40
0.0937499999999962
 40
0.0937499999999962
 40
0.1249999999999949
 40
0.1249999999999949
 40
0.1562499999999937
 40
0.1562499999999937
 40
0.1874999999999924
 40
0.1874999999999924
 40
0.2187499999999912
 40
0.2187499999999912
 40
0.2499999999999899
 40
0.2499999999999899
 40
0.2812499999999886
 40
0.2812499999999886
 40
0.3124999999999873
 40
0.3124999999999873
 40
0.3437499999999861
 40
0.3437499999999861
 40
0.3749999999999848
 40
0.3749999999999848
 40
0.4062499999999836
 40
0.4062499999999836
 40
0.4374999999999852
 40
0.4374999999999852
 40
0.4687499999999868
 40
0.4687499999999868
 40
0.4999999999999885
 40
0.4999999999999885
 40
0.5312499999999901
 40
0.5312499999999901
 40
0.5624999999999917
 40
0.5624999999999917
 40
0.5937499999999933
 40
0.5937499999999933
 40
0.6249999999999949
 40
0.6249999999999949
 40
0.6562499999999966
 40
0.6562499999999966
 40
0.6874999999999982
 40
0.6874999999999982
 40
0.7187499999999998
 40
0.7187499999999998
 40
0.7500000000000014
 40
0.7500000000000014
 40
0.7812500000000031
 40
0.7812500000000031
 40
0.8125000000000047
 40
0.8125000000000047
 40
0.8437500000000063
 40
0.8437500000000063
 40
0.875000000000005
 40
0.875000000000005
 40
0.9062500000000038
 40
0.9062500000000038
 40
0.9375000000000026
 40
0.9375000000000026
 40
0.9687500000000012
 40
0.9687500000000012
 40
1.0
 40
1.0
 40
1.0
 40
1.0
 10
6205.871366918036
 20
4087.829442670568
 30
0.0
 10
6206.082865537505
 20
4088.037346736662
 30
0.0
 10
6206.311213248945
 20
4088.221103601583
 30
0.0
 10
6206.800248316647
 20
4088.542270081441
 30
0.0
 10
6207.063973430279
 20
4088.680771573495
 30
0.0
 10
6207.609982229858
 20
4088.901868788023
 30
0.0
 10
6207.890752999202
 20
4088.984661273639
 30
0.0
 10
6208.467698472367
 20
4089.095195541194
 30
0.0
 10
6208.766009136117
 20
4089.122379512885
 30
0.0
 10
6209.353253842864
 20
4089.117985291507
 30
0.0
 10
6209.645012397565
 20
4089.087338757189
 30
0.0
 10
6210.224713162248
 20
4088.967787769442
 30
0.0
 10
6210.508928364251
 20
4088.879062202661
 30
0.0
 10
6211.049655647249
 20
4088.650300333846
 30
0.0
 10
6211.310237870369
 20
4088.508790069973
 30
0.0
 10
6211.801494337165
 20
4088.174830052695
 30
0.0
 10
6212.027162233298
 20
4087.986208796774
 30
0.0
 10
6212.439735687789
 20
4087.566939670292
 30
0.0
 10
6212.628228442253
 20
4087.333361138509
 30
0.0
 10
6212.951536288168
 20
4086.839957893977
 30
0.0
 10
6213.087694348434
 20
4086.579764463126
 30
0.0
 10
6213.308877231926
 20
4086.032319008717
 30
0.0
 10
6213.392995917121
 20
4085.745094689614
 30
0.0
 10
6213.502101896605
 20
4085.168305325416
 30
0.0
 10
6213.528515824484
 20
4084.875678994734
 30
0.0
 10
6213.523018700755
 20
4084.281654947154
 30
0.0
 10
6213.491102079991
 20
4083.989204727177
 30
0.0
 10
6213.371622721142
 20
4083.415733290481
 30
0.0
 10
6213.282705468581
 20
4083.131383031341
 30
0.0
 10
6213.052267444083
 20
4082.589143917055
 30
0.0
 10
6212.912025797874
 20
4082.332398460198
 30
0.0
 10
6212.582137219249
 20
4081.847287857823
 30
0.0
 10
6212.390585244176
 20
4081.61778908829
 30
0.0
 10
6211.972893598713
 20
4081.206892561267
 30
0.0
 10
6211.745447742418
 20
4081.022893692235
 30
0.0
 10
6211.252585679676
 20
4080.698683185622
 30
0.0
 10
6210.989682701744
 20
4080.56082546963
 30
0.0
 10
6210.447477111109
 20
4080.340717567356
 30
0.0
 10
6210.164569784441
 20
4080.256668362288
 30
0.0
 10
6209.582600982418
 20
4080.14505002556
 30
0.0
 10
6209.29043563192
 20
4080.118521237768
 30
0.0
 10
6208.703813691303
 20
4080.122280293509
 30
0.0
 10
6208.406075374868
 20
4080.153469583645
 30
0.0
 10
6207.82862363503
 20
4080.272516815774
 30
0.0
 10
6207.548389410589
 20
4080.359584560871
 30
0.0
 10
6207.004926815239
 20
4080.588880934703
 30
0.0
 10
6206.741448109252
 20
4080.73219294721
 30
0.0
 10
6206.254980412347
 20
4081.062484833822
 30
0.0
 10
6206.028777477532
 20
4081.250552713886
 30
0.0
 10
6205.611574757541
 20
4081.674068438601
 30
0.0
 10
6205.425706665745
 20
4081.904711939219
 30
0.0
 10
6205.103229741126
 20
4082.395791475727
 30
0.0
 10
6204.964593399031
 20
4082.659984206228
 30
0.0
 10
6204.742855836899
 20
4083.208717685198
 30
0.0
 10
6204.660202326452
 20
4083.490420644629
 30
0.0
 10
6204.550282065087
 20
4084.068227412472
 30
0.0
 10
6204.523509649309
 20
4084.366847115688
 30
0.0
 10
6204.528771091844
 20
4084.954364805181
 30
0.0
 10
6204.55987368382
 20
4085.245785460034
 30
0.0
 10
6204.679862745518
 20
4085.823881061075
 30
0.0
 10
6204.768753079447
 20
4086.107525169129
 30
0.0
 10
6204.997203690719
 20
4086.646325929612
 30
0.0
 10
6205.137868526745
 20
4086.905145158174
 30
0.0
 10
6205.470901403291
 20
4087.395068322095
 30
0.0
 10
6205.659868298567
 20
4087.621538604474
 30
0.0
 10
6205.871366918036
 20
4087.829442670568
 30
0.0
  0
SPLINE
  5
119
330
1F
100
AcDbEntity
  8
0
  6
Continuous
 62
     7
370
    25
100
AcDbSpline
210
0.0
220
0.0
230
1.0
 70
    11
 71
     3
 72
    70
 73
    66
 74
     0
 42
0.00000001
 43
0.00000001
 40
0.0
 40
0.0
 40
0.0
 40
0.0
 40
0.0312499999999999
 40
0.0312499999999999
 40
0.0624999999999998
 40
0.0624999999999998
 40
0.0937499999999998
 40
0.0937499999999998
 40
0.1249999999999997
 40
0.1249999999999997
 40
0.1562499999999996
 40
0.1562499999999996
 40
0.1874999999999995
 40
0.1874999999999995
 40
0.2187499999999994
 40
0.2187499999999994
 40
0.2499999999999993
 40
0.2499999999999993
 40
0.2812499999999992
 40
0.2812499999999992
 40
0.3124999999999992
 40
0.3124999999999992
 40
0.3437499999999991
 40
0.3437499999999991
 40
0.374999999999999
 40
0.374999999999999
 40
0.4062499999999989
 40
0.4062499999999989
 40
0.4374999999999988
 40
0.4374999999999988
 40
0.4687499999999988
 40
0.4687499999999988
 40
0.4999999999999987
 40
0.4999999999999987
 40
0.5312499999999986
 40
0.5312499999999986
 40
0.5624999999999984
 40
0.5624999999999984
 40
0.5937499999999984
 40
0.5937499999999984
 40
0.6249999999999983
 40
0.6249999999999983
 40
0.6562499999999984
 40
0.6562499999999984
 40
0.6874999999999986
 40
0.6874999999999986
 40
0.7187499999999988
 40
0.7187499999999988
 40
0.7499999999999989
 40
0.7499999999999989
 40
0.781249999999999
 40
0.781249999999999
 40
0.8124999999999991
 40
0.8124999999999991
 40
0.8437499999999993
 40
0.8437499999999993
 40
0.8749999999999994
 40
0.8749999999999994
 40
0.9062499999999996
 40
0.9062499999999996
 40
0.9374999999999997
 40
0.9374999999999997
 40
0.9687499999999999
 40
0.9687499999999999
 40
1.0
 40
1.0
 40
1.0
 40
1.0
 10
6209.699420152363
 20
4076.545911392053
 30
0.0
 10
6209.866848001384
 20
4076.791871452436
 30
0.0
 10
6210.055547919926
 20
4077.01715723698
 30
0.0
 10
6210.47363575712
 20
4077.428183819497
 30
0.0
 10
6210.705826832106
 20
4077.615593870553
 30
0.0
 10
6211.198743577235
 20
4077.938718083684
 30
0.0
 10
6211.458099543912
 20
4078.074451704746
 30
0.0
 10
6212.00231370804
 20
4078.294847951827
 30
0.0
 10
6212.289138958522
 20
4078.379302368901
 30
0.0
 10
6212.864686057711
 20
4078.488989920423
 30
0.0
 10
6213.156085097016
 20
4078.515681643643
 30
0.0
 10
6213.746295641422
 20
4078.511506500902
 30
0.0
 10
6214.041015963879
 20
4078.480144369459
 30
0.0
 10
6214.613873506605
 20
4078.362115264153
 30
0.0
 10
6214.896098123916
 20
4078.274781850449
 30
0.0
 10
6215.441245712128
 20
4078.044772708483
 30
0.0
 10
6215.698702733868
 20
4077.904787107078
 30
0.0
 10
6216.184210882514
 20
4077.576220969998
 30
0.0
 10
6216.414436788686
 20
4077.385083199264
 30
0.0
 10
6216.82816267064
 20
4076.966117135451
 30
0.0
 10
6217.012829330815
 20
4076.738385614959
 30
0.0
 10
6217.337589874389
 20
4076.246277091375
 30
0.0
 10
6217.477129208749
 20
4075.981144614022
 30
0.0
 10
6217.698494673255
 20
4075.436840073203
 30
0.0
 10
6217.782379054959
 20
4075.154954258731
 30
0.0
 10
6217.894602615188
 20
4074.57100773594
 30
0.0
 10
6217.921287893249
 20
4074.276279395232
 30
0.0
 10
6217.917212011908
 20
4073.688704368289
 30
0.0
 10
6217.885984579495
 20
4073.391729306854
 30
0.0
 10
6217.766035553337
 20
4072.812039891416
 30
0.0
 10
6217.678483866024
 20
4072.531651478683
 30
0.0
 10
6217.449137767959
 20
4071.989474552631
 30
0.0
 10
6217.30557643348
 20
4071.72597158735
 30
0.0
 10
6216.974906534349
 20
4071.239810491942
 30
0.0
 10
6216.787110199191
 20
4071.014437698593
 30
0.0
 10
6216.365856586004
 20
4070.599689220449
 30
0.0
 10
6216.134407052694
 20
4070.413115128561
 30
0.0
 10
6215.644880555838
 20
4070.09161539694
 30
0.0
 10
6215.383421256836
 20
4069.954148395102
 30
0.0
 10
6214.834930970838
 20
4069.73191839931
 30
0.0
 10
6214.553944966859
 20
4069.64925781159
 30
0.0
 10
6213.978917474685
 20
4069.539045300636
 30
0.0
 10
6213.681573654386
 20
4069.511759446067
 30
0.0
 10
6213.094099643823
 20
4069.515874680706
 30
0.0
 10
6212.803291516815
 20
4069.546401123005
 30
0.0
 10
6212.227540381473
 20
4069.664462221271
 30
0.0
 10
6211.942290673822
 20
4069.752950630611
 30
0.0
 10
6211.402498171961
 20
4069.980340072527
 30
0.0
 10
6211.144642670057
 20
4070.119684803607
 30
0.0
 10
6210.653846482452
 20
4070.451448684371
 30
0.0
 10
6210.426544742633
 20
4070.640434902405
 30
0.0
 10
6210.014290546006
 20
4071.057119269062
 30
0.0
 10
6209.826599054515
 20
4071.287965968403
 30
0.0
 10
6209.50057216499
 20
4071.781959228631
 30
0.0
 10
6209.363754407837
 20
4072.041753310112
 30
0.0
 10
6209.141563433183
 20
4072.586473651706
 30
0.0
 10
6209.056029344114
 20
4072.874348320033
 30
0.0
 10
6208.94473325754
 20
4073.452896751658
 30
0.0
 10
6208.917626169119
 20
4073.745454043067
 30
0.0
 10
6208.921259935585
 20
4074.337222887315
 30
0.0
 10
6208.952706439493
 20
4074.634449732012
 30
0.0
 10
6209.071318902083
 20
4075.209889831547
 30
0.0
 10
6209.158679234562
 20
4075.49192126193
 30
0.0
 10
6209.390359853158
 20
4076.039953433156
 30
0.0
 10
6209.531992303341
 20
4076.29995133167
 30
0.0
 10
6209.699420152363
 20
4076.545911392053
 30
0.0
  0
SPLINE
  5
11A
330
1F
100
AcDbEntity
  8
0
  6
Continuous
 62
     7
370
    25
100
AcDbSpline
210
0.0
220
0.0
230
1.0
 70
    11
 71
     3
 72
    70
 73
    66
 74
     0
 42
0.00000001
 43
0.00000001
 40
0.0
 40
0.0
 40
0.0
 40
0.0
 40
0.03125
 40
0.03125
 40
0.0625
 40
0.0625
 40
0.09375
 40
0.09375
 40
0.125
 40
0.125
 40
0.15625
 40
0.15625
 40
0.1875
 40
0.1875
 40
0.21875
 40
0.21875
 40
0.25
 40
0.25
 40
0.28125
 40
0.28125
 40
0.3125
 40
0.3125
 40
0.34375
 40
0.34375
 40
0.375
 40
0.375
 40
0.40625
 40
0.40625
 40
0.4375
 40
0.4375
 40
0.46875
 40
0.46875
 40
0.5
 40
0.5
 40
0.53125
 40
0.53125
 40
0.5625
 40
0.5625
 40
0.59375
 40
0.59375
 40
0.625
 40
0.625
 40
0.65625
 40
0.65625
 40
0.6875
 40
0.6875
 40
0.71875
 40
0.71875
 40
0.75
 40
0.75
 40
0.78125
 40
0.78125
 40
0.8125
 40
0.8125
 40
0.84375
 40
0.84375
 40
0.875
 40
0.875
 40
0.90625
 40
0.90625
 40
0.9375
 40
0.9375
 40
0.96875
 40
0.96875
 40
1.0
 40
1.0
 40
1.0
 40
1.0
 10
6206.544147439728
 20
4067.160850638169
 30
0.0
 10
6206.792667872106
 20
4067.325161479745
 30
0.0
 10
6207.053114031439
 20
4067.462238842321
 30
0.0
 10
6207.59684567872
 20
4067.684237667422
 30
0.0
 10
6207.883410517677
 20
4067.769638938862
 30
0.0
 10
6208.463043448008
 20
4067.88150401593
 30
0.0
 10
6208.755029573528
 20
4067.908561741237
 30
0.0
 10
6209.343295719692
 20
4067.905528507532
 30
0.0
 10
6209.641088905136
 20
4067.874500788625
 30
0.0
 10
6210.215719933818
 20
4067.756872802969
 30
0.0
 10
6210.495701062015
 20
4067.670577140609
 30
0.0
 10
6211.040654011346
 20
4067.441747670425
 30
0.0
 10
6211.300952869467
 20
4067.300682003103
 30
0.0
 10
6211.785788665506
 20
4066.97345890078
 30
0.0
 10
6212.013855551797
 20
4066.784932861818
 30
0.0
 10
6212.429740482122
 20
4066.365401691502
 30
0.0
 10
6212.614345967056
 20
4066.138267819258
 30
0.0
 10
6212.938063097694
 20
4065.650141682646
 30
0.0
 10
6213.0781222508
 20
4065.386062222438
 30
0.0
 10
6213.301004807664
 20
4064.84247342654
 30
0.0
 10
6213.385155902553
 20
4064.562139407252
 30
0.0
 10
6213.498495250947
 20
4063.984272114908
 30
0.0
 10
6213.526824640224
 20
4063.68676560861
 30
0.0
 10
6213.525054222744
 20
4063.100276371385
 30
0.0
 10
6213.495788392491
 20
4062.808023269533
 30
0.0
 10
6213.378230788395
 20
4062.225578934182
 30
0.0
 10
6213.29136873284
 20
4061.943384706478
 30
0.0
 10
6213.065036586073
 20
4061.401600280728
 30
0.0
 10
6212.923583103578
 20
4061.138603083986
 30
0.0
 10
6212.592953214497
 20
4060.647734363875
 30
0.0
 10
6212.405633921776
 20
4060.421377742722
 30
0.0
 10
6211.987591261673
 20
4060.006295766237
 30
0.0
 10
6211.754601135617
 20
4059.816680853947
 30
0.0
 10
6211.263686023058
 20
4059.491851452298
 30
0.0
 10
6211.004051431336
 20
4059.354347341426
 30
0.0
 10
6210.455905005887
 20
4059.13007942986
 30
0.0
 10
6210.170527900728
 20
4059.045222365715
 30
0.0
 10
6209.594550958356
 20
4058.933542638164
 30
0.0
 10
6209.299681184818
 20
4058.905677142247
 30
0.0
 10
6208.707149777094
 20
4058.908645689856
 30
0.0
 10
6208.41544349287
 20
4058.939082382907
 30
0.0
 10
6207.84086733029
 20
4059.056069268259
 30
0.0
 10
6207.555112201401
 20
4059.144132114395
 30
0.0
 10
6207.013275242636
 20
4059.371583821388
 30
0.0
 10
6206.755860480917
 20
4059.510553738789
 30
0.0
 10
6206.268100371149
 20
4059.839098013987
 30
0.0
 10
6206.038296935471
 20
4060.029311374105
 30
0.0
 10
6205.626028823292
 20
4060.444658651618
 30
0.0
 10
6205.440693086781
 20
4060.671497608635
 30
0.0
 10
6205.113133292736
 20
4061.164902113391
 30
0.0
 10
6204.975333402474
 20
4061.425173265413
 30
0.0
 10
6204.752771362502
 20
4061.966449569536
 30
0.0
 10
6204.666946624376
 20
4062.251189619848
 30
0.0
 10
6204.553298912499
 20
4062.830528274439
 30
0.0
 10
6204.525389105846
 20
4063.122246743952
 30
0.0
 10
6204.526548282419
 20
4063.709721470407
 30
0.0
 10
6204.556583797201
 20
4064.00808572775
 30
0.0
 10
6204.672828140117
 20
4064.584706123876
 30
0.0
 10
6204.758550811402
 20
4064.865424302766
 30
0.0
 10
6204.986133068577
 20
4065.411419008315
 30
0.0
 10
6205.127765267407
 20
4065.674340897762
 30
0.0
 10
6205.455572775879
 20
4066.161849227805
 30
0.0
 10
6205.643417083437
 20
4066.389891245793
 30
0.0
 10
6206.065793919556
 20
4066.809461101794
 30
0.0
 10
6206.295627007349
 20
4066.996539796592
 30
0.0
 10
6206.544147439728
 20
4067.160850638169
 30
0.0
  0
LINE
  5
11B
330
1F
100
AcDbEntity
  8
0
  6
Continuous
 62
     7
370
    25
100
AcDbLine
 10
6378.5193582164
 20
4303.8101544149
 30
0.0
 11
6378.4193582164
 21
4303.8101544149
 31
0.0
  0
LINE
  5
11C
330
1F
100
AcDbEntity
  8
0
  6
Continuous
 62
     7
370
    25
100
AcDbLine
 10
6378.5193582164
 20
4128.8101544149
 30
0.0
 11
6378.4193582164
 21
4128.8101544149
 31
0.0
  0
LINE
  5
11D
330
1F
100
AcDbEntity
  8
0
  6
Continuous
 62
     7
370
    25
100
AcDbLine
 10
6378.5193582164
 20
4303.8101544149
 30
0.0
 11
6378.5193582164
 21
4167.8101544149
 31
0.0
  0
LINE
  5
11E
330
1F
100
AcDbEntity
  8
0
  6
Continuous
 62
     7
370
    25
100
AcDbLine
 10
6378.5193582164
 20
4139.8101544149
 30
0.0
 11
6378.5193582164
 21
4128.8101544149
 31
0.0
  0
LINE
  5
11F
330
1F
100
AcDbEntity
  8
0
  6
Continuous
 62
     7
370
    25
100
AcDbLine
 10
6018.2332556289
 20
4071.5621223875
 30
0.0
 11
5945.1503600041
 21
4071.5621180116
 31
0.0
  0
SPLINE
  5
120
330
1F
100
AcDbEntity
  8
0
  6
Continuous
 62
     7
370
    25
100
AcDbSpline
210
0.0
220
0.0
230
1.0
 70
     8
 71
     3
 72
    14
 73
    10
 74
     0
 42
0.00000001
 43
0.00000001
 40
0.0
 40
0.0
 40
0.0
 40
0.0
 40
0.003046725292986
 40
0.0529044244180891
 40
0.262632627105936
 40
0.4576991528241705
 40
0.6408842406012748
 40
0.8203827035463389
 40
1.0
 40
1.0
 40
1.0
 40
1.0
 10
5945.15036000414
 20
4071.562118011594
 30
0.0
 10
5945.149003175969
 20
4071.565393684275
 30
0.0
 10
5945.125442727775
 20
4071.622273632792
 30
0.0
 10
5945.008536790271
 20
4071.904509509454
 30
0.0
 10
5944.807909758941
 20
4072.388865967809
 30
0.0
 10
5944.58066490031
 20
4072.937483541254
 30
0.0
 10
5944.417716770554
 20
4073.330875092713
 30
0.0
 10
5944.321042720491
 20
4073.564266875752
 30
0.0
 10
5944.325388137379
 20
4073.553776112255
 30
0.0
 10
5944.327561564785
 20
4073.548528994778
 30
0.0
  0
SPLINE
  5
121
330
1F
100
AcDbEntity
  8
0
  6
Continuous
 62
     7
370
    25
100
AcDbSpline
210
0.0
220
0.0
230
1.0
 70
     8
 71
     3
 72
    12
 73
     8
 74
     0
 42
0.00000001
 43
0.00000001
 40
0.0
 40
0.0
 40
0.0
 40
0.0
 40
0.1406738833956945
 40
0.3554540420652297
 40
0.5702185564270124
 40
0.784935162174172
 40
1.0
 40
1.0
 40
1.0
 40
1.0
 10
6018.250339101691
 20
4073.53647478652
 30
0.0
 10
6018.248068629321
 20
4073.537190363791
 30
0.0
 10
6018.242331611463
 20
4073.538998480742
 30
0.0
 10
6018.234077469311
 20
4073.285457767025
 30
0.0
 10
6018.228009582367
 20
4072.837746074525
 30
0.0
 10
6018.226695673154
 20
4072.237093035052
 30
0.0
 10
6018.231132422725
 20
4071.78723490842
 30
0.0
 10
6018.233352594956
 20
4071.56212359546
 30
0.0
  0
LINE
  5
122
330
1F
100
AcDbEntity
  8
0
  6
Continuous
 62
     7
370
    25
100
AcDbLine
 10
5945.1503600041
 20
4071.5621180116
 30
0.0
 11
5777.6924867001
 21
3904.1042447075
 31
0.0
  0
SPLINE
  5
123
330
1F
100
AcDbEntity
  8
0
  6
Continuous
 62
     7
370
    25
100
AcDbSpline
210
0.0
220
0.0
230
1.0
 70
     8
 71
     3
 72
    14
 73
    10
 74
     0
 42
0.00000001
 43
0.00000001
 40
0.0
 40
0.0
 40
0.0
 40
0.0
 40
0.1212103291967472
 40
0.3134881459757877
 40
0.5097150560359611
 40
0.7186693004144065
 40
0.9433290566494886
 40
0.9967363637535946
 40
1.0
 40
1.0
 40
1.0
 40
1.0
 10
6198.148279718032
 20
3819.722273356853
 30
0.0
 10
6198.149727187681
 20
3819.721673795243
 30
0.0
 10
6198.153470800786
 20
3819.720123139793
 30
0.0
 10
6197.93729097729
 20
3819.809667762163
 30
0.0
 10
6197.54749586842
 20
3819.971126196541
 30
0.0
 10
6196.997818763433
 20
3820.198809927361
 30
0.0
 10
6196.513729280573
 20
3820.399326374361
 30
0.0
 10
6196.231477367324
 20
3820.516238953833
 30
0.0
 10
6196.174597482101
 20
3820.539799375999
 30
0.0
 10
6196.171321813052
 20
3820.541156202677
 30
0.0
  0
LINE
  5
124
330
1F
100
AcDbEntity
  8
0
  6
Continuous
 62
     7
370
    25
100
AcDbLine
 10
6196.1713218131
 20
3820.5411562027
 30
0.0
 11
6196.1713261889
 21
3893.624052794
 31
0.0
  0
SPLINE
  5
125
330
1F
100
AcDbEntity
  8
0
  6
Continuous
 62
     7
370
    25
100
AcDbSpline
210
0.0
220
0.0
230
1.0
 70
     8
 71
     3
 72
    12
 73
     8
 74
     0
 42
0.00000001
 43
0.00000001
 40
0.0
 40
0.0
 40
0.0
 40
0.0
 40
0.2146661116584447
 40
0.4293326349485409
 40
0.6439983903306381
 40
0.8587109414934435
 40
1.0
 40
1.0
 40
1.0
 40
1.0
 10
6196.171327384879
 20
3893.624148793648
 30
0.0
 10
6196.396017717026
 20
3893.621931683711
 30
0.0
 10
6196.845398812171
 20
3893.617497459585
 30
0.0
 10
6197.44576507121
 20
3893.618797899071
 30
0.0
 10
6197.893723512983
 20
3893.624853762271
 30
0.0
 10
6198.147970554535
 20
3893.633108981046
 30
0.0
 10
6198.146249878525
 20
3893.638855189737
 30
0.0
 10
6198.145566980788
 20
3893.641135731156
 30
0.0
  0
LINE
  5
126
330
1F
100
AcDbEntity
  8
0
  6
Continuous
 62
     7
370
    25
100
AcDbLine
 10
6028.7134485093
 20
3653.0832828989
 30
0.0
 11
6196.1713218131
 21
3820.5411562027
 31
0.0
  0
LINE
  5
127
330
1F
100
AcDbEntity
  8
0
  6
Continuous
 62
     7
370
    25
100
AcDbLine
 10
6198.1577372226
 20
3893.644674678
 30
0.0
 11
6196.8522058342
 21
3893.8169766736
 31
0.0
  0
ARC
  5
128
330
1F
100
AcDbEntity
  8
0
  6
Continuous
 62
     7
370
    25
100
AcDbCircle
 10
6198.4197240532
 20
4073.8105212306
 30
0.0
 40
180.2004958389573
100
AcDbArc
 50
180.7149098347
 51
269.2850904765
  0
LINE
  5
129
330
1F
100
AcDbEntity
  8
0
  6
Continuous
 62
     7
370
    25
100
AcDbLine
 10
6018.2538784794
 20
4073.5485334212
 30
0.0
 11
6018.4261804751
 21
4072.2430020327
 31
0.0
  0
LINE
  5
12A
330
1F
100
AcDbEntity
  8
0
  6
Continuous
 62
     7
370
    25
100
AcDbLine
 10
6012.502426841
 20
3698.2380657098
 30
0.0
 11
5969.1338479245
 21
3658.767544553
 31
0.0
  0
SPLINE
  5
12B
330
1F
100
AcDbEntity
  8
0
  6
Continuous
 62
     7
370
    25
100
AcDbSpline
210
0.0
220
0.0
230
1.0
 70
     8
 71
     3
 72
    45
 73
    41
 74
     0
 42
0.00000001
 43
0.00000001
 40
0.0
 40
0.0
 40
0.0
 40
0.0
 40
0.0261269098619392
 40
0.0523465035684275
 40
0.0785639264500828
 40
0.1046878655492139
 40
0.1308191486073551
 40
0.1570440956494535
 40
0.1832693929790732
 40
0.2094011554129443
 40
0.2355018973039792
 40
0.261695817517494
 40
0.2878896465438691
 40
0.313990263644814
 40
0.3401021537647755
 40
0.3663073917602352
 40
0.3925124195987775
 40
0.4186240221162025
 40
0.4447278210873855
 40
0.470925305545498
 40
0.4971226053587133
 40
0.5232261516374088
 40
0.5492692845514741
 40
0.5754053420032798
 40
0.6015416608613485
 40
0.6275851515097288
 40
0.653653357758715
 40
0.6798144220986589
 40
0.7059757004731068
 40
0.7320441996265373
 40
0.7581596770307745
 40
0.7843685287592962
 40
0.8105772191752141
 40
0.8366924758209682
 40
0.8627975807993218
 40
0.8889960319920938
 40
0.9151942169488249
 40
0.9412989575791549
 40
0.9706483067392088
 40
1.0
 40
1.0
 40
1.0
 40
1.0
 10
5822.847567703262
 20
3887.893043473042
 30
0.0
 10
5825.470203341862
 20
3890.606148777822
 30
0.0
 10
5830.72477828165
 20
3896.041983986374
 30
0.0
 10
5839.440320193557
 20
3903.328586346527
 30
0.0
 10
5848.681788749235
 20
3909.917709921094
 30
0.0
 10
5858.448522296427
 20
3915.684696413344
 30
0.0
 10
5868.677029338607
 20
3920.584928870347
 30
0.0
 10
5879.294383448932
 20
3924.613756845347
 30
0.0
 10
5890.209869530786
 20
3927.745823953776
 30
0.0
 10
5901.332558320915
 20
3929.948868357291
 30
0.0
 10
5912.59926156868
 20
3931.183981539196
 30
0.0
 10
5923.938063706145
 20
3931.47132649995
 30
0.0
 10
5935.261571335222
 20
3930.816415457051
 30
0.0
 10
5946.479368588374
 20
3929.216428489388
 30
0.0
 10
5957.51887011141
 20
3926.654098167196
 30
0.0
 10
5968.318601985458
 20
3923.171658180367
 30
0.0
 10
5978.791617268344
 20
3918.803925977903
 30
0.0
 10
5988.849017285991
 20
3913.579487953984
 30
0.0
 10
5998.416222585954
 20
3907.505770746321
 30
0.0
 10
6007.449066272767
 20
3900.643318784078
 30
0.0
 10
6015.879331554597
 20
3893.052822524745
 30
0.0
 10
6023.627088634936
 20
3884.79635230954
 30
0.0
 10
6030.626217696424
 20
3875.907775856506
 30
0.0
 10
6036.858330900734
 20
3866.460808393434
 30
0.0
 10
6042.285095503853
 20
3856.529275059163
 30
0.0
 10
6046.858534652954
 20
3846.186969874303
 30
0.0
 10
6050.52486029889
 20
3835.485595968347
 30
0.0
 10
6053.286434460919
 20
3824.499090862561
 30
0.0
 10
6055.127645441271
 20
3813.321434187783
 30
0.0
 10
6056.027648573576
 20
3802.034841117869
 30
0.0
 10
6055.951803681928
 20
3790.705724192558
 30
0.0
 10
6054.925022994107
 20
3779.403379644499
 30
0.0
 10
6052.96282912137
 20
3768.225405260966
 30
0.0
 10
6050.073324263588
 20
3757.26530135091
 30
0.0
 10
6046.249117304272
 20
3746.596742549189
 30
0.0
 10
6041.539219540678
 20
3736.276778851601
 30
0.0
 10
6035.991296779784
 20
3726.380087079673
 30
0.0
 10
6029.363985335197
 20
3716.620998659511
 30
0.0
 10
6021.629643678872
 20
3707.096058995734
 30
0.0
 10
6015.544913447171
 20
3701.190808742982
 30
0.0
 10
6012.502426840968
 20
3698.238065709829
 30
0.0
  0
LINE
  5
12C
330
1F
100
AcDbEntity
  8
0
  6
Continuous
 62
     7
370
    25
100
AcDbLine
 10
5783.3760870584
 20
3844.5252408119
 30
0.0
 11
5822.8475677033
 21
3887.893043473
 31
0.0
  0
SPLINE
  5
12D
330
1F
100
AcDbEntity
  8
0
  6
Continuous
 62
     7
370
    25
100
AcDbSpline
210
0.0
220
0.0
230
1.0
 70
     8
 71
     3
 72
    43
 73
    39
 74
     0
 42
0.00000001
 43
0.00000001
 40
0.0
 40
0.0
 40
0.0
 40
0.0
 40
0.0277690004543339
 40
0.0556342782004485
 40
0.0834921728799085
 40
0.1112510701106207
 40
0.1390409971302941
 40
0.1669317872304284
 40
0.194822334726467
 40
0.2226119297211142
 40
0.2501851533789092
 40
0.2778573399532542
 40
0.3055294947207659
 40
0.3331026748499282
 40
0.3606170304512665
 40
0.38822990790382
 40
0.4158427293038515
 40
0.4433570081962079
 40
0.4708428358986897
 40
0.4984268964334891
 40
0.5260109534372132
 40
0.5534967763073821
 40
0.5809811966564945
 40
0.608563827536058
 40
0.636146554098998
 40
0.6636311053915948
 40
0.6911183300382585
 40
0.7187036319400044
 40
0.7462890062129978
 40
0.7737763298998079
 40
0.8012845104457538
 40
0.828890600253302
 40
0.8564969541378652
 40
0.8840054960699005
 40
0.912943194966543
 40
0.9419932193810937
 40
0.9710512887282595
 40
1.0
 40
1.0
 40
1.0
 40
1.0
 10
5969.133847924546
 20
3658.767544552965
 30
0.0
 10
5966.321401255315
 20
3656.326351458374
 30
0.0
 10
5960.686756944756
 20
3651.43550146221
 30
0.0
 10
5951.507449295476
 20
3645.000834904886
 30
0.0
 10
5941.871604670081
 20
3639.292205324165
 30
0.0
 10
5931.781541109704
 20
3634.442704572486
 30
0.0
 10
5921.303060084823
 20
3630.494551397402
 30
0.0
 10
5910.512749752809
 20
3627.438135471496
 30
0.0
 10
5899.504442688693
 20
3625.296134909077
 30
0.0
 10
5888.396082607733
 20
3624.096468026371
 30
0.0
 10
5877.255034072195
 20
3623.866452730135
 30
0.0
 10
5866.150467739539
 20
3624.571768670845
 30
0.0
 10
5855.143146554774
 20
3626.198870796087
 30
0.0
 10
5844.331244799799
 20
3628.739970663975
 30
0.0
 10
5833.787130767078
 20
3632.203818222104
 30
0.0
 10
5823.566484051788
 20
3636.541674341629
 30
0.0
 10
5813.741856023579
 20
3641.714206667861
 30
0.0
 10
5804.399603386168
 20
3647.684038260374
 30
0.0
 10
5795.611024938118
 20
3654.436152606982
 30
0.0
 10
5787.412793297998
 20
3661.906801302861
 30
0.0
 10
5779.863401570733
 20
3670.032577977666
 30
0.0
 10
5773.029296566674
 20
3678.752464485598
 30
0.0
 10
5766.973657316375
 20
3688.029667263903
 30
0.0
 10
5761.711076888172
 20
3697.792578341582
 30
0.0
 10
5757.27740283867
 20
3707.958793233696
 30
0.0
 10
5753.714766961
 20
3718.449228937692
 30
0.0
 10
5751.070315224455
 20
3729.208232009743
 30
0.0
 10
5749.334201738662
 20
3740.163543276703
 30
0.0
 10
5748.513204022214
 20
3751.225147810091
 30
0.0
 10
5748.62103220352
 20
3762.307027688436
 30
0.0
 10
5749.684283558302
 20
3773.341104259687
 30
0.0
 10
5751.669590984119
 20
3784.262528497643
 30
0.0
 10
5754.553836121894
 20
3794.981776604695
 30
0.0
 10
5758.382023917886
 20
3805.591722893869
 30
0.0
 10
5763.222990513464
 20
3815.997735593779
 30
0.0
 10
5769.085893222156
 20
3826.098345423582
 30
0.0
 10
5775.741328897037
 20
3835.709307861807
 30
0.0
 10
5780.834368245257
 20
3841.590292230576
 30
0.0
 10
5783.37608705837
 20
3844.525240811909
 30
0.0
  0
SPLINE
  5
12E
330
1F
100
AcDbEntity
  8
0
  6
Continuous
 62
     7
370
    25
100
AcDbSpline
210
0.0
220
0.0
230
1.0
 70
     8
 71
     3
 72
    11
 73
     7
 74
     0
 42
0.00000001
 43
0.00000001
 40
0.0
 40
0.0
 40
0.0
 40
0.0
 40
0.249029699734183
 40
0.4980593120459083
 40
0.7490299169979199
 40
1.0
 40
1.0
 40
1.0
 40
1.0
 10
5992.729366804499
 20
3622.937836297125
 30
0.0
 10
5995.901057629027
 20
3625.210930869974
 30
0.0
 10
6002.244438164653
 20
3629.757119217697
 30
0.0
 10
6011.385983312893
 20
3637.122500102668
 30
0.0
 10
6020.266091928294
 20
3644.847628205187
 30
0.0
 10
6025.897664934327
 20
3650.33806657079
 30
0.0
 10
6028.713448509308
 20
3653.083282898937
 30
0.0
  0
SPLINE
  5
12F
330
1F
100
AcDbEntity
  8
0
  6
Continuous
 62
     7
370
    25
100
AcDbSpline
210
0.0
220
0.0
230
1.0
 70
     8
 71
     3
 72
    14
 73
    10
 74
     0
 42
0.00000001
 43
0.00000001
 40
0.0
 40
0.0
 40
0.0
 40
0.0
 40
0.1457558856010001
 40
0.2916033885533211
 40
0.4373622371893044
 40
0.5864758120169933
 40
0.7356851871160787
 40
0.8847987337415361
 40
1.0
 40
1.0
 40
1.0
 40
1.0
 10
5905.038555196756
 20
3581.710875591477
 30
0.0
 10
5909.580504018076
 20
3583.035136125702
 30
0.0
 10
5918.667256580219
 20
3585.684489580727
 30
0.0
 10
5932.023231222868
 20
3590.51374244935
 30
0.0
 10
5945.2404725484
 20
3595.989399941848
 30
0.0
 10
5958.263207641214
 20
3602.178321346313
 30
0.0
 10
5971.046156629695
 20
3609.075643427409
 30
0.0
 10
5982.547999377511
 20
3616.005153329889
 30
0.0
 10
5989.638835245251
 20
3620.833435718897
 30
0.0
 10
5992.729366804499
 20
3622.937836297125
 30
0.0
  0
SPLINE
  5
130
330
1F
100
AcDbEntity
  8
0
  6
Continuous
 62
     7
370
    25
100
AcDbSpline
210
0.0
220
0.0
230
1.0
 70
     8
 71
     3
 72
    32
 73
    28
 74
     0
 42
0.00000001
 43
0.00000001
 40
0.0
 40
0.0
 40
0.0
 40
0.0
 40
0.0399137869934017
 40
0.0799701991554466
 40
0.1200266462973308
 40
0.1599404811609537
 40
0.1998566866516563
 40
0.2399155352114074
 40
0.279974363699101
 40
0.3198905417210026
 40
0.3598061580832124
 40
0.3998643430372227
 40
0.4399225325726612
 40
0.4798381552045881
 40
0.5197644142716152
 40
0.5598334013722082
 40
0.5999023563126982
 40
0.6398285713682611
 40
0.6797472621136905
 40
0.7198085578254799
 40
0.759869841450269
 40
0.7997885156545428
 40
0.8397141732437925
 40
0.8797826133288728
 40
0.9198510477567536
 40
0.9597766976040523
 40
1.0
 40
1.0
 40
1.0
 40
1.0
 10
5706.320079391572
 20
3780.429351390382
 30
0.0
 10
5705.22380735585
 20
3776.029016595382
 30
0.0
 10
5703.027345941658
 20
3767.212623153059
 30
0.0
 10
5701.160583912033
 20
3753.687689540703
 30
0.0
 10
5700.340478222801
 20
3740.071579209015
 30
0.0
 10
5700.685981404048
 20
3726.445093864453
 30
0.0
 10
5702.200321106719
 20
3712.900207144889
 30
0.0
 10
5704.848979737308
 20
3699.514243319304
 30
0.0
 10
5708.599802983616
 20
3686.394594024831
 30
0.0
 10
5713.431609032195
 20
3673.649803825791
 30
0.0
 10
5719.345312555542
 20
3661.369682483522
 30
0.0
 10
5726.274736781997
 20
3649.615014285396
 30
0.0
 10
5734.156265842889
 20
3638.476313592427
 30
0.0
 10
5742.934158729419
 20
3628.047833824047
 30
0.0
 10
5752.580231331202
 20
3618.414987934677
 30
0.0
 10
5763.012336482385
 20
3609.613817639065
 30
0.0
 10
5774.139474548813
 20
3601.709631877675
 30
0.0
 10
5785.876078974336
 20
3594.77421463099
 30
0.0
 10
5798.166746867417
 20
3588.878193082631
 30
0.0
 10
5810.92168935891
 20
3584.027441258205
 30
0.0
 10
5824.035363149568
 20
3580.252750713431
 30
0.0
 10
5837.405063520065
 20
3577.592493481381
 30
0.0
 10
5850.954898239201
 20
3576.097683010669
 30
0.0
 10
5864.600078960047
 20
3575.738239864357
 30
0.0
 10
5878.221933247457
 20
3576.533819902853
 30
0.0
 10
5891.769901662068
 20
3578.396148528886
 30
0.0
 10
5900.604733921973
 20
3580.60323438796
 30
0.0
 10
5905.038555196756
 20
3581.710875591477
 30
0.0
  0
SPLINE
  5
131
330
1F
100
AcDbEntity
  8
0
  6
Continuous
 62
     7
370
    25
100
AcDbSpline
210
0.0
220
0.0
230
1.0
 70
     8
 71
     3
 72
    14
 73
    10
 74
     0
 42
0.00000001
 43
0.00000001
 40
0.0
 40
0.0
 40
0.0
 40
0.0
 40
0.1457512863598529
 40
0.2915920346581119
 40
0.4373432880133907
 40
0.586438526824029
 40
0.7356295265151217
 40
0.8847247367711362
 40
1.0
 40
1.0
 40
1.0
 40
1.0
 10
5747.54704009852
 20
3868.120163002953
 30
0.0
 10
5744.895632119591
 20
3864.202092305426
 30
0.0
 10
5739.591188731176
 20
3856.363546003986
 30
0.0
 10
5732.384578312223
 20
3844.126427708382
 30
0.0
 10
5725.698434873884
 20
3831.479516333407
 30
0.0
 10
5719.619253688589
 20
3818.406814220179
 30
0.0
 10
5714.176049977452
 20
3804.942228573158
 30
0.0
 10
5709.73888756144
 20
3792.267300926007
 30
0.0
 10
5707.358162987933
 20
3784.02381490424
 30
0.0
 10
5706.320079391572
 20
3780.429351390382
 30
0.0
  0
SPLINE
  5
132
330
1F
100
AcDbEntity
  8
0
  6
Continuous
 62
     7
370
    25
100
AcDbSpline
210
0.0
220
0.0
230
1.0
 70
     8
 71
     3
 72
    11
 73
     7
 74
     0
 42
0.00000001
 43
0.00000001
 40
0.0
 40
0.0
 40
0.0
 40
0.0
 40
0.0851125836115493
 40
0.4257061745484481
 40
0.712485926095965
 40
1.0
 40
1.0
 40
1.0
 40
1.0
 10
5777.69248670006
 20
3904.104244707517
 30
0.0
 10
5776.754060133202
 20
3903.156992087693
 30
0.0
 10
5772.060347794555
 20
3898.41913462872
 30
0.0
 10
5764.54600706669
 20
3890.155941954559
 30
0.0
 10
5755.435591763552
 20
3879.080724895785
 30
0.0
 10
5750.178797858122
 20
3871.776796696427
 30
0.0
 10
5747.54704009852
 20
3868.120163002953
 30
0.0
  0
ARC
  5
133
330
1F
100
AcDbEntity
  8
0
  6
Continuous
 62
     7
370
    25
100
AcDbCircle
 10
5923.7083737254
 20
3799.0991699239
 30
0.0
 40
37.50000000000023
100
AcDbArc
 50
315.0
 51
135.0
  0
SPLINE
  5
134
330
1F
100
AcDbEntity
  8
0
  6
Continuous
 62
     7
370
    25
100
AcDbSpline
210
0.0
220
0.0
230
1.0
 70
     8
 71
     3
 72
    26
 73
    22
 74
     0
 42
0.00000001
 43
0.00000001
 40
0.0
 40
0.0
 40
0.0
 40
0.0
 40
0.0539861145401149
 40
0.1079761201603877
 40
0.161946164472813
 40
0.2159146965885698
 40
0.2700929017659626
 40
0.3242689458658357
 40
0.3780362283204297
 40
0.431799444401433
 40
0.4848296450367108
 40
0.5378585149412286
 40
0.5903026024491428
 40
0.6427503706997656
 40
0.6955500765524262
 40
0.7483527284807142
 40
0.8018552613304482
 40
0.8553598014339995
 40
0.9093928582544591
 40
0.9634227828464691
 40
1.0
 40
1.0
 40
1.0
 40
1.0
 10
5897.191861810402
 20
3825.615677261817
 30
0.0
 10
5895.749878179556
 20
3824.037621618754
 30
0.0
 10
5892.865806986066
 20
3820.881396593364
 30
0.0
 10
5889.616937597008
 20
3815.316185701048
 30
0.0
 10
5887.301064009998
 20
3809.328287292096
 30
0.0
 10
5886.012577442538
 20
3803.021208590329
 30
0.0
 10
5885.821165882513
 20
3796.581415983882
 30
0.0
 10
5886.699516292942
 20
3790.205515026576
 30
0.0
 10
5888.662309951856
 20
3784.093802640578
 30
0.0
 10
5891.596094904485
 20
3778.434515437321
 30
0.0
 10
5895.451489803079
 20
3773.395839721796
 30
0.0
 10
5900.05269689242
 20
3769.103581774702
 30
0.0
 10
5905.305196858305
 20
3765.68262154162
 30
0.0
 10
5911.036761683146
 20
3763.168718676601
 30
0.0
 10
5917.12526933602
 20
3761.658714252769
 30
0.0
 10
5923.419547784991
 20
3761.153358208071
 30
0.0
 10
5929.736300531912
 20
3761.722983374726
 30
0.0
 10
5935.925941818841
 20
3763.323500646748
 30
0.0
 10
5941.761710803737
 20
3765.97004908512
 30
0.0
 10
5946.567629320387
 20
3769.129754487771
 30
0.0
 10
5949.173082415473
 20
3771.589632155176
 30
0.0
 10
5950.22487835348
 20
3772.582660716484
 30
0.0
  0
SPLINE
  5
135
330
1F
100
AcDbEntity
  8
0
  6
Continuous
 62
     7
370
    25
100
AcDbSpline
210
0.0
220
0.0
230
1.0
 70
     8
 71
     3
 72
    10
 73
     6
 74
     0
 42
0.00000001
 43
0.00000001
 40
0.0
 40
0.0
 40
0.0
 40
0.0
 40
0.0682225420743247
 40
0.3411142400180611
 40
1.0
 40
1.0
 40
1.0
 40
1.0
 10
5967.848632551251
 20
3660.179075225212
 30
0.0
 10
5968.833026890365
 20
3661.078351356226
 30
0.0
 10
5973.755020657456
 20
3665.574752174347
 30
0.0
 10
5988.242268968
 20
3678.691065989669
 30
0.0
 10
6001.66870722409
 20
3690.994112341739
 30
0.0
 10
6011.162915201507
 20
3699.693938654153
 30
0.0
  0
SPLINE
  5
136
330
1F
100
AcDbEntity
  8
0
  6
Continuous
 62
     7
370
    25
100
AcDbSpline
210
0.0
220
0.0
230
1.0
 70
     8
 71
     3
 72
    44
 73
    40
 74
     0
 42
0.00000001
 43
0.00000001
 40
0.0
 40
0.0
 40
0.0
 40
0.0
 40
0.028959738564717
 40
0.0580310399539521
 40
0.0870975306874553
 40
0.1160506837918638
 40
0.1435602501764932
 40
0.1711676027988608
 40
0.198774749175857
 40
0.2262840333166871
 40
0.2537667543265452
 40
0.2813473736276604
 40
0.3089279142162945
 40
0.3364105275085458
 40
0.3638872828776717
 40
0.3914620574501278
 40
0.4190367134548276
 40
0.4465133065637381
 40
0.4739903809851889
 40
0.5015655528588616
 40
0.5291407287438542
 40
0.5566178086548162
 40
0.5841242688370324
 40
0.6117291223923397
 40
0.6393340546848926
 40
0.6668406226200913
 40
0.6944093554804218
 40
0.7220769120885129
 40
0.7497445039235028
 40
0.7773132849926958
 40
0.8051042347311138
 40
0.8329960931799274
 40
0.8608881318056034
 40
0.8886793281315655
 40
0.8983457970177672
 40
0.9177189365928723
 40
0.9370921270121789
 40
0.9685442263838068
 40
1.0
 40
1.0
 40
1.0
 40
1.0
 10
5784.787876261271
 20
3843.239798575608
 30
0.0
 10
5782.279506274024
 20
3840.349809301017
 30
0.0
 10
5777.253103199842
 20
3834.558697524042
 30
0.0
 10
5770.698525344102
 20
3825.080622828551
 30
0.0
 10
5764.929855592804
 20
3815.118021582916
 30
0.0
 10
5760.167667319428
 20
3804.857676225831
 30
0.0
 10
5756.400746350791
 20
3794.400331034779
 30
0.0
 10
5753.565580865344
 20
3783.837228605406
 30
0.0
 10
5751.615774778136
 20
3773.075603465004
 30
0.0
 10
5750.574319412609
 20
3762.204261228626
 30
0.0
 10
5750.473557985414
 20
3751.28713463024
 30
0.0
 10
5751.287111904866
 20
3740.391156183539
 30
0.0
 10
5753.001467475266
 20
3729.60018515785
 30
0.0
 10
5755.609832488907
 20
3719.003180787484
 30
0.0
 10
5759.121751085254
 20
3708.671195798503
 30
0.0
 10
5763.490791158887
 20
3698.658937695203
 30
0.0
 10
5768.675684100001
 20
3689.043817728574
 30
0.0
 10
5774.641131673776
 20
3679.907025210698
 30
0.0
 10
5781.372774527513
 20
3671.319011744354
 30
0.0
 10
5788.808435438078
 20
3663.315962653102
 30
0.0
 10
5796.88281265043
 20
3655.957816713006
 30
0.0
 10
5805.538456264428
 20
3649.306879623187
 30
0.0
 10
5814.739298904717
 20
3643.425886647904
 30
0.0
 10
5824.415194822486
 20
3638.329614677911
 30
0.0
 10
5834.48106222358
 20
3634.054869967523
 30
0.0
 10
5844.865948727688
 20
3630.64016281193
 30
0.0
 10
5855.515121477644
 20
3628.13349064522
 30
0.0
 10
5866.357422190162
 20
3626.526395092556
 30
0.0
 10
5877.295832678365
 20
3625.826673668542
 30
0.0
 10
5888.271396764501
 20
3626.047705883062
 30
0.0
 10
5899.216075510546
 20
3627.223399649463
 30
0.0
 10
5910.063576949034
 20
3629.327679867954
 30
0.0
 10
5920.696619545693
 20
3632.331704633703
 30
0.0
 10
5928.784534642494
 20
3635.375999335291
 30
0.0
 10
5935.642834419099
 20
3638.424824851334
 30
0.0
 10
5941.368989444855
 20
3641.278953759356
 30
0.0
 10
5949.40498317353
 20
3645.905984940366
 30
0.0
 10
5958.424861662086
 20
3652.012339109104
 30
0.0
 10
5964.707253276832
 20
3657.456723856899
 30
0.0
 10
5967.848632551251
 20
3660.179075225212
 30
0.0
  0
SPLINE
  5
137
330
1F
100
AcDbEntity
  8
0
  6
Continuous
 62
     7
370
    25
100
AcDbSpline
210
0.0
220
0.0
230
1.0
 70
     8
 71
     3
 72
    10
 73
     6
 74
     0
 42
0.00000001
 43
0.00000001
 40
0.0
 40
0.0
 40
0.0
 40
0.0
 40
0.0682221391123675
 40
0.3411110455799781
 40
1.0
 40
1.0
 40
1.0
 40
1.0
 10
5824.30335322268
 20
3886.553517872134
 30
0.0
 10
5823.40069261928
 20
3885.572204182065
 30
0.0
 10
5818.887384971119
 20
3880.665630697024
 30
0.0
 10
5805.662514409524
 20
3866.275418188016
 30
0.0
 10
5793.434607538393
 20
3852.781655597313
 30
0.0
 10
5784.787876261271
 20
3843.239798575608
 30
0.0
  0
SPLINE
  5
138
330
1F
100
AcDbEntity
  8
0
  6
Continuous
 62
     7
370
    25
100
AcDbSpline
210
0.0
220
0.0
230
1.0
 70
     8
 71
     3
 72
    46
 73
    42
 74
     0
 42
0.00000001
 43
0.00000001
 40
0.0
 40
0.0
 40
0.0
 40
0.0
 40
0.0293535237104486
 40
0.0587050603673095
 40
0.0848093511575267
 40
0.1110070634905431
 40
0.1372050078914166
 40
0.1633096162698049
 40
0.1894246233835911
 40
0.2156330944292425
 40
0.2418417234201796
 40
0.2679569466844886
 40
0.2940249717509076
 40
0.3201857957000924
 40
0.3463464162604712
 40
0.3724141629907901
 40
0.398455875469177
 40
0.4245903846848057
 40
0.4507246527651176
 40
0.4767660352503331
 40
0.5028672540738919
 40
0.5290621598386298
 40
0.5552572304456375
 40
0.5813586748606803
 40
0.607469330342796
 40
0.6336734047077213
 40
0.6598776734480705
 40
0.6859885949355388
 40
0.7120889590195822
 40
0.7382825662663202
 40
0.764476260332144
 40
0.7905767432287221
 40
0.8167082337686542
 40
0.8429332749566293
 40
0.8691579799573089
 40
0.8952890104177155
 40
0.9118204978168113
 40
0.9340111293634791
 40
0.9562303276192787
 40
0.9784207599195801
 40
1.0
 40
1.0
 40
1.0
 40
1.0
 10
6011.162915201507
 20
3699.693938654153
 30
0.0
 10
6014.160871252517
 20
3702.603291688441
 30
0.0
 10
6020.156580411293
 20
3708.421800811654
 30
0.0
 10
6027.775858247729
 20
3717.808033473007
 30
0.0
 10
6034.305899416187
 20
3727.423305516336
 30
0.0
 10
6039.772034850146
 20
3737.174044765149
 30
0.0
 10
6044.412666358037
 20
3747.341710847856
 30
0.0
 10
6048.180644274784
 20
3757.852905885786
 30
0.0
 10
6051.027598494845
 20
3768.651431047077
 30
0.0
 10
6052.960768214563
 20
3779.664684538409
 30
0.0
 10
6053.972160594271
 20
3790.800479057232
 30
0.0
 10
6054.04646316634
 20
3801.962595255859
 30
0.0
 10
6053.159132174732
 20
3813.082729617576
 30
0.0
 10
6051.344359060136
 20
3824.095435366209
 30
0.0
 10
6048.622717481921
 20
3834.919728150971
 30
0.0
 10
6045.009681068645
 20
3845.462826657523
 30
0.0
 10
6040.503030615027
 20
3855.651904927964
 30
0.0
 10
6035.155870636931
 20
3865.436092512039
 30
0.0
 10
6029.015430552638
 20
3874.742909765867
 30
0.0
 10
6022.119550629359
 20
3883.499609801275
 30
0.0
 10
6014.486459299681
 20
3891.63369847638
 30
0.0
 10
6006.181274632913
 20
3899.11186583433
 30
0.0
 10
5997.282586735511
 20
3905.872994636032
 30
0.0
 10
5987.857369505681
 20
3911.85739772583
 30
0.0
 10
5977.949036152893
 20
3917.005340739338
 30
0.0
 10
5967.630999810687
 20
3921.309386382327
 30
0.0
 10
5956.991005138174
 20
3924.741236937719
 30
0.0
 10
5946.114603001246
 20
3927.266567648075
 30
0.0
 10
5935.06234032051
 20
3928.843666859858
 30
0.0
 10
5923.905751400637
 20
3929.489483337942
 30
0.0
 10
5912.734051395136
 20
3929.206780940038
 30
0.0
 10
5901.633378044759
 20
3927.990080830205
 30
0.0
 10
5890.674623588519
 20
3925.819598290153
 30
0.0
 10
5879.920018560692
 20
3922.733467597324
 30
0.0
 10
5869.459265007477
 20
3918.764545980704
 30
0.0
 10
5860.61311139701
 20
3914.524419181377
 30
0.0
 10
5852.592143981419
 20
3909.963720620774
 30
0.0
 10
5845.331734861281
 20
3905.215009913623
 30
0.0
 10
5837.798357048478
 20
3899.46359543972
 30
0.0
 10
5830.724549787148
 20
3893.277639736727
 30
0.0
 10
5826.423733456255
 20
3888.773928810607
 30
0.0
 10
5824.30335322268
 20
3886.553517872134
 30
0.0
  0
LINE
  5
139
330
1F
100
AcDbEntity
  8
0
  6
Continuous
 62
     7
370
    25
100
AcDbLine
 10
5824.3033532227
 20
3886.5535178721
 30
0.0
 11
5822.8475677033
 21
3887.893043473
 31
0.0
  0
LINE
  5
13A
330
1F
100
AcDbEntity
  8
0
  6
Continuous
 62
     7
370
    25
100
AcDbLine
 10
6011.1629152015
 20
3699.6939386542
 30
0.0
 11
6012.502426841
 21
3698.2380657098
 31
0.0
  0
LINE
  5
13B
330
1F
100
AcDbEntity
  8
0
  6
Continuous
 62
     7
370
    25
100
AcDbLine
 10
5783.3760870584
 20
3844.5252408119
 30
0.0
 11
5784.7878762613
 21
3843.2397985756
 31
0.0
  0
LINE
  5
13C
330
1F
100
AcDbEntity
  8
0
  6
Continuous
 62
     7
370
    25
100
AcDbLine
 10
5969.1338479245
 20
3658.767544553
 30
0.0
 11
5967.8486325513
 21
3660.1790752252
 31
0.0
  0
SPLINE
  5
13D
330
1F
100
AcDbEntity
  8
0
  6
Continuous
 62
     7
370
    25
100
AcDbSpline
210
0.0
220
0.0
230
1.0
 70
     8
 71
     3
 72
    27
 73
    23
 74
     0
 42
0.00000001
 43
0.00000001
 40
0.0
 40
0.0
 40
0.0
 40
0.0
 40
0.0384361532397112
 40
0.0768723064794222
 40
0.1305609362687748
 40
0.1842495660581282
 40
0.2379381958474785
 40
0.2916268256368287
 40
0.3453154554261841
 40
0.3990040852155399
 40
0.4526927150048924
 40
0.5063813447942449
 40
0.5600699745835965
 40
0.6137586043729488
 40
0.6674472341623006
 40
0.7211358639516521
 40
0.7748244937410028
 40
0.8285131235303541
 40
0.8822017533197053
 40
0.9358903831090576
 40
0.967945191554528
 40
1.0
 40
1.0
 40
1.0
 40
1.0
 10
5897.191869430903
 20
3825.615674218437
 30
0.0
 10
5896.162901242114
 20
3824.51126761725
 30
0.0
 10
5894.104964864538
 20
3822.302454414876
 30
0.0
 10
5891.208632290914
 20
3818.057180606413
 30
0.0
 10
5888.657881053301
 20
3812.910888519444
 30
0.0
 10
5886.829077194744
 20
3806.830674830597
 30
0.0
 10
5886.064902915975
 20
3800.529576345364
 30
0.0
 10
5886.348327813981
 20
3794.187875868603
 30
0.0
 10
5887.71386120724
 20
3787.988687082822
 30
0.0
 10
5890.08019735641
 20
3782.098335131492
 30
0.0
 10
5893.420778486938
 20
3776.700541791043
 30
0.0
 10
5897.603428548159
 20
3771.925477230307
 30
0.0
 10
5902.54238219262
 20
3767.937679890361
 30
0.0
 10
5908.06979515567
 20
3764.816247451921
 30
0.0
 10
5914.050297575659
 20
3762.688030009801
 30
0.0
 10
5920.299265225803
 20
3761.572195106817
 30
0.0
 10
5926.647191651937
 20
3761.543317600619
 30
0.0
 10
5932.912698575286
 20
3762.559555907223
 30
0.0
 10
5938.914203803038
 20
3764.630759377964
 30
0.0
 10
5943.735028620414
 20
3767.265140742723
 30
0.0
 10
5947.478027339898
 20
3769.992812963577
 30
0.0
 10
5949.309261126563
 20
3771.719381407489
 30
0.0
 10
5950.224878019894
 20
3772.582665629446
 30
0.0
  0
SPLINE
  5
13E
330
1F
100
AcDbEntity
  8
0
  6
Continuous
 62
     7
370
    25
100
AcDbSpline
210
0.0
220
0.0
230
1.0
 70
     8
 71
     3
 72
    27
 73
    23
 74
     0
 42
0.00000001
 43
0.00000001
 40
0.0
 40
0.0
 40
0.0
 40
0.0
 40
0.0433397026155067
 40
0.0970285688381099
 40
0.150717435060713
 40
0.204406301283316
 40
0.2580951675059188
 40
0.3117840337285165
 40
0.3654728999511164
 40
0.419161766173715
 40
0.4728506323963143
 40
0.4999980953093012
 40
0.5399106072556723
 40
0.5935994734782734
 40
0.6472883397008741
 40
0.7009772059234757
 40
0.754666072146077
 40
0.8083549383686777
 40
0.8620438045912782
 40
0.9157326708138782
 40
0.9694215370364773
 40
1.0
 40
1.0
 40
1.0
 40
1.0
 10
5950.224878019894
 20
3772.582665629446
 30
0.0
 10
5951.380089736183
 20
3773.833367005449
 30
0.0
 10
5953.966368200782
 20
3776.63342693281
 30
0.0
 10
5957.103790098293
 20
3781.691049027206
 30
0.0
 10
5959.573806213415
 20
3787.532607343969
 30
0.0
 10
5960.992521648429
 20
3793.721948278957
 30
0.0
 10
5961.377910265723
 20
3800.057394337532
 30
0.0
 10
5960.671142252777
 20
3806.365971840573
 30
0.0
 10
5958.936696940453
 20
3812.472337652531
 30
0.0
 10
5956.182548732057
 20
3818.191079830635
 30
0.0
 10
5953.125112436058
 20
3822.5248789144
 30
0.0
 10
5949.917380834743
 20
3826.015921289337
 30
0.0
 10
5946.357029360424
 20
3829.158973442977
 30
0.0
 10
5941.482937149418
 20
3832.312672560568
 30
0.0
 10
5935.657954632966
 20
3834.835528121831
 30
0.0
 10
5929.487047162392
 20
3836.323639116881
 30
0.0
 10
5923.155214899409
 20
3836.77683902195
 30
0.0
 10
5916.840192141396
 20
3836.137801432967
 30
0.0
 10
5910.713250095422
 20
3834.47160173664
 30
0.0
 10
5904.973494061797
 20
3831.77087396148
 30
0.0
 10
5900.469241881107
 20
3828.710758272498
 30
0.0
 10
5898.064491842316
 20
3826.439761120923
 30
0.0
 10
5897.191869430903
 20
3825.615674218437
 30
0.0
  0
LINE
  5
13F
330
1F
100
AcDbEntity
  8
0
  6
Continuous
 62
     7
370
    25
100
AcDbLine
 10
5897.1918694309
 20
3825.6156742184
 30
0.0
 11
5950.2248780199
 21
3772.5826656294
 31
0.0
  0
LINE
  5
140
330
1F
100
AcDbEntity
  8
0
  6
Continuous
 62
     7
370
    25
100
AcDbLine
 10
6380.7193582164
 20
4134.5846407094
 30
0.0
 11
6380.7193582164
 21
4133.4101544149
 31
0.0
  0
LINE
  5
141
330
1F
100
AcDbEntity
  8
0
  6
Continuous
 62
     7
370
    25
100
AcDbLine
 10
6380.7193582164
 20
4137.2101544149
 30
0.0
 11
6380.7193582164
 21
4134.5846407094
 31
0.0
  0
LINE
  5
142
330
1F
100
AcDbEntity
  8
0
  6
Continuous
 62
     7
370
    25
100
AcDbLine
 10
6378.8993582164
 20
4133.8591270039
 30
0.0
 11
6378.8993582164
 21
4131.5101544149
 31
0.0
  0
LINE
  5
143
330
1F
100
AcDbEntity
  8
0
  6
Continuous
 62
     7
370
    25
100
AcDbLine
 10
6378.8993582164
 20
4139.1101544149
 30
0.0
 11
6378.8993582164
 21
4133.8591270039
 31
0.0
  0
LINE
  5
144
330
1F
100
AcDbEntity
  8
0
  6
Continuous
 62
     7
370
    25
100
AcDbLine
 10
6378.8993582164
 20
4295.8591270039
 30
0.0
 11
6378.8993582164
 21
4293.5101544149
 31
0.0
  0
LINE
  5
145
330
1F
100
AcDbEntity
  8
0
  6
Continuous
 62
     7
370
    25
100
AcDbLine
 10
6378.8993582164
 20
4301.1101544149
 30
0.0
 11
6378.8993582164
 21
4295.8591270039
 31
0.0
  0
LINE
  5
146
330
1F
100
AcDbEntity
  8
0
  6
Continuous
 62
     7
370
    25
100
AcDbLine
 10
6380.7193582164
 20
4296.5846407094
 30
0.0
 11
6380.7193582164
 21
4295.4101544149
 31
0.0
  0
LINE
  5
147
330
1F
100
AcDbEntity
  8
0
  6
Continuous
 62
     7
370
    25
100
AcDbLine
 10
6380.7193582164
 20
4299.2101544149
 30
0.0
 11
6380.7193582164
 21
4296.5846407094
 31
0.0
  0
LINE
  5
148
330
1F
100
AcDbEntity
  8
0
  6
Continuous
 62
     7
370
    25
100
AcDbLine
 10
6378.8193582164
 20
4139.8101544149
 30
0.0
 11
6378.8193582164
 21
4167.8101544149
 31
0.0
  0
LINE
  5
149
330
1F
100
AcDbEntity
  8
0
  6
Continuous
 62
     7
370
    25
100
AcDbLine
 10
6380.3193582164
 20
4166.3101544149
 30
0.0
 11
6380.3193582164
 21
4141.3101544149
 31
0.0
  0
CIRCLE
  5
14A
330
1F
100
AcDbEntity
  8
0
  6
Continuous
 62
     7
370
    25
100
AcDbCircle
 10
6340.9193582164
 20
4216.3101544149
 30
0.0
 40
22.50000000000058
  0
LWPOLYLINE
  5
14B
330
1F
100
AcDbEntity
  8
0
  6
Continuous
 62
     7
370
    25
100
AcDbPolyline
 90
       20
 70
   128
 43
0.0
 10
6331.4890183289
 20
4206.8798145274
 10
6332.1741904163
 20
4206.0113167751
 10
6332.6017878117
 20
4205.0536085655
 10
6332.7254737024
 20
4204.1104724436
 10
6332.5318448028
 20
4203.2841118423
 10
6332.0418838089
 20
4202.6640757552
 10
6331.3086855968
 20
4202.3175547131
 10
6330.4117035694
 20
4202.2820996478
 10
6329.4481396477
 20
4202.5615526657
 10
6328.5224109337
 20
4203.1256306963
 10
6327.7348344977
 20
4203.9132071322
 10
6327.1707564672
 20
4204.8389358462
 10
6326.8913034493
 20
4205.802499768
 10
6326.9267585146
 20
4206.6994817953
 10
6327.2732795566
 20
4207.4326800075
 10
6327.8933156438
 20
4207.9226410014
 10
6328.719676245
 20
4208.1162699009
 10
6329.662812367
 20
4207.9925840102
 10
6330.6205205766
 20
4207.5649866149
 10
6331.4890183289
 20
4206.8798145274
  0
LWPOLYLINE
  5
14C
330
1F
100
AcDbEntity
  8
0
  6
Continuous
 62
     7
370
    25
100
AcDbPolyline
 90
       17
 70
   128
 43
0.0
 10
6331.4890183289
 20
4206.8798145274
 10
6330.7173726193
 20
4207.4611590682
 10
6329.8729018054
 20
4207.7636980039
 10
6329.0841689132
 20
4207.741372524
 10
6328.4712513759
 20
4207.3975814804
 10
6328.1274603323
 20
4206.7846639431
 10
6328.1051348524
 20
4205.9959310509
 10
6328.4076737881
 20
4205.151460237
 10
6328.9890183289
 20
4204.3798145274
 10
6329.7606640384
 20
4203.7984699866
 10
6330.6051348524
 20
4203.4959310509
 10
6331.3938677445
 20
4203.5182565309
 10
6332.0067852818
 20
4203.8620475744
 10
6332.3505763254
 20
4204.4749651118
 10
6332.3729018054
 20
4205.2636980039
 10
6332.0703628697
 20
4206.1081688179
 10
6331.4890183289
 20
4206.8798145274
  0
LINE
  5
14D
330
1F
100
AcDbEntity
  8
0
  6
Continuous
 62
     8
370
    25
100
AcDbLine
 10
5776.2782732009
 20
3905.5184582066
 30
0.0
 11
5777.6924867001
 21
3904.1042447075
 31
0.0
  0
LINE
  5
14E
330
1F
100
AcDbEntity
  8
0
  6
Continuous
 62
     8
370
    25
100
AcDbLine
 10
6030.1276620298
 20
3651.6690693785
 30
0.0
 11
6028.7134485093
 21
3653.0832828989
 31
0.0
  0
LINE
  5
14F
330
1F
100
AcDbEntity
  8
0
  6
Continuous
 62
     8
370
    25
100
AcDbLine
 10
5745.9069296776
 20
3869.2647318206
 30
0.0
 11
5747.5470400985
 21
3868.120163003
 31
0.0
  0
LINE
  5
150
330
1F
100
AcDbEntity
  8
0
  6
Continuous
 62
     8
370
    25
100
AcDbLine
 10
5704.392074635
 20
3780.9611373908
 30
0.0
 11
5706.3200793916
 21
3780.4293513904
 31
0.0
  0
LINE
  5
151
330
1F
100
AcDbEntity
  8
0
  6
Continuous
 62
     8
370
    25
100
AcDbLine
 10
5905.570337613
 20
3579.7828838294
 30
0.0
 11
5905.0385551968
 21
3581.7108755915
 31
0.0
  0
LINE
  5
152
330
1F
100
AcDbEntity
  8
0
  6
Continuous
 62
     8
370
    25
100
AcDbLine
 10
5993.8739356098
 20
3621.297725894
 30
0.0
 11
5992.7293668045
 21
3622.9378362971
 31
0.0
  0
ENDSEC
  0
SECTION
  2
OBJECTS
  0
DICTIONARY
  5
C
330
0
100
AcDbDictionary
281
     1
  3
ACAD_GROUP
350
D
  3
ACAD_LAYOUT
350
1A
  3
ACAD_MLINESTYLE
350
17
  3
ACAD_PLOTSETTINGS
350
19
  3
ACAD_PLOTSTYLENAME
350
E
  3
ACAD_SCALELIST
350
47
  3
DWGPROPS
350
153
  0
DICTIONARY
  5
D
102
{ACAD_REACTORS
330
C
102
}
330
C
100
AcDbDictionary
281
     1
  0
DICTIONARY
  5
1A
102
{ACAD_REACTORS
330
C
102
}
330
C
100
AcDbDictionary
281
     1
  3
Layout1
350
1E
  3
Layout2
350
26
  3
Model
350
22
  0
DICTIONARY
  5
17
102
{ACAD_REACTORS
330
C
102
}
330
C
100
AcDbDictionary
281
     1
  3
Standard
350
18
  0
DICTIONARY
  5
19
102
{ACAD_REACTORS
330
C
102
}
330
C
100
AcDbDictionary
281
     1
  0
ACDBDICTIONARYWDFLT
  5
E
102
{ACAD_REACTORS
330
C
102
}
330
C
100
AcDbDictionary
281
     1
  3
Normal
350
F
100
AcDbDictionaryWithDefault
340
F
  0
DICTIONARY
  5
47
102
{ACAD_REACTORS
330
C
102
}
330
C
100
AcDbDictionary
281
     1
  3
A0
350
48
  3
A1
350
49
  3
A2
350
4A
  3
A3
350
4B
  3
A4
350
4C
  3
A5
350
4D
  3
A6
350
4E
  3
A7
350
4F
  3
A8
350
50
  3
A9
350
51
  3
B0
350
52
  3
B1
350
53
  3
B2
350
54
  3
B3
350
55
  3
B4
350
56
  3
B5
350
57
  3
B6
350
58
  3
B7
350
59
  3
B8
350
5A
  3
B9
350
5B
  3
C0
350
5C
  3
C1
350
5D
  3
C2
350
5E
  3
C3
350
5F
  3
C4
350
60
  3
C5
350
61
  3
C6
350
62
  3
C7
350
63
  3
C8
350
64
  3
C9
350
65
  3
D0
350
66
  3
D1
350
67
  3
D2
350
68
  0
XRECORD
  5
153
102
{ACAD_REACTORS
330
C
102
}
330
C
100
AcDbXrecord
280
     1
  1
DWGPROPS COOKIE
  2

  3

  4

  6

  7

  8
radek.stransky
  9

300
=
301
=
302
=
303
=
304
=
305
=
306
=
307
=
308
=
309
=
 40
0.0
 41
2460286.322937824
 42
2460286.322939549
  1

 90
        0
  0
LAYOUT
  5
1E
102
{ACAD_REACTORS
330
1A
102
}
330
1A
100
AcDbPlotSettings
  1

  2
none_device
  4

  6

 40
0.0
 41
0.0
 42
0.0
 43
0.0
 44
0.0
 45
0.0
 46
0.0
 47
0.0
 48
0.0
 49
0.0
140
0.0
141
0.0
142
1.0
143
1.0
 70
   688
 72
     1
 73
     0
 74
     5
  7

 75
    16
147
1.0
148
0.0
149
0.0
100
AcDbLayout
  1
Layout1
 70
     1
 71
     1
 10
0.0
 20
0.0
 11
420.0
 21
297.0
 12
0.0
 22
0.0
 32
0.0
 14
1.0000000000E+20
 24
1.0000000000E+20
 34
1.0000000000E+20
 15
-1.0000000000E+20
 25
-1.0000000000E+20
 35
-1.0000000000E+20
146
0.0
 13
0.0
 23
0.0
 33
0.0
 16
1.0
 26
0.0
 36
0.0
 17
0.0
 27
1.0
 37
0.0
 76
     0
330
1B
  0
LAYOUT
  5
26
102
{ACAD_REACTORS
330
1A
102
}
330
1A
100
AcDbPlotSettings
  1

  2
none_device
  4

  6

 40
0.0
 41
0.0
 42
0.0
 43
0.0
 44
0.0
 45
0.0
 46
0.0
 47
0.0
 48
0.0
 49
0.0
140
0.0
141
0.0
142
1.0
143
1.0
 70
   688
 72
     1
 73
     0
 74
     5
  7

 75
    16
147
1.0
148
0.0
149
0.0
100
AcDbLayout
  1
Layout2
 70
     1
 71
     2
 10
0.0
 20
0.0
 11
0.0
 21
0.0
 12
0.0
 22
0.0
 32
0.0
 14
0.0
 24
0.0
 34
0.0
 15
0.0
 25
0.0
 35
0.0
146
0.0
 13
0.0
 23
0.0
 33
0.0
 16
1.0
 26
0.0
 36
0.0
 17
0.0
 27
1.0
 37
0.0
 76
     0
330
23
  0
LAYOUT
  5
22
102
{ACAD_REACTORS
330
1A
102
}
330
1A
100
AcDbPlotSettings
  1

  2
none_device
  4
Letter_(8.50_x_11.00_Inches)
  6

 40
6.35
 41
6.35
 42
6.35000508
 43
6.35000508
 44
215.9
 45
279.4
 46
0.0
 47
0.0
 48
0.0
 49
0.0
140
0.0
141
0.0
142
1.0
143
1.0
 70
  1712
 72
     1
 73
     0
 74
     0
  7

 75
     0
147
1.0
148
0.0
149
0.0
100
AcDbLayout
  1
Model
 70
     1
 71
     0
 10
0.0
 20
0.0
 11
20000.0
 21
10000.0
 12
0.0
 22
0.0
 32
0.0
 14
0.0
 24
0.0
 34
0.0
 15
20000.0
 25
10000.0
 35
0.0
146
0.0
 13
0.0
 23
0.0
 33
0.0
 16
1.0
 26
0.0
 36
0.0
 17
0.0
 27
1.0
 37
0.0
 76
     0
330
1F
331
29
  0
MLINESTYLE
  5
18
102
{ACAD_REACTORS
330
17
102
}
330
17
100
AcDbMlineStyle
  2
Standard
 70
     0
  3

 62
   256
 51
90.0
 52
90.0
 71
     2
 49
0.5
 62
   256
  6
BYLAYER
 49
-0.5
 62
   256
  6
BYLAYER
  0
ACDBPLACEHOLDER
  5
F
102
{ACAD_REACTORS
330
E
102
}
330
E
  0
SCALE
  5
48
102
{ACAD_REACTORS
330
47
102
}
330
47
100
AcDbScale
 70
     0
300
1:1
140
1.0
141
1.0
290
     1
  0
SCALE
  5
49
102
{ACAD_REACTORS
330
47
102
}
330
47
100
AcDbScale
 70
     0
300
1:2
140
1.0
141
2.0
290
     0
  0
SCALE
  5
4A
102
{ACAD_REACTORS
330
47
102
}
330
47
100
AcDbScale
 70
     0
300
1:4
140
1.0
141
4.0
290
     0
  0
SCALE
  5
4B
102
{ACAD_REACTORS
330
47
102
}
330
47
100
AcDbScale
 70
     0
300
1:5
140
1.0
141
5.0
290
     0
  0
SCALE
  5
4C
102
{ACAD_REACTORS
330
47
102
}
330
47
100
AcDbScale
 70
     0
300
1:8
140
1.0
141
8.0
290
     0
  0
SCALE
  5
4D
102
{ACAD_REACTORS
330
47
102
}
330
47
100
AcDbScale
 70
     0
300
1:10
140
1.0
141
10.0
290
     0
  0
SCALE
  5
4E
102
{ACAD_REACTORS
330
47
102
}
330
47
100
AcDbScale
 70
     0
300
1:16
140
1.0
141
16.0
290
     0
  0
SCALE
  5
4F
102
{ACAD_REACTORS
330
47
102
}
330
47
100
AcDbScale
 70
     0
300
1:20
140
1.0
141
20.0
290
     0
  0
SCALE
  5
50
102
{ACAD_REACTORS
330
47
102
}
330
47
100
AcDbScale
 70
     0
300
1:30
140
1.0
141
30.0
290
     0
  0
SCALE
  5
51
102
{ACAD_REACTORS
330
47
102
}
330
47
100
AcDbScale
 70
     0
300
1:40
140
1.0
141
40.0
290
     0
  0
SCALE
  5
52
102
{ACAD_REACTORS
330
47
102
}
330
47
100
AcDbScale
 70
     0
300
1:50
140
1.0
141
50.0
290
     0
  0
SCALE
  5
53
102
{ACAD_REACTORS
330
47
102
}
330
47
100
AcDbScale
 70
     0
300
1:100
140
1.0
141
100.0
290
     0
  0
SCALE
  5
54
102
{ACAD_REACTORS
330
47
102
}
330
47
100
AcDbScale
 70
     0
300
2:1
140
2.0
141
1.0
290
     0
  0
SCALE
  5
55
102
{ACAD_REACTORS
330
47
102
}
330
47
100
AcDbScale
 70
     0
300
4:1
140
4.0
141
1.0
290
     0
  0
SCALE
  5
56
102
{ACAD_REACTORS
330
47
102
}
330
47
100
AcDbScale
 70
     0
300
8:1
140
8.0
141
1.0
290
     0
  0
SCALE
  5
57
102
{ACAD_REACTORS
330
47
102
}
330
47
100
AcDbScale
 70
     0
300
10:1
140
10.0
141
1.0
290
     0
  0
SCALE
  5
58
102
{ACAD_REACTORS
330
47
102
}
330
47
100
AcDbScale
 70
     0
300
100:1
140
100.0
141
1.0
290
     0
  0
SCALE
  5
59
102
{ACAD_REACTORS
330
47
102
}
330
47
100
AcDbScale
 70
     0
300
1/128" = 1'-0"
140
0.0078125
141
12.0
290
     0
  0
SCALE
  5
5A
102
{ACAD_REACTORS
330
47
102
}
330
47
100
AcDbScale
 70
     0
300
1/64" = 1'-0"
140
0.015625
141
12.0
290
     0
  0
SCALE
  5
5B
102
{ACAD_REACTORS
330
47
102
}
330
47
100
AcDbScale
 70
     0
300
1/32" = 1'-0"
140
0.03125
141
12.0
290
     0
  0
SCALE
  5
5C
102
{ACAD_REACTORS
330
47
102
}
330
47
100
AcDbScale
 70
     0
300
1/16" = 1'-0"
140
0.0625
141
12.0
290
     0
  0
SCALE
  5
5D
102
{ACAD_REACTORS
330
47
102
}
330
47
100
AcDbScale
 70
     0
300
3/32" = 1'-0"
140
0.09375
141
12.0
290
     0
  0
SCALE
  5
5E
102
{ACAD_REACTORS
330
47
102
}
330
47
100
AcDbScale
 70
     0
300
1/8" = 1'-0"
140
0.125
141
12.0
290
     0
  0
SCALE
  5
5F
102
{ACAD_REACTORS
330
47
102
}
330
47
100
AcDbScale
 70
     0
300
3/16" = 1'-0"
140
0.1875
141
12.0
290
     0
  0
SCALE
  5
60
102
{ACAD_REACTORS
330
47
102
}
330
47
100
AcDbScale
 70
     0
300
1/4" = 1'-0"
140
0.25
141
12.0
290
     0
  0
SCALE
  5
61
102
{ACAD_REACTORS
330
47
102
}
330
47
100
AcDbScale
 70
     0
300
3/8" = 1'-0"
140
0.375
141
12.0
290
     0
  0
SCALE
  5
62
102
{ACAD_REACTORS
330
47
102
}
330
47
100
AcDbScale
 70
     0
300
1/2" = 1'-0"
140
0.5
141
12.0
290
     0
  0
SCALE
  5
63
102
{ACAD_REACTORS
330
47
102
}
330
47
100
AcDbScale
 70
     0
300
3/4" = 1'-0"
140
0.75
141
12.0
290
     0
  0
SCALE
  5
64
102
{ACAD_REACTORS
330
47
102
}
330
47
100
AcDbScale
 70
     0
300
1" = 1'-0"
140
1.0
141
12.0
290
     0
  0
SCALE
  5
65
102
{ACAD_REACTORS
330
47
102
}
330
47
100
AcDbScale
 70
     0
300
1-1/2" = 1'-0"
140
1.5
141
12.0
290
     0
  0
SCALE
  5
66
102
{ACAD_REACTORS
330
47
102
}
330
47
100
AcDbScale
 70
     0
300
3" = 1'-0"
140
3.0
141
12.0
290
     0
  0
SCALE
  5
67
102
{ACAD_REACTORS
330
47
102
}
330
47
100
AcDbScale
 70
     0
300
6" = 1'-0"
140
6.0
141
12.0
290
     0
  0
SCALE
  5
68
102
{ACAD_REACTORS
330
47
102
}
330
47
100
AcDbScale
 70
     0
300
1'-0" = 1'-0"
140
12.0
141
12.0
290
     0
  0
ENDSEC
  0
EOF
