  0
SECTION
  2
HEADER
  9
$ACADVER
  1
AC1015
  9
$ACADMAINTVER
 70
     6
  9
$DWGCODEPAGE
  3
ANSI_1250
  9
$INSBASE
 10
0.0
 20
0.0
 30
0.0
  9
$EXTMIN
 10
0.0
 20
0.0
 30
0.0
  9
$EXTMAX
 10
20000.0
 20
10000.0
 30
0.0
  9
$LIMMIN
 10
0.0
 20
0.0
  9
$LIMMAX
 10
20000.0
 20
10000.0
  9
$ORTHOMODE
 70
     0
  9
$REGENMODE
 70
     1
  9
$FILLMODE
 70
     1
  9
$QTEXTMODE
 70
     0
  9
$MIRRTEXT
 70
     1
  9
$LTSCALE
 40
1.0
  9
$ATTMODE
 70
     1
  9
$TEXTSIZE
 40
2.0
  9
$TRACEWID
 40
1.0
  9
$TEXTSTYLE
  7
Standard
  9
$CLAYER
  8
0
  9
$CELTYPE
  6
ByLayer
  9
$CECOLOR
 62
   256
  9
$CELTSCALE
 40
1.0
  9
$DISPSILH
 70
     0
  9
$DIMSCALE
 40
1.0
  9
$DIMASZ
 40
2.0
  9
$DIMEXO
 40
1.0
  9
$DIMDLI
 40
3.75
  9
$DIMRND
 40
0.0
  9
$DIMDLE
 40
0.0
  9
$DIMEXE
 40
1.0
  9
$DIMTP
 40
0.0
  9
$DIMTM
 40
0.0
  9
$DIMTXT
 40
2.0
  9
$DIMCEN
 40
2.5
  9
$DIMTSZ
 40
0.0
  9
$DIMTOL
 70
     0
  9
$DIMLIM
 70
     0
  9
$DIMTIH
 70
     1
  9
$DIMTOH
 70
     1
  9
$DIMSE1
 70
     0
  9
$DIMSE2
 70
     0
  9
$DIMTAD
 70
     1
  9
$DIMZIN
 70
     0
  9
$DIMBLK
  1

  9
$DIMASO
 70
     1
  9
$DIMSHO
 70
     1
  9
$DIMPOST
  1

  9
$DIMAPOST
  1

  9
$DIMALT
 70
     0
  9
$DIMALTD
 70
     3
  9
$DIMALTF
 40
0.0393700787
  9
$DIMLFAC
 40
1.0
  9
$DIMTOFL
 70
     1
  9
$DIMTVP
 40
0.0
  9
$DIMTIX
 70
     0
  9
$DIMSOXD
 70
     0
  9
$DIMSAH
 70
     0
  9
$DIMBLK1
  1

  9
$DIMBLK2
  1

  9
$DIMSTYLE
  2
ISO-25
  9
$DIMCLRD
 70
     0
  9
$DIMCLRE
 70
     0
  9
$DIMCLRT
 70
     0
  9
$DIMTFAC
 40
1.0
  9
$DIMGAP
 40
1.524
  9
$DIMJUST
 70
     0
  9
$DIMSD1
 70
     0
  9
$DIMSD2
 70
     0
  9
$DIMTOLJ
 70
     0
  9
$DIMTZIN
 70
     0
  9
$DIMALTZ
 70
     0
  9
$DIMALTTZ
 70
     0
  9
$DIMUPT
 70
     0
  9
$DIMDEC
 70
     2
  9
$DIMTDEC
 70
     0
  9
$DIMALTU
 70
     2
  9
$DIMALTTD
 70
     3
  9
$DIMTXSTY
  7
Standard
  9
$DIMAUNIT
 70
     0
  9
$DIMADEC
 70
     2
  9
$DIMALTRND
 40
0.0
  9
$DIMAZIN
 70
     0
  9
$DIMDSEP
 70
    44
  9
$DIMATFIT
 70
     3
  9
$DIMFRAC
 70
     0
  9
$DIMLDRBLK
  1

  9
$DIMLUNIT
 70
     2
  9
$DIMLWD
 70
    -2
  9
$DIMLWE
 70
    -2
  9
$DIMTMOVE
 70
     0
  9
$LUNITS
 70
     2
  9
$LUPREC
 70
     3
  9
$SKETCHINC
 40
1.0
  9
$FILLETRAD
 40
10.0
  9
$AUNITS
 70
     0
  9
$AUPREC
 70
     2
  9
$MENU
  1
.
  9
$ELEVATION
 40
0.0
  9
$PELEVATION
 40
0.0
  9
$THICKNESS
 40
0.0
  9
$LIMCHECK
 70
     0
  9
$CHAMFERA
 40
0.0
  9
$CHAMFERB
 40
0.0
  9
$CHAMFERC
 40
0.0
  9
$CHAMFERD
 40
0.0
  9
$SKPOLY
 70
     0
  9
$TDCREATE
 40
2458709.446535972
  9
$TDUCREATE
 40
2458709.363202639
  9
$TDUPDATE
 40
2458709.446536215
  9
$TDUUPDATE
 40
2458709.363202882
  9
$TDINDWG
 40
0.0000000116
  9
$TDUSRTIMER
 40
0.0000000116
  9
$USRTIMER
 70
     1
  9
$ANGBASE
 50
0.0
  9
$ANGDIR
 70
     0
  9
$PDMODE
 70
     0
  9
$PDSIZE
 40
-1.0
  9
$PLINEWID
 40
0.0
  9
$SPLFRAME
 70
     0
  9
$SPLINETYPE
 70
     6
  9
$SPLINESEGS
 70
     8
  9
$HANDSEED
  5
1E9
  9
$SURFTAB1
 70
     6
  9
$SURFTAB2
 70
     6
  9
$SURFTYPE
 70
     6
  9
$SURFU
 70
     6
  9
$SURFV
 70
     6
  9
$UCSBASE
  2

  9
$UCSNAME
  2

  9
$UCSORG
 10
0.0
 20
0.0
 30
0.0
  9
$UCSXDIR
 10
1.0
 20
0.0
 30
0.0
  9
$UCSYDIR
 10
0.0
 20
1.0
 30
0.0
  9
$UCSORTHOREF
  2

  9
$UCSORTHOVIEW
 70
     0
  9
$UCSORGTOP
 10
0.0
 20
0.0
 30
0.0
  9
$UCSORGBOTTOM
 10
0.0
 20
0.0
 30
0.0
  9
$UCSORGLEFT
 10
0.0
 20
0.0
 30
0.0
  9
$UCSORGRIGHT
 10
0.0
 20
0.0
 30
0.0
  9
$UCSORGFRONT
 10
0.0
 20
0.0
 30
0.0
  9
$UCSORGBACK
 10
0.0
 20
0.0
 30
0.0
  9
$PUCSBASE
  2

  9
$PUCSNAME
  2

  9
$PUCSORG
 10
0.0
 20
0.0
 30
0.0
  9
$PUCSXDIR
 10
1.0
 20
0.0
 30
0.0
  9
$PUCSYDIR
 10
0.0
 20
1.0
 30
0.0
  9
$PUCSORTHOREF
  2

  9
$PUCSORTHOVIEW
 70
     0
  9
$PUCSORGTOP
 10
0.0
 20
0.0
 30
0.0
  9
$PUCSORGBOTTOM
 10
0.0
 20
0.0
 30
0.0
  9
$PUCSORGLEFT
 10
0.0
 20
0.0
 30
0.0
  9
$PUCSORGRIGHT
 10
0.0
 20
0.0
 30
0.0
  9
$PUCSORGFRONT
 10
0.0
 20
0.0
 30
0.0
  9
$PUCSORGBACK
 10
0.0
 20
0.0
 30
0.0
  9
$USERI1
 70
     0
  9
$USERI2
 70
     0
  9
$USERI3
 70
     0
  9
$USERI4
 70
     0
  9
$USERI5
 70
     0
  9
$USERR1
 40
0.0
  9
$USERR2
 40
0.0
  9
$USERR3
 40
0.0
  9
$USERR4
 40
0.0
  9
$USERR5
 40
0.0
  9
$WORLDVIEW
 70
     1
  9
$SHADEDGE
 70
     3
  9
$SHADEDIF
 70
    70
  9
$TILEMODE
 70
     1
  9
$MAXACTVP
 70
    64
  9
$PINSBASE
 10
0.0
 20
0.0
 30
0.0
  9
$PLIMCHECK
 70
     0
  9
$PEXTMIN
 10
1.0000000000E+20
 20
1.0000000000E+20
 30
1.0000000000E+20
  9
$PEXTMAX
 10
-1.0000000000E+20
 20
-1.0000000000E+20
 30
-1.0000000000E+20
  9
$PLIMMIN
 10
0.0
 20
0.0
  9
$PLIMMAX
 10
420.0
 20
297.0
  9
$UNITMODE
 70
     0
  9
$VISRETAIN
 70
     1
  9
$PLINEGEN
 70
     0
  9
$PSLTSCALE
 70
     1
  9
$TREEDEPTH
 70
  3020
  9
$CMLSTYLE
  2
Standard
  9
$CMLJUST
 70
     0
  9
$CMLSCALE
 40
20.0
  9
$PROXYGRAPHICS
 70
     1
  9
$MEASUREMENT
 70
     1
  9
$CELWEIGHT
370
    -1
  9
$ENDCAPS
280
     0
  9
$JOINSTYLE
280
     0
  9
$LWDISPLAY
290
     1
  9
$INSUNITS
 70
     4
  9
$HYPERLINKBASE
  1

  9
$STYLESHEET
  1

  9
$XEDIT
290
     1
  9
$CEPSNTYPE
380
     0
  9
$PSTYLEMODE
290
     1
  9
$FINGERPRINTGUID
  2
{FCEFE1E2-760C-4600-9CD5-666AE92874DF}
  9
$VERSIONGUID
  2
{FAEB1C32-E019-11D5-929B-00C0DF256EC4}
  9
$EXTNAMES
290
     1
  9
$PSVPSCALE
 40
0.0
  9
$OLESTARTUP
290
     0
  0
ENDSEC
  0
SECTION
  2
CLASSES
  0
CLASS
  1
ACDBDICTIONARYWDFLT
  2
AcDbDictionaryWithDefault
  3
ObjectDBX Classes
 90
        0
280
     0
281
     0
  0
CLASS
  1
VISUALSTYLE
  2
AcDbVisualStyle
  3
ObjectDBX Classes
 90
     4095
280
     0
281
     0
  0
CLASS
  1
MATERIAL
  2
AcDbMaterial
  3
ObjectDBX Classes
 90
     1153
280
     0
281
     0
  0
CLASS
  1
SCALE
  2
AcDbScale
  3
ObjectDBX Classes
 90
     1153
280
     0
281
     0
  0
CLASS
  1
TABLESTYLE
  2
AcDbTableStyle
  3
ObjectDBX Classes
 90
     4095
280
     0
281
     0
  0
CLASS
  1
MLEADERSTYLE
  2
AcDbMLeaderStyle
  3
ACDB_MLEADERSTYLE_CLASS
 90
     4095
280
     0
281
     0
  0
CLASS
  1
SUN
  2
AcDbSun
  3
SCENEOE
 90
     1153
280
     0
281
     0
  0
CLASS
  1
ACDBPLACEHOLDER
  2
AcDbPlaceHolder
  3
ObjectDBX Classes
 90
        0
280
     0
281
     0
  0
CLASS
  1
LAYOUT
  2
AcDbLayout
  3
ObjectDBX Classes
 90
        0
280
     0
281
     0
  0
ENDSEC
  0
SECTION
  2
TABLES
  0
TABLE
  2
VPORT
  5
8
330
0
100
AcDbSymbolTable
 70
     1
  0
VPORT
  5
29
330
8
100
AcDbSymbolTableRecord
100
AcDbViewportTableRecord
  2
*Active
 70
     0
 10
0.0
 20
0.0
 11
1.0
 21
1.0
 12
10000.0
 22
5000.0
 13
0.0
 23
0.0
 14
10.0
 24
10.0
 15
10.0
 25
10.0
 16
0.0
 26
0.0
 36
1.0
 17
0.0
 27
0.0
 37
0.0
 40
10000.0
 41
2.0
 42
50.0
 43
0.0
 44
0.0
 50
0.0
 51
0.0
 71
     0
 72
  2000
 73
     1
 74
     3
 75
     0
 76
     0
 77
     0
 78
     0
281
     0
 65
     1
110
0.0
120
0.0
130
0.0
111
1.0
121
0.0
131
0.0
112
0.0
122
1.0
132
0.0
 79
     0
146
0.0
  0
ENDTAB
  0
TABLE
  2
LTYPE
  5
5
330
0
100
AcDbSymbolTable
 70
     6
  0
LTYPE
  5
14
330
5
100
AcDbSymbolTableRecord
100
AcDbLinetypeTableRecord
  2
ByBlock
 70
     0
  3

 72
    65
 73
     0
 40
0.0
  0
LTYPE
  5
15
330
5
100
AcDbSymbolTableRecord
100
AcDbLinetypeTableRecord
  2
ByLayer
 70
     0
  3

 72
    65
 73
     0
 40
0.0
  0
LTYPE
  5
16
330
5
100
AcDbSymbolTableRecord
100
AcDbLinetypeTableRecord
  2
Continuous
 70
     0
  3
Solid line
 72
    65
 73
     0
 40
0.0
  0
LTYPE
  5
6E
330
5
100
AcDbSymbolTableRecord
100
AcDbLinetypeTableRecord
  2
HIDDEN
 70
     0
  3
Hidden __ __ __ __ __ __ __ __ __ __ __ __ __ __
 72
    65
 73
     2
 40
1.905
 49
1.27
 74
     0
 49
-0.635
 74
     0
  0
LTYPE
  5
6F
330
5
100
AcDbSymbolTableRecord
100
AcDbLinetypeTableRecord
  2
PHANTOM
 70
     0
  3
Phantom ______  __  __  ______  __  __  ______
 72
    65
 73
     6
 40
12.7
 49
6.35
 74
     0
 49
-1.27
 74
     0
 49
1.27
 74
     0
 49
-1.27
 74
     0
 49
1.27
 74
     0
 49
-1.27
 74
     0
  0
LTYPE
  5
70
330
5
100
AcDbSymbolTableRecord
100
AcDbLinetypeTableRecord
  2
CENTER
 70
     0
  3
Center ____ _ ____ _ ____ _ ____ _ ____ _ ____
 72
    65
 73
     4
 40
10.16
 49
6.35
 74
     0
 49
-1.27
 74
     0
 49
1.27
 74
     0
 49
-1.27
 74
     0
  0
LTYPE
  5
71
330
5
100
AcDbSymbolTableRecord
100
AcDbLinetypeTableRecord
  2
CENTERX2
 70
     0
  3
Center (2x) ________  __  ________  __  _____
 72
    65
 73
     4
 40
20.32
 49
12.7
 74
     0
 49
-2.54
 74
     0
 49
2.54
 74
     0
 49
-2.54
 74
     0
  0
LTYPE
  5
72
330
5
100
AcDbSymbolTableRecord
100
AcDbLinetypeTableRecord
  2
DOT2
 70
     0
  3
Dot (.5x) ........................................
 72
    65
 73
     2
 40
0.635
 49
0.0
 74
     0
 49
-0.635
 74
     0
  0
ENDTAB
  0
TABLE
  2
LAYER
  5
2
330
0
100
AcDbSymbolTable
 70
    13
  0
LAYER
  5
10
330
2
100
AcDbSymbolTableRecord
100
AcDbLayerTableRecord
  2
0
 70
     0
 62
     7
  6
Continuous
370
    -3
390
F
  0
LAYER
  5
73
330
2
100
AcDbSymbolTableRecord
100
AcDbLayerTableRecord
  2
FORMAT
 70
     0
 62
     7
  6
Continuous
370
    -3
390
F
  0
LAYER
  5
74
330
2
100
AcDbSymbolTableRecord
100
AcDbLayerTableRecord
  2
OSA
 70
     0
 62
     7
  6
CENTER
370
    -3
390
F
  0
LAYER
  5
75
330
2
100
AcDbSymbolTableRecord
100
AcDbLayerTableRecord
  2
0_35
 70
     0
 62
     7
  6
Continuous
370
    35
390
F
  0
LAYER
  5
76
330
2
100
AcDbSymbolTableRecord
100
AcDbLayerTableRecord
  2
0_5
 70
     0
 62
     7
  6
Continuous
370
    50
390
F
  0
LAYER
  5
77
330
2
100
AcDbSymbolTableRecord
100
AcDbLayerTableRecord
  2
0_25
 70
     0
 62
     7
  6
Continuous
370
    25
390
F
  0
LAYER
  5
78
330
2
100
AcDbSymbolTableRecord
100
AcDbLayerTableRecord
  2
0_18
 70
     0
 62
     7
  6
Continuous
370
    -3
390
F
  0
LAYER
  5
79
330
2
100
AcDbSymbolTableRecord
100
AcDbLayerTableRecord
  2
SLD-0
 70
     0
 62
   179
  6
Continuous
370
    -3
390
F
  0
LAYER
  5
7A
330
2
100
AcDbSymbolTableRecord
100
AcDbLayerTableRecord
  2
KOTY
 70
     0
 62
     7
  6
Continuous
370
    -3
390
F
  0
LAYER
  5
7B
330
2
100
AcDbSymbolTableRecord
100
AcDbLayerTableRecord
  2
SILNA
 70
     0
 62
   179
  6
Continuous
370
    -3
390
F
  0
LAYER
  5
7C
330
2
100
AcDbSymbolTableRecord
100
AcDbLayerTableRecord
  2
0_18_1
 70
     0
 62
   179
  6
Continuous
370
    -3
390
F
  0
LAYER
  5
7D
330
2
100
AcDbSymbolTableRecord
100
AcDbLayerTableRecord
  2
0_35_1
 70
     0
 62
   179
  6
Continuous
370
    35
390
F
  0
LAYER
  5
7E
330
2
100
AcDbSymbolTableRecord
100
AcDbLayerTableRecord
  2
0_5_1
 70
     0
 62
   179
  6
Continuous
370
    50
390
F
  0
ENDTAB
  0
TABLE
  2
STYLE
  5
3
330
0
100
AcDbSymbolTable
 70
     1
  0
STYLE
  5
11
330
3
100
AcDbSymbolTableRecord
100
AcDbTextStyleTableRecord
  2
Standard
 70
     0
 40
0.0
 41
1.0
 50
0.0
 71
     0
 42
2.0
  3
txt
  4

  0
ENDTAB
  0
TABLE
  2
VIEW
  5
6
330
0
100
AcDbSymbolTable
 70
     0
  0
ENDTAB
  0
TABLE
  2
UCS
  5
7
330
0
100
AcDbSymbolTable
 70
     0
  0
ENDTAB
  0
TABLE
  2
APPID
  5
9
330
0
100
AcDbSymbolTable
 70
     1
  0
APPID
  5
12
330
9
100
AcDbSymbolTableRecord
100
AcDbRegAppTableRecord
  2
ACAD
 70
     0
  0
ENDTAB
  0
TABLE
  2
DIMSTYLE
  5
A
330
0
100
AcDbSymbolTable
 70
     1
100
AcDbDimStyleTable
  0
DIMSTYLE
105
27
330
A
100
AcDbSymbolTableRecord
100
AcDbDimStyleTableRecord
  2
ISO-25
 70
     0
 41
2.5
 42
0.625
 43
3.75
 44
1.25
 73
     0
 74
     0
 77
     1
 78
     8
140
2.5
141
2.5
143
0.0393700787
147
0.625
171
     3
172
     1
178
     0
271
     2
272
     2
274
     3
278
    44
283
     0
284
     8
340
11
  0
ENDTAB
  0
TABLE
  2
BLOCK_RECORD
  5
1
330
0
100
AcDbSymbolTable
 70
     1
  0
BLOCK_RECORD
  5
1F
330
1
100
AcDbSymbolTableRecord
100
AcDbBlockTableRecord
  2
*Model_Space
340
22
  0
BLOCK_RECORD
  5
1B
330
1
100
AcDbSymbolTableRecord
100
AcDbBlockTableRecord
  2
*Paper_Space
340
1E
  0
BLOCK_RECORD
  5
23
330
1
100
AcDbSymbolTableRecord
100
AcDbBlockTableRecord
  2
*Paper_Space0
340
26
  0
ENDTAB
  0
ENDSEC
  0
SECTION
  2
BLOCKS
  0
BLOCK
  5
20
330
1F
100
AcDbEntity
  8
0
100
AcDbBlockBegin
  2
*Model_Space
 70
     0
 10
0.0
 20
0.0
 30
0.0
  3
*Model_Space
  1

  0
ENDBLK
  5
21
330
1F
100
AcDbEntity
  8
0
100
AcDbBlockEnd
  0
BLOCK
  5
1C
330
1B
100
AcDbEntity
 67
     1
  8
0
100
AcDbBlockBegin
  2
*Paper_Space
 70
     0
 10
0.0
 20
0.0
 30
0.0
  3
*Paper_Space
  1

  0
ENDBLK
  5
1D
330
1B
100
AcDbEntity
 67
     1
  8
0
100
AcDbBlockEnd
  0
BLOCK
  5
24
330
23
100
AcDbEntity
  8
0
100
AcDbBlockBegin
  2
*Paper_Space0
 70
     0
 10
0.0
 20
0.0
 30
0.0
  3
*Paper_Space0
  1

  0
ENDBLK
  5
25
330
23
100
AcDbEntity
  8
0
100
AcDbBlockEnd
  0
ENDSEC
  0
SECTION
  2
ENTITIES
  0
LINE
  5
7F
330
1F
100
AcDbEntity
  8
0
  6
Continuous
 62
     7
370
    25
100
AcDbLine
 10
6047.0187553361
 20
5407.760143021
 30
0.0
 11
6046.0187553361
 21
5407.760143021
 31
0.0
  0
LINE
  5
80
330
1F
100
AcDbEntity
  8
0
  6
Continuous
 62
     7
370
    25
100
AcDbLine
 10
6046.0187553361
 20
5388.760143021
 30
0.0
 11
6047.0187553361
 21
5388.760143021
 31
0.0
  0
ARC
  5
81
330
1F
100
AcDbEntity
  8
0
  6
Continuous
 62
     7
370
    25
100
AcDbCircle
 10
6052.0187553361
 20
5398.260143021
 30
0.0
 40
11.23610252712212
100
AcDbArc
 50
200.8544580396
 51
237.7243556854
  0
ARC
  5
82
330
1F
100
AcDbEntity
  8
0
  6
Continuous
 62
     7
370
    25
100
AcDbCircle
 10
6052.0187553361
 20
5398.260143021
 30
0.0
 40
11.23610252712288
100
AcDbArc
 50
122.2756443146
 51
159.1455419604
  0
LINE
  5
83
330
1F
100
AcDbEntity
  8
0
  6
Continuous
 62
     7
370
    25
100
AcDbLine
 10
6050.0623160987
 20
5403.260143021
 30
0.0
 11
6049.0187553361
 21
5403.260143021
 31
0.0
  0
LINE
  5
84
330
1F
100
AcDbEntity
  8
0
  6
Continuous
 62
     7
370
    25
100
AcDbLine
 10
6049.0187553361
 20
5393.260143021
 30
0.0
 11
6050.0623160987
 21
5393.260143021
 31
0.0
  0
LINE
  5
85
330
1F
100
AcDbEntity
  8
0
  6
Continuous
 62
     7
370
    25
100
AcDbLine
 10
6288.5187553361
 20
5372.6904527788
 30
0.0
 11
6289.5187553361
 21
5372.6904527788
 31
0.0
  0
ARC
  5
86
330
1F
100
AcDbEntity
  8
0
  6
Continuous
 62
     7
370
    25
100
AcDbCircle
 10
6283.5187553361
 20
5382.1904527788
 30
0.0
 40
11.23610252712244
100
AcDbArc
 50
302.2756443146
 51
339.1455419604
  0
LINE
  5
87
330
1F
100
AcDbEntity
  8
0
  6
Continuous
 62
     7
370
    25
100
AcDbLine
 10
6261.5187553361
 20
5377.1904527788
 30
0.0
 11
6262.1147197548
 21
5377.1904527788
 31
0.0
  0
LINE
  5
88
330
1F
100
AcDbEntity
  8
0
  6
Continuous
 62
     7
370
    25
100
AcDbLine
 10
6285.9227909174
 20
5377.1904527788
 30
0.0
 11
6286.5187553361
 21
5377.1904527788
 31
0.0
  0
ARC
  5
89
330
1F
100
AcDbEntity
  8
0
  6
Continuous
 62
     7
370
    25
100
AcDbCircle
 10
6496.0187553361
 20
5398.260143021
 30
0.0
 40
11.23610252712288
100
AcDbArc
 50
20.8544580396
 51
57.7243556854
  0
ARC
  5
8A
330
1F
100
AcDbEntity
  8
0
  6
Continuous
 62
     7
370
    25
100
AcDbCircle
 10
6496.0187553361
 20
5398.260143021
 30
0.0
 40
11.23610252712179
100
AcDbArc
 50
302.2756443146
 51
339.1455419604
  0
LINE
  5
8B
330
1F
100
AcDbEntity
  8
0
  6
Continuous
 62
     7
370
    25
100
AcDbLine
 10
6501.0187553361
 20
5388.760143021
 30
0.0
 11
6502.0187553361
 21
5388.760143021
 31
0.0
  0
LINE
  5
8C
330
1F
100
AcDbEntity
  8
0
  6
Continuous
 62
     7
370
    25
100
AcDbLine
 10
6502.0187553361
 20
5407.760143021
 30
0.0
 11
6501.0187553361
 21
5407.760143021
 31
0.0
  0
LINE
  5
8D
330
1F
100
AcDbEntity
  8
0
  6
Continuous
 62
     7
370
    25
100
AcDbLine
 10
6497.9751945735
 20
5393.260143021
 30
0.0
 11
6499.0187553361
 21
5393.260143021
 31
0.0
  0
LINE
  5
8E
330
1F
100
AcDbEntity
  8
0
  6
Continuous
 62
     7
370
    25
100
AcDbLine
 10
6499.0187553361
 20
5403.260143021
 30
0.0
 11
6497.9751945735
 21
5403.260143021
 31
0.0
  0
ARC
  5
8F
330
1F
100
AcDbEntity
  8
0
  6
Continuous
 62
     7
370
    25
100
AcDbCircle
 10
6254.4947132221
 20
5374.0694971833
 30
0.0
 40
3.000000000000343
100
AcDbArc
 50
187.2586155277
 51
204.4338297167
  0
ARC
  5
90
330
1F
100
AcDbEntity
  8
0
  6
Continuous
 62
     7
370
    25
100
AcDbCircle
 10
6256.5427974501
 20
5374.0694971833
 30
0.0
 40
3.000000000000521
100
AcDbArc
 50
336.1885788866
 51
352.7413844723
  0
LINE
  5
91
330
1F
100
AcDbEntity
  8
0
  6
Continuous
 62
     7
370
    25
100
AcDbLine
 10
6286.5187553361
 20
5042.3408127969
 30
0.0
 11
6286.5187553361
 21
5369.6904527788
 31
0.0
  0
LINE
  5
92
330
1F
100
AcDbEntity
  8
0
  6
Continuous
 62
     7
370
    25
100
AcDbLine
 10
6261.5187553361
 20
5369.6904527788
 30
0.0
 11
6261.5187553361
 21
5042.3408127969
 31
0.0
  0
LINE
  5
93
330
1F
100
AcDbEntity
  8
0
  6
Continuous
 62
     7
370
    25
100
AcDbLine
 10
6209.0187553361
 20
5021.7568537107
 30
0.0
 11
6339.0187553361
 21
5021.7568537107
 31
0.0
  0
LINE
  5
94
330
1F
100
AcDbEntity
  8
0
  6
Continuous
 62
     7
370
    25
100
AcDbLine
 10
6261.5187553361
 20
5046.7568537107
 30
0.0
 11
6209.0187553361
 21
5046.7568537107
 31
0.0
  0
LINE
  5
95
330
1F
100
AcDbEntity
  8
0
  6
Continuous
 62
     7
370
    25
100
AcDbLine
 10
6339.0187553361
 20
5046.7568537107
 30
0.0
 11
6286.5187553361
 21
5046.7568537107
 31
0.0
  0
LINE
  5
96
330
1F
100
AcDbEntity
  8
0
  6
Continuous
 62
     7
370
    25
100
AcDbLine
 10
6456.5187553361
 20
5385.760143021
 30
0.0
 11
6486.5187553361
 21
5385.760143021
 31
0.0
  0
LINE
  5
97
330
1F
100
AcDbEntity
  8
0
  6
Continuous
 62
     7
370
    25
100
AcDbLine
 10
6486.5187553361
 20
5410.760143021
 30
0.0
 11
6456.5187553361
 21
5410.760143021
 31
0.0
  0
LINE
  5
98
330
1F
100
AcDbEntity
  8
0
  6
Continuous
 62
     7
370
    25
100
AcDbLine
 10
6456.5187553361
 20
5410.760143021
 30
0.0
 11
6091.5187553361
 21
5410.760143021
 31
0.0
  0
LINE
  5
99
330
1F
100
AcDbEntity
  8
0
  6
Continuous
 62
     7
370
    25
100
AcDbLine
 10
6288.5187553361
 20
5385.760143021
 30
0.0
 11
6456.5187553361
 21
5385.760143021
 31
0.0
  0
LINE
  5
9A
330
1F
100
AcDbEntity
  8
0
  6
Continuous
 62
     7
370
    25
100
AcDbLine
 10
6261.5187553361
 20
5385.760143021
 30
0.0
 11
6286.5187553361
 21
5385.760143021
 31
0.0
  0
LINE
  5
9B
330
1F
100
AcDbEntity
  8
0
  6
Continuous
 62
     7
370
    25
100
AcDbLine
 10
6091.5187553361
 20
5385.760143021
 30
0.0
 11
6259.5187553361
 21
5385.760143021
 31
0.0
  0
LINE
  5
9C
330
1F
100
AcDbEntity
  8
0
  6
Continuous
 62
     7
370
    25
100
AcDbLine
 10
6061.5187553361
 20
5385.760143021
 30
0.0
 11
6091.5187553361
 21
5385.760143021
 31
0.0
  0
LINE
  5
9D
330
1F
100
AcDbEntity
  8
0
  6
Continuous
 62
     7
370
    25
100
AcDbLine
 10
6091.5187553361
 20
5410.760143021
 30
0.0
 11
6061.5187553361
 21
5410.760143021
 31
0.0
  0
LINE
  5
9E
330
1F
100
AcDbEntity
  8
0
  6
Continuous
 62
     7
370
    25
100
AcDbLine
 10
6286.5187553361
 20
5369.6904527788
 30
0.0
 11
6288.5187553361
 21
5369.6904527788
 31
0.0
  0
LINE
  5
9F
330
1F
100
AcDbEntity
  8
0
  6
Continuous
 62
     7
370
    25
100
AcDbLine
 10
6259.5187553361
 20
5369.6904527788
 30
0.0
 11
6261.5187553361
 21
5369.6904527788
 31
0.0
  0
LINE
  5
A0
330
1F
100
AcDbEntity
  8
0
  6
Continuous
 62
     7
370
    25
100
AcDbLine
 10
6499.0187553361
 20
5385.760143021
 30
0.0
 11
6499.0187553361
 21
5410.760143021
 31
0.0
  0
LINE
  5
A1
330
1F
100
AcDbEntity
  8
0
  6
Continuous
 62
     7
370
    25
100
AcDbLine
 10
6499.0187553361
 20
5410.760143021
 30
0.0
 11
6501.0187553361
 21
5410.760143021
 31
0.0
  0
LINE
  5
A2
330
1F
100
AcDbEntity
  8
0
  6
Continuous
 62
     7
370
    25
100
AcDbLine
 10
6501.0187553361
 20
5385.760143021
 30
0.0
 11
6499.0187553361
 21
5385.760143021
 31
0.0
  0
LINE
  5
A3
330
1F
100
AcDbEntity
  8
0
  6
Continuous
 62
     7
370
    25
100
AcDbLine
 10
6501.0187553361
 20
5385.760143021
 30
0.0
 11
6501.0187553361
 21
5410.760143021
 31
0.0
  0
LINE
  5
A4
330
1F
100
AcDbEntity
  8
0
  6
Continuous
 62
     7
370
    25
100
AcDbLine
 10
6047.0187553361
 20
5385.760143021
 30
0.0
 11
6047.0187553361
 21
5410.760143021
 31
0.0
  0
LINE
  5
A5
330
1F
100
AcDbEntity
  8
0
  6
Continuous
 62
     7
370
    25
100
AcDbLine
 10
6047.0187553361
 20
5410.760143021
 30
0.0
 11
6049.0187553361
 21
5410.760143021
 31
0.0
  0
LINE
  5
A6
330
1F
100
AcDbEntity
  8
0
  6
Continuous
 62
     7
370
    25
100
AcDbLine
 10
6049.0187553361
 20
5410.760143021
 30
0.0
 11
6049.0187553361
 21
5385.760143021
 31
0.0
  0
LINE
  5
A7
330
1F
100
AcDbEntity
  8
0
  6
Continuous
 62
     7
370
    25
100
AcDbLine
 10
6049.0187553361
 20
5385.760143021
 30
0.0
 11
6047.0187553361
 21
5385.760143021
 31
0.0
  0
LINE
  5
A8
330
1F
100
AcDbEntity
  8
0
  6
Continuous
 62
     7
370
    25
100
AcDbLine
 10
6049.0187553361
 20
5410.760143021
 30
0.0
 11
6061.5187553361
 21
5410.760143021
 31
0.0
  0
LINE
  5
A9
330
1F
100
AcDbEntity
  8
0
  6
Continuous
 62
     7
370
    25
100
AcDbLine
 10
6049.0187553361
 20
5385.760143021
 30
0.0
 11
6061.5187553361
 21
5385.760143021
 31
0.0
  0
LINE
  5
AA
330
1F
100
AcDbEntity
  8
0
  6
Continuous
 62
     7
370
    25
100
AcDbLine
 10
6091.5187553361
 20
5385.760143021
 30
0.0
 11
6251.5187553361
 21
5385.760143021
 31
0.0
  0
LINE
  5
AB
330
1F
100
AcDbEntity
  8
0
  6
Continuous
 62
     7
370
    25
100
AcDbLine
 10
6294.0187553361
 20
5385.760143021
 30
0.0
 11
6456.5187553361
 21
5385.760143021
 31
0.0
  0
LINE
  5
AC
330
1F
100
AcDbEntity
  8
0
  6
Continuous
 62
     7
370
    25
100
AcDbLine
 10
6486.5187553361
 20
5410.760143021
 30
0.0
 11
6499.0187553361
 21
5410.760143021
 31
0.0
  0
LINE
  5
AD
330
1F
100
AcDbEntity
  8
0
  6
Continuous
 62
     7
370
    25
100
AcDbLine
 10
6486.5187553361
 20
5385.760143021
 30
0.0
 11
6499.0187553361
 21
5385.760143021
 31
0.0
  0
LINE
  5
AE
330
1F
100
AcDbEntity
  8
0
  6
Continuous
 62
     7
370
    25
100
AcDbLine
 10
6501.0687553361
 20
5410.760143021
 30
0.0
 11
6501.0687553361
 21
5407.760143021
 31
0.0
  0
LINE
  5
AF
330
1F
100
AcDbEntity
  8
0
  6
Continuous
 62
     7
370
    25
100
AcDbLine
 10
6501.0687553361
 20
5388.760143021
 30
0.0
 11
6501.0687553361
 21
5385.760143021
 31
0.0
  0
LINE
  5
B0
330
1F
100
AcDbEntity
  8
0
  6
Continuous
 62
     7
370
    25
100
AcDbLine
 10
6501.0187553361
 20
5410.760143021
 30
0.0
 11
6501.0687553361
 21
5410.760143021
 31
0.0
  0
LINE
  5
B1
330
1F
100
AcDbEntity
  8
0
  6
Continuous
 62
     7
370
    25
100
AcDbLine
 10
6501.0187553361
 20
5385.760143021
 30
0.0
 11
6501.0687553361
 21
5385.760143021
 31
0.0
  0
LINE
  5
B2
330
1F
100
AcDbEntity
  8
0
  6
Continuous
 62
     7
370
    25
100
AcDbLine
 10
6046.9687553361
 20
5410.760143021
 30
0.0
 11
6046.9687553361
 21
5407.760143021
 31
0.0
  0
LINE
  5
B3
330
1F
100
AcDbEntity
  8
0
  6
Continuous
 62
     7
370
    25
100
AcDbLine
 10
6046.9687553361
 20
5388.760143021
 30
0.0
 11
6046.9687553361
 21
5385.760143021
 31
0.0
  0
LINE
  5
B4
330
1F
100
AcDbEntity
  8
0
  6
Continuous
 62
     7
370
    25
100
AcDbLine
 10
6046.9687553361
 20
5410.760143021
 30
0.0
 11
6047.0187553361
 21
5410.760143021
 31
0.0
  0
LINE
  5
B5
330
1F
100
AcDbEntity
  8
0
  6
Continuous
 62
     7
370
    25
100
AcDbLine
 10
6046.9687553361
 20
5385.760143021
 30
0.0
 11
6047.0187553361
 21
5385.760143021
 31
0.0
  0
LINE
  5
B6
330
1F
100
AcDbEntity
  8
0
  6
Continuous
 62
     7
370
    25
100
AcDbLine
 10
6046.0187553361
 20
5407.760143021
 30
0.0
 11
6046.0187553361
 21
5388.760143021
 31
0.0
  0
LINE
  5
B7
330
1F
100
AcDbEntity
  8
0
  6
Continuous
 62
     7
370
    25
100
AcDbLine
 10
6041.5187553361
 20
5402.260143021
 30
0.0
 11
6041.5187553361
 21
5394.260143021
 31
0.0
  0
LINE
  5
B8
330
1F
100
AcDbEntity
  8
0
  6
Continuous
 62
     7
370
    25
100
AcDbLine
 10
6289.5187553361
 20
5372.6904527788
 30
0.0
 11
6289.5187553361
 21
5385.760143021
 31
0.0
  0
LINE
  5
B9
330
1F
100
AcDbEntity
  8
0
  6
Continuous
 62
     7
370
    25
100
AcDbLine
 10
6294.0187553361
 20
5378.1904527788
 30
0.0
 11
6294.0187553361
 21
5385.760143021
 31
0.0
  0
LINE
  5
BA
330
1F
100
AcDbEntity
  8
0
  6
Continuous
 62
     7
370
    25
100
AcDbLine
 10
6502.0187553361
 20
5388.760143021
 30
0.0
 11
6502.0187553361
 21
5407.760143021
 31
0.0
  0
LINE
  5
BB
330
1F
100
AcDbEntity
  8
0
  6
Continuous
 62
     7
370
    25
100
AcDbLine
 10
6506.5187553361
 20
5394.260143021
 30
0.0
 11
6506.5187553361
 21
5402.260143021
 31
0.0
  0
SPLINE
  5
BC
330
1F
100
AcDbEntity
  8
0
  6
Continuous
 62
     7
370
    25
100
AcDbSpline
210
0.0
220
0.0
230
1.0
 70
     8
 71
     3
 72
     9
 73
     5
 74
     0
 42
0.000000001
 43
0.00000001
 40
0.0
 40
0.0
 40
0.0
 40
0.0
 40
0.4962229202406744
 40
1.0
 40
1.0
 40
1.0
 40
1.0
 10
6251.5187553361
 20
5375.298561991187
 30
0.0
 10
6251.510440799486
 20
5375.779074445004
 30
0.0
 10
6251.493685151418
 20
5376.747414346723
 30
0.0
 10
6251.842852718705
 20
5377.694054531715
 30
0.0
 10
6252.0187553361
 20
5378.170950159694
 30
0.0
  0
LINE
  5
BD
330
1F
100
AcDbEntity
  8
0
  6
Continuous
 62
     7
370
    25
100
AcDbLine
 10
6259.0187553361
 20
5378.1709501597
 30
0.0
 11
6252.0187553361
 21
5378.1709501597
 31
0.0
  0
SPLINE
  5
BE
330
1F
100
AcDbEntity
  8
0
  6
Continuous
 62
     7
370
    25
100
AcDbSpline
210
0.0
220
0.0
230
1.0
 70
     8
 71
     3
 72
    13
 73
     9
 74
     0
 42
0.000000001
 43
0.00000001
 40
0.0
 40
0.0
 40
0.0
 40
0.0
 40
0.22025589147441
 40
0.3317722878629257
 40
0.4401332986638514
 40
0.6722974838873103
 40
0.8361229581067685
 40
1.0
 40
1.0
 40
1.0
 40
1.0
 10
6259.0187553361
 20
5378.170950159694
 30
0.0
 10
6259.119097811981
 20
5377.966011884818
 30
0.0
 10
6259.270244065413
 20
5377.657312581151
 30
0.0
 10
6259.374390444042
 20
5377.235852593016
 30
0.0
 10
6259.453623513732
 20
5376.801519727743
 30
0.0
 10
6259.495936863019
 20
5376.31444343713
 30
0.0
 10
6259.516077356107
 20
5375.77358828698
 30
0.0
 10
6259.517862582461
 20
5375.456920700186
 30
0.0
 10
6259.5187553361
 20
5375.298561991187
 30
0.0
  0
SPLINE
  5
BF
330
1F
100
AcDbEntity
  8
0
  6
Continuous
 62
     7
370
    25
100
AcDbSpline
210
0.0
220
0.0
230
1.0
 70
     8
 71
     3
 72
     9
 73
     5
 74
     0
 42
0.000000001
 43
0.00000001
 40
0.0
 40
0.0
 40
0.0
 40
0.0
 40
0.4962229202406838
 40
0.9999999999999999
 40
0.9999999999999999
 40
0.9999999999999999
 40
0.9999999999999999
 10
6259.5187553361
 20
5375.298561991187
 30
0.0
 10
6259.527069872715
 20
5374.81804953737
 30
0.0
 10
6259.543825520782
 20
5373.849709635651
 30
0.0
 10
6259.194657953495
 20
5372.903069450658
 30
0.0
 10
6259.0187553361
 20
5372.42617382268
 30
0.0
  0
LINE
  5
C0
330
1F
100
AcDbEntity
  8
0
  6
Continuous
 62
     7
370
    25
100
AcDbLine
 10
6259.0187553361
 20
5372.4261738227
 30
0.0
 11
6252.0187553361
 21
5372.4261738227
 31
0.0
  0
SPLINE
  5
C1
330
1F
100
AcDbEntity
  8
0
  6
Continuous
 62
     7
370
    25
100
AcDbSpline
210
0.0
220
0.0
230
1.0
 70
     8
 71
     3
 72
    10
 73
     6
 74
     0
 42
0.000000001
 43
0.00000001
 40
0.0
 40
0.0
 40
0.0
 40
0.0
 40
0.3315739395275037
 40
0.6721625413041608
 40
1.0
 40
1.0
 40
1.0
 40
1.0
 10
6252.0187553361
 20
5372.42617382268
 30
0.0
 10
6251.882823289468
 20
5372.737249047292
 30
0.0
 10
6251.607263545419
 20
5373.367856850216
 30
0.0
 10
6251.53285538082
 20
5374.337076191176
 30
0.0
 10
6251.523395195675
 20
5374.982168732593
 30
0.0
 10
6251.5187553361
 20
5375.298561991187
 30
0.0
  0
SPLINE
  5
C2
330
1F
100
AcDbEntity
  8
0
  6
Continuous
 62
     7
370
    25
100
AcDbSpline
210
0.0
220
0.0
230
1.0
 70
     8
 71
     3
 72
     9
 73
     5
 74
     0
 42
0.000000001
 43
0.00000001
 40
0.0
 40
0.0
 40
0.0
 40
0.0
 40
0.7169484261070654
 40
1.0
 40
1.0
 40
1.0
 40
1.0
 10
6259.5187553361
 20
5383.05308963775
 30
0.0
 10
6259.533908571997
 20
5381.867390111258
 30
0.0
 10
6259.555044312513
 20
5380.213575857239
 30
0.0
 10
6259.137065029899
 20
5378.621569940168
 30
0.0
 10
6259.0187553361
 20
5378.170950159694
 30
0.0
  0
SPLINE
  5
C3
330
1F
100
AcDbEntity
  8
0
  6
Continuous
 62
     7
370
    25
100
AcDbSpline
210
0.0
220
0.0
230
1.0
 70
     8
 71
     3
 72
     9
 73
     5
 74
     0
 42
0.000000001
 43
0.00000001
 40
0.0
 40
0.0
 40
0.0
 40
0.0
 40
0.4054701119095577
 40
1.0
 40
1.0
 40
1.0
 40
1.0
 10
6252.0187553361
 20
5378.170950159694
 30
0.0
 10
6251.865609990411
 20
5378.820811013748
 30
0.0
 10
6251.487911755223
 20
5380.423545308996
 30
0.0
 10
6251.507255124769
 20
5382.072648501349
 30
0.0
 10
6251.5187553361
 20
5383.05308963775
 30
0.0
  0
LINE
  5
C4
330
1F
100
AcDbEntity
  8
0
  6
Continuous
 62
     7
370
    25
100
AcDbLine
 10
6251.5187553361
 20
5383.0530896377
 30
0.0
 11
6251.5187553361
 21
5375.2985619912
 31
0.0
  0
LINE
  5
C5
330
1F
100
AcDbEntity
  8
0
  6
Continuous
 62
     7
370
    25
100
AcDbLine
 10
6259.4207994362
 20
5385.760143021
 30
0.0
 11
6259.5187553361
 21
5383.0530896377
 31
0.0
  0
LINE
  5
C6
330
1F
100
AcDbEntity
  8
0
  6
Continuous
 62
     7
370
    25
100
AcDbLine
 10
6251.5187553361
 20
5383.0530896377
 30
0.0
 11
6251.6571685052
 21
5385.760143021
 31
0.0
  0
LINE
  5
C7
330
1F
100
AcDbEntity
  8
0
  6
Continuous
 62
     7
370
    25
100
AcDbLine
 10
6251.5187553361
 20
5385.760143021
 30
0.0
 11
6251.5187553361
 21
5383.0530896377
 31
0.0
  0
LINE
  5
C8
330
1F
100
AcDbEntity
  8
0
  6
Continuous
 62
     7
370
    25
100
AcDbLine
 10
6251.5187553361
 20
5375.2985619912
 30
0.0
 11
6251.5187553361
 21
5373.6904527788
 31
0.0
  0
LINE
  5
C9
330
1F
100
AcDbEntity
  8
0
  6
Continuous
 62
     7
370
    25
100
AcDbLine
 10
6259.0187553361
 20
5372.4261738227
 30
0.0
 11
6259.2591507277
 21
5372.8733739054
 31
0.0
  0
LWPOLYLINE
  5
CA
330
1F
100
AcDbEntity
  8
0
  6
Continuous
 62
     7
370
    25
100
AcDbPolyline
 90
       17
 70
   128
 43
0.0
 10
6262.1099792983
 20
5385.760143021
 10
6262.6283992062
 20
5384.7305006341
 10
6263.6623847206
 20
5383.3187485023
 10
6264.9943041617
 20
5382.0605859844
 10
6266.5858406323
 20
5380.9922081253
 10
6268.3912085259
 20
5380.1443502108
 10
6270.3584706951
 20
5379.5414035695
 10
6272.4310325893
 20
5379.2007138783
 10
6274.5492703761
 20
5379.1320821596
 10
6276.652246211
 20
5379.3374828228
 10
6278.6794613084
 20
5379.8110068648
 10
6280.5725963806
 20
5380.5390318611
 10
6282.2771893785
 20
5381.500613858
 10
6283.7442022651
 20
5382.6680898923
 10
6284.9314317506
 20
5384.0078738041
 10
6285.8047234044
 20
5385.4814224495
 10
6285.9275313739
 20
5385.760143021
  0
ELLIPSE
  5
CB
330
1F
100
AcDbEntity
  8
0
  6
Continuous
 62
     7
370
    25
100
AcDbEllipse
 10
6274.0187553361
 20
5034.2568537107
 30
0.0
 11
11.3423870630686
 21
11.34238706306769
 31
0.0
210
0.0
220
0.0
230
1.0
 40
0.4631824432
 41
4.278626770425781
 42
5.84942309722068
  0
ELLIPSE
  5
CC
330
1F
100
AcDbEntity
  8
0
  6
Continuous
 62
     7
370
    25
100
AcDbEllipse
 10
6274.0187553361
 20
5034.2568537107
 30
0.0
 11
11.3423870630686
 21
-11.3423870630686
 31
0.0
210
0.0
220
0.0
230
1.0
 40
0.4631824432
 41
3.575354863548841
 42
5.146151190343634
  0
SPLINE
  5
CD
330
1F
100
AcDbEntity
  8
0
  6
Continuous
 62
     7
370
    25
100
AcDbSpline
210
0.0
220
0.0
230
1.0
 70
     8
 71
     3
 72
    15
 73
    11
 74
     0
 42
0.000000001
 43
0.00000001
 40
0.0
 40
0.0
 40
0.0
 40
0.0
 40
0.0775241495142222
 40
0.2300916511304005
 40
0.37327739270928
 40
0.5084029590876536
 40
0.6490806847451203
 40
0.8001079808469396
 40
0.95098144854392
 40
1.0
 40
1.0
 40
1.0
 40
1.0
 10
6285.926644412142
 20
5377.260041996844
 30
0.0
 10
6285.865684242634
 20
5377.247774589996
 30
0.0
 10
6285.684754478897
 20
5377.211364930369
 30
0.0
 10
6285.473976809631
 20
5377.769284222975
 30
0.0
 10
6285.460250514077
 20
5378.812683181782
 30
0.0
 10
6285.667603789509
 20
5380.179659255301
 30
0.0
 10
6286.006413617066
 20
5381.750921494489
 30
0.0
 10
6286.338165895788
 20
5383.411122772515
 30
0.0
 10
6286.527416298074
 20
5384.71366349082
 30
0.0
 10
6286.501540057759
 20
5385.25304867183
 30
0.0
 10
6286.495194552706
 20
5385.385319486651
 30
0.0
  0
SPLINE
  5
CE
330
1F
100
AcDbEntity
  8
0
  6
Continuous
 62
     7
370
    25
100
AcDbSpline
210
0.0
220
0.0
230
1.0
 70
     8
 71
     3
 72
    14
 73
    10
 74
     0
 42
0.000000001
 43
0.00000001
 40
0.0
 40
0.0
 40
0.0
 40
0.0
 40
0.1406266629254311
 40
0.2810238930793885
 40
0.4274592238194749
 40
0.5803096958616997
 40
0.7261277316052218
 40
0.861874678518231
 40
1.0
 40
1.0
 40
1.0
 40
1.0
 10
6261.5187553361
 20
5385.424036413252
 30
0.0
 10
6261.539615978407
 20
5384.980248309893
 30
0.0
 10
6261.581303228828
 20
5384.093396144636
 30
0.0
 10
6261.87688236665
 20
5382.479462614997
 30
0.0
 10
6262.235321906788
 20
5380.82855033376
 30
0.0
 10
6262.528762939247
 20
5379.277344709417
 30
0.0
 10
6262.595255945799
 20
5378.082836698985
 30
0.0
 10
6262.427996332637
 20
5377.328900466802
 30
0.0
 10
6262.219665637223
 20
5377.237425006729
 30
0.0
 10
6262.114595691854
 20
5377.191290078923
 30
0.0
  0
LINE
  5
CF
330
1F
100
AcDbEntity
  8
0
  6
Continuous
 62
     7
370
    25
100
AcDbLine
 10
6339.0187553361
 20
5046.7568537107
 30
0.0
 11
6339.0187553361
 21
5021.7568537107
 31
0.0
  0
LINE
  5
D0
330
1F
100
AcDbEntity
  8
0
  6
Continuous
 62
     7
370
    25
100
AcDbLine
 10
6209.0187553361
 20
5046.7568537107
 30
0.0
 11
6209.0187553361
 21
5021.7568537107
 31
0.0
  0
ARC
  5
D1
330
1F
100
AcDbEntity
  8
0
  6
Continuous
 62
     7
370
    25
100
AcDbCircle
 10
6486.5187553361
 20
5398.260143021
 30
0.0
 40
12.50000000000091
100
AcDbArc
 50
270.0
 51
90.0
  0
LINE
  5
D2
330
1F
100
AcDbEntity
  8
0
  6
Continuous
 62
     7
370
    25
100
AcDbLine
 10
6261.5187553361
 20
5388.684587482
 30
0.0
 11
6259.5187553361
 21
5388.684587482
 31
0.0
  0
LINE
  5
D3
330
1F
100
AcDbEntity
  8
0
  6
Continuous
 62
     7
370
    25
100
AcDbLine
 10
6288.5187553361
 20
5388.684587482
 30
0.0
 11
6286.5187553361
 21
5388.684587482
 31
0.0
  0
ARC
  5
D4
330
1F
100
AcDbEntity
  8
0
  6
Continuous
 62
     7
370
    25
100
AcDbCircle
 10
6061.5187553361
 20
5398.260143021
 30
0.0
 40
12.50000000000091
100
AcDbArc
 50
90.0
 51
270.0
  0
LINE
  5
D5
330
1F
100
AcDbEntity
  8
0
  6
Continuous
 62
     7
370
    25
100
AcDbLine
 10
6288.5187553361
 20
5388.684587482
 30
0.0
 11
6288.5187553361
 21
5372.6148972398
 31
0.0
  0
LINE
  5
D6
330
1F
100
AcDbEntity
  8
0
  6
Continuous
 62
     7
370
    25
100
AcDbLine
 10
6288.5187553361
 20
5372.6148972398
 30
0.0
 11
6286.5187553361
 21
5372.6148972398
 31
0.0
  0
LINE
  5
D7
330
1F
100
AcDbEntity
  8
0
  6
Continuous
 62
     7
370
    25
100
AcDbLine
 10
6286.5187553361
 20
5388.684587482
 30
0.0
 11
6286.5187553361
 21
5372.6148972398
 31
0.0
  0
LINE
  5
D8
330
1F
100
AcDbEntity
  8
0
  6
Continuous
 62
     7
370
    25
100
AcDbLine
 10
6261.5187553361
 20
5372.6148972398
 30
0.0
 11
6259.5187553361
 21
5372.6148972398
 31
0.0
  0
LINE
  5
D9
330
1F
100
AcDbEntity
  8
0
  6
Continuous
 62
     7
370
    25
100
AcDbLine
 10
6259.5187553361
 20
5388.684587482
 30
0.0
 11
6259.5187553361
 21
5372.6148972398
 31
0.0
  0
LINE
  5
DA
330
1F
100
AcDbEntity
  8
0
  6
Continuous
 62
     7
370
    25
100
AcDbLine
 10
6261.5187553361
 20
5388.684587482
 30
0.0
 11
6261.5187553361
 21
5372.6148972398
 31
0.0
  0
LINE
  5
DB
330
1F
100
AcDbEntity
  8
0
  6
Continuous
 62
     7
370
    25
100
AcDbLine
 10
6288.5187553361
 20
5372.6148972398
 30
0.0
 11
6288.5187553361
 21
5369.6904527788
 31
0.0
  0
LINE
  5
DC
330
1F
100
AcDbEntity
  8
0
  6
Continuous
 62
     7
370
    25
100
AcDbLine
 10
6286.5187553361
 20
5372.6148972398
 30
0.0
 11
6286.5187553361
 21
5369.6904527788
 31
0.0
  0
LINE
  5
DD
330
1F
100
AcDbEntity
  8
0
  6
Continuous
 62
     7
370
    25
100
AcDbLine
 10
6259.5187553361
 20
5372.6148972398
 30
0.0
 11
6259.5187553361
 21
5369.6904527788
 31
0.0
  0
LINE
  5
DE
330
1F
100
AcDbEntity
  8
0
  6
Continuous
 62
     7
370
    25
100
AcDbLine
 10
6261.5187553361
 20
5372.6148972398
 30
0.0
 11
6261.5187553361
 21
5369.6904527788
 31
0.0
  0
LINE
  5
DF
330
1F
100
AcDbEntity
  8
0
  6
Continuous
 62
     7
370
    25
100
AcDbLine
 10
6456.5187553361
 20
5410.760143021
 30
0.0
 11
6091.5187553361
 21
5410.760143021
 31
0.0
  0
LINE
  5
E0
330
1F
100
AcDbEntity
  8
0
  6
Continuous
 62
     8
370
    25
100
AcDbLine
 10
6456.5187553361
 20
5410.760143021
 30
0.0
 11
6456.5187553361
 21
5385.760143021
 31
0.0
  0
LINE
  5
E1
330
1F
100
AcDbEntity
  8
0
  6
Continuous
 62
     8
370
    25
100
AcDbLine
 10
6091.5187553361
 20
5410.760143021
 30
0.0
 11
6091.5187553361
 21
5385.760143021
 31
0.0
  0
LINE
  5
E2
330
1F
100
AcDbEntity
  8
0
  6
Continuous
 62
     7
370
    25
100
AcDbLine
 10
6920.3647127868
 20
5024.7227252506
 30
0.0
 11
7330.6890979623
 21
5372.6355476651
 31
0.0
  0
LINE
  5
E3
330
1F
100
AcDbEntity
  8
0
  6
Continuous
 62
     7
370
    25
100
AcDbLine
 10
7307.5112936347
 20
5385.760143021
 30
0.0
 11
6904.1967946145
 21
5043.7909821708
 31
0.0
  0
LINE
  5
E4
330
1F
100
AcDbEntity
  8
0
  6
Continuous
 62
     7
370
    25
100
AcDbLine
 10
6914.2807537006
 20
5385.760143021
 30
0.0
 11
7311.7807537006
 21
5385.760143021
 31
0.0
  0
LINE
  5
E5
330
1F
100
AcDbEntity
  8
0
  6
Continuous
 62
     7
370
    25
100
AcDbLine
 10
6929.2807537006
 20
5410.760143021
 30
0.0
 11
6914.2807537006
 21
5410.760143021
 31
0.0
  0
LINE
  5
E6
330
1F
100
AcDbEntity
  8
0
  6
Continuous
 62
     7
370
    25
100
AcDbLine
 10
7024.2807537006
 20
5410.760143021
 30
0.0
 11
7014.2807537006
 21
5410.760143021
 31
0.0
  0
LINE
  5
E7
330
1F
100
AcDbEntity
  8
0
  6
Continuous
 62
     7
370
    25
100
AcDbLine
 10
7119.2807537006
 20
5410.760143021
 30
0.0
 11
7109.2807537006
 21
5410.760143021
 31
0.0
  0
LINE
  5
E8
330
1F
100
AcDbEntity
  8
0
  6
Continuous
 62
     7
370
    25
100
AcDbLine
 10
7214.2807537006
 20
5410.760143021
 30
0.0
 11
7204.2807537006
 21
5410.760143021
 31
0.0
  0
LINE
  5
E9
330
1F
100
AcDbEntity
  8
0
  6
Continuous
 62
     7
370
    25
100
AcDbLine
 10
7311.7807537006
 20
5410.760143021
 30
0.0
 11
7299.2807537006
 21
5410.760143021
 31
0.0
  0
LINE
  5
EA
330
1F
100
AcDbEntity
  8
0
  6
Continuous
 62
     7
370
    25
100
AcDbLine
 10
7311.7807537006
 20
5385.760143021
 30
0.0
 11
7341.7807537006
 21
5385.760143021
 31
0.0
  0
LINE
  5
EB
330
1F
100
AcDbEntity
  8
0
  6
Continuous
 62
     7
370
    25
100
AcDbLine
 10
7341.7807537006
 20
5410.760143021
 30
0.0
 11
7311.7807537006
 21
5410.760143021
 31
0.0
  0
LINE
  5
EC
330
1F
100
AcDbEntity
  8
0
  6
Continuous
 62
     7
370
    25
100
AcDbLine
 10
6899.7807537006
 20
5410.760143021
 30
0.0
 11
6899.7807537006
 21
5385.760143021
 31
0.0
  0
LINE
  5
ED
330
1F
100
AcDbEntity
  8
0
  6
Continuous
 62
     7
370
    25
100
AcDbLine
 10
6899.7807537006
 20
5410.760143021
 30
0.0
 11
6901.7807537006
 21
5410.760143021
 31
0.0
  0
LINE
  5
EE
330
1F
100
AcDbEntity
  8
0
  6
Continuous
 62
     7
370
    25
100
AcDbLine
 10
6901.7807537006
 20
5410.760143021
 30
0.0
 11
6901.7807537006
 21
5385.760143021
 31
0.0
  0
LINE
  5
EF
330
1F
100
AcDbEntity
  8
0
  6
Continuous
 62
     7
370
    25
100
AcDbLine
 10
6899.7807537006
 20
5385.760143021
 30
0.0
 11
6901.7807537006
 21
5385.760143021
 31
0.0
  0
ARC
  5
F0
330
1F
100
AcDbEntity
  8
0
  6
Continuous
 62
     7
370
    25
100
AcDbCircle
 10
6914.2807537006
 20
5398.260143021
 30
0.0
 40
12.50000000000091
100
AcDbArc
 50
270.0
 51
90.0
  0
LINE
  5
F1
330
1F
100
AcDbEntity
  8
0
  6
Continuous
 62
     7
370
    25
100
AcDbLine
 10
6901.7807537006
 20
5410.760143021
 30
0.0
 11
6914.2807537006
 21
5410.760143021
 31
0.0
  0
LINE
  5
F2
330
1F
100
AcDbEntity
  8
0
  6
Continuous
 62
     7
370
    25
100
AcDbLine
 10
6901.7807537006
 20
5385.760143021
 30
0.0
 11
6914.2807537006
 21
5385.760143021
 31
0.0
  0
CIRCLE
  5
F3
330
1F
100
AcDbEntity
  8
0
  6
Continuous
 62
     7
370
    25
100
AcDbCircle
 10
6914.2807537006
 20
5398.260143021
 30
0.0
 40
4.000000000000909
  0
LINE
  5
F4
330
1F
100
AcDbEntity
  8
0
  6
Continuous
 62
     7
370
    25
100
AcDbLine
 10
6911.2807537006
 20
5396.5280922134
 30
0.0
 11
6914.2807537006
 21
5394.7960414058
 31
0.0
  0
LINE
  5
F5
330
1F
100
AcDbEntity
  8
0
  6
Continuous
 62
     7
370
    25
100
AcDbLine
 10
6914.2807537006
 20
5394.7960414058
 30
0.0
 11
6917.2807537006
 21
5396.5280922134
 31
0.0
  0
LINE
  5
F6
330
1F
100
AcDbEntity
  8
0
  6
Continuous
 62
     7
370
    25
100
AcDbLine
 10
6917.2807537006
 20
5396.5280922134
 30
0.0
 11
6917.2807537006
 21
5399.9921938285
 31
0.0
  0
LINE
  5
F7
330
1F
100
AcDbEntity
  8
0
  6
Continuous
 62
     7
370
    25
100
AcDbLine
 10
6917.2807537006
 20
5399.9921938285
 30
0.0
 11
6914.2807537006
 21
5401.7242446361
 31
0.0
  0
LINE
  5
F8
330
1F
100
AcDbEntity
  8
0
  6
Continuous
 62
     7
370
    25
100
AcDbLine
 10
6914.2807537006
 20
5401.7242446361
 30
0.0
 11
6911.2807537006
 21
5399.9921938285
 31
0.0
  0
LINE
  5
F9
330
1F
100
AcDbEntity
  8
0
  6
Continuous
 62
     7
370
    25
100
AcDbLine
 10
6911.2807537006
 20
5399.9921938285
 30
0.0
 11
6911.2807537006
 21
5396.5280922134
 31
0.0
  0
CIRCLE
  5
FA
330
1F
100
AcDbEntity
  8
0
  6
Continuous
 62
     7
370
    25
100
AcDbCircle
 10
6914.2807537006
 20
5398.260143021
 30
0.0
 40
9.50000000000091
  0
ARC
  5
FB
330
1F
100
AcDbEntity
  8
0
  6
Continuous
 62
     7
370
    25
100
AcDbCircle
 10
7322.6296426226
 20
5382.1904527788
 30
0.0
 40
3.999999999999684
100
AcDbArc
 50
157.5517191532
 51
63.1792612439
  0
ARC
  5
FC
330
1F
100
AcDbEntity
  8
0
  6
Continuous
 62
     7
370
    25
100
AcDbCircle
 10
7322.6296426226
 20
5382.1904527788
 30
0.0
 40
3.999999999999684
100
AcDbArc
 50
116.8207387561
 51
157.5517191532
  0
ARC
  5
FD
330
1F
100
AcDbEntity
  8
0
  6
Continuous
 62
     7
370
    25
100
AcDbCircle
 10
7322.6296426226
 20
5382.1904527788
 30
0.0
 40
8.500000000000048
100
AcDbArc
 50
305.8247870861
 51
5.8247870861
  0
SPLINE
  5
FE
330
1F
100
AcDbEntity
  8
0
  6
Continuous
 62
     7
370
    25
100
AcDbSpline
210
0.0
220
0.0
230
1.0
 70
    24
 71
     3
 72
     9
 73
     5
 74
     0
 42
0.000000001
 43
0.00000001
 40
0.0
 40
0.0
 40
0.0
 40
0.0
 40
0.4054701119095566
 40
1.0
 40
1.0
 40
1.0
 40
1.0
 10
7331.583799871007
 20
5378.170950159694
 30
0.0
 10
7331.517505359045
 20
5378.820811013748
 30
0.0
 10
7331.354004992398
 20
5380.423545308996
 30
0.0
 10
7331.185774377138
 20
5382.072648501349
 30
0.0
 10
7331.085756248273
 20
5383.05308963775
 30
0.0
  0
SPLINE
  5
FF
330
1F
100
AcDbEntity
  8
0
  6
Continuous
 62
     7
370
    25
100
AcDbSpline
210
0.0
220
0.0
230
1.0
 70
    24
 71
     3
 72
     9
 73
     5
 74
     0
 42
0.000000001
 43
0.00000001
 40
0.0
 40
0.0
 40
0.0
 40
0.0
 40
0.4962229202406959
 40
1.0
 40
1.0
 40
1.0
 40
1.0
 10
7327.604764869558
 20
5375.298561991187
 30
0.0
 10
7328.270404664809
 20
5375.779074445004
 30
0.0
 10
7329.611817501864
 20
5376.747414346723
 30
0.0
 10
7330.923170358404
 20
5377.694054531715
 30
0.0
 10
7331.583799871007
 20
5378.170950159694
 30
0.0
  0
ARC
  5
100
330
1F
100
AcDbEntity
  8
0
  6
Continuous
 62
     7
370
    25
100
AcDbCircle
 10
7322.6296426226
 20
5382.1904527788
 30
0.0
 40
8.499999999999716
100
AcDbArc
 50
155.1677132305
 51
185.8247870861
  0
SPLINE
  5
101
330
1F
100
AcDbEntity
  8
0
  6
Continuous
 62
     7
370
    25
100
AcDbSpline
210
0.0
220
0.0
230
1.0
 70
    24
 71
     3
 72
     9
 73
     5
 74
     0
 42
0.000000001
 43
0.00000001
 40
0.0
 40
0.0
 40
0.0
 40
0.0
 40
0.3443745694259204
 40
1.0
 40
1.0
 40
1.0
 40
1.0
 10
7313.721372261939
 20
5385.760143020954
 30
0.0
 10
7313.772460804229
 20
5385.259340726129
 30
0.0
 10
7313.920812473675
 20
5383.805103569015
 30
0.0
 10
7314.073453595678
 20
5382.308818477331
 30
0.0
 10
7314.173528997014
 20
5381.327815919833
 30
0.0
  0
ARC
  5
102
330
1F
100
AcDbEntity
  8
0
  6
Continuous
 62
     7
370
    25
100
AcDbCircle
 10
7322.6296426226
 20
5382.1904527788
 30
0.0
 40
8.500000000000048
100
AcDbArc
 50
245.8247870861
 51
305.8247870861
  0
SPLINE
  5
103
330
1F
100
AcDbEntity
  8
0
  6
Continuous
 62
     7
370
    25
100
AcDbSpline
210
0.0
220
0.0
230
1.0
 70
    24
 71
     3
 72
     9
 73
     5
 74
     0
 42
0.000000001
 43
0.00000001
 40
0.0
 40
0.0
 40
0.0
 40
0.0
 40
0.4962229202406865
 40
1.0
 40
1.0
 40
1.0
 40
1.0
 10
7319.148651243928
 20
5374.435925132228
 30
0.0
 10
7319.897607133394
 20
5374.099720386679
 30
0.0
 10
7321.406920506307
 20
5373.422192743687
 30
0.0
 10
7322.882411383024
 20
5372.759847949093
 30
0.0
 10
7323.625729868108
 20
5372.42617382268
 30
0.0
  0
SPLINE
  5
104
330
1F
100
AcDbEntity
  8
0
  6
Continuous
 62
     7
370
    25
100
AcDbSpline
210
0.0
220
0.0
230
1.0
 70
    24
 71
     3
 72
    10
 73
     6
 74
     0
 42
0.000000001
 43
0.00000001
 40
0.0
 40
0.0
 40
0.0
 40
0.0
 40
0.3315739395275265
 40
0.672162541304148
 40
1.0
 40
1.0
 40
1.0
 40
1.0
 10
7323.625729868108
 20
5372.42617382268
 30
0.0
 10
7324.05665324413
 20
5372.737249047292
 30
0.0
 10
7324.930215719956
 20
5373.367856850215
 30
0.0
 10
7326.272846818374
 20
5374.337076191176
 30
0.0
 10
7327.16647457719
 20
5374.982168732593
 30
0.0
 10
7327.604764869558
 20
5375.298561991187
 30
0.0
  0
ARC
  5
105
330
1F
100
AcDbEntity
  8
0
  6
Continuous
 62
     7
370
    25
100
AcDbCircle
 10
7322.6296426226
 20
5382.1904527788
 30
0.0
 40
8.499999999999805
100
AcDbArc
 50
185.8247870861
 51
245.8247870861
  0
SPLINE
  5
106
330
1F
100
AcDbEntity
  8
0
  6
Continuous
 62
     7
370
    25
100
AcDbSpline
210
0.0
220
0.0
230
1.0
 70
    24
 71
     3
 72
     9
 73
     5
 74
     0
 42
0.000000001
 43
0.00000001
 40
0.0
 40
0.0
 40
0.0
 40
0.0
 40
0.7169484261070613
 40
1.0
 40
1.0
 40
1.0
 40
1.0
 10
7314.173528997014
 20
5381.327815919833
 30
0.0
 10
7314.294486231091
 20
5380.14211639334
 30
0.0
 10
7314.463197437746
 20
5378.488302139322
 30
0.0
 10
7314.625603366113
 20
5376.89629622225
 30
0.0
 10
7314.671572619746
 20
5376.445676441776
 30
0.0
  0
SPLINE
  5
107
330
1F
100
AcDbEntity
  8
0
  6
Continuous
 62
     7
370
    25
100
AcDbSpline
210
0.0
220
0.0
230
1.0
 70
    24
 71
     3
 72
    10
 73
     6
 74
     0
 42
0.000000001
 43
0.00000001
 40
0.0
 40
0.0
 40
0.0
 40
0.0
 40
0.3315739395276882
 40
0.6721625413044764
 40
1.0
 40
1.0
 40
1.0
 40
1.0
 10
7314.671572619746
 20
5376.445676441776
 30
0.0
 10
7315.156433354759
 20
5376.228023463364
 30
0.0
 10
7316.13933696983
 20
5375.786800068966
 30
0.0
 10
7317.650021090149
 20
5375.108657100307
 30
0.0
 10
7318.655501498216
 20
5374.657299030353
 30
0.0
 10
7319.148651243928
 20
5374.435925132228
 30
0.0
  0
LINE
  5
108
330
1F
100
AcDbEntity
  8
0
  6
Continuous
 62
     7
370
    25
100
AcDbLine
 10
7331.0857562483
 20
5383.0530896377
 30
0.0
 11
7330.8096005424
 21
5385.760143021
 31
0.0
  0
ARC
  5
109
330
1F
100
AcDbEntity
  8
0
  6
Continuous
 62
     7
370
    25
100
AcDbCircle
 10
7322.6296426226
 20
5382.1904527788
 30
0.0
 40
8.500000000000263
100
AcDbArc
 50
5.8247870861
 51
24.8322867695
  0
ARC
  5
10A
330
1F
100
AcDbEntity
  8
0
  6
Continuous
 62
     7
370
    25
100
AcDbCircle
 10
7322.6296426226
 20
5382.1904527788
 30
0.0
 40
4.750000000000141
100
AcDbArc
 50
131.2783270197
 51
5.8247870861
  0
ARC
  5
10B
330
1F
100
AcDbEntity
  8
0
  6
Continuous
 62
     7
370
    25
100
AcDbCircle
 10
7322.6296426226
 20
5382.1904527788
 30
0.0
 40
4.750000000000141
100
AcDbArc
 50
5.8247870861
 51
48.7216729803
  0
ARC
  5
10C
330
1F
100
AcDbEntity
  8
0
  6
Continuous
 62
     7
370
    25
100
AcDbCircle
 10
7322.6296426226
 20
5382.1904527788
 30
0.0
 40
4.250000000000264
100
AcDbArc
 50
5.8247870861
 51
57.1324240305
  0
ARC
  5
10D
330
1F
100
AcDbEntity
  8
0
  6
Continuous
 62
     7
370
    25
100
AcDbCircle
 10
7322.6296426226
 20
5382.1904527788
 30
0.0
 40
4.250000000000264
100
AcDbArc
 50
122.8675759694
 51
5.8247870861
  0
CIRCLE
  5
10E
330
1F
100
AcDbEntity
  8
0
  6
Continuous
 62
     7
370
    25
100
AcDbCircle
 10
6912.2807537006
 20
5034.2568537107
 30
0.0
 40
12.49999999999965
  0
LINE
  5
10F
330
1F
100
AcDbEntity
  8
0
  6
Continuous
 62
     7
370
    25
100
AcDbLine
 10
7214.2807537006
 20
5410.760143021
 30
0.0
 11
7299.2807537006
 21
5410.760143021
 31
0.0
  0
LINE
  5
110
330
1F
100
AcDbEntity
  8
0
  6
Continuous
 62
     7
370
    25
100
AcDbLine
 10
7024.2807537006
 20
5410.760143021
 30
0.0
 11
7109.2807537006
 21
5410.760143021
 31
0.0
  0
LINE
  5
111
330
1F
100
AcDbEntity
  8
0
  6
Continuous
 62
     7
370
    25
100
AcDbLine
 10
6929.2807537006
 20
5410.760143021
 30
0.0
 11
7014.2807537006
 21
5410.760143021
 31
0.0
  0
LINE
  5
112
330
1F
100
AcDbEntity
  8
0
  6
Continuous
 62
     7
370
    25
100
AcDbLine
 10
7119.2807537006
 20
5410.760143021
 30
0.0
 11
7204.2807537006
 21
5410.760143021
 31
0.0
  0
ARC
  5
113
330
1F
100
AcDbEntity
  8
0
  6
Continuous
 62
     7
370
    25
100
AcDbCircle
 10
7341.7807537006
 20
5398.260143021
 30
0.0
 40
12.50000000000091
100
AcDbArc
 50
270.0
 51
90.0
  0
LINE
  5
114
330
1F
100
AcDbEntity
  8
0
  6
Continuous
 62
     7
370
    25
100
AcDbLine
 10
7349.8155988217
 20
5388.684587482
 30
0.0
 11
7330.6644877437
 21
5372.6148972398
 31
0.0
  0
ARC
  5
115
330
1F
100
AcDbEntity
  8
0
  6
Continuous
 62
     7
370
    25
100
AcDbCircle
 10
7322.6296426226
 20
5382.1904527788
 30
0.0
 40
12.49999999999998
100
AcDbArc
 50
163.406764727
 51
310.0
  0
LINE
  5
116
330
1F
100
AcDbEntity
  8
0
  6
Continuous
 62
     8
370
    25
100
AcDbLine
 10
7311.7807537006
 20
5410.760143021
 30
0.0
 11
7311.7807537006
 21
5385.760143021
 31
0.0
  0
LINE
  5
117
330
1F
100
AcDbEntity
  8
0
  6
Continuous
 62
     7
370
    25
100
AcDbLine
 10
6047.0187553361
 20
4597.7818698607
 30
0.0
 11
6049.0187553361
 21
4597.7818698607
 31
0.0
  0
LINE
  5
118
330
1F
100
AcDbEntity
  8
0
  6
Continuous
 62
     7
370
    25
100
AcDbLine
 10
6472.0187553361
 20
4597.7818698607
 30
0.0
 11
6474.0187553361
 21
4597.7818698607
 31
0.0
  0
LINE
  5
119
330
1F
100
AcDbEntity
  8
0
  6
Continuous
 62
     7
370
    25
100
AcDbLine
 10
6074.0187553361
 20
4597.7818698607
 30
0.0
 11
6076.0187553361
 21
4597.7818698607
 31
0.0
  0
LINE
  5
11A
330
1F
100
AcDbEntity
  8
0
  6
Continuous
 62
     7
370
    25
100
AcDbLine
 10
6499.0187553361
 20
4597.7818698607
 30
0.0
 11
6501.0187553361
 21
4597.7818698607
 31
0.0
  0
LINE
  5
11B
330
1F
100
AcDbEntity
  8
0
  6
Continuous
 62
     7
370
    25
100
AcDbLine
 10
6047.0187553361
 20
4619.7818698607
 30
0.0
 11
6046.0187553361
 21
4619.7818698607
 31
0.0
  0
LINE
  5
11C
330
1F
100
AcDbEntity
  8
0
  6
Continuous
 62
     7
370
    25
100
AcDbLine
 10
6046.0187553361
 20
4600.7818698607
 30
0.0
 11
6047.0187553361
 21
4600.7818698607
 31
0.0
  0
ARC
  5
11D
330
1F
100
AcDbEntity
  8
0
  6
Continuous
 62
     7
370
    25
100
AcDbCircle
 10
6052.0187553361
 20
4610.2818698607
 30
0.0
 40
11.23610252712244
100
AcDbArc
 50
200.8544580396
 51
237.7243556854
  0
ARC
  5
11E
330
1F
100
AcDbEntity
  8
0
  6
Continuous
 62
     7
370
    25
100
AcDbCircle
 10
6052.0187553361
 20
4610.2818698607
 30
0.0
 40
11.23610252712212
100
AcDbArc
 50
122.2756443146
 51
159.1455419604
  0
ARC
  5
11F
330
1F
100
AcDbEntity
  8
0
  6
Continuous
 62
     7
370
    25
100
AcDbCircle
 10
6283.5187553361
 20
4201.9329809387
 30
0.0
 40
11.23610252712212
100
AcDbArc
 50
20.8544580396
 51
57.7243556854
  0
ARC
  5
120
330
1F
100
AcDbEntity
  8
0
  6
Continuous
 62
     7
370
    25
100
AcDbCircle
 10
6283.5187553361
 20
4201.9329809387
 30
0.0
 40
11.23610252712212
100
AcDbArc
 50
323.7051229309
 51
339.1455419604
  0
LINE
  5
121
330
1F
100
AcDbEntity
  8
0
  6
Continuous
 62
     7
370
    25
100
AcDbLine
 10
6289.5187553361
 20
4211.4329809387
 30
0.0
 11
6288.5187553361
 21
4211.4329809387
 31
0.0
  0
LINE
  5
122
330
1F
100
AcDbEntity
  8
0
  6
Continuous
 62
     7
370
    25
100
AcDbLine
 10
6286.5187553361
 20
4206.9329809387
 30
0.0
 11
6286.0932713462
 21
4206.9329809387
 31
0.0
  0
LINE
  5
123
330
1F
100
AcDbEntity
  8
0
  6
Continuous
 62
     7
370
    25
100
AcDbLine
 10
6261.9822514897
 20
4206.9329809387
 30
0.0
 11
6261.5187553361
 21
4206.9329809387
 31
0.0
  0
LINE
  5
124
330
1F
100
AcDbEntity
  8
0
  6
Continuous
 62
     7
370
    25
100
AcDbLine
 10
6501.0187553361
 20
4600.7818698607
 30
0.0
 11
6502.0187553361
 21
4600.7818698607
 31
0.0
  0
LINE
  5
125
330
1F
100
AcDbEntity
  8
0
  6
Continuous
 62
     7
370
    25
100
AcDbLine
 10
6502.0187553361
 20
4619.7818698607
 30
0.0
 11
6501.0187553361
 21
4619.7818698607
 31
0.0
  0
ARC
  5
126
330
1F
100
AcDbEntity
  8
0
  6
Continuous
 62
     7
370
    25
100
AcDbCircle
 10
6496.0187553361
 20
4610.2818698607
 30
0.0
 40
11.23610252712212
100
AcDbArc
 50
20.8544580396
 51
57.7243556854
  0
ARC
  5
127
330
1F
100
AcDbEntity
  8
0
  6
Continuous
 62
     7
370
    25
100
AcDbCircle
 10
6496.0187553361
 20
4610.2818698607
 30
0.0
 40
11.23610252712244
100
AcDbArc
 50
302.2756443146
 51
339.1455419604
  0
ARC
  5
128
330
1F
100
AcDbEntity
  8
0
  6
Continuous
 62
     7
370
    25
100
AcDbCircle
 10
6256.5427974501
 20
4210.0539365342
 30
0.0
 40
3.000000000000901
100
AcDbArc
 50
7.2586155277
 51
8.1192663467
  0
ARC
  5
129
330
1F
100
AcDbEntity
  8
0
  6
Continuous
 62
     7
370
    25
100
AcDbCircle
 10
6254.4947132221
 20
4210.0539365342
 30
0.0
 40
3.000000000000458
100
AcDbArc
 50
171.8164563989
 51
172.7413844723
  0
ARC
  5
12A
330
1F
100
AcDbEntity
  8
0
  6
Continuous
 62
     7
370
    25
100
AcDbCircle
 10
6469.0427974501
 20
4618.4028254563
 30
0.0
 40
3.000000000000001
100
AcDbArc
 50
7.2586155277
 51
8.1192663467
  0
ARC
  5
12B
330
1F
100
AcDbEntity
  8
0
  6
Continuous
 62
     7
370
    25
100
AcDbCircle
 10
6466.9947132221
 20
4618.4028254563
 30
0.0
 40
3.000000000000458
100
AcDbArc
 50
171.8164563989
 51
172.7413844723
  0
ARC
  5
12C
330
1F
100
AcDbEntity
  8
0
  6
Continuous
 62
     7
370
    25
100
AcDbCircle
 10
6466.9947132221
 20
4602.1609142652
 30
0.0
 40
3.000000000000458
100
AcDbArc
 50
187.2586155277
 51
188.1856832957
  0
ARC
  5
12D
330
1F
100
AcDbEntity
  8
0
  6
Continuous
 62
     7
370
    25
100
AcDbCircle
 10
6469.0427974501
 20
4602.1609142652
 30
0.0
 40
2.999999999999867
100
AcDbArc
 50
351.7753431135
 51
352.7413844723
  0
ARC
  5
12E
330
1F
100
AcDbEntity
  8
0
  6
Continuous
 62
     7
370
    25
100
AcDbCircle
 10
6081.0427974501
 20
4618.4028254563
 30
0.0
 40
2.999999999999802
100
AcDbArc
 50
7.2586155277
 51
7.3170255531
  0
ARC
  5
12F
330
1F
100
AcDbEntity
  8
0
  6
Continuous
 62
     7
370
    25
100
AcDbCircle
 10
6078.9947132221
 20
4618.4028254563
 30
0.0
 40
2.999999999999671
100
AcDbArc
 50
172.666767395
 51
172.7413844723
  0
ARC
  5
130
330
1F
100
AcDbEntity
  8
0
  6
Continuous
 62
     7
370
    25
100
AcDbCircle
 10
6081.0427974501
 20
4602.1609142652
 30
0.0
 40
3.000000000000016
100
AcDbArc
 50
352.6566101867
 51
352.7413844723
  0
ARC
  5
131
330
1F
100
AcDbEntity
  8
0
  6
Continuous
 62
     7
370
    25
100
AcDbCircle
 10
6078.9947132221
 20
4602.1609142652
 30
0.0
 40
2.999999999999556
100
AcDbArc
 50
187.2586155277
 51
187.321390342
  0
LINE
  5
132
330
1F
100
AcDbEntity
  8
0
  6
Continuous
 62
     7
370
    25
100
AcDbLine
 10
6261.5187553361
 20
4602.7477414006
 30
0.0
 11
6261.5187553361
 21
4595.2818698607
 31
0.0
  0
LINE
  5
133
330
1F
100
AcDbEntity
  8
0
  6
Continuous
 62
     7
370
    25
100
AcDbLine
 10
6261.5187553361
 20
4510.2818698607
 30
0.0
 11
6261.5187553361
 21
4500.2818698607
 31
0.0
  0
LINE
  5
134
330
1F
100
AcDbEntity
  8
0
  6
Continuous
 62
     7
370
    25
100
AcDbLine
 10
6261.5187553361
 20
4415.2818698607
 30
0.0
 11
6261.5187553361
 21
4405.2818698607
 31
0.0
  0
LINE
  5
135
330
1F
100
AcDbEntity
  8
0
  6
Continuous
 62
     7
370
    25
100
AcDbLine
 10
6261.5187553361
 20
4320.2818698607
 30
0.0
 11
6261.5187553361
 21
4310.2818698607
 31
0.0
  0
LINE
  5
136
330
1F
100
AcDbEntity
  8
0
  6
Continuous
 62
     7
370
    25
100
AcDbLine
 10
6261.5187553361
 20
4225.2818698607
 30
0.0
 11
6261.5187553361
 21
4214.4329809387
 31
0.0
  0
LINE
  5
137
330
1F
100
AcDbEntity
  8
0
  6
Continuous
 62
     7
370
    25
100
AcDbLine
 10
6286.5187553361
 20
4214.4329809387
 30
0.0
 11
6286.5187553361
 21
4225.2818698607
 31
0.0
  0
LINE
  5
138
330
1F
100
AcDbEntity
  8
0
  6
Continuous
 62
     7
370
    25
100
AcDbLine
 10
6286.5187553361
 20
4310.2818698607
 30
0.0
 11
6286.5187553361
 21
4320.2818698607
 31
0.0
  0
LINE
  5
139
330
1F
100
AcDbEntity
  8
0
  6
Continuous
 62
     7
370
    25
100
AcDbLine
 10
6286.5187553361
 20
4405.2818698607
 30
0.0
 11
6286.5187553361
 21
4415.2818698607
 31
0.0
  0
LINE
  5
13A
330
1F
100
AcDbEntity
  8
0
  6
Continuous
 62
     7
370
    25
100
AcDbLine
 10
6286.5187553361
 20
4500.2818698607
 30
0.0
 11
6286.5187553361
 21
4510.2818698607
 31
0.0
  0
LINE
  5
13B
330
1F
100
AcDbEntity
  8
0
  6
Continuous
 62
     7
370
    25
100
AcDbLine
 10
6286.5187553361
 20
4595.2818698607
 30
0.0
 11
6286.5187553361
 21
4602.7477414006
 31
0.0
  0
LINE
  5
13C
330
1F
100
AcDbEntity
  8
0
  6
Continuous
 62
     7
370
    25
100
AcDbLine
 10
6286.5187553361
 20
4599.7818698607
 30
0.0
 11
6339.0187553361
 21
4599.7818698607
 31
0.0
  0
LINE
  5
13D
330
1F
100
AcDbEntity
  8
0
  6
Continuous
 62
     7
370
    25
100
AcDbLine
 10
6209.0187553361
 20
4599.7818698607
 30
0.0
 11
6261.5187553361
 21
4599.7818698607
 31
0.0
  0
LINE
  5
13E
330
1F
100
AcDbEntity
  8
0
  6
Continuous
 62
     7
370
    25
100
AcDbLine
 10
6049.0187553361
 20
4597.7818698607
 30
0.0
 11
6049.0187553361
 21
4212.7818698607
 31
0.0
  0
LINE
  5
13F
330
1F
100
AcDbEntity
  8
0
  6
Continuous
 62
     7
370
    25
100
AcDbLine
 10
6074.0187553361
 20
4212.7818698607
 30
0.0
 11
6074.0187553361
 21
4225.2818698607
 31
0.0
  0
LINE
  5
140
330
1F
100
AcDbEntity
  8
0
  6
Continuous
 62
     7
370
    25
100
AcDbLine
 10
6074.0187553361
 20
4310.2818698607
 30
0.0
 11
6074.0187553361
 21
4320.2818698607
 31
0.0
  0
LINE
  5
141
330
1F
100
AcDbEntity
  8
0
  6
Continuous
 62
     7
370
    25
100
AcDbLine
 10
6074.0187553361
 20
4405.2818698607
 30
0.0
 11
6074.0187553361
 21
4415.2818698607
 31
0.0
  0
LINE
  5
142
330
1F
100
AcDbEntity
  8
0
  6
Continuous
 62
     7
370
    25
100
AcDbLine
 10
6074.0187553361
 20
4500.2818698607
 30
0.0
 11
6074.0187553361
 21
4510.2818698607
 31
0.0
  0
LINE
  5
143
330
1F
100
AcDbEntity
  8
0
  6
Continuous
 62
     7
370
    25
100
AcDbLine
 10
6074.0187553361
 20
4595.2818698607
 30
0.0
 11
6074.0187553361
 21
4597.7818698607
 31
0.0
  0
LINE
  5
144
330
1F
100
AcDbEntity
  8
0
  6
Continuous
 62
     7
370
    25
100
AcDbLine
 10
6474.0187553361
 20
4597.7818698607
 30
0.0
 11
6474.0187553361
 21
4595.2818698607
 31
0.0
  0
LINE
  5
145
330
1F
100
AcDbEntity
  8
0
  6
Continuous
 62
     7
370
    25
100
AcDbLine
 10
6474.0187553361
 20
4510.2818698607
 30
0.0
 11
6474.0187553361
 21
4500.2818698607
 31
0.0
  0
LINE
  5
146
330
1F
100
AcDbEntity
  8
0
  6
Continuous
 62
     7
370
    25
100
AcDbLine
 10
6474.0187553361
 20
4415.2818698607
 30
0.0
 11
6474.0187553361
 21
4405.2818698607
 31
0.0
  0
LINE
  5
147
330
1F
100
AcDbEntity
  8
0
  6
Continuous
 62
     7
370
    25
100
AcDbLine
 10
6474.0187553361
 20
4320.2818698607
 30
0.0
 11
6474.0187553361
 21
4310.2818698607
 31
0.0
  0
LINE
  5
148
330
1F
100
AcDbEntity
  8
0
  6
Continuous
 62
     7
370
    25
100
AcDbLine
 10
6474.0187553361
 20
4225.2818698607
 30
0.0
 11
6474.0187553361
 21
4212.7818698607
 31
0.0
  0
LINE
  5
149
330
1F
100
AcDbEntity
  8
0
  6
Continuous
 62
     7
370
    25
100
AcDbLine
 10
6499.0187553361
 20
4212.7818698607
 30
0.0
 11
6499.0187553361
 21
4597.7818698607
 31
0.0
  0
ARC
  5
14A
330
1F
100
AcDbEntity
  8
0
  6
Continuous
 62
     7
370
    25
100
AcDbCircle
 10
6456.5187553361
 20
4212.7818698607
 30
0.0
 40
17.5
100
AcDbArc
 50
270.0
 51
0.0
  0
ARC
  5
14B
330
1F
100
AcDbEntity
  8
0
  6
Continuous
 62
     7
370
    25
100
AcDbCircle
 10
6456.5187553361
 20
4212.7818698607
 30
0.0
 40
42.50000000000091
100
AcDbArc
 50
270.0
 51
0.0
  0
ARC
  5
14C
330
1F
100
AcDbEntity
  8
0
  6
Continuous
 62
     7
370
    25
100
AcDbCircle
 10
6091.5187553361
 20
4212.7818698607
 30
0.0
 40
17.5
100
AcDbArc
 50
180.0
 51
270.0
  0
ARC
  5
14D
330
1F
100
AcDbEntity
  8
0
  6
Continuous
 62
     7
370
    25
100
AcDbCircle
 10
6091.5187553361
 20
4212.7818698607
 30
0.0
 40
42.50000000000091
100
AcDbArc
 50
180.0
 51
270.0
  0
LINE
  5
14E
330
1F
100
AcDbEntity
  8
0
  6
Continuous
 62
     7
370
    25
100
AcDbLine
 10
6259.5187553361
 20
4195.2818698607
 30
0.0
 11
6091.5187553361
 21
4195.2818698607
 31
0.0
  0
LINE
  5
14F
330
1F
100
AcDbEntity
  8
0
  6
Continuous
 62
     7
370
    25
100
AcDbLine
 10
6286.5187553361
 20
4195.2818698607
 30
0.0
 11
6261.5187553361
 21
4195.2818698607
 31
0.0
  0
LINE
  5
150
330
1F
100
AcDbEntity
  8
0
  6
Continuous
 62
     7
370
    25
100
AcDbLine
 10
6456.5187553361
 20
4195.2818698607
 30
0.0
 11
6288.5187553361
 21
4195.2818698607
 31
0.0
  0
LINE
  5
151
330
1F
100
AcDbEntity
  8
0
  6
Continuous
 62
     7
370
    25
100
AcDbLine
 10
6091.5187553361
 20
4170.2818698607
 30
0.0
 11
6456.5187553361
 21
4170.2818698607
 31
0.0
  0
LINE
  5
152
330
1F
100
AcDbEntity
  8
0
  6
Continuous
 62
     7
370
    25
100
AcDbLine
 10
6261.5187553361
 20
4214.4329809387
 30
0.0
 11
6259.5187553361
 21
4214.4329809387
 31
0.0
  0
LINE
  5
153
330
1F
100
AcDbEntity
  8
0
  6
Continuous
 62
     7
370
    25
100
AcDbLine
 10
6288.5187553361
 20
4214.4329809387
 30
0.0
 11
6286.5187553361
 21
4214.4329809387
 31
0.0
  0
LINE
  5
154
330
1F
100
AcDbEntity
  8
0
  6
Continuous
 62
     7
370
    25
100
AcDbLine
 10
6499.0187553361
 20
4622.7818698607
 30
0.0
 11
6499.0187553361
 21
4610.2818698607
 31
0.0
  0
LINE
  5
155
330
1F
100
AcDbEntity
  8
0
  6
Continuous
 62
     7
370
    25
100
AcDbLine
 10
6474.0187553361
 20
4622.7818698607
 30
0.0
 11
6499.0187553361
 21
4622.7818698607
 31
0.0
  0
LINE
  5
156
330
1F
100
AcDbEntity
  8
0
  6
Continuous
 62
     7
370
    25
100
AcDbLine
 10
6474.0187553361
 20
4610.2818698607
 30
0.0
 11
6474.0187553361
 21
4622.7818698607
 31
0.0
  0
LINE
  5
157
330
1F
100
AcDbEntity
  8
0
  6
Continuous
 62
     7
370
    25
100
AcDbLine
 10
6472.0187553361
 20
4610.2818698607
 30
0.0
 11
6474.0187553361
 21
4610.2818698607
 31
0.0
  0
LINE
  5
158
330
1F
100
AcDbEntity
  8
0
  6
Continuous
 62
     7
370
    25
100
AcDbLine
 10
6472.0187553361
 20
4622.7818698607
 30
0.0
 11
6472.0187553361
 21
4610.2818698607
 31
0.0
  0
LINE
  5
159
330
1F
100
AcDbEntity
  8
0
  6
Continuous
 62
     7
370
    25
100
AcDbLine
 10
6076.0187553361
 20
4622.7818698607
 30
0.0
 11
6472.0187553361
 21
4622.7818698607
 31
0.0
  0
LINE
  5
15A
330
1F
100
AcDbEntity
  8
0
  6
Continuous
 62
     7
370
    25
100
AcDbLine
 10
6076.0187553361
 20
4610.2818698607
 30
0.0
 11
6076.0187553361
 21
4622.7818698607
 31
0.0
  0
LINE
  5
15B
330
1F
100
AcDbEntity
  8
0
  6
Continuous
 62
     7
370
    25
100
AcDbLine
 10
6074.0187553361
 20
4610.2818698607
 30
0.0
 11
6076.0187553361
 21
4610.2818698607
 31
0.0
  0
LINE
  5
15C
330
1F
100
AcDbEntity
  8
0
  6
Continuous
 62
     7
370
    25
100
AcDbLine
 10
6074.0187553361
 20
4622.7818698607
 30
0.0
 11
6074.0187553361
 21
4610.2818698607
 31
0.0
  0
LINE
  5
15D
330
1F
100
AcDbEntity
  8
0
  6
Continuous
 62
     7
370
    25
100
AcDbLine
 10
6049.0187553361
 20
4622.7818698607
 30
0.0
 11
6074.0187553361
 21
4622.7818698607
 31
0.0
  0
LINE
  5
15E
330
1F
100
AcDbEntity
  8
0
  6
Continuous
 62
     7
370
    25
100
AcDbLine
 10
6049.0187553361
 20
4610.2818698607
 30
0.0
 11
6049.0187553361
 21
4622.7818698607
 31
0.0
  0
LINE
  5
15F
330
1F
100
AcDbEntity
  8
0
  6
Continuous
 62
     7
370
    25
100
AcDbLine
 10
6047.0187553361
 20
4610.2818698607
 30
0.0
 11
6049.0187553361
 21
4610.2818698607
 31
0.0
  0
LINE
  5
160
330
1F
100
AcDbEntity
  8
0
  6
Continuous
 62
     7
370
    25
100
AcDbLine
 10
6047.0187553361
 20
4622.7818698607
 30
0.0
 11
6047.0187553361
 21
4610.2818698607
 31
0.0
  0
LINE
  5
161
330
1F
100
AcDbEntity
  8
0
  6
Continuous
 62
     7
370
    25
100
AcDbLine
 10
6046.9687553361
 20
4622.7818698607
 30
0.0
 11
6047.0187553361
 21
4622.7818698607
 31
0.0
  0
LINE
  5
162
330
1F
100
AcDbEntity
  8
0
  6
Continuous
 62
     7
370
    25
100
AcDbLine
 10
6046.9687553361
 20
4624.7818698607
 30
0.0
 11
6046.9687553361
 21
4622.7818698607
 31
0.0
  0
LINE
  5
163
330
1F
100
AcDbEntity
  8
0
  6
Continuous
 62
     7
370
    25
100
AcDbLine
 10
6501.0687553361
 20
4624.7818698607
 30
0.0
 11
6046.9687553361
 21
4624.7818698607
 31
0.0
  0
LINE
  5
164
330
1F
100
AcDbEntity
  8
0
  6
Continuous
 62
     7
370
    25
100
AcDbLine
 10
6501.0687553361
 20
4622.7818698607
 30
0.0
 11
6501.0687553361
 21
4624.7818698607
 31
0.0
  0
LINE
  5
165
330
1F
100
AcDbEntity
  8
0
  6
Continuous
 62
     7
370
    25
100
AcDbLine
 10
6501.0187553361
 20
4622.7818698607
 30
0.0
 11
6501.0687553361
 21
4622.7818698607
 31
0.0
  0
LINE
  5
166
330
1F
100
AcDbEntity
  8
0
  6
Continuous
 62
     7
370
    25
100
AcDbLine
 10
6501.0187553361
 20
4610.2818698607
 30
0.0
 11
6501.0187553361
 21
4622.7818698607
 31
0.0
  0
LINE
  5
167
330
1F
100
AcDbEntity
  8
0
  6
Continuous
 62
     7
370
    25
100
AcDbLine
 10
6499.0187553361
 20
4610.2818698607
 30
0.0
 11
6501.0187553361
 21
4610.2818698607
 31
0.0
  0
LINE
  5
168
330
1F
100
AcDbEntity
  8
0
  6
Continuous
 62
     7
370
    25
100
AcDbLine
 10
6049.0187553361
 20
4610.2818698607
 30
0.0
 11
6049.0187553361
 21
4597.7818698607
 31
0.0
  0
LINE
  5
169
330
1F
100
AcDbEntity
  8
0
  6
Continuous
 62
     7
370
    25
100
AcDbLine
 10
6047.0187553361
 20
4597.7818698607
 30
0.0
 11
6047.0187553361
 21
4610.2818698607
 31
0.0
  0
LINE
  5
16A
330
1F
100
AcDbEntity
  8
0
  6
Continuous
 62
     7
370
    25
100
AcDbLine
 10
6474.0187553361
 20
4610.2818698607
 30
0.0
 11
6474.0187553361
 21
4597.7818698607
 31
0.0
  0
LINE
  5
16B
330
1F
100
AcDbEntity
  8
0
  6
Continuous
 62
     7
370
    25
100
AcDbLine
 10
6472.0187553361
 20
4597.7818698607
 30
0.0
 11
6472.0187553361
 21
4610.2818698607
 31
0.0
  0
LINE
  5
16C
330
1F
100
AcDbEntity
  8
0
  6
Continuous
 62
     7
370
    25
100
AcDbLine
 10
6076.0187553361
 20
4610.2818698607
 30
0.0
 11
6076.0187553361
 21
4597.7818698607
 31
0.0
  0
LINE
  5
16D
330
1F
100
AcDbEntity
  8
0
  6
Continuous
 62
     7
370
    25
100
AcDbLine
 10
6074.0187553361
 20
4597.7818698607
 30
0.0
 11
6074.0187553361
 21
4610.2818698607
 31
0.0
  0
LINE
  5
16E
330
1F
100
AcDbEntity
  8
0
  6
Continuous
 62
     7
370
    25
100
AcDbLine
 10
6501.0187553361
 20
4597.7818698607
 30
0.0
 11
6501.0187553361
 21
4610.2818698607
 31
0.0
  0
LINE
  5
16F
330
1F
100
AcDbEntity
  8
0
  6
Continuous
 62
     7
370
    25
100
AcDbLine
 10
6499.0187553361
 20
4597.7818698607
 30
0.0
 11
6499.0187553361
 21
4610.2818698607
 31
0.0
  0
LINE
  5
170
330
1F
100
AcDbEntity
  8
0
  6
Continuous
 62
     7
370
    25
100
AcDbLine
 10
6046.0187553361
 20
4610.2818698607
 30
0.0
 11
6046.0187553361
 21
4600.7818698607
 31
0.0
  0
LINE
  5
171
330
1F
100
AcDbEntity
  8
0
  6
Continuous
 62
     7
370
    25
100
AcDbLine
 10
6046.0187553361
 20
4619.7818698607
 30
0.0
 11
6046.0187553361
 21
4610.2818698607
 31
0.0
  0
LINE
  5
172
330
1F
100
AcDbEntity
  8
0
  6
Continuous
 62
     7
370
    25
100
AcDbLine
 10
6041.5187553361
 20
4610.2818698607
 30
0.0
 11
6041.5187553361
 21
4606.2818698607
 31
0.0
  0
LINE
  5
173
330
1F
100
AcDbEntity
  8
0
  6
Continuous
 62
     7
370
    25
100
AcDbLine
 10
6041.5187553361
 20
4614.2818698607
 30
0.0
 11
6041.5187553361
 21
4610.2818698607
 31
0.0
  0
LINE
  5
174
330
1F
100
AcDbEntity
  8
0
  6
Continuous
 62
     7
370
    25
100
AcDbLine
 10
6289.5187553361
 20
4210.7131145697
 30
0.0
 11
6289.5187553361
 21
4211.4329809387
 31
0.0
  0
LINE
  5
175
330
1F
100
AcDbEntity
  8
0
  6
Continuous
 62
     7
370
    25
100
AcDbLine
 10
6289.5187553361
 20
4195.2818698607
 30
0.0
 11
6289.5187553361
 21
4210.7131145697
 31
0.0
  0
LINE
  5
176
330
1F
100
AcDbEntity
  8
0
  6
Continuous
 62
     7
370
    25
100
AcDbLine
 10
6294.0187553361
 20
4205.6298793097
 30
0.0
 11
6294.0187553361
 21
4205.9329809387
 31
0.0
  0
LINE
  5
177
330
1F
100
AcDbEntity
  8
0
  6
Continuous
 62
     7
370
    25
100
AcDbLine
 10
6294.0187553361
 20
4197.9329809387
 30
0.0
 11
6294.0187553361
 21
4205.6298793097
 31
0.0
  0
LINE
  5
178
330
1F
100
AcDbEntity
  8
0
  6
Continuous
 62
     7
370
    25
100
AcDbLine
 10
6502.0187553361
 20
4619.0620034917
 30
0.0
 11
6502.0187553361
 21
4619.7818698607
 31
0.0
  0
LINE
  5
179
330
1F
100
AcDbEntity
  8
0
  6
Continuous
 62
     7
370
    25
100
AcDbLine
 10
6502.0187553361
 20
4600.7818698607
 30
0.0
 11
6502.0187553361
 21
4619.0620034917
 31
0.0
  0
LINE
  5
17A
330
1F
100
AcDbEntity
  8
0
  6
Continuous
 62
     7
370
    25
100
AcDbLine
 10
6506.5187553361
 20
4613.9787682317
 30
0.0
 11
6506.5187553361
 21
4614.2818698607
 31
0.0
  0
LINE
  5
17B
330
1F
100
AcDbEntity
  8
0
  6
Continuous
 62
     7
370
    25
100
AcDbLine
 10
6506.5187553361
 20
4606.2818698607
 30
0.0
 11
6506.5187553361
 21
4613.9787682317
 31
0.0
  0
SPLINE
  5
17C
330
1F
100
AcDbEntity
  8
0
  6
Continuous
 62
     7
370
    25
100
AcDbSpline
210
0.0
220
0.0
230
1.0
 70
     8
 71
     3
 72
    11
 73
     7
 74
     0
 42
0.000000001
 43
0.00000001
 40
0.0
 40
0.0
 40
0.0
 40
0.0
 40
0.2477654491854931
 40
0.495745627422234
 40
0.7461584461920994
 40
1.0
 40
1.0
 40
1.0
 40
1.0
 10
6251.5187553361
 20
4198.451989559991
 30
0.0
 10
6251.520436386629
 20
4198.825173219628
 30
0.0
 10
6251.523799944588
 20
4199.571863963227
 30
0.0
 10
6251.574092988556
 20
4200.69403065655
 30
0.0
 10
6251.685680427623
 20
4201.826290859492
 30
0.0
 10
6251.907228220125
 20
4202.55981318641
 30
0.0
 10
6252.0187553361
 20
4202.929068184172
 30
0.0
  0
LINE
  5
17D
330
1F
100
AcDbEntity
  8
0
  6
Continuous
 62
     7
370
    25
100
AcDbLine
 10
6259.0187553361
 20
4202.9290681842
 30
0.0
 11
6252.0187553361
 21
4202.9290681842
 31
0.0
  0
SPLINE
  5
17E
330
1F
100
AcDbEntity
  8
0
  6
Continuous
 62
     7
370
    25
100
AcDbSpline
210
0.0
220
0.0
230
1.0
 70
     8
 71
     3
 72
    12
 73
     8
 74
     0
 42
0.000000001
 43
0.00000001
 40
0.0
 40
0.0
 40
0.0
 40
0.0
 40
0.1649681212442392
 40
0.3318237985876403
 40
0.5018646358024884
 40
0.6723295595564788
 40
1.0
 40
1.0
 40
1.0
 40
1.0
 10
6259.0187553361
 20
4202.929068184172
 30
0.0
 10
6259.096650244272
 20
4202.690691161521
 30
0.0
 10
6259.253331329835
 20
4202.211209619536
 30
0.0
 10
6259.380601729808
 20
4201.462453096382
 30
0.0
 10
6259.459373237946
 20
4200.701609262553
 30
0.0
 10
6259.511417108841
 20
4199.695934818235
 30
0.0
 10
6259.51584361019
 20
4198.945573025214
 30
0.0
 10
6259.5187553361
 20
4198.451989559991
 30
0.0
  0
SPLINE
  5
17F
330
1F
100
AcDbEntity
  8
0
  6
Continuous
 62
     7
370
    25
100
AcDbSpline
210
0.0
220
0.0
230
1.0
 70
     8
 71
     3
 72
     9
 73
     5
 74
     0
 42
0.000000001
 43
0.00000001
 40
0.0
 40
0.0
 40
0.0
 40
0.0
 40
0.7029922736192216
 40
0.9999999999999999
 40
0.9999999999999999
 40
0.9999999999999999
 40
0.9999999999999999
 10
6259.5187553361
 20
4198.451989559991
 30
0.0
 10
6259.539584897052
 20
4197.701876899527
 30
0.0
 10
6259.569214754639
 20
4196.634848585542
 30
0.0
 10
6259.34054947397
 20
4195.591694641822
 30
0.0
 10
6259.272634118856
 20
4195.281869860733
 30
0.0
  0
SPLINE
  5
180
330
1F
100
AcDbEntity
  8
0
  6
Continuous
 62
     7
370
    25
100
AcDbSpline
210
0.0
220
0.0
230
1.0
 70
     8
 71
     3
 72
    10
 73
     6
 74
     0
 42
0.000000001
 43
0.00000001
 40
0.0
 40
0.0
 40
0.0
 40
0.0
 40
0.0501116631206807
 40
0.5341160424131718
 40
1.0
 40
1.0
 40
1.0
 40
1.0
 10
6251.703375589046
 20
4195.281869860733
 30
0.0
 10
6251.690473466018
 20
4195.333659125491
 30
0.0
 10
6251.552955960889
 20
4195.885655914453
 30
0.0
 10
6251.545196203181
 20
4196.955138844514
 30
0.0
 10
6251.527456153206
 20
4197.959425368724
 30
0.0
 10
6251.5187553361
 20
4198.451989559991
 30
0.0
  0
SPLINE
  5
181
330
1F
100
AcDbEntity
  8
0
  6
Continuous
 62
     7
370
    25
100
AcDbSpline
210
0.0
220
0.0
230
1.0
 70
     8
 71
     3
 72
    12
 73
     8
 74
     0
 42
0.000000001
 43
0.00000001
 40
0.0
 40
0.0
 40
0.0
 40
0.0
 40
0.2477111508731438
 40
0.4956369837393294
 40
0.7459949240204239
 40
0.8725951266401478
 40
1.0
 40
1.0
 40
1.0
 40
1.0
 10
6259.5187553361
 20
4206.90810318562
 30
0.0
 10
6259.516789755058
 20
4206.576497125553
 30
0.0
 10
6259.512856889481
 20
4205.912997614844
 30
0.0
 10
6259.466850465063
 20
4204.914706946169
 30
0.0
 10
6259.360406378251
 20
4204.081648402172
 30
0.0
 10
6259.204193671837
 20
4203.417386472927
 30
0.0
 10
6259.080698522746
 20
4203.092184353128
 30
0.0
 10
6259.0187553361
 20
4202.929068184172
 30
0.0
  0
LINE
  5
182
330
1F
100
AcDbEntity
  8
0
  6
Continuous
 62
     7
370
    25
100
AcDbLine
 10
6251.5187553361
 20
4206.9081031856
 30
0.0
 11
6251.5187553361
 21
4198.45198956
 31
0.0
  0
SPLINE
  5
183
330
1F
100
AcDbEntity
  8
0
  6
Continuous
 62
     7
370
    25
100
AcDbSpline
210
0.0
220
0.0
230
1.0
 70
     8
 71
     3
 72
    12
 73
     8
 74
     0
 42
0.000000001
 43
0.00000001
 40
0.0
 40
0.0
 40
0.0
 40
0.0
 40
0.1649681212442498
 40
0.3318237985876462
 40
0.5018646358024875
 40
0.6723295595564817
 40
1.0
 40
1.0
 40
1.0
 40
1.0
 10
6252.0187553361
 20
4202.929068184172
 30
0.0
 10
6251.940860427928
 20
4203.140927433538
 30
0.0
 10
6251.784179342364
 20
4203.567070014059
 30
0.0
 10
6251.656908942392
 20
4204.232532621104
 30
0.0
 10
6251.578137434254
 20
4204.908737910217
 30
0.0
 10
6251.52609356336
 20
4205.80253812011
 30
0.0
 10
6251.52166706201
 20
4206.469427421997
 30
0.0
 10
6251.5187553361
 20
4206.90810318562
 30
0.0
  0
SPLINE
  5
184
330
1F
100
AcDbEntity
  8
0
  6
Continuous
 62
     7
370
    25
100
AcDbSpline
210
0.0
220
0.0
230
1.0
 70
     8
 71
     3
 72
     9
 73
     5
 74
     0
 42
0.000000001
 43
0.00000001
 40
0.0
 40
0.0
 40
0.0
 40
0.0
 40
0.4962229202407268
 40
1.0
 40
1.0
 40
1.0
 40
1.0
 10
6251.5187553361
 20
4206.90810318562
 30
0.0
 10
6251.510440799486
 20
4207.573742980872
 30
0.0
 10
6251.493685151418
 20
4208.915155817926
 30
0.0
 10
6251.842852718705
 20
4210.226508674467
 30
0.0
 10
6252.0187553361
 20
4210.887138187069
 30
0.0
  0
LINE
  5
185
330
1F
100
AcDbEntity
  8
0
  6
Continuous
 62
     7
370
    25
100
AcDbLine
 10
6259.0187553361
 20
4210.8871381871
 30
0.0
 11
6252.0187553361
 21
4210.8871381871
 31
0.0
  0
SPLINE
  5
186
330
1F
100
AcDbEntity
  8
0
  6
Continuous
 62
     7
370
    25
100
AcDbSpline
210
0.0
220
0.0
230
1.0
 70
     8
 71
     3
 72
    10
 73
     6
 74
     0
 42
0.000000001
 43
0.00000001
 40
0.0
 40
0.0
 40
0.0
 40
0.0
 40
0.3315739395276353
 40
0.6721625413044762
 40
1.0
 40
1.0
 40
1.0
 40
1.0
 10
6259.0187553361
 20
4210.887138187069
 30
0.0
 10
6259.154687382733
 20
4210.456214811049
 30
0.0
 10
6259.430247126781
 20
4209.582652335221
 30
0.0
 10
6259.50465529138
 20
4208.240021236804
 30
0.0
 10
6259.514115476525
 20
4207.346393477987
 30
0.0
 10
6259.5187553361
 20
4206.90810318562
 30
0.0
  0
LINE
  5
187
330
1F
100
AcDbEntity
  8
0
  6
Continuous
 62
     7
370
    25
100
AcDbLine
 10
6251.5187553361
 20
4198.45198956
 30
0.0
 11
6251.5187553361
 21
4195.2818698607
 31
0.0
  0
SPLINE
  5
188
330
1F
100
AcDbEntity
  8
0
  6
Continuous
 62
     7
370
    25
100
AcDbSpline
210
0.0
220
0.0
230
1.0
 70
     8
 71
     3
 72
    10
 73
     6
 74
     0
 42
0.000000001
 43
0.00000001
 40
0.0
 40
0.0
 40
0.0
 40
0.0
 40
0.2215946265925785
 40
0.6570034528710222
 40
1.0
 40
1.0
 40
1.0
 40
1.0
 10
6259.504556150424
 20
4210.477075221631
 30
0.0
 10
6259.501220215218
 20
4210.507670389921
 30
0.0
 10
6259.491329537896
 20
4210.598381665359
 30
0.0
 10
6259.411873289719
 20
4210.737107936908
 30
0.0
 10
6259.138995990442
 20
4210.841249325255
 30
0.0
 10
6259.0187553361
 20
4210.887138187069
 30
0.0
  0
SPLINE
  5
189
330
1F
100
AcDbEntity
  8
0
  6
Continuous
 62
     7
370
    25
100
AcDbSpline
210
0.0
220
0.0
230
1.0
 70
     8
 71
     3
 72
     9
 73
     5
 74
     0
 42
0.000000001
 43
0.00000001
 40
0.0
 40
0.0
 40
0.0
 40
0.0
 40
0.4917197422844398
 40
1.0
 40
1.0
 40
1.0
 40
1.0
 10
6252.0187553361
 20
4210.887138187069
 30
0.0
 10
6251.860981590758
 20
4210.820898816637
 30
0.0
 10
6251.540120474609
 20
4210.68618921534
 30
0.0
 10
6251.546658260844
 20
4210.547579070158
 30
0.0
 10
6251.549981288517
 20
4210.477126269841
 30
0.0
  0
LINE
  5
18A
330
1F
100
AcDbEntity
  8
0
  6
Continuous
 62
     7
370
    25
100
AcDbLine
 10
6251.5187553361
 20
4210.4329809387
 30
0.0
 11
6251.5187553361
 21
4206.9081031856
 31
0.0
  0
SPLINE
  5
18B
330
1F
100
AcDbEntity
  8
0
  6
Continuous
 62
     7
370
    25
100
AcDbSpline
210
0.0
220
0.0
230
1.0
 70
     8
 71
     3
 72
    11
 73
     7
 74
     0
 42
0.000000001
 43
0.00000001
 40
0.0
 40
0.0
 40
0.0
 40
0.0
 40
0.2477654491854902
 40
0.49574562742224
 40
0.7461584461920998
 40
1.0
 40
1.0
 40
1.0
 40
1.0
 10
6464.018755336099
 20
4606.800878482016
 30
0.0
 10
6464.020436386629
 20
4607.174062141653
 30
0.0
 10
6464.023799944588
 20
4607.920752885253
 30
0.0
 10
6464.074092988557
 20
4609.042919578575
 30
0.0
 10
6464.185680427622
 20
4610.175179781517
 30
0.0
 10
6464.407228220125
 20
4610.908702108436
 30
0.0
 10
6464.5187553361
 20
4611.277957106197
 30
0.0
  0
LINE
  5
18C
330
1F
100
AcDbEntity
  8
0
  6
Continuous
 62
     7
370
    25
100
AcDbLine
 10
6471.5187553361
 20
4611.2779571062
 30
0.0
 11
6464.5187553361
 21
4611.2779571062
 31
0.0
  0
SPLINE
  5
18D
330
1F
100
AcDbEntity
  8
0
  6
Continuous
 62
     7
370
    25
100
AcDbSpline
210
0.0
220
0.0
230
1.0
 70
     8
 71
     3
 72
    12
 73
     8
 74
     0
 42
0.000000001
 43
0.00000001
 40
0.0
 40
0.0
 40
0.0
 40
0.0
 40
0.1649681212442391
 40
0.3318237985876343
 40
0.5018646358024839
 40
0.6723295595564753
 40
1.0
 40
1.0
 40
1.0
 40
1.0
 10
6471.5187553361
 20
4611.277957106197
 30
0.0
 10
6471.596650244272
 20
4611.039580083546
 30
0.0
 10
6471.753331329836
 20
4610.560098541561
 30
0.0
 10
6471.880601729807
 20
4609.811342018408
 30
0.0
 10
6471.959373237946
 20
4609.050498184578
 30
0.0
 10
6472.011417108841
 20
4608.044823740262
 30
0.0
 10
6472.015843610189
 20
4607.29446194724
 30
0.0
 10
6472.018755336099
 20
4606.800878482016
 30
0.0
  0
SPLINE
  5
18E
330
1F
100
AcDbEntity
  8
0
  6
Continuous
 62
     7
370
    25
100
AcDbSpline
210
0.0
220
0.0
230
1.0
 70
     8
 71
     3
 72
     9
 73
     5
 74
     0
 42
0.000000001
 43
0.00000001
 40
0.0
 40
0.0
 40
0.0
 40
0.0
 40
0.4962229202406666
 40
1.0
 40
1.0
 40
1.0
 40
1.0
 10
6472.018755336099
 20
4606.800878482016
 30
0.0
 10
6472.027069872714
 20
4606.051922592551
 30
0.0
 10
6472.043825520783
 20
4604.542609219637
 30
0.0
 10
6471.694657953494
 20
4603.067118342919
 30
0.0
 10
6471.5187553361
 20
4602.323799857835
 30
0.0
  0
LINE
  5
18F
330
1F
100
AcDbEntity
  8
0
  6
Continuous
 62
     7
370
    25
100
AcDbLine
 10
6471.5187553361
 20
4602.3237998578
 30
0.0
 11
6464.5187553361
 21
4602.3237998578
 31
0.0
  0
SPLINE
  5
190
330
1F
100
AcDbEntity
  8
0
  6
Continuous
 62
     7
370
    25
100
AcDbSpline
210
0.0
220
0.0
230
1.0
 70
     8
 71
     3
 72
    10
 73
     6
 74
     0
 42
0.000000001
 43
0.00000001
 40
0.0
 40
0.0
 40
0.0
 40
0.0
 40
0.3315739395276557
 40
0.6721625413044883
 40
1.0
 40
1.0
 40
1.0
 40
1.0
 10
6464.5187553361
 20
4602.323799857835
 30
0.0
 10
6464.382823289468
 20
4602.808660592847
 30
0.0
 10
6464.107263545419
 20
4603.791564207918
 30
0.0
 10
6464.03285538082
 20
4605.302248328238
 30
0.0
 10
6464.023395195675
 20
4606.307728736304
 30
0.0
 10
6464.018755336099
 20
4606.800878482016
 30
0.0
  0
SPLINE
  5
191
330
1F
100
AcDbEntity
  8
0
  6
Continuous
 62
     7
370
    25
100
AcDbSpline
210
0.0
220
0.0
230
1.0
 70
     8
 71
     3
 72
    12
 73
     8
 74
     0
 42
0.000000001
 43
0.00000001
 40
0.0
 40
0.0
 40
0.0
 40
0.0
 40
0.2477111508731436
 40
0.4956369837393294
 40
0.7459949240204242
 40
0.8725951266401478
 40
1.0
 40
1.0
 40
1.0
 40
1.0
 10
6472.018755336099
 20
4615.256992107647
 30
0.0
 10
6472.016789755059
 20
4614.925386047578
 30
0.0
 10
6472.012856889481
 20
4614.261886536869
 30
0.0
 10
6471.966850465062
 20
4613.263595868194
 30
0.0
 10
6471.860406378251
 20
4612.430537324197
 30
0.0
 10
6471.704193671838
 20
4611.766275394953
 30
0.0
 10
6471.580698522746
 20
4611.441073275154
 30
0.0
 10
6471.5187553361
 20
4611.277957106197
 30
0.0
  0
LINE
  5
192
330
1F
100
AcDbEntity
  8
0
  6
Continuous
 62
     7
370
    25
100
AcDbLine
 10
6464.0187553361
 20
4615.2569921076
 30
0.0
 11
6464.0187553361
 21
4606.800878482
 31
0.0
  0
SPLINE
  5
193
330
1F
100
AcDbEntity
  8
0
  6
Continuous
 62
     7
370
    25
100
AcDbSpline
210
0.0
220
0.0
230
1.0
 70
     8
 71
     3
 72
    12
 73
     8
 74
     0
 42
0.000000001
 43
0.00000001
 40
0.0
 40
0.0
 40
0.0
 40
0.0
 40
0.1649681212442534
 40
0.3318237985876497
 40
0.5018646358024852
 40
0.6723295595564838
 40
1.0
 40
1.0
 40
1.0
 40
1.0
 10
6464.5187553361
 20
4611.277957106197
 30
0.0
 10
6464.440860427929
 20
4611.489816355564
 30
0.0
 10
6464.284179342364
 20
4611.915958936085
 30
0.0
 10
6464.156908942392
 20
4612.581421543129
 30
0.0
 10
6464.078137434254
 20
4613.257626832242
 30
0.0
 10
6464.02609356336
 20
4614.151427042135
 30
0.0
 10
6464.02166706201
 20
4614.818316344024
 30
0.0
 10
6464.018755336099
 20
4615.256992107647
 30
0.0
  0
SPLINE
  5
194
330
1F
100
AcDbEntity
  8
0
  6
Continuous
 62
     7
370
    25
100
AcDbSpline
210
0.0
220
0.0
230
1.0
 70
     8
 71
     3
 72
     9
 73
     5
 74
     0
 42
0.000000001
 43
0.00000001
 40
0.0
 40
0.0
 40
0.0
 40
0.0
 40
0.4962229202407311
 40
1.0
 40
1.0
 40
1.0
 40
1.0
 10
6464.018755336099
 20
4615.256992107647
 30
0.0
 10
6464.010440799486
 20
4615.922631902898
 30
0.0
 10
6463.993685151418
 20
4617.264044739953
 30
0.0
 10
6464.342852718706
 20
4618.575397596494
 30
0.0
 10
6464.5187553361
 20
4619.236027109096
 30
0.0
  0
LINE
  5
195
330
1F
100
AcDbEntity
  8
0
  6
Continuous
 62
     7
370
    25
100
AcDbLine
 10
6471.5187553361
 20
4619.2360271091
 30
0.0
 11
6464.5187553361
 21
4619.2360271091
 31
0.0
  0
SPLINE
  5
196
330
1F
100
AcDbEntity
  8
0
  6
Continuous
 62
     7
370
    25
100
AcDbSpline
210
0.0
220
0.0
230
1.0
 70
     8
 71
     3
 72
    10
 73
     6
 74
     0
 42
0.000000001
 43
0.00000001
 40
0.0
 40
0.0
 40
0.0
 40
0.0
 40
0.3315739395276353
 40
0.6721625413044792
 40
1.0
 40
1.0
 40
1.0
 40
1.0
 10
6471.5187553361
 20
4619.236027109096
 30
0.0
 10
6471.654687382733
 20
4618.805103733073
 30
0.0
 10
6471.930247126781
 20
4617.931541257247
 30
0.0
 10
6472.004655291379
 20
4616.588910158829
 30
0.0
 10
6472.014115476525
 20
4615.695282400014
 30
0.0
 10
6472.018755336099
 20
4615.256992107647
 30
0.0
  0
SPLINE
  5
197
330
1F
100
AcDbEntity
  8
0
  6
Continuous
 62
     7
370
    25
100
AcDbSpline
210
0.0
220
0.0
230
1.0
 70
     8
 71
     3
 72
     9
 73
     5
 74
     0
 42
0.000000001
 43
0.00000001
 40
0.0
 40
0.0
 40
0.0
 40
0.0
 40
0.716948426107061
 40
1.0
 40
1.0
 40
1.0
 40
1.0
 10
6464.0187553361
 20
4601.825756235102
 30
0.0
 10
6464.003602100202
 20
4601.94671346918
 30
0.0
 10
6463.982466359686
 20
4602.115424675835
 30
0.0
 10
6464.400445642301
 20
4602.277830604201
 30
0.0
 10
6464.5187553361
 20
4602.323799857835
 30
0.0
  0
LINE
  5
198
330
1F
100
AcDbEntity
  8
0
  6
Continuous
 62
     7
370
    25
100
AcDbLine
 10
6464.0187553361
 20
4606.800878482
 30
0.0
 11
6464.0187553361
 21
4601.8257562351
 31
0.0
  0
SPLINE
  5
199
330
1F
100
AcDbEntity
  8
0
  6
Continuous
 62
     7
370
    25
100
AcDbSpline
210
0.0
220
0.0
230
1.0
 70
     8
 71
     3
 72
     9
 73
     5
 74
     0
 42
0.000000001
 43
0.00000001
 40
0.0
 40
0.0
 40
0.0
 40
0.0
 40
0.4054701119095258
 40
1.0
 40
1.0
 40
1.0
 40
1.0
 10
6471.5187553361
 20
4602.323799857835
 30
0.0
 10
6471.671900681789
 20
4602.257505345873
 30
0.0
 10
6472.049598916978
 20
4602.094004979227
 30
0.0
 10
6472.030255547432
 20
4601.925774363966
 30
0.0
 10
6472.018755336099
 20
4601.825756235102
 30
0.0
  0
SPLINE
  5
19A
330
1F
100
AcDbEntity
  8
0
  6
Continuous
 62
     7
370
    25
100
AcDbSpline
210
0.0
220
0.0
230
1.0
 70
     8
 71
     3
 72
    10
 73
     6
 74
     0
 42
0.000000001
 43
0.00000001
 40
0.0
 40
0.0
 40
0.0
 40
0.0
 40
0.2215946265925784
 40
0.657003452871022
 40
1.0
 40
1.0
 40
1.0
 40
1.0
 10
6472.004556150424
 20
4618.825964143656
 30
0.0
 10
6472.001220215219
 20
4618.856559311947
 30
0.0
 10
6471.991329537896
 20
4618.947270587384
 30
0.0
 10
6471.91187328972
 20
4619.085996858932
 30
0.0
 10
6471.638995990443
 20
4619.19013824728
 30
0.0
 10
6471.5187553361
 20
4619.236027109096
 30
0.0
  0
SPLINE
  5
19B
330
1F
100
AcDbEntity
  8
0
  6
Continuous
 62
     7
370
    25
100
AcDbSpline
210
0.0
220
0.0
230
1.0
 70
     8
 71
     3
 72
     9
 73
     5
 74
     0
 42
0.000000001
 43
0.00000001
 40
0.0
 40
0.0
 40
0.0
 40
0.0
 40
0.4917197422844389
 40
1.0
 40
1.0
 40
1.0
 40
1.0
 10
6464.5187553361
 20
4619.236027109096
 30
0.0
 10
6464.360981590758
 20
4619.169787738662
 30
0.0
 10
6464.040120474609
 20
4619.035078137365
 30
0.0
 10
6464.046658260844
 20
4618.896467992182
 30
0.0
 10
6464.049981288516
 20
4618.826015191867
 30
0.0
  0
LINE
  5
19C
330
1F
100
AcDbEntity
  8
0
  6
Continuous
 62
     7
370
    25
100
AcDbLine
 10
6464.0187553361
 20
4618.7818698607
 30
0.0
 11
6464.0187553361
 21
4615.2569921076
 31
0.0
  0
LINE
  5
19D
330
1F
100
AcDbEntity
  8
0
  6
Continuous
 62
     7
370
    25
100
AcDbLine
 10
6471.8385033151
 20
4601.4661255408
 30
0.0
 11
6471.5187553361
 21
4601.3277126124
 31
0.0
  0
LINE
  5
19E
330
1F
100
AcDbEntity
  8
0
  6
Continuous
 62
     7
370
    25
100
AcDbLine
 10
6471.5187553361
 20
4601.3277126124
 30
0.0
 11
6464.5187553361
 21
4601.3277126124
 31
0.0
  0
LINE
  5
19F
330
1F
100
AcDbEntity
  8
0
  6
Continuous
 62
     7
370
    25
100
AcDbLine
 10
6464.5187553361
 20
4601.3277126124
 30
0.0
 11
6464.1245953257
 21
4601.5273738296
 31
0.0
  0
LINE
  5
1A0
330
1F
100
AcDbEntity
  8
0
  6
Continuous
 62
     7
370
    25
100
AcDbLine
 10
6464.04998671
 20
4601.7377092455
 30
0.0
 11
6464.0187553361
 21
4601.8257562351
 31
0.0
  0
LINE
  5
1A1
330
1F
100
AcDbEntity
  8
0
  6
Continuous
 62
     7
370
    25
100
AcDbLine
 10
6464.0187553361
 20
4601.8257562351
 30
0.0
 11
6464.0187553361
 21
4601.7818698607
 31
0.0
  0
SPLINE
  5
1A2
330
1F
100
AcDbEntity
  8
0
  6
Continuous
 62
     7
370
    25
100
AcDbSpline
210
0.0
220
0.0
230
1.0
 70
     8
 71
     3
 72
     9
 73
     5
 74
     0
 42
0.000000001
 43
0.00000001
 40
0.0
 40
0.0
 40
0.0
 40
0.0
 40
0.4962229202407317
 40
1.0
 40
1.0
 40
1.0
 40
1.0
 10
6084.0187553361
 20
4614.751777776723
 30
0.0
 10
6084.027069872714
 20
4614.053502247482
 30
0.0
 10
6084.043825520783
 20
4612.646321118278
 30
0.0
 10
6083.694657953495
 20
4611.270673784008
 30
0.0
 10
6083.5187553361
 20
4610.57765418717
 30
0.0
  0
LINE
  5
1A3
330
1F
100
AcDbEntity
  8
0
  6
Continuous
 62
     7
370
    25
100
AcDbLine
 10
6076.5187553361
 20
4610.5776541872
 30
0.0
 11
6083.5187553361
 21
4610.5776541872
 31
0.0
  0
SPLINE
  5
1A4
330
1F
100
AcDbEntity
  8
0
  6
Continuous
 62
     7
370
    25
100
AcDbSpline
210
0.0
220
0.0
230
1.0
 70
     8
 71
     3
 72
    10
 73
     6
 74
     0
 42
0.000000001
 43
0.00000001
 40
0.0
 40
0.0
 40
0.0
 40
0.0
 40
0.3315739395276353
 40
0.6721625413044794
 40
1.0
 40
1.0
 40
1.0
 40
1.0
 10
6076.5187553361
 20
4610.57765418717
 30
0.0
 10
6076.382823289468
 20
4611.029705357488
 30
0.0
 10
6076.107263545418
 20
4611.946097833546
 30
0.0
 10
6076.032855380821
 20
4613.354556954396
 30
0.0
 10
6076.023395195675
 20
4614.291998496627
 30
0.0
 10
6076.0187553361
 20
4614.751777776723
 30
0.0
  0
SPLINE
  5
1A5
330
1F
100
AcDbEntity
  8
0
  6
Continuous
 62
     7
370
    25
100
AcDbSpline
210
0.0
220
0.0
230
1.0
 70
     8
 71
     3
 72
    12
 73
     8
 74
     0
 42
0.000000001
 43
0.00000001
 40
0.0
 40
0.0
 40
0.0
 40
0.0
 40
0.2477111508731438
 40
0.4956369837393292
 40
0.7459949240204243
 40
0.8725951266401483
 40
1.0
 40
1.0
 40
1.0
 40
1.0
 10
6076.0187553361
 20
4614.751777776723
 30
0.0
 10
6076.020720917142
 20
4615.099642190396
 30
0.0
 10
6076.02465378272
 20
4615.795672498825
 30
0.0
 10
6076.070660207138
 20
4616.842908481377
 30
0.0
 10
6076.177104293949
 20
4617.716811153434
 30
0.0
 10
6076.333317000363
 20
4618.413641261109
 30
0.0
 10
6076.456812149454
 20
4618.754787754952
 30
0.0
 10
6076.5187553361
 20
4618.925901366275
 30
0.0
  0
LINE
  5
1A6
330
1F
100
AcDbEntity
  8
0
  6
Continuous
 62
     7
370
    25
100
AcDbLine
 10
6076.5187553361
 20
4618.9259013663
 30
0.0
 11
6083.5187553361
 21
4618.9259013663
 31
0.0
  0
SPLINE
  5
1A7
330
1F
100
AcDbEntity
  8
0
  6
Continuous
 62
     7
370
    25
100
AcDbSpline
210
0.0
220
0.0
230
1.0
 70
     8
 71
     3
 72
    12
 73
     8
 74
     0
 42
0.000000001
 43
0.00000001
 40
0.0
 40
0.0
 40
0.0
 40
0.0
 40
0.1649681212442537
 40
0.3318237985876502
 40
0.5018646358024849
 40
0.6723295595564835
 40
1.0
 40
1.0
 40
1.0
 40
1.0
 10
6083.5187553361
 20
4618.925901366275
 30
0.0
 10
6083.596650244272
 20
4618.70365484416
 30
0.0
 10
6083.753331329836
 20
4618.256618867544
 30
0.0
 10
6083.880601729807
 20
4617.558529213891
 30
0.0
 10
6083.959373237945
 20
4616.849170173914
 30
0.0
 10
6084.011417108841
 20
4615.911547725481
 30
0.0
 10
6084.015843610189
 20
4615.211961427391
 30
0.0
 10
6084.0187553361
 20
4614.751777776723
 30
0.0
  0
SPLINE
  5
1A8
330
1F
100
AcDbEntity
  8
0
  6
Continuous
 62
     7
370
    25
100
AcDbSpline
210
0.0
220
0.0
230
1.0
 70
     8
 71
     3
 72
    10
 73
     6
 74
     0
 42
0.000000001
 43
0.00000001
 40
0.0
 40
0.0
 40
0.0
 40
0.0
 40
0.3579076004860831
 40
0.7170684022812347
 40
0.9999999999999999
 40
0.9999999999999999
 40
0.9999999999999999
 40
0.9999999999999999
 10
6076.0187553361
 20
4606.2556384344
 30
0.0
 10
6076.023892850557
 20
4606.775381251432
 30
0.0
 10
6076.034185868305
 20
4607.816686747321
 30
0.0
 10
6076.124714321062
 20
4609.275611873796
 30
0.0
 10
6076.398232350442
 20
4610.179406235633
 30
0.0
 10
6076.5187553361
 20
4610.57765418717
 30
0.0
  0
SPLINE
  5
1A9
330
1F
100
AcDbEntity
  8
0
  6
Continuous
 62
     7
370
    25
100
AcDbSpline
210
0.0
220
0.0
230
1.0
 70
     8
 71
     3
 72
     9
 73
     5
 74
     0
 42
0.000000001
 43
0.00000001
 40
0.0
 40
0.0
 40
0.0
 40
0.0
 40
0.4054701119094867
 40
1.0
 40
1.0
 40
1.0
 40
1.0
 10
6083.5187553361
 20
4610.57765418717
 30
0.0
 10
6083.671900681789
 20
4610.002351318221
 30
0.0
 10
6084.049598916978
 20
4608.583497370541
 30
0.0
 10
6084.030255547432
 20
4607.123594390027
 30
0.0
 10
6084.0187553361
 20
4606.255638434399
 30
0.0
  0
LINE
  5
1AA
330
1F
100
AcDbEntity
  8
0
  6
Continuous
 62
     7
370
    25
100
AcDbLine
 10
6084.0187553361
 20
4606.2556384344
 30
0.0
 11
6084.0187553361
 21
4614.7517777767
 31
0.0
  0
LINE
  5
1AB
330
1F
100
AcDbEntity
  8
0
  6
Continuous
 62
     7
370
    25
100
AcDbLine
 10
6076.5187553361
 20
4601.9336226816
 30
0.0
 11
6083.5187553361
 21
4601.9336226816
 31
0.0
  0
SPLINE
  5
1AC
330
1F
100
AcDbEntity
  8
0
  6
Continuous
 62
     7
370
    25
100
AcDbSpline
210
0.0
220
0.0
230
1.0
 70
     8
 71
     3
 72
    11
 73
     7
 74
     0
 42
0.000000001
 43
0.00000001
 40
0.0
 40
0.0
 40
0.0
 40
0.0
 40
0.2013672318740256
 40
0.4057975831174594
 40
0.7024634002572264
 40
1.0
 40
1.0
 40
1.0
 40
1.0
 10
6076.5187553361
 20
4601.933622681628
 30
0.0
 10
6076.426424497166
 20
4602.215314605716
 30
0.0
 10
6076.240358318784
 20
4602.782983440982
 30
0.0
 10
6076.095744938801
 20
4603.799282038842
 30
0.0
 10
6076.025772849057
 20
4604.958936871149
 30
0.0
 10
6076.021096791285
 20
4605.822982503889
 30
0.0
 10
6076.0187553361
 20
4606.2556384344
 30
0.0
  0
SPLINE
  5
1AD
330
1F
100
AcDbEntity
  8
0
  6
Continuous
 62
     7
370
    25
100
AcDbSpline
210
0.0
220
0.0
230
1.0
 70
     8
 71
     3
 72
     9
 73
     5
 74
     0
 42
0.000000001
 43
0.00000001
 40
0.0
 40
0.0
 40
0.0
 40
0.0
 40
0.7169484261070568
 40
1.0
 40
1.0
 40
1.0
 40
1.0
 10
6084.0187553361
 20
4606.255638434399
 30
0.0
 10
6084.033908571998
 20
4605.205973209842
 30
0.0
 10
6084.055044312514
 20
4603.741899663777
 30
0.0
 10
6083.6370650299
 20
4602.332543236535
 30
0.0
 10
6083.5187553361
 20
4601.933622681628
 30
0.0
  0
SPLINE
  5
1AE
330
1F
100
AcDbEntity
  8
0
  6
Continuous
 62
     7
370
    25
100
AcDbSpline
210
0.0
220
0.0
230
1.0
 70
     8
 71
     3
 72
    11
 73
     7
 74
     0
 42
0.000000001
 43
0.00000001
 40
0.0
 40
0.0
 40
0.0
 40
0.0
 40
0.206675235180147
 40
0.4682011334078198
 40
0.7322925532227841
 40
0.9999999999999999
 40
0.9999999999999999
 40
0.9999999999999999
 40
0.9999999999999999
 10
6084.016131906269
 20
4618.785738354512
 30
0.0
 10
6084.01458580306
 20
4618.795488499728
 30
0.0
 10
6084.011083267917
 20
4618.817576434151
 30
0.0
 10
6083.963162370737
 20
4618.852070643671
 30
0.0
 10
6083.851895356608
 20
4618.889473200303
 30
0.0
 10
6083.630304254249
 20
4618.91370372488
 30
0.0
 10
6083.5187553361
 20
4618.925901366275
 30
0.0
  0
LINE
  5
1AF
330
1F
100
AcDbEntity
  8
0
  6
Continuous
 62
     7
370
    25
100
AcDbLine
 10
6084.0187553361
 20
4614.7517777767
 30
0.0
 11
6084.0187553361
 21
4618.7818698607
 31
0.0
  0
SPLINE
  5
1B0
330
1F
100
AcDbEntity
  8
0
  6
Continuous
 62
     7
370
    25
100
AcDbSpline
210
0.0
220
0.0
230
1.0
 70
     8
 71
     3
 72
    12
 73
     8
 74
     0
 42
0.000000001
 43
0.00000001
 40
0.0
 40
0.0
 40
0.0
 40
0.0
 40
0.1739829953828478
 40
0.3499566945550558
 40
0.5292896103506283
 40
0.7090697873856749
 40
1.0
 40
1.0
 40
1.0
 40
1.0
 10
6076.5187553361
 20
4618.925901366275
 30
0.0
 10
6076.440863219775
 20
4618.918027012504
 30
0.0
 10
6076.284187749845
 20
4618.902188207043
 30
0.0
 10
6076.156874591687
 20
4618.877454420165
 30
0.0
 10
6076.078269086632
 20
4618.852321227254
 30
0.0
 10
6076.02950809313
 20
4618.821677185566
 30
0.0
 10
6076.025169832646
 20
4618.799468826262
 30
0.0
 10
6076.022488500189
 20
4618.785742588566
 30
0.0
  0
SPLINE
  5
1B1
330
1F
100
AcDbEntity
  8
0
  6
Continuous
 62
     7
370
    25
100
AcDbSpline
210
0.0
220
0.0
230
1.0
 70
     8
 71
     3
 72
    10
 73
     6
 74
     0
 42
0.000000001
 43
0.00000001
 40
0.0
 40
0.0
 40
0.0
 40
0.0
 40
0.3315739395277091
 40
0.6721625413044859
 40
1.0
 40
1.0
 40
1.0
 40
1.0
 10
6083.5187553361
 20
4601.933622681628
 30
0.0
 10
6083.654687382733
 20
4601.91760618762
 30
0.0
 10
6083.930247126781
 20
4601.885137751376
 30
0.0
 10
6084.00465529138
 20
4601.835235044443
 30
0.0
 10
6084.014115476525
 20
4601.802020824836
 30
0.0
 10
6084.0187553361
 20
4601.78573051841
 30
0.0
  0
LINE
  5
1B2
330
1F
100
AcDbEntity
  8
0
  6
Continuous
 62
     7
370
    25
100
AcDbLine
 10
6084.0187553361
 20
4606.2556384344
 30
0.0
 11
6084.0187553361
 21
4601.7857305184
 31
0.0
  0
SPLINE
  5
1B3
330
1F
100
AcDbEntity
  8
0
  6
Continuous
 62
     7
370
    25
100
AcDbSpline
210
0.0
220
0.0
230
1.0
 70
     8
 71
     3
 72
    13
 73
     9
 74
     0
 42
0.000000001
 43
0.00000001
 40
0.0
 40
0.0
 40
0.0
 40
0.0
 40
0.2476943506751958
 40
0.4956033687833396
 40
0.6206853691505005
 40
0.7460121510831885
 40
0.8726037674585659
 40
0.9999999999999999
 40
0.9999999999999999
 40
0.9999999999999999
 40
0.9999999999999999
 10
6076.0187553361
 20
4601.78573051841
 30
0.0
 10
6076.020666766502
 20
4601.798055509395
 30
0.0
 10
6076.024491283869
 20
4601.822716172977
 30
0.0
 10
6076.063451130449
 20
4601.853591087966
 30
0.0
 10
6076.133303878808
 20
4601.87830553767
 30
0.0
 10
6076.216061549625
 20
4601.896901467275
 30
0.0
 10
6076.333257594364
 20
4601.91547352429
 30
0.0
 10
6076.456792305677
 20
4601.927560199261
 30
0.0
 10
6076.5187553361
 20
4601.933622681628
 30
0.0
  0
LINE
  5
1B4
330
1F
100
AcDbEntity
  8
0
  6
Continuous
 62
     7
370
    25
100
AcDbLine
 10
6084.0187553361
 20
4601.7857305184
 30
0.0
 11
6084.0119309068
 21
4601.7779859277
 31
0.0
  0
LINE
  5
1B5
330
1F
100
AcDbEntity
  8
0
  6
Continuous
 62
     7
370
    25
100
AcDbLine
 10
6083.9535950429
 20
4601.7117844368
 30
0.0
 11
6083.5187553361
 21
4601.6378383552
 31
0.0
  0
LINE
  5
1B6
330
1F
100
AcDbEntity
  8
0
  6
Continuous
 62
     7
370
    25
100
AcDbLine
 10
6076.5187553361
 20
4601.6378383552
 30
0.0
 11
6083.5187553361
 21
4601.6378383552
 31
0.0
  0
SPLINE
  5
1B7
330
1F
100
AcDbEntity
  8
0
  6
Continuous
 62
     7
370
    25
100
AcDbSpline
210
0.0
220
0.0
230
1.0
 70
     8
 71
     3
 72
     9
 73
     5
 74
     0
 42
0.000000001
 43
0.00000001
 40
0.0
 40
0.0
 40
0.0
 40
0.0
 40
0.49329428397501
 40
0.9999999999999999
 40
0.9999999999999999
 40
0.9999999999999999
 40
0.9999999999999999
 10
6076.5187553361
 20
4601.637838355191
 30
0.0
 10
6076.381986325498
 20
4601.653857801091
 30
0.0
 10
6076.104729898565
 20
4601.686332221373
 30
0.0
 10
6076.063337317615
 20
4601.719844543421
 30
0.0
 10
6076.042363460247
 20
4601.736825428558
 30
0.0
  0
LINE
  5
1B8
330
1F
100
AcDbEntity
  8
0
  6
Continuous
 62
     7
370
    25
100
AcDbLine
 10
6084.0187553361
 20
4601.7818698607
 30
0.0
 11
6084.0187553361
 21
4601.7857305184
 31
0.0
  0
ELLIPSE
  5
1B9
330
1F
100
AcDbEntity
  8
0
  6
Continuous
 62
     7
370
    25
100
AcDbEllipse
 10
6274.0187553361
 20
4612.2818698607
 30
0.0
 11
11.73513114010711
 21
-11.73513114010893
 31
0.0
210
0.0
220
0.0
230
1.0
 40
0.3668835416
 41
0.3516359534385053
 42
1.9224322802335
  0
ELLIPSE
  5
1BA
330
1F
100
AcDbEntity
  8
0
  6
Continuous
 62
     7
370
    25
100
AcDbEllipse
 10
6274.0187553361
 20
4612.2818698607
 30
0.0
 11
11.73513114010711
 21
11.73513114010711
 31
0.0
210
0.0
220
0.0
230
1.0
 40
0.3668835416
 41
1.219160373356353
 42
2.789956700151468
  0
LWPOLYLINE
  5
1BB
330
1F
100
AcDbEntity
  8
0
  6
Continuous
 62
     7
370
    25
100
AcDbPolyline
 90
       19
 70
   128
 43
0.0
 10
6286.4272821127
 20
4195.2818698607
 10
6286.3389542154
 20
4195.6718738876
 10
6285.8047234044
 20
4196.9987666413
 10
6284.9314317506
 20
4198.248184143
 10
6283.7442022651
 20
4199.3841829259
 10
6282.2771893785
 20
4200.3740823734
 10
6280.5725963806
 20
4201.1894048807
 10
6278.6794613084
 20
4201.8066951038
 10
6276.652246211
 20
4202.2081947267
 10
6274.5492703761
 20
4202.3823533365
 10
6272.4310325893
 20
4202.3241607068
 10
6270.3584706951
 20
4202.0352909338
 10
6268.3912085259
 20
4201.5240542749
 10
6266.5858406323
 20
4200.8051580779
 10
6264.9943041617
 20
4199.8992836776
 10
6263.6623847206
 20
4198.8324914311
 10
6262.6283992062
 20
4197.635471009
 10
6261.9220934994
 20
4196.3426585095
 10
6261.6102285595
 20
4195.2818698607
  0
SPLINE
  5
1BC
330
1F
100
AcDbEntity
  8
0
  6
Continuous
 62
     7
370
    25
100
AcDbSpline
210
0.0
220
0.0
230
1.0
 70
     8
 71
     3
 72
    17
 73
    13
 74
     0
 42
0.000000001
 43
0.00000001
 40
0.0
 40
0.0
 40
0.0
 40
0.0
 40
0.0899965896462869
 40
0.1799922106650805
 40
0.2699858472105012
 40
0.3668829246561044
 40
0.5017813947960126
 40
0.5917659636617384
 40
0.7326782676832291
 40
0.8273249475162597
 40
0.9692095092697812
 40
1.0
 40
1.0
 40
1.0
 40
1.0
 10
6285.47519457349
 20
4205.166564573169
 30
0.0
 10
6285.476509068862
 20
4205.265057225841
 30
0.0
 10
6285.479138045459
 20
4205.462041471116
 30
0.0
 10
6285.500172759132
 20
4205.72977546374
 30
0.0
 10
6285.533841995025
 20
4205.981065772847
 30
0.0
 10
6285.58777843433
 20
4206.240852161453
 30
0.0
 10
6285.657446381802
 20
4206.459610299616
 30
0.0
 10
6285.749765543302
 20
4206.65998645947
 30
0.0
 10
6285.841386863134
 20
4206.795309557915
 30
0.0
 10
6285.952619807078
 20
4206.893468176533
 30
0.0
 10
6286.034386665934
 20
4206.940094942497
 30
0.0
 10
6286.083751876901
 20
4206.928370268307
 30
0.0
 10
6286.092554416982
 20
4206.926279587188
 30
0.0
  0
SPLINE
  5
1BD
330
1F
100
AcDbEntity
  8
0
  6
Continuous
 62
     7
370
    25
100
AcDbSpline
210
0.0
220
0.0
230
1.0
 70
     8
 71
     3
 72
    22
 73
    18
 74
     0
 42
0.000000001
 43
0.00000001
 40
0.0
 40
0.0
 40
0.0
 40
0.0
 40
0.0544178061821281
 40
0.1334117801466314
 40
0.206378376333393
 40
0.2550516234525821
 40
0.3313105132460635
 40
0.3821810657202757
 40
0.4584413514548761
 40
0.5380134777562829
 40
0.6188484677484678
 40
0.6727735479341671
 40
0.757588804182613
 40
0.8066361422082963
 40
0.8801632299474229
 40
0.9571745811121959
 40
1.0
 40
1.0
 40
1.0
 40
1.0
 10
6286.515923784454
 20
4198.124715707984
 30
0.0
 10
6286.515598985696
 20
4198.218507253853
 30
0.0
 10
6286.514802702573
 20
4198.448448480354
 30
0.0
 10
6286.479673210309
 20
4198.86517719729
 30
0.0
 10
6286.425513756505
 20
4199.301154960801
 30
0.0
 10
6286.355245903681
 20
4199.756416308943
 30
0.0
 10
6286.280115994751
 20
4200.179459914826
 30
0.0
 10
6286.182086150553
 20
4200.684448694228
 30
0.0
 10
6286.074062200993
 20
4201.210396783702
 30
0.0
 10
6285.945320348055
 20
4201.822246836264
 30
0.0
 10
6285.830777434819
 20
4202.378566249529
 30
0.0
 10
6285.721391535611
 20
4202.943437505997
 30
0.0
 10
6285.638270705247
 20
4203.419178155509
 30
0.0
 10
6285.56331342003
 20
4203.928528631562
 30
0.0
 10
6285.508858551888
 20
4204.400950240708
 30
0.0
 10
6285.47903243206
 20
4204.832708041259
 30
0.0
 10
6285.476204998236
 20
4205.078667404683
 30
0.0
 10
6285.47519457349
 20
4205.166564573169
 30
0.0
  0
SPLINE
  5
1BE
330
1F
100
AcDbEntity
  8
0
  6
Continuous
 62
     7
370
    25
100
AcDbSpline
210
0.0
220
0.0
230
1.0
 70
     8
 71
     3
 72
    31
 73
    27
 74
     0
 42
0.000000001
 43
0.00000001
 40
0.0
 40
0.0
 40
0.0
 40
0.0
 40
0.0299375858065759
 40
0.0815299547697165
 40
0.1159463762244415
 40
0.1699862996803572
 40
0.2219080915347115
 40
0.2565484239510081
 40
0.2926169123763945
 40
0.3113989593652253
 40
0.3596117214152685
 40
0.3917762349013459
 40
0.4425417073682795
 40
0.4735315565081465
 40
0.519987734870582
 40
0.5684939041592898
 40
0.6176430040086327
 40
0.6504275385535627
 40
0.7016946986158719
 40
0.7365330939702477
 40
0.7887571623165779
 40
0.8435993472031218
 40
0.8776800963655811
 40
0.9287655783722563
 40
0.9826799440832796
 40
0.9999999999999999
 40
0.9999999999999999
 40
0.9999999999999999
 40
0.9999999999999999
 10
6261.944942304352
 20
4206.923980616508
 30
0.0
 10
6261.969505008297
 20
4206.924980153693
 30
0.0
 10
6262.036397380803
 20
4206.927702224273
 30
0.0
 10
6262.134946308014
 20
4206.857036418075
 30
0.0
 10
6262.248624298564
 20
4206.725613717438
 30
0.0
 10
6262.354252214705
 20
4206.532526311867
 30
0.0
 10
6262.442077312974
 20
4206.271316985805
 30
0.0
 10
6262.501253312818
 20
4205.99684212025
 30
0.0
 10
6262.532534741156
 20
4205.769967165677
 30
0.0
 10
6262.556827651632
 20
4205.486755199948
 30
0.0
 10
6262.565925221205
 20
4205.188951511516
 30
0.0
 10
6262.554540973146
 20
4204.761457651002
 30
0.0
 10
6262.524061502618
 20
4204.362626301968
 30
0.0
 10
6262.469195973553
 20
4203.891144015789
 30
0.0
 10
6262.398075050793
 20
4203.409869680192
 30
0.0
 10
6262.297604699369
 20
4202.842153439229
 30
0.0
 10
6262.194464863031
 20
4202.319038366795
 30
0.0
 10
6262.083889723795
 20
4201.782948466449
 30
0.0
 10
6261.983346194123
 20
4201.305092289857
 30
0.0
 10
6261.870073503051
 20
4200.756888149266
 30
0.0
 10
6261.761385650855
 20
4200.205942952061
 30
0.0
 10
6261.669275778773
 20
4199.680652566684
 30
0.0
 10
6261.596100866239
 20
4199.186385924409
 30
0.0
 10
6261.54342304069
 20
4198.72548051054
 30
0.0
 10
6261.520680609492
 20
4198.358229508677
 30
0.0
 10
6261.519131893489
 20
4198.166055148642
 30
0.0
 10
6261.5187553361
 20
4198.119329554674
 30
0.0
  0
LINE
  5
1BF
330
1F
100
AcDbEntity
  8
0
  6
Continuous
 62
     7
370
    25
100
AcDbLine
 10
6339.0187553361
 20
4620.3658289469
 30
0.0
 11
6339.0187553361
 21
4599.7818698607
 31
0.0
  0
LINE
  5
1C0
330
1F
100
AcDbEntity
  8
0
  6
Continuous
 62
     7
370
    25
100
AcDbLine
 10
6339.0187553361
 20
4622.7818698607
 30
0.0
 11
6339.0187553361
 21
4620.3658289469
 31
0.0
  0
LINE
  5
1C1
330
1F
100
AcDbEntity
  8
0
  6
Continuous
 62
     7
370
    25
100
AcDbLine
 10
6209.0187553361
 20
4620.3658289469
 30
0.0
 11
6209.0187553361
 21
4599.7818698607
 31
0.0
  0
LINE
  5
1C2
330
1F
100
AcDbEntity
  8
0
  6
Continuous
 62
     7
370
    25
100
AcDbLine
 10
6209.0187553361
 20
4622.7818698607
 30
0.0
 11
6209.0187553361
 21
4620.3658289469
 31
0.0
  0
LINE
  5
1C3
330
1F
100
AcDbEntity
  8
0
  6
Continuous
 62
     7
370
    25
100
AcDbLine
 10
6061.5187553361
 20
4310.2818698607
 30
0.0
 11
6061.5187553361
 21
4225.2818698607
 31
0.0
  0
LINE
  5
1C4
330
1F
100
AcDbEntity
  8
0
  6
Continuous
 62
     7
370
    25
100
AcDbLine
 10
6061.5187553361
 20
4500.2818698607
 30
0.0
 11
6061.5187553361
 21
4415.2818698607
 31
0.0
  0
LINE
  5
1C5
330
1F
100
AcDbEntity
  8
0
  6
Continuous
 62
     7
370
    25
100
AcDbLine
 10
6074.0187553361
 20
4620.2818698607
 30
0.0
 11
6049.0187553361
 21
4620.2818698607
 31
0.0
  0
LINE
  5
1C6
330
1F
100
AcDbEntity
  8
0
  6
Continuous
 62
     7
370
    25
100
AcDbLine
 10
6061.5187553361
 20
4595.2818698607
 30
0.0
 11
6061.5187553361
 21
4510.2818698607
 31
0.0
  0
LINE
  5
1C7
330
1F
100
AcDbEntity
  8
0
  6
Continuous
 62
     7
370
    25
100
AcDbLine
 10
6061.5187553361
 20
4405.2818698607
 30
0.0
 11
6061.5187553361
 21
4320.2818698607
 31
0.0
  0
SPLINE
  5
1C8
330
1F
100
AcDbEntity
  8
0
  6
Continuous
 62
     7
370
    25
100
AcDbSpline
210
0.0
220
0.0
230
1.0
 70
     8
 71
     3
 72
    17
 73
    13
 74
     0
 42
0.000000001
 43
0.00000001
 40
0.0
 40
0.0
 40
0.0
 40
0.0
 40
0.1017831010328634
 40
0.2034001426679294
 40
0.3093874551266159
 40
0.4200179338363653
 40
0.5255584590521752
 40
0.6238097076072079
 40
0.7241295166015892
 40
0.8321945782025051
 40
0.9423092216119154
 40
1.0
 40
1.0
 40
1.0
 40
1.0
 10
6049.0187553361
 20
4615.281869860733
 30
0.0
 10
6049.039616258513
 20
4615.230835150157
 30
0.0
 10
6049.08130406869
 20
4615.12884899227
 30
0.0
 10
6049.376878953523
 20
4614.338797878545
 30
0.0
 10
6049.735335572212
 20
4613.146430880607
 30
0.0
 10
6050.028710547434
 20
4611.591606104666
 30
0.0
 10
6050.095435833117
 20
4609.90552832205
 30
0.0
 10
6049.927178901151
 20
4608.330114127729
 30
0.0
 10
6049.607742670682
 20
4606.952213131133
 30
0.0
 10
6049.261291227997
 20
4605.897618401762
 30
0.0
 10
6049.030834736705
 20
4605.311719822983
 30
0.0
 10
6049.041529514703
 20
4605.339008132521
 30
0.0
 10
6049.045206333132
 20
4605.348389735338
 30
0.0
  0
SPLINE
  5
1C9
330
1F
100
AcDbEntity
  8
0
  6
Continuous
 62
     7
370
    25
100
AcDbSpline
210
0.0
220
0.0
230
1.0
 70
     8
 71
     3
 72
    18
 73
    14
 74
     0
 42
0.000000001
 43
0.00000001
 40
0.0
 40
0.0
 40
0.0
 40
0.0
 40
0.0458713029771758
 40
0.1448207196751214
 40
0.2468462591779643
 40
0.3555968319211462
 40
0.4652964871894035
 40
0.5670882847072648
 40
0.6649302232881594
 40
0.7684082804700565
 40
0.8785722081249425
 40
0.9864954108041946
 40
1.0
 40
1.0
 40
1.0
 40
1.0
 10
6073.992304339068
 20
4605.348389735338
 30
0.0
 10
6073.99835935993
 20
4605.333104237502
 30
0.0
 10
6074.017475722926
 20
4605.284846249314
 30
0.0
 10
6073.833355167162
 20
4605.749216693379
 30
0.0
 10
6073.515995672661
 20
4606.667153724162
 30
0.0
 10
6073.159519799671
 20
4608.036178267189
 30
0.0
 10
6072.948887119806
 20
4609.677458365973
 30
0.0
 10
6072.988393010435
 20
4611.339552157104
 30
0.0
 10
6073.23090922797
 20
4612.836709246199
 30
0.0
 10
6073.580421623494
 20
4614.10335194703
 30
0.0
 10
6073.904802092904
 20
4615.001119178684
 30
0.0
 10
6074.014926795424
 20
4615.272197523499
 30
0.0
 10
6074.01837215996
 20
4615.280901813331
 30
0.0
 10
6074.0187553361
 20
4615.281869860733
 30
0.0
  0
LINE
  5
1CA
330
1F
100
AcDbEntity
  8
0
  6
Continuous
 62
     7
370
    25
100
AcDbLine
 10
6486.5187553361
 20
4310.2818698607
 30
0.0
 11
6486.5187553361
 21
4225.2818698607
 31
0.0
  0
LINE
  5
1CB
330
1F
100
AcDbEntity
  8
0
  6
Continuous
 62
     7
370
    25
100
AcDbLine
 10
6486.5187553361
 20
4500.2818698607
 30
0.0
 11
6486.5187553361
 21
4415.2818698607
 31
0.0
  0
LINE
  5
1CC
330
1F
100
AcDbEntity
  8
0
  6
Continuous
 62
     7
370
    25
100
AcDbLine
 10
6486.5187553361
 20
4595.2818698607
 30
0.0
 11
6486.5187553361
 21
4510.2818698607
 31
0.0
  0
LINE
  5
1CD
330
1F
100
AcDbEntity
  8
0
  6
Continuous
 62
     7
370
    25
100
AcDbLine
 10
6486.5187553361
 20
4405.2818698607
 30
0.0
 11
6486.5187553361
 21
4320.2818698607
 31
0.0
  0
SPLINE
  5
1CE
330
1F
100
AcDbEntity
  8
0
  6
Continuous
 62
     7
370
    25
100
AcDbSpline
210
0.0
220
0.0
230
1.0
 70
     8
 71
     3
 72
    17
 73
    13
 74
     0
 42
0.000000001
 43
0.00000001
 40
0.0
 40
0.0
 40
0.0
 40
0.0
 40
0.1017831010328632
 40
0.2034001426679292
 40
0.3093874551266156
 40
0.4200179338363651
 40
0.5255584590521749
 40
0.6238097076072076
 40
0.7241295166015883
 40
0.832194578202505
 40
0.942309221611915
 40
1.0
 40
1.0
 40
1.0
 40
1.0
 10
6499.0187553361
 20
4615.281869860733
 30
0.0
 10
6498.997894413687
 20
4615.230835150157
 30
0.0
 10
6498.95620660351
 20
4615.12884899227
 30
0.0
 10
6498.660631718678
 20
4614.338797878545
 30
0.0
 10
6498.302175099989
 20
4613.146430880607
 30
0.0
 10
6498.008800124767
 20
4611.591606104666
 30
0.0
 10
6497.942074839083
 20
4609.90552832205
 30
0.0
 10
6498.110331771049
 20
4608.330114127729
 30
0.0
 10
6498.429768001518
 20
4606.952213131133
 30
0.0
 10
6498.776219444203
 20
4605.897618401762
 30
0.0
 10
6499.006675935495
 20
4605.311719822983
 30
0.0
 10
6498.995981157497
 20
4605.339008132521
 30
0.0
 10
6498.992304339068
 20
4605.348389735338
 30
0.0
  0
SPLINE
  5
1CF
330
1F
100
AcDbEntity
  8
0
  6
Continuous
 62
     7
370
    25
100
AcDbSpline
210
0.0
220
0.0
230
1.0
 70
     8
 71
     3
 72
    17
 73
    13
 74
     0
 42
0.000000001
 43
0.00000001
 40
0.0
 40
0.0
 40
0.0
 40
0.0
 40
0.1017831010328635
 40
0.2034001426679295
 40
0.3093874551266159
 40
0.4200179338363657
 40
0.5255584590521754
 40
0.623809707607208
 40
0.7241295166015889
 40
0.8321945782025053
 40
0.9423092216119157
 40
1.0
 40
1.0
 40
1.0
 40
1.0
 10
6474.0187553361
 20
4605.281869860733
 30
0.0
 10
6474.039616258513
 20
4605.332904571308
 30
0.0
 10
6474.08130406869
 20
4605.434890729194
 30
0.0
 10
6474.376878953522
 20
4606.22494184292
 30
0.0
 10
6474.735335572212
 20
4607.417308840858
 30
0.0
 10
6475.028710547434
 20
4608.972133616798
 30
0.0
 10
6475.095435833116
 20
4610.658211399415
 30
0.0
 10
6474.927178901152
 20
4612.233625593736
 30
0.0
 10
6474.607742670682
 20
4613.611526590331
 30
0.0
 10
6474.261291227997
 20
4614.666121319702
 30
0.0
 10
6474.030834736705
 20
4615.252019898482
 30
0.0
 10
6474.041529514703
 20
4615.224731588944
 30
0.0
 10
6474.045206333132
 20
4615.215349986126
 30
0.0
  0
LINE
  5
1D0
330
1F
100
AcDbEntity
  8
0
  6
Continuous
 62
     7
370
    25
100
AcDbLine
 10
6474.0187553361
 20
4620.2818698607
 30
0.0
 11
6499.0187553361
 21
4620.2818698607
 31
0.0
  0
LINE
  5
1D1
330
1F
100
AcDbEntity
  8
0
  6
Continuous
 62
     7
370
    25
100
AcDbLine
 10
6486.5187553361
 20
4510.2818698607
 30
0.0
 11
6061.5187553361
 21
4510.2818698607
 31
0.0
  0
LINE
  5
1D2
330
1F
100
AcDbEntity
  8
0
  6
Continuous
 62
     7
370
    25
100
AcDbLine
 10
6486.5187553361
 20
4595.2818698607
 30
0.0
 11
6061.5187553361
 21
4595.2818698607
 31
0.0
  0
LINE
  5
1D3
330
1F
100
AcDbEntity
  8
0
  6
Continuous
 62
     7
370
    25
100
AcDbLine
 10
6486.5187553361
 20
4500.2818698607
 30
0.0
 11
6061.5187553361
 21
4500.2818698607
 31
0.0
  0
LINE
  5
1D4
330
1F
100
AcDbEntity
  8
0
  6
Continuous
 62
     7
370
    25
100
AcDbLine
 10
6486.5187553361
 20
4415.2818698607
 30
0.0
 11
6061.5187553361
 21
4415.2818698607
 31
0.0
  0
LINE
  5
1D5
330
1F
100
AcDbEntity
  8
0
  6
Continuous
 62
     7
370
    25
100
AcDbLine
 10
6486.5187553361
 20
4320.2818698607
 30
0.0
 11
6061.5187553361
 21
4320.2818698607
 31
0.0
  0
LINE
  5
1D6
330
1F
100
AcDbEntity
  8
0
  6
Continuous
 62
     7
370
    25
100
AcDbLine
 10
6486.5187553361
 20
4405.2818698607
 30
0.0
 11
6061.5187553361
 21
4405.2818698607
 31
0.0
  0
LINE
  5
1D7
330
1F
100
AcDbEntity
  8
0
  6
Continuous
 62
     7
370
    25
100
AcDbLine
 10
6486.5187553361
 20
4225.2818698607
 30
0.0
 11
6061.5187553361
 21
4225.2818698607
 31
0.0
  0
LINE
  5
1D8
330
1F
100
AcDbEntity
  8
0
  6
Continuous
 62
     7
370
    25
100
AcDbLine
 10
6486.5187553361
 20
4310.2818698607
 30
0.0
 11
6061.5187553361
 21
4310.2818698607
 31
0.0
  0
LINE
  5
1D9
330
1F
100
AcDbEntity
  8
0
  6
Continuous
 62
     7
370
    25
100
AcDbLine
 10
6261.5187553361
 20
4190.8167149818
 30
0.0
 11
6259.5187553361
 21
4190.8167149818
 31
0.0
  0
LINE
  5
1DA
330
1F
100
AcDbEntity
  8
0
  6
Continuous
 62
     7
370
    25
100
AcDbLine
 10
6288.5187553361
 20
4190.8167149818
 30
0.0
 11
6286.5187553361
 21
4190.8167149818
 31
0.0
  0
LINE
  5
1DB
330
1F
100
AcDbEntity
  8
0
  6
Continuous
 62
     7
370
    25
100
AcDbLine
 10
6261.5187553361
 20
4209.9678260598
 30
0.0
 11
6259.5187553361
 21
4209.9678260598
 31
0.0
  0
LINE
  5
1DC
330
1F
100
AcDbEntity
  8
0
  6
Continuous
 62
     7
370
    25
100
AcDbLine
 10
6259.5187553361
 20
4209.9678260598
 30
0.0
 11
6259.5187553361
 21
4190.8167149818
 31
0.0
  0
LINE
  5
1DD
330
1F
100
AcDbEntity
  8
0
  6
Continuous
 62
     7
370
    25
100
AcDbLine
 10
6261.5187553361
 20
4209.9678260598
 30
0.0
 11
6261.5187553361
 21
4190.8167149818
 31
0.0
  0
LINE
  5
1DE
330
1F
100
AcDbEntity
  8
0
  6
Continuous
 62
     7
370
    25
100
AcDbLine
 10
6288.5187553361
 20
4209.9678260598
 30
0.0
 11
6286.5187553361
 21
4209.9678260598
 31
0.0
  0
LINE
  5
1DF
330
1F
100
AcDbEntity
  8
0
  6
Continuous
 62
     7
370
    25
100
AcDbLine
 10
6286.5187553361
 20
4209.9678260598
 30
0.0
 11
6286.5187553361
 21
4190.8167149818
 31
0.0
  0
LINE
  5
1E0
330
1F
100
AcDbEntity
  8
0
  6
Continuous
 62
     7
370
    25
100
AcDbLine
 10
6288.5187553361
 20
4209.9678260598
 30
0.0
 11
6288.5187553361
 21
4190.8167149818
 31
0.0
  0
LINE
  5
1E1
330
1F
100
AcDbEntity
  8
0
  6
Continuous
 62
     7
370
    25
100
AcDbLine
 10
6259.5187553361
 20
4214.4329809387
 30
0.0
 11
6259.5187553361
 21
4209.9678260598
 31
0.0
  0
LINE
  5
1E2
330
1F
100
AcDbEntity
  8
0
  6
Continuous
 62
     7
370
    25
100
AcDbLine
 10
6261.5187553361
 20
4214.4329809387
 30
0.0
 11
6261.5187553361
 21
4209.9678260598
 31
0.0
  0
LINE
  5
1E3
330
1F
100
AcDbEntity
  8
0
  6
Continuous
 62
     7
370
    25
100
AcDbLine
 10
6286.5187553361
 20
4214.4329809387
 30
0.0
 11
6286.5187553361
 21
4209.9678260598
 31
0.0
  0
LINE
  5
1E4
330
1F
100
AcDbEntity
  8
0
  6
Continuous
 62
     7
370
    25
100
AcDbLine
 10
6288.5187553361
 20
4214.4329809387
 30
0.0
 11
6288.5187553361
 21
4209.9678260598
 31
0.0
  0
LINE
  5
1E5
330
1F
100
AcDbEntity
  8
0
  6
Continuous
 62
     8
370
    25
100
AcDbLine
 10
6074.0187553361
 20
4212.7818698607
 30
0.0
 11
6049.0187553361
 21
4212.7818698607
 31
0.0
  0
LINE
  5
1E6
330
1F
100
AcDbEntity
  8
0
  6
Continuous
 62
     8
370
    25
100
AcDbLine
 10
6474.0187553361
 20
4212.7818698607
 30
0.0
 11
6499.0187553361
 21
4212.7818698607
 31
0.0
  0
LINE
  5
1E7
330
1F
100
AcDbEntity
  8
0
  6
Continuous
 62
     8
370
    25
100
AcDbLine
 10
6456.5187553361
 20
4195.2818698607
 30
0.0
 11
6456.5187553361
 21
4170.2818698607
 31
0.0
  0
LINE
  5
1E8
330
1F
100
AcDbEntity
  8
0
  6
Continuous
 62
     8
370
    25
100
AcDbLine
 10
6091.5187553361
 20
4195.2818698607
 30
0.0
 11
6091.5187553361
 21
4170.2818698607
 31
0.0
  0
ENDSEC
  0
SECTION
  2
OBJECTS
  0
DICTIONARY
  5
C
330
0
100
AcDbDictionary
281
     1
  3
ACAD_GROUP
350
D
  3
ACAD_LAYOUT
350
1A
  3
ACAD_MLINESTYLE
350
17
  3
ACAD_PLOTSETTINGS
350
19
  3
ACAD_PLOTSTYLENAME
350
E
  3
ACAD_SCALELIST
350
47
  0
DICTIONARY
  5
D
102
{ACAD_REACTORS
330
C
102
}
330
C
100
AcDbDictionary
281
     1
  0
DICTIONARY
  5
1A
102
{ACAD_REACTORS
330
C
102
}
330
C
100
AcDbDictionary
281
     1
  3
Layout1
350
1E
  3
Layout2
350
26
  3
Model
350
22
  0
DICTIONARY
  5
17
102
{ACAD_REACTORS
330
C
102
}
330
C
100
AcDbDictionary
281
     1
  3
Standard
350
18
  0
DICTIONARY
  5
19
102
{ACAD_REACTORS
330
C
102
}
330
C
100
AcDbDictionary
281
     1
  0
ACDBDICTIONARYWDFLT
  5
E
102
{ACAD_REACTORS
330
C
102
}
330
C
100
AcDbDictionary
281
     1
  3
Normal
350
F
100
AcDbDictionaryWithDefault
340
F
  0
DICTIONARY
  5
47
102
{ACAD_REACTORS
330
C
102
}
330
C
100
AcDbDictionary
281
     1
  3
A0
350
48
  3
A1
350
49
  3
A2
350
4A
  3
A3
350
4B
  3
A4
350
4C
  3
A5
350
4D
  3
A6
350
4E
  3
A7
350
4F
  3
A8
350
50
  3
A9
350
51
  3
B0
350
52
  3
B1
350
53
  3
B2
350
54
  3
B3
350
55
  3
B4
350
56
  3
B5
350
57
  3
B6
350
58
  3
B7
350
59
  3
B8
350
5A
  3
B9
350
5B
  3
C0
350
5C
  3
C1
350
5D
  3
C2
350
5E
  3
C3
350
5F
  3
C4
350
60
  3
C5
350
61
  3
C6
350
62
  3
C7
350
63
  3
C8
350
64
  3
C9
350
65
  3
D0
350
66
  3
D1
350
67
  3
D2
350
68
  0
LAYOUT
  5
1E
102
{ACAD_REACTORS
330
1A
102
}
330
1A
100
AcDbPlotSettings
  1

  2
none_device
  4

  6

 40
0.0
 41
0.0
 42
0.0
 43
0.0
 44
0.0
 45
0.0
 46
0.0
 47
0.0
 48
0.0
 49
0.0
140
0.0
141
0.0
142
1.0
143
1.0
 70
   688
 72
     1
 73
     0
 74
     5
  7

 75
    16
147
1.0
148
0.0
149
0.0
100
AcDbLayout
  1
Layout1
 70
     1
 71
     1
 10
0.0
 20
0.0
 11
420.0
 21
297.0
 12
0.0
 22
0.0
 32
0.0
 14
1.0000000000E+20
 24
1.0000000000E+20
 34
1.0000000000E+20
 15
-1.0000000000E+20
 25
-1.0000000000E+20
 35
-1.0000000000E+20
146
0.0
 13
0.0
 23
0.0
 33
0.0
 16
1.0
 26
0.0
 36
0.0
 17
0.0
 27
1.0
 37
0.0
 76
     0
330
1B
  0
LAYOUT
  5
26
102
{ACAD_REACTORS
330
1A
102
}
330
1A
100
AcDbPlotSettings
  1

  2
none_device
  4

  6

 40
0.0
 41
0.0
 42
0.0
 43
0.0
 44
0.0
 45
0.0
 46
0.0
 47
0.0
 48
0.0
 49
0.0
140
0.0
141
0.0
142
1.0
143
1.0
 70
   688
 72
     1
 73
     0
 74
     5
  7

 75
    16
147
1.0
148
0.0
149
0.0
100
AcDbLayout
  1
Layout2
 70
     1
 71
     2
 10
0.0
 20
0.0
 11
0.0
 21
0.0
 12
0.0
 22
0.0
 32
0.0
 14
0.0
 24
0.0
 34
0.0
 15
0.0
 25
0.0
 35
0.0
146
0.0
 13
0.0
 23
0.0
 33
0.0
 16
1.0
 26
0.0
 36
0.0
 17
0.0
 27
1.0
 37
0.0
 76
     0
330
23
  0
LAYOUT
  5
22
102
{ACAD_REACTORS
330
1A
102
}
330
1A
100
AcDbPlotSettings
  1

  2
none_device
  4
Letter_(8.50_x_11.00_Inches)
  6

 40
6.35
 41
6.35
 42
6.35000508
 43
6.35000508
 44
215.9
 45
279.4
 46
0.0
 47
0.0
 48
0.0
 49
0.0
140
0.0
141
0.0
142
1.0
143
1.0
 70
  1712
 72
     1
 73
     0
 74
     0
  7

 75
     0
147
1.0
148
0.0
149
0.0
100
AcDbLayout
  1
Model
 70
     1
 71
     0
 10
0.0
 20
0.0
 11
20000.0
 21
10000.0
 12
0.0
 22
0.0
 32
0.0
 14
0.0
 24
0.0
 34
0.0
 15
20000.0
 25
10000.0
 35
0.0
146
0.0
 13
0.0
 23
0.0
 33
0.0
 16
1.0
 26
0.0
 36
0.0
 17
0.0
 27
1.0
 37
0.0
 76
     0
330
1F
331
29
  0
MLINESTYLE
  5
18
102
{ACAD_REACTORS
330
17
102
}
330
17
100
AcDbMlineStyle
  2
Standard
 70
     0
  3

 62
   256
 51
90.0
 52
90.0
 71
     2
 49
0.5
 62
   256
  6
BYLAYER
 49
-0.5
 62
   256
  6
BYLAYER
  0
ACDBPLACEHOLDER
  5
F
102
{ACAD_REACTORS
330
E
102
}
330
E
  0
SCALE
  5
48
102
{ACAD_REACTORS
330
47
102
}
330
47
100
AcDbScale
 70
     0
300
1:1
140
1.0
141
1.0
290
     1
  0
SCALE
  5
49
102
{ACAD_REACTORS
330
47
102
}
330
47
100
AcDbScale
 70
     0
300
1:2
140
1.0
141
2.0
290
     0
  0
SCALE
  5
4A
102
{ACAD_REACTORS
330
47
102
}
330
47
100
AcDbScale
 70
     0
300
1:4
140
1.0
141
4.0
290
     0
  0
SCALE
  5
4B
102
{ACAD_REACTORS
330
47
102
}
330
47
100
AcDbScale
 70
     0
300
1:5
140
1.0
141
5.0
290
     0
  0
SCALE
  5
4C
102
{ACAD_REACTORS
330
47
102
}
330
47
100
AcDbScale
 70
     0
300
1:8
140
1.0
141
8.0
290
     0
  0
SCALE
  5
4D
102
{ACAD_REACTORS
330
47
102
}
330
47
100
AcDbScale
 70
     0
300
1:10
140
1.0
141
10.0
290
     0
  0
SCALE
  5
4E
102
{ACAD_REACTORS
330
47
102
}
330
47
100
AcDbScale
 70
     0
300
1:16
140
1.0
141
16.0
290
     0
  0
SCALE
  5
4F
102
{ACAD_REACTORS
330
47
102
}
330
47
100
AcDbScale
 70
     0
300
1:20
140
1.0
141
20.0
290
     0
  0
SCALE
  5
50
102
{ACAD_REACTORS
330
47
102
}
330
47
100
AcDbScale
 70
     0
300
1:30
140
1.0
141
30.0
290
     0
  0
SCALE
  5
51
102
{ACAD_REACTORS
330
47
102
}
330
47
100
AcDbScale
 70
     0
300
1:40
140
1.0
141
40.0
290
     0
  0
SCALE
  5
52
102
{ACAD_REACTORS
330
47
102
}
330
47
100
AcDbScale
 70
     0
300
1:50
140
1.0
141
50.0
290
     0
  0
SCALE
  5
53
102
{ACAD_REACTORS
330
47
102
}
330
47
100
AcDbScale
 70
     0
300
1:100
140
1.0
141
100.0
290
     0
  0
SCALE
  5
54
102
{ACAD_REACTORS
330
47
102
}
330
47
100
AcDbScale
 70
     0
300
2:1
140
2.0
141
1.0
290
     0
  0
SCALE
  5
55
102
{ACAD_REACTORS
330
47
102
}
330
47
100
AcDbScale
 70
     0
300
4:1
140
4.0
141
1.0
290
     0
  0
SCALE
  5
56
102
{ACAD_REACTORS
330
47
102
}
330
47
100
AcDbScale
 70
     0
300
8:1
140
8.0
141
1.0
290
     0
  0
SCALE
  5
57
102
{ACAD_REACTORS
330
47
102
}
330
47
100
AcDbScale
 70
     0
300
10:1
140
10.0
141
1.0
290
     0
  0
SCALE
  5
58
102
{ACAD_REACTORS
330
47
102
}
330
47
100
AcDbScale
 70
     0
300
100:1
140
100.0
141
1.0
290
     0
  0
SCALE
  5
59
102
{ACAD_REACTORS
330
47
102
}
330
47
100
AcDbScale
 70
     0
300
1/128" = 1'-0"
140
0.0078125
141
12.0
290
     0
  0
SCALE
  5
5A
102
{ACAD_REACTORS
330
47
102
}
330
47
100
AcDbScale
 70
     0
300
1/64" = 1'-0"
140
0.015625
141
12.0
290
     0
  0
SCALE
  5
5B
102
{ACAD_REACTORS
330
47
102
}
330
47
100
AcDbScale
 70
     0
300
1/32" = 1'-0"
140
0.03125
141
12.0
290
     0
  0
SCALE
  5
5C
102
{ACAD_REACTORS
330
47
102
}
330
47
100
AcDbScale
 70
     0
300
1/16" = 1'-0"
140
0.0625
141
12.0
290
     0
  0
SCALE
  5
5D
102
{ACAD_REACTORS
330
47
102
}
330
47
100
AcDbScale
 70
     0
300
3/32" = 1'-0"
140
0.09375
141
12.0
290
     0
  0
SCALE
  5
5E
102
{ACAD_REACTORS
330
47
102
}
330
47
100
AcDbScale
 70
     0
300
1/8" = 1'-0"
140
0.125
141
12.0
290
     0
  0
SCALE
  5
5F
102
{ACAD_REACTORS
330
47
102
}
330
47
100
AcDbScale
 70
     0
300
3/16" = 1'-0"
140
0.1875
141
12.0
290
     0
  0
SCALE
  5
60
102
{ACAD_REACTORS
330
47
102
}
330
47
100
AcDbScale
 70
     0
300
1/4" = 1'-0"
140
0.25
141
12.0
290
     0
  0
SCALE
  5
61
102
{ACAD_REACTORS
330
47
102
}
330
47
100
AcDbScale
 70
     0
300
3/8" = 1'-0"
140
0.375
141
12.0
290
     0
  0
SCALE
  5
62
102
{ACAD_REACTORS
330
47
102
}
330
47
100
AcDbScale
 70
     0
300
1/2" = 1'-0"
140
0.5
141
12.0
290
     0
  0
SCALE
  5
63
102
{ACAD_REACTORS
330
47
102
}
330
47
100
AcDbScale
 70
     0
300
3/4" = 1'-0"
140
0.75
141
12.0
290
     0
  0
SCALE
  5
64
102
{ACAD_REACTORS
330
47
102
}
330
47
100
AcDbScale
 70
     0
300
1" = 1'-0"
140
1.0
141
12.0
290
     0
  0
SCALE
  5
65
102
{ACAD_REACTORS
330
47
102
}
330
47
100
AcDbScale
 70
     0
300
1-1/2" = 1'-0"
140
1.5
141
12.0
290
     0
  0
SCALE
  5
66
102
{ACAD_REACTORS
330
47
102
}
330
47
100
AcDbScale
 70
     0
300
3" = 1'-0"
140
3.0
141
12.0
290
     0
  0
SCALE
  5
67
102
{ACAD_REACTORS
330
47
102
}
330
47
100
AcDbScale
 70
     0
300
6" = 1'-0"
140
6.0
141
12.0
290
     0
  0
SCALE
  5
68
102
{ACAD_REACTORS
330
47
102
}
330
47
100
AcDbScale
 70
     0
300
1'-0" = 1'-0"
140
12.0
141
12.0
290
     0
  0
ENDSEC
  0
EOF
