  0
SECTION
  2
HEADER
  9
$ACADVER
  1
AC1015
  9
$ACADMAINTVER
 70
     6
  9
$DWGCODEPAGE
  3
ANSI_1250
  9
$INSBASE
 10
0.0
 20
0.0
 30
0.0
  9
$EXTMIN
 10
0.0
 20
0.0
 30
0.0
  9
$EXTMAX
 10
20000.0
 20
10000.0
 30
0.0
  9
$LIMMIN
 10
0.0
 20
0.0
  9
$LIMMAX
 10
20000.0
 20
10000.0
  9
$ORTHOMODE
 70
     0
  9
$REGENMODE
 70
     1
  9
$FILLMODE
 70
     1
  9
$QTEXTMODE
 70
     0
  9
$MIRRTEXT
 70
     1
  9
$LTSCALE
 40
1.0
  9
$ATTMODE
 70
     1
  9
$TEXTSIZE
 40
2.0
  9
$TRACEWID
 40
1.0
  9
$TEXTSTYLE
  7
Standard
  9
$CLAYER
  8
0
  9
$CELTYPE
  6
ByLayer
  9
$CECOLOR
 62
   256
  9
$CELTSCALE
 40
1.0
  9
$DISPSILH
 70
     0
  9
$DIMSCALE
 40
1.0
  9
$DIMASZ
 40
2.0
  9
$DIMEXO
 40
1.0
  9
$DIMDLI
 40
3.75
  9
$DIMRND
 40
0.0
  9
$DIMDLE
 40
0.0
  9
$DIMEXE
 40
1.0
  9
$DIMTP
 40
0.0
  9
$DIMTM
 40
0.0
  9
$DIMTXT
 40
2.0
  9
$DIMCEN
 40
2.5
  9
$DIMTSZ
 40
0.0
  9
$DIMTOL
 70
     0
  9
$DIMLIM
 70
     0
  9
$DIMTIH
 70
     1
  9
$DIMTOH
 70
     1
  9
$DIMSE1
 70
     0
  9
$DIMSE2
 70
     0
  9
$DIMTAD
 70
     1
  9
$DIMZIN
 70
     0
  9
$DIMBLK
  1

  9
$DIMASO
 70
     1
  9
$DIMSHO
 70
     1
  9
$DIMPOST
  1

  9
$DIMAPOST
  1

  9
$DIMALT
 70
     0
  9
$DIMALTD
 70
     3
  9
$DIMALTF
 40
0.0393700787
  9
$DIMLFAC
 40
1.0
  9
$DIMTOFL
 70
     1
  9
$DIMTVP
 40
0.0
  9
$DIMTIX
 70
     0
  9
$DIMSOXD
 70
     0
  9
$DIMSAH
 70
     0
  9
$DIMBLK1
  1

  9
$DIMBLK2
  1

  9
$DIMSTYLE
  2
ISO-25
  9
$DIMCLRD
 70
     0
  9
$DIMCLRE
 70
     0
  9
$DIMCLRT
 70
     0
  9
$DIMTFAC
 40
1.0
  9
$DIMGAP
 40
1.524
  9
$DIMJUST
 70
     0
  9
$DIMSD1
 70
     0
  9
$DIMSD2
 70
     0
  9
$DIMTOLJ
 70
     0
  9
$DIMTZIN
 70
     0
  9
$DIMALTZ
 70
     0
  9
$DIMALTTZ
 70
     0
  9
$DIMUPT
 70
     0
  9
$DIMDEC
 70
     2
  9
$DIMTDEC
 70
     0
  9
$DIMALTU
 70
     2
  9
$DIMALTTD
 70
     3
  9
$DIMTXSTY
  7
Standard
  9
$DIMAUNIT
 70
     0
  9
$DIMADEC
 70
     2
  9
$DIMALTRND
 40
0.0
  9
$DIMAZIN
 70
     0
  9
$DIMDSEP
 70
    44
  9
$DIMATFIT
 70
     3
  9
$DIMFRAC
 70
     0
  9
$DIMLDRBLK
  1

  9
$DIMLUNIT
 70
     2
  9
$DIMLWD
 70
    -2
  9
$DIMLWE
 70
    -2
  9
$DIMTMOVE
 70
     0
  9
$LUNITS
 70
     2
  9
$LUPREC
 70
     3
  9
$SKETCHINC
 40
1.0
  9
$FILLETRAD
 40
10.0
  9
$AUNITS
 70
     0
  9
$AUPREC
 70
     2
  9
$MENU
  1
.
  9
$ELEVATION
 40
0.0
  9
$PELEVATION
 40
0.0
  9
$THICKNESS
 40
0.0
  9
$LIMCHECK
 70
     0
  9
$CHAMFERA
 40
0.0
  9
$CHAMFERB
 40
0.0
  9
$CHAMFERC
 40
0.0
  9
$CHAMFERD
 40
0.0
  9
$SKPOLY
 70
     0
  9
$TDCREATE
 40
2458669.459520672
  9
$TDUCREATE
 40
2458669.376187338
  9
$TDUPDATE
 40
2458669.459523495
  9
$TDUUPDATE
 40
2458669.376190162
  9
$TDINDWG
 40
0.0000000116
  9
$TDUSRTIMER
 40
0.0000000116
  9
$USRTIMER
 70
     1
  9
$ANGBASE
 50
0.0
  9
$ANGDIR
 70
     0
  9
$PDMODE
 70
     0
  9
$PDSIZE
 40
-1.0
  9
$PLINEWID
 40
0.0
  9
$SPLFRAME
 70
     0
  9
$SPLINETYPE
 70
     6
  9
$SPLINESEGS
 70
     8
  9
$HANDSEED
  5
141
  9
$SURFTAB1
 70
     6
  9
$SURFTAB2
 70
     6
  9
$SURFTYPE
 70
     6
  9
$SURFU
 70
     6
  9
$SURFV
 70
     6
  9
$UCSBASE
  2

  9
$UCSNAME
  2

  9
$UCSORG
 10
0.0
 20
0.0
 30
0.0
  9
$UCSXDIR
 10
1.0
 20
0.0
 30
0.0
  9
$UCSYDIR
 10
0.0
 20
1.0
 30
0.0
  9
$UCSORTHOREF
  2

  9
$UCSORTHOVIEW
 70
     0
  9
$UCSORGTOP
 10
0.0
 20
0.0
 30
0.0
  9
$UCSORGBOTTOM
 10
0.0
 20
0.0
 30
0.0
  9
$UCSORGLEFT
 10
0.0
 20
0.0
 30
0.0
  9
$UCSORGRIGHT
 10
0.0
 20
0.0
 30
0.0
  9
$UCSORGFRONT
 10
0.0
 20
0.0
 30
0.0
  9
$UCSORGBACK
 10
0.0
 20
0.0
 30
0.0
  9
$PUCSBASE
  2

  9
$PUCSNAME
  2

  9
$PUCSORG
 10
0.0
 20
0.0
 30
0.0
  9
$PUCSXDIR
 10
1.0
 20
0.0
 30
0.0
  9
$PUCSYDIR
 10
0.0
 20
1.0
 30
0.0
  9
$PUCSORTHOREF
  2

  9
$PUCSORTHOVIEW
 70
     0
  9
$PUCSORGTOP
 10
0.0
 20
0.0
 30
0.0
  9
$PUCSORGBOTTOM
 10
0.0
 20
0.0
 30
0.0
  9
$PUCSORGLEFT
 10
0.0
 20
0.0
 30
0.0
  9
$PUCSORGRIGHT
 10
0.0
 20
0.0
 30
0.0
  9
$PUCSORGFRONT
 10
0.0
 20
0.0
 30
0.0
  9
$PUCSORGBACK
 10
0.0
 20
0.0
 30
0.0
  9
$USERI1
 70
     0
  9
$USERI2
 70
     0
  9
$USERI3
 70
     0
  9
$USERI4
 70
     0
  9
$USERI5
 70
     0
  9
$USERR1
 40
0.0
  9
$USERR2
 40
0.0
  9
$USERR3
 40
0.0
  9
$USERR4
 40
0.0
  9
$USERR5
 40
0.0
  9
$WORLDVIEW
 70
     1
  9
$SHADEDGE
 70
     3
  9
$SHADEDIF
 70
    70
  9
$TILEMODE
 70
     1
  9
$MAXACTVP
 70
    64
  9
$PINSBASE
 10
0.0
 20
0.0
 30
0.0
  9
$PLIMCHECK
 70
     0
  9
$PEXTMIN
 10
1.0000000000E+20
 20
1.0000000000E+20
 30
1.0000000000E+20
  9
$PEXTMAX
 10
-1.0000000000E+20
 20
-1.0000000000E+20
 30
-1.0000000000E+20
  9
$PLIMMIN
 10
0.0
 20
0.0
  9
$PLIMMAX
 10
420.0
 20
297.0
  9
$UNITMODE
 70
     0
  9
$VISRETAIN
 70
     1
  9
$PLINEGEN
 70
     0
  9
$PSLTSCALE
 70
     1
  9
$TREEDEPTH
 70
  3020
  9
$CMLSTYLE
  2
Standard
  9
$CMLJUST
 70
     0
  9
$CMLSCALE
 40
20.0
  9
$PROXYGRAPHICS
 70
     1
  9
$MEASUREMENT
 70
     1
  9
$CELWEIGHT
370
    -1
  9
$ENDCAPS
280
     0
  9
$JOINSTYLE
280
     0
  9
$LWDISPLAY
290
     1
  9
$INSUNITS
 70
     4
  9
$HYPERLINKBASE
  1

  9
$STYLESHEET
  1

  9
$XEDIT
290
     1
  9
$CEPSNTYPE
380
     0
  9
$PSTYLEMODE
290
     1
  9
$FINGERPRINTGUID
  2
{1E4B31E8-9309-4555-90C6-8E24838C448C}
  9
$VERSIONGUID
  2
{FAEB1C32-E019-11D5-929B-00C0DF256EC4}
  9
$EXTNAMES
290
     1
  9
$PSVPSCALE
 40
0.0
  9
$OLESTARTUP
290
     0
  0
ENDSEC
  0
SECTION
  2
CLASSES
  0
CLASS
  1
ACDBDICTIONARYWDFLT
  2
AcDbDictionaryWithDefault
  3
ObjectDBX Classes
 90
        0
280
     0
281
     0
  0
CLASS
  1
VISUALSTYLE
  2
AcDbVisualStyle
  3
ObjectDBX Classes
 90
     4095
280
     0
281
     0
  0
CLASS
  1
MATERIAL
  2
AcDbMaterial
  3
ObjectDBX Classes
 90
     1153
280
     0
281
     0
  0
CLASS
  1
SCALE
  2
AcDbScale
  3
ObjectDBX Classes
 90
     1153
280
     0
281
     0
  0
CLASS
  1
TABLESTYLE
  2
AcDbTableStyle
  3
ObjectDBX Classes
 90
     4095
280
     0
281
     0
  0
CLASS
  1
MLEADERSTYLE
  2
AcDbMLeaderStyle
  3
ACDB_MLEADERSTYLE_CLASS
 90
     4095
280
     0
281
     0
  0
CLASS
  1
SUN
  2
AcDbSun
  3
SCENEOE
 90
     1153
280
     0
281
     0
  0
CLASS
  1
ACDBPLACEHOLDER
  2
AcDbPlaceHolder
  3
ObjectDBX Classes
 90
        0
280
     0
281
     0
  0
CLASS
  1
LAYOUT
  2
AcDbLayout
  3
ObjectDBX Classes
 90
        0
280
     0
281
     0
  0
ENDSEC
  0
SECTION
  2
TABLES
  0
TABLE
  2
VPORT
  5
8
330
0
100
AcDbSymbolTable
 70
     1
  0
VPORT
  5
29
330
8
100
AcDbSymbolTableRecord
100
AcDbViewportTableRecord
  2
*Active
 70
     0
 10
0.0
 20
0.0
 11
1.0
 21
1.0
 12
10000.0
 22
5000.0
 13
0.0
 23
0.0
 14
10.0
 24
10.0
 15
10.0
 25
10.0
 16
0.0
 26
0.0
 36
1.0
 17
0.0
 27
0.0
 37
0.0
 40
10000.0
 41
2.0
 42
50.0
 43
0.0
 44
0.0
 50
0.0
 51
0.0
 71
     0
 72
  2000
 73
     1
 74
     3
 75
     0
 76
     0
 77
     0
 78
     0
281
     0
 65
     1
110
0.0
120
0.0
130
0.0
111
1.0
121
0.0
131
0.0
112
0.0
122
1.0
132
0.0
 79
     0
146
0.0
  0
ENDTAB
  0
TABLE
  2
LTYPE
  5
5
330
0
100
AcDbSymbolTable
 70
     6
  0
LTYPE
  5
14
330
5
100
AcDbSymbolTableRecord
100
AcDbLinetypeTableRecord
  2
ByBlock
 70
     0
  3

 72
    65
 73
     0
 40
0.0
  0
LTYPE
  5
15
330
5
100
AcDbSymbolTableRecord
100
AcDbLinetypeTableRecord
  2
ByLayer
 70
     0
  3

 72
    65
 73
     0
 40
0.0
  0
LTYPE
  5
16
330
5
100
AcDbSymbolTableRecord
100
AcDbLinetypeTableRecord
  2
Continuous
 70
     0
  3
Solid line
 72
    65
 73
     0
 40
0.0
  0
LTYPE
  5
6E
330
5
100
AcDbSymbolTableRecord
100
AcDbLinetypeTableRecord
  2
HIDDEN
 70
     0
  3
Hidden __ __ __ __ __ __ __ __ __ __ __ __ __ __
 72
    65
 73
     2
 40
1.905
 49
1.27
 74
     0
 49
-0.635
 74
     0
  0
LTYPE
  5
6F
330
5
100
AcDbSymbolTableRecord
100
AcDbLinetypeTableRecord
  2
PHANTOM
 70
     0
  3
Phantom ______  __  __  ______  __  __  ______
 72
    65
 73
     6
 40
12.7
 49
6.35
 74
     0
 49
-1.27
 74
     0
 49
1.27
 74
     0
 49
-1.27
 74
     0
 49
1.27
 74
     0
 49
-1.27
 74
     0
  0
LTYPE
  5
70
330
5
100
AcDbSymbolTableRecord
100
AcDbLinetypeTableRecord
  2
CENTER
 70
     0
  3
Center ____ _ ____ _ ____ _ ____ _ ____ _ ____
 72
    65
 73
     4
 40
10.16
 49
6.35
 74
     0
 49
-1.27
 74
     0
 49
1.27
 74
     0
 49
-1.27
 74
     0
  0
LTYPE
  5
71
330
5
100
AcDbSymbolTableRecord
100
AcDbLinetypeTableRecord
  2
CENTERX2
 70
     0
  3
Center (2x) ________  __  ________  __  _____
 72
    65
 73
     4
 40
20.32
 49
12.7
 74
     0
 49
-2.54
 74
     0
 49
2.54
 74
     0
 49
-2.54
 74
     0
  0
LTYPE
  5
72
330
5
100
AcDbSymbolTableRecord
100
AcDbLinetypeTableRecord
  2
DOT2
 70
     0
  3
Dot (.5x) ........................................
 72
    65
 73
     2
 40
0.635
 49
0.0
 74
     0
 49
-0.635
 74
     0
  0
ENDTAB
  0
TABLE
  2
LAYER
  5
2
330
0
100
AcDbSymbolTable
 70
    13
  0
LAYER
  5
10
330
2
100
AcDbSymbolTableRecord
100
AcDbLayerTableRecord
  2
0
 70
     0
 62
     7
  6
Continuous
370
    -3
390
F
  0
LAYER
  5
73
330
2
100
AcDbSymbolTableRecord
100
AcDbLayerTableRecord
  2
FORMAT
 70
     0
 62
     7
  6
Continuous
370
    -3
390
F
  0
LAYER
  5
74
330
2
100
AcDbSymbolTableRecord
100
AcDbLayerTableRecord
  2
OSA
 70
     0
 62
     7
  6
CENTER
370
    -3
390
F
  0
LAYER
  5
75
330
2
100
AcDbSymbolTableRecord
100
AcDbLayerTableRecord
  2
0_35
 70
     0
 62
     7
  6
Continuous
370
    35
390
F
  0
LAYER
  5
76
330
2
100
AcDbSymbolTableRecord
100
AcDbLayerTableRecord
  2
0_5
 70
     0
 62
     7
  6
Continuous
370
    50
390
F
  0
LAYER
  5
77
330
2
100
AcDbSymbolTableRecord
100
AcDbLayerTableRecord
  2
0_25
 70
     0
 62
     7
  6
Continuous
370
    25
390
F
  0
LAYER
  5
78
330
2
100
AcDbSymbolTableRecord
100
AcDbLayerTableRecord
  2
0_18
 70
     0
 62
     7
  6
Continuous
370
    -3
390
F
  0
LAYER
  5
79
330
2
100
AcDbSymbolTableRecord
100
AcDbLayerTableRecord
  2
SLD-0
 70
     0
 62
   179
  6
Continuous
370
    -3
390
F
  0
LAYER
  5
7A
330
2
100
AcDbSymbolTableRecord
100
AcDbLayerTableRecord
  2
KOTY
 70
     0
 62
     7
  6
Continuous
370
    -3
390
F
  0
LAYER
  5
7B
330
2
100
AcDbSymbolTableRecord
100
AcDbLayerTableRecord
  2
SILNA
 70
     0
 62
   179
  6
Continuous
370
    -3
390
F
  0
LAYER
  5
7C
330
2
100
AcDbSymbolTableRecord
100
AcDbLayerTableRecord
  2
0_18_1
 70
     0
 62
   179
  6
Continuous
370
    -3
390
F
  0
LAYER
  5
7D
330
2
100
AcDbSymbolTableRecord
100
AcDbLayerTableRecord
  2
0_35_1
 70
     0
 62
   179
  6
Continuous
370
    35
390
F
  0
LAYER
  5
7E
330
2
100
AcDbSymbolTableRecord
100
AcDbLayerTableRecord
  2
0_5_1
 70
     0
 62
   179
  6
Continuous
370
    50
390
F
  0
ENDTAB
  0
TABLE
  2
STYLE
  5
3
330
0
100
AcDbSymbolTable
 70
     1
  0
STYLE
  5
11
330
3
100
AcDbSymbolTableRecord
100
AcDbTextStyleTableRecord
  2
Standard
 70
     0
 40
0.0
 41
1.0
 50
0.0
 71
     0
 42
2.0
  3
txt
  4

  0
ENDTAB
  0
TABLE
  2
VIEW
  5
6
330
0
100
AcDbSymbolTable
 70
     0
  0
ENDTAB
  0
TABLE
  2
UCS
  5
7
330
0
100
AcDbSymbolTable
 70
     0
  0
ENDTAB
  0
TABLE
  2
APPID
  5
9
330
0
100
AcDbSymbolTable
 70
     1
  0
APPID
  5
12
330
9
100
AcDbSymbolTableRecord
100
AcDbRegAppTableRecord
  2
ACAD
 70
     0
  0
ENDTAB
  0
TABLE
  2
DIMSTYLE
  5
A
330
0
100
AcDbSymbolTable
 70
     1
100
AcDbDimStyleTable
  0
DIMSTYLE
105
27
330
A
100
AcDbSymbolTableRecord
100
AcDbDimStyleTableRecord
  2
ISO-25
 70
     0
 41
2.5
 42
0.625
 43
3.75
 44
1.25
 73
     0
 74
     0
 77
     1
 78
     8
140
2.5
141
2.5
143
0.0393700787
147
0.625
171
     3
172
     1
178
     0
271
     2
272
     2
274
     3
278
    44
283
     0
284
     8
340
11
  0
ENDTAB
  0
TABLE
  2
BLOCK_RECORD
  5
1
330
0
100
AcDbSymbolTable
 70
     1
  0
BLOCK_RECORD
  5
1F
330
1
100
AcDbSymbolTableRecord
100
AcDbBlockTableRecord
  2
*Model_Space
340
22
  0
BLOCK_RECORD
  5
1B
330
1
100
AcDbSymbolTableRecord
100
AcDbBlockTableRecord
  2
*Paper_Space
340
1E
  0
BLOCK_RECORD
  5
23
330
1
100
AcDbSymbolTableRecord
100
AcDbBlockTableRecord
  2
*Paper_Space0
340
26
  0
ENDTAB
  0
ENDSEC
  0
SECTION
  2
BLOCKS
  0
BLOCK
  5
20
330
1F
100
AcDbEntity
  8
0
100
AcDbBlockBegin
  2
*Model_Space
 70
     0
 10
0.0
 20
0.0
 30
0.0
  3
*Model_Space
  1

  0
ENDBLK
  5
21
330
1F
100
AcDbEntity
  8
0
100
AcDbBlockEnd
  0
BLOCK
  5
1C
330
1B
100
AcDbEntity
 67
     1
  8
0
100
AcDbBlockBegin
  2
*Paper_Space
 70
     0
 10
0.0
 20
0.0
 30
0.0
  3
*Paper_Space
  1

  0
ENDBLK
  5
1D
330
1B
100
AcDbEntity
 67
     1
  8
0
100
AcDbBlockEnd
  0
BLOCK
  5
24
330
23
100
AcDbEntity
  8
0
100
AcDbBlockBegin
  2
*Paper_Space0
 70
     0
 10
0.0
 20
0.0
 30
0.0
  3
*Paper_Space0
  1

  0
ENDBLK
  5
25
330
23
100
AcDbEntity
  8
0
100
AcDbBlockEnd
  0
ENDSEC
  0
SECTION
  2
ENTITIES
  0
LINE
  5
7F
330
1F
100
AcDbEntity
  8
0
  6
Continuous
 62
     7
370
    25
100
AcDbLine
 10
6710.0187553361
 20
5204.9414676102
 30
0.0
 11
6713.0187553361
 21
5201.9414676102
 31
0.0
  0
LINE
  5
80
330
1F
100
AcDbEntity
  8
0
  6
Continuous
 62
     7
370
    25
100
AcDbLine
 10
6778.0187553361
 20
5201.9414676102
 30
0.0
 11
6781.0187553361
 21
5204.9414676102
 31
0.0
  0
LINE
  5
81
330
1F
100
AcDbEntity
  8
0
  6
Continuous
 62
     7
370
    25
100
AcDbLine
 10
6781.0187553361
 20
5204.9414676103
 30
0.0
 11
6781.0187553361
 21
5205.4414676102
 31
0.0
  0
LINE
  5
82
330
1F
100
AcDbEntity
  8
0
  6
Continuous
 62
     7
370
    25
100
AcDbLine
 10
6710.0187553361
 20
5205.4414676102
 30
0.0
 11
6710.0187553361
 21
5204.9414676103
 31
0.0
  0
LINE
  5
83
330
1F
100
AcDbEntity
  8
0
  6
Continuous
 62
     7
370
    25
100
AcDbLine
 10
6778.0187553361
 20
5196.3414676103
 30
0.0
 11
6778.0187553361
 21
5201.9414676103
 31
0.0
  0
LINE
  5
84
330
1F
100
AcDbEntity
  8
0
  6
Continuous
 62
     7
370
    25
100
AcDbLine
 10
6713.0187553361
 20
5201.9414676103
 30
0.0
 11
6713.0187553361
 21
5196.3414676103
 31
0.0
  0
LINE
  5
85
330
1F
100
AcDbEntity
  8
0
  6
Continuous
 62
     7
370
    25
100
AcDbLine
 10
6715.5187553361
 20
5145.9414676102
 30
0.0
 11
6715.5187553361
 21
5127.9414676102
 31
0.0
  0
LINE
  5
86
330
1F
100
AcDbEntity
  8
0
  6
Continuous
 62
     7
370
    25
100
AcDbLine
 10
6775.5187553361
 20
5127.9414676102
 30
0.0
 11
6775.5187553361
 21
5145.9414676102
 31
0.0
  0
LINE
  5
87
330
1F
100
AcDbEntity
  8
0
  6
Continuous
 62
     7
370
    25
100
AcDbLine
 10
6771.5187553361
 20
5167.3414676102
 30
0.0
 11
6771.5187553361
 21
5196.3414676103
 31
0.0
  0
LINE
  5
88
330
1F
100
AcDbEntity
  8
0
  6
Continuous
 62
     7
370
    25
100
AcDbLine
 10
6719.5187553361
 20
5196.3414676103
 30
0.0
 11
6719.5187553361
 21
5167.3414676102
 31
0.0
  0
LINE
  5
89
330
1F
100
AcDbEntity
  8
0
  6
Continuous
 62
     7
370
    25
100
AcDbLine
 10
6719.5187553361
 20
5167.3414676102
 30
0.0
 11
6723.5187553361
 21
5156.3414676102
 31
0.0
  0
LINE
  5
8A
330
1F
100
AcDbEntity
  8
0
  6
Continuous
 62
     7
370
    25
100
AcDbLine
 10
6767.5187553361
 20
5156.3414676102
 30
0.0
 11
6771.5187553361
 21
5167.3414676102
 31
0.0
  0
LINE
  5
8B
330
1F
100
AcDbEntity
  8
0
  6
Continuous
 62
     7
370
    25
100
AcDbLine
 10
6770.5187553361
 20
5026.9414676102
 30
0.0
 11
6770.5187553361
 21
5127.9414676102
 31
0.0
  0
LINE
  5
8C
330
1F
100
AcDbEntity
  8
0
  6
Continuous
 62
     7
370
    25
100
AcDbLine
 10
6720.5187553361
 20
5127.9414676102
 30
0.0
 11
6720.5187553361
 21
5026.9414676102
 31
0.0
  0
ARC
  5
8D
330
1F
100
AcDbEntity
  8
0
  6
Continuous
 62
     7
370
    25
100
AcDbCircle
 10
6745.5187553361
 20
5026.9414676102
 30
0.0
 40
25.0
100
AcDbArc
 50
285.8544224346
 51
0.0
  0
ARC
  5
8E
330
1F
100
AcDbEntity
  8
0
  6
Continuous
 62
     7
370
    25
100
AcDbCircle
 10
6745.5187553361
 20
5026.9414676102
 30
0.0
 40
25.00000000000091
100
AcDbArc
 50
180.0
 51
254.1731402155
  0
LINE
  5
8F
330
1F
100
AcDbEntity
  8
0
  6
Continuous
 62
     7
370
    25
100
AcDbLine
 10
6767.5187553361
 20
5145.9414676102
 30
0.0
 11
6767.5187553361
 21
5156.3414676102
 31
0.0
  0
LINE
  5
90
330
1F
100
AcDbEntity
  8
0
  6
Continuous
 62
     7
370
    25
100
AcDbLine
 10
6723.5187553361
 20
5156.3414676102
 30
0.0
 11
6723.5187553361
 21
5145.9414676102
 31
0.0
  0
LINE
  5
91
330
1F
100
AcDbEntity
  8
0
  6
Continuous
 62
     7
370
    25
100
AcDbLine
 10
6778.0187553361
 20
4983.8564589891
 30
0.0
 11
6778.0187553361
 21
4998.8564589891
 31
0.0
  0
LINE
  5
92
330
1F
100
AcDbEntity
  8
0
  6
Continuous
 62
     7
370
    25
100
AcDbLine
 10
6713.0187553361
 20
4998.8564589891
 30
0.0
 11
6713.0187553361
 21
4983.8564589891
 31
0.0
  0
ARC
  5
93
330
1F
100
AcDbEntity
  8
0
  6
Continuous
 62
     7
370
    25
100
AcDbCircle
 10
6745.5187553361
 20
5056.9574165752
 30
0.0
 40
79.9999999999999
100
AcDbArc
 50
246.0305176822
 51
293.9694823178
  0
LINE
  5
94
330
1F
100
AcDbEntity
  8
0
  6
Continuous
 62
     7
370
    25
100
AcDbLine
 10
6773.5187553361
 20
4998.8564589891
 30
0.0
 11
6773.5187553361
 21
5112.9414676102
 31
0.0
  0
LINE
  5
95
330
1F
100
AcDbEntity
  8
0
  6
Continuous
 62
     7
370
    25
100
AcDbLine
 10
6717.5187553361
 20
5112.9414676102
 30
0.0
 11
6717.5187553361
 21
4998.8564589891
 31
0.0
  0
LINE
  5
96
330
1F
100
AcDbEntity
  8
0
  6
Continuous
 62
     7
370
    25
100
AcDbLine
 10
6745.5187553361
 20
5204.9414676102
 30
0.0
 11
6710.0187553361
 21
5204.9414676102
 31
0.0
  0
LINE
  5
97
330
1F
100
AcDbEntity
  8
0
  6
Continuous
 62
     7
370
    25
100
AcDbLine
 10
6781.0187553361
 20
5204.9414676102
 30
0.0
 11
6745.5187553361
 21
5204.9414676102
 31
0.0
  0
LINE
  5
98
330
1F
100
AcDbEntity
  8
0
  6
Continuous
 62
     7
370
    25
100
AcDbLine
 10
6745.5187553361
 20
5201.9414676102
 30
0.0
 11
6713.0187553361
 21
5201.9414676102
 31
0.0
  0
LINE
  5
99
330
1F
100
AcDbEntity
  8
0
  6
Continuous
 62
     7
370
    25
100
AcDbLine
 10
6778.0187553361
 20
5201.9414676102
 30
0.0
 11
6745.5187553361
 21
5201.9414676102
 31
0.0
  0
LINE
  5
9A
330
1F
100
AcDbEntity
  8
0
  6
Continuous
 62
     7
370
    25
100
AcDbLine
 10
6745.5187553361
 20
5196.3414676102
 30
0.0
 11
6713.0187553361
 21
5196.3414676102
 31
0.0
  0
LINE
  5
9B
330
1F
100
AcDbEntity
  8
0
  6
Continuous
 62
     7
370
    25
100
AcDbLine
 10
6778.0187553361
 20
5196.3414676102
 30
0.0
 11
6745.5187553361
 21
5196.3414676102
 31
0.0
  0
LINE
  5
9C
330
1F
100
AcDbEntity
  8
0
  6
Continuous
 62
     7
370
    25
100
AcDbLine
 10
6715.5187553361
 20
5145.9414676102
 30
0.0
 11
6775.5187553361
 21
5145.9414676102
 31
0.0
  0
LINE
  5
9D
330
1F
100
AcDbEntity
  8
0
  6
Continuous
 62
     7
370
    25
100
AcDbLine
 10
6715.5187553361
 20
5127.9414676102
 30
0.0
 11
6775.5187553361
 21
5127.9414676102
 31
0.0
  0
LINE
  5
9E
330
1F
100
AcDbEntity
  8
0
  6
Continuous
 62
     7
370
    25
100
AcDbLine
 10
6745.5187553361
 20
5167.3414676102
 30
0.0
 11
6719.5187553361
 21
5167.3414676102
 31
0.0
  0
LINE
  5
9F
330
1F
100
AcDbEntity
  8
0
  6
Continuous
 62
     7
370
    25
100
AcDbLine
 10
6771.5187553361
 20
5167.3414676102
 30
0.0
 11
6745.5187553361
 21
5167.3414676102
 31
0.0
  0
LINE
  5
A0
330
1F
100
AcDbEntity
  8
0
  6
Continuous
 62
     7
370
    25
100
AcDbLine
 10
6745.5187553361
 20
5156.3414676102
 30
0.0
 11
6723.5187553361
 21
5156.3414676102
 31
0.0
  0
LINE
  5
A1
330
1F
100
AcDbEntity
  8
0
  6
Continuous
 62
     7
370
    25
100
AcDbLine
 10
6767.5187553361
 20
5156.3414676102
 30
0.0
 11
6745.5187553361
 21
5156.3414676102
 31
0.0
  0
SPLINE
  5
A2
330
1F
100
AcDbEntity
  8
0
  6
Continuous
 62
     7
370
    25
100
AcDbSpline
210
0.0
220
0.0
230
1.0
 70
     8
 71
     3
 72
    12
 73
     8
 74
     0
 42
0.000000001
 43
0.00000001
 40
0.0
 40
0.0
 40
0.0
 40
0.0
 40
0.1821415231939959
 40
0.4472471257084187
 40
0.6771288461121913
 40
0.9139212708163933
 40
1.0
 40
1.0
 40
1.0
 40
1.0
 10
6738.71192878205
 20
5002.940430752742
 30
0.0
 10
6739.507440304005
 20
5002.719464903385
 30
0.0
 10
6741.460812799327
 20
5002.176884939897
 30
0.0
 10
6744.627098041366
 20
5001.900130027937
 30
0.0
 10
6748.029057139998
 20
5002.023816962294
 30
0.0
 10
6750.583266741612
 20
5002.380476282183
 30
0.0
 10
6751.966955087381
 20
5002.82062428123
 30
0.0
 10
6752.335851884001
 20
5002.937969482108
 30
0.0
  0
LINE
  5
A3
330
1F
100
AcDbEntity
  8
0
  6
Continuous
 62
     7
370
    25
100
AcDbLine
 10
6745.5187553361
 20
4983.8564589891
 30
0.0
 11
6713.0187553361
 21
4983.8564589891
 31
0.0
  0
LINE
  5
A4
330
1F
100
AcDbEntity
  8
0
  6
Continuous
 62
     7
370
    25
100
AcDbLine
 10
6778.0187553361
 20
4983.8564589891
 30
0.0
 11
6745.5187553361
 21
4983.8564589891
 31
0.0
  0
LINE
  5
A5
330
1F
100
AcDbEntity
  8
0
  6
Continuous
 62
     7
370
    25
100
AcDbLine
 10
6745.5187553361
 20
4998.8564589891
 30
0.0
 11
6713.0187553361
 21
4998.8564589891
 31
0.0
  0
LINE
  5
A6
330
1F
100
AcDbEntity
  8
0
  6
Continuous
 62
     7
370
    25
100
AcDbLine
 10
6778.0187553361
 20
4998.8564589891
 30
0.0
 11
6745.5187553361
 21
4998.8564589891
 31
0.0
  0
ELLIPSE
  5
A7
330
1F
100
AcDbEntity
  8
0
  6
Continuous
 62
     7
370
    25
100
AcDbEllipse
 10
6745.5187553361
 20
5112.9414676102
 30
0.0
 11
28.0
 21
0.0
 31
0.0
210
0.0
220
0.0
230
1.0
 40
0.8928571429
 41
0.0
 42
0.0752180938701709
  0
ELLIPSE
  5
A8
330
1F
100
AcDbEntity
  8
0
  6
Continuous
 62
     7
370
    25
100
AcDbEllipse
 10
6745.5187553361
 20
5112.9414676102
 30
0.0
 11
28.0
 21
0.0
 31
0.0
210
0.0
220
0.0
230
1.0
 40
0.8928571429
 41
3.066374559719661
 42
3.141592653589793
  0
ELLIPSE
  5
A9
330
1F
100
AcDbEntity
  8
0
  6
Continuous
 62
     7
370
    25
100
AcDbEllipse
 10
6745.5187553361
 20
5116.6988269231
 30
0.0
 11
28.0
 21
0.0
 31
0.0
210
0.0
220
0.0
230
1.0
 40
0.8928571429
 41
3.216810747459974
 42
3.544057385154817
  0
ELLIPSE
  5
AA
330
1F
100
AcDbEntity
  8
0
  6
Continuous
 62
     7
370
    25
100
AcDbEllipse
 10
6745.5187553361
 20
5116.6988269231
 30
0.0
 11
28.0
 21
0.0
 31
0.0
210
0.0
220
0.0
230
1.0
 40
0.8928571429
 41
5.880720575614626
 42
6.207967213309471
  0
ARC
  5
AB
330
1F
100
AcDbEntity
  8
0
  6
Continuous
 62
     7
370
    25
100
AcDbCircle
 10
6719.0970509734
 20
5114.9328680461
 30
0.0
 40
1.503356138317094
100
AcDbArc
 50
175.6999598631
 51
184.3000401369
  0
ARC
  5
AC
330
1F
100
AcDbEntity
  8
0
  6
Continuous
 62
     7
370
    25
100
AcDbCircle
 10
6771.9404596995
 20
5114.9328680461
 30
0.0
 40
1.503356137629569
100
AcDbArc
 50
355.6999598611
 51
4.3000401389
  0
ARC
  5
AD
330
1F
100
AcDbEntity
  8
0
  6
Continuous
 62
     7
370
    25
100
AcDbCircle
 10
6745.5187553361
 20
5112.9414676102
 30
0.0
 40
28.00000000000065
100
AcDbArc
 50
153.2344994232
 51
175.6903206782
  0
ARC
  5
AE
330
1F
100
AcDbEntity
  8
0
  6
Continuous
 62
     7
370
    25
100
AcDbCircle
 10
6745.5187553361
 20
5112.9414676102
 30
0.0
 40
28.00000000000025
100
AcDbArc
 50
4.3096793218
 51
26.7655005768
  0
ARC
  5
AF
330
1F
100
AcDbEntity
  8
0
  6
Continuous
 62
     7
370
    25
100
AcDbCircle
 10
6745.5187553361
 20
5112.9414676102
 30
0.0
 40
28.00000000000019
100
AcDbArc
 50
175.6903206782
 51
180.0
  0
ARC
  5
B0
330
1F
100
AcDbEntity
  8
0
  6
Continuous
 62
     7
370
    25
100
AcDbCircle
 10
6745.5187553361
 20
5112.9414676102
 30
0.0
 40
28.0
100
AcDbArc
 50
0.0
 51
4.3096793218
  0
ARC
  5
B1
330
1F
100
AcDbEntity
  8
0
  6
Continuous
 62
     7
370
    25
100
AcDbCircle
 10
6745.5187553361
 20
5112.9414676102
 30
0.0
 40
33.00000000000091
100
AcDbArc
 50
152.9643082106
 51
180.0
  0
ARC
  5
B2
330
1F
100
AcDbEntity
  8
0
  6
Continuous
 62
     7
370
    25
100
AcDbCircle
 10
6745.5187553361
 20
5112.9414676102
 30
0.0
 40
33.00000000000018
100
AcDbArc
 50
328.0472535997
 51
27.0356917894
  0
ARC
  5
B3
330
1F
100
AcDbEntity
  8
0
  6
Continuous
 62
     7
370
    25
100
AcDbCircle
 10
6745.5187553361
 20
5112.9414676102
 30
0.0
 40
33.00000000000091
100
AcDbArc
 50
180.0
 51
211.9527464003
  0
LINE
  5
B4
330
1F
100
AcDbEntity
  8
0
  6
Continuous
 62
     7
370
    25
100
AcDbLine
 10
6900.5187553361
 20
5205.4414676102
 30
0.0
 11
6870.5187553361
 21
5205.4414676102
 31
0.0
  0
LINE
  5
B5
330
1F
100
AcDbEntity
  8
0
  6
Continuous
 62
     7
370
    25
100
AcDbLine
 10
5677.5187553361
 20
5205.4414676102
 30
0.0
 11
5647.5187553361
 21
5205.4414676102
 31
0.0
  0
LINE
  5
B6
330
1F
100
AcDbEntity
  8
0
  6
Continuous
 62
     7
370
    25
100
AcDbLine
 10
5677.5187553361
 20
5380.4414676102
 30
0.0
 11
6870.5187553361
 21
5380.4414676102
 31
0.0
  0
LINE
  5
B7
330
1F
100
AcDbEntity
  8
0
  6
Continuous
 62
     7
370
    25
100
AcDbLine
 10
5677.5187553361
 20
5205.4414676102
 30
0.0
 11
5677.5187553361
 21
5380.4414676102
 31
0.0
  0
LINE
  5
B8
330
1F
100
AcDbEntity
  8
0
  6
Continuous
 62
     7
370
    25
100
AcDbLine
 10
6870.5187553361
 20
5380.4414676102
 30
0.0
 11
6870.5187553361
 21
5205.4414676102
 31
0.0
  0
LINE
  5
B9
330
1F
100
AcDbEntity
  8
0
  6
Continuous
 62
     7
370
    25
100
AcDbLine
 10
6900.5187553361
 20
5410.4414676102
 30
0.0
 11
5647.5187553361
 21
5410.4414676102
 31
0.0
  0
LINE
  5
BA
330
1F
100
AcDbEntity
  8
0
  6
Continuous
 62
     7
370
    25
100
AcDbLine
 10
6900.5187553361
 20
5205.4414676102
 30
0.0
 11
6900.5187553361
 21
5410.4414676102
 31
0.0
  0
LINE
  5
BB
330
1F
100
AcDbEntity
  8
0
  6
Continuous
 62
     7
370
    25
100
AcDbLine
 10
5647.5187553361
 20
5205.4414676102
 30
0.0
 11
5647.5187553361
 21
5410.4414676102
 31
0.0
  0
LINE
  5
BC
330
1F
100
AcDbEntity
  8
0
  6
Continuous
 62
     7
370
    25
100
AcDbLine
 10
6870.5187553361
 20
5205.4414676102
 30
0.0
 11
5677.5187553361
 21
5205.4414676102
 31
0.0
  0
LINE
  5
BD
330
1F
100
AcDbEntity
  8
0
  6
Continuous
 62
     7
370
    25
100
AcDbLine
 10
5647.5187553361
 20
5450.4414676102
 30
0.0
 11
6900.5187553361
 21
5450.4414676102
 31
0.0
  0
LINE
  5
BE
330
1F
100
AcDbEntity
  8
0
  6
Continuous
 62
     7
370
    25
100
AcDbLine
 10
6900.5187553361
 20
5450.4414676102
 30
0.0
 11
6900.5187553361
 21
5410.4414676102
 31
0.0
  0
LINE
  5
BF
330
1F
100
AcDbEntity
  8
0
  6
Continuous
 62
     7
370
    25
100
AcDbLine
 10
5647.5187553361
 20
5410.4414676102
 30
0.0
 11
5647.5187553361
 21
5450.4414676102
 31
0.0
  0
LINE
  5
C0
330
1F
100
AcDbEntity
  8
0
  6
Continuous
 62
     8
370
    25
100
AcDbLine
 10
6770.5187553361
 20
5026.9414676102
 30
0.0
 11
6720.5187553361
 21
5026.9414676102
 31
0.0
  0
SPLINE
  5
C1
330
1F
100
AcDbEntity
  8
0
  6
Continuous
 62
     8
370
    25
100
AcDbSpline
210
0.0
220
0.0
230
1.0
 70
     8
 71
     3
 72
    22
 73
    18
 74
     0
 42
0.000000001
 43
0.00000001
 40
0.0
 40
0.0
 40
0.0
 40
0.0
 40
0.0662074388415907
 40
0.1423970852044447
 40
0.2072674839359253
 40
0.2736193630048284
 40
0.3330229277733658
 40
0.3940133441540518
 40
0.4535035283567317
 40
0.5149681726561693
 40
0.5812632413564061
 40
0.6502913623957404
 40
0.7269344705863864
 40
0.8067774655418719
 40
0.886064574432787
 40
0.9676769643543897
 40
1.0
 40
1.0
 40
1.0
 40
1.0
 10
6765.676624369303
 20
5012.383651473351
 30
0.0
 10
6765.217223932363
 20
5011.370157065071
 30
0.0
 10
6764.229158477687
 20
5009.190361982593
 30
0.0
 10
6762.226636588117
 20
5006.415079537089
 30
0.0
 10
6759.822219699863
 20
5003.975014155293
 30
0.0
 10
6757.227223686856
 20
5002.093318358365
 30
0.0
 10
6754.361595669444
 20
5000.631562446898
 30
0.0
 10
6751.344028424482
 20
4999.616482782594
 30
0.0
 10
6748.1081993036
 20
4999.024126881226
 30
0.0
 10
6744.687018874904
 20
4998.887395443899
 30
0.0
 10
6741.119453055383
 20
4999.276071236465
 30
0.0
 10
6737.462711253537
 20
5000.280258382106
 30
0.0
 10
6733.931710745938
 20
5001.966456232059
 30
0.0
 10
6730.747000638261
 20
5004.328350204309
 30
0.0
 10
6728.105550488513
 20
5007.291109239366
 30
0.0
 10
6726.35768731605
 20
5009.972511269793
 30
0.0
 10
6725.650680370485
 20
5011.770682513558
 30
0.0
 10
6725.450105258842
 20
5012.280816678764
 30
0.0
  0
LINE
  5
C2
330
1F
100
AcDbEntity
  8
0
  6
Continuous
 62
     8
370
    25
100
AcDbLine
 10
6720.5187553361
 20
5105.7443811277
 30
0.0
 11
6719.7560005388
 21
5106.9066437912
 31
0.0
  0
LINE
  5
C3
330
1F
100
AcDbEntity
  8
0
  6
Continuous
 62
     8
370
    25
100
AcDbLine
 10
6771.2815101334
 20
5106.9066437912
 30
0.0
 11
6770.5187553361
 21
5105.8634946035
 31
0.0
  0
ARC
  5
C4
330
1F
100
AcDbEntity
  8
0
  6
Continuous
 62
     8
370
    25
100
AcDbCircle
 10
6722.4709042311
 20
5105.8372339074
 30
0.0
 40
2.9179341250515
100
AcDbArc
 50
131.9912775989
 51
158.5003493269
  0
ARC
  5
C5
330
1F
100
AcDbEntity
  8
0
  6
Continuous
 62
     8
370
    25
100
AcDbCircle
 10
6768.5666064411
 20
5105.8372339074
 30
0.0
 40
2.917934125034531
100
AcDbArc
 50
21.4996506731
 51
48.0087224012
  0
ARC
  5
C6
330
1F
100
AcDbEntity
  8
0
  6
Continuous
 62
     8
370
    25
100
AcDbCircle
 10
6720.3494741709
 20
5114.098698264
 30
0.0
 40
2.844556619832626
100
AcDbArc
 50
86.5882801223
 51
165.3079095605
  0
ARC
  5
C7
330
1F
100
AcDbEntity
  8
0
  6
Continuous
 62
     8
370
    25
100
AcDbCircle
 10
6770.6880365013
 20
5114.098698264
 30
0.0
 40
2.844556619829356
100
AcDbArc
 50
14.6920904395
 51
93.4117198778
  0
ARC
  5
C8
330
1F
100
AcDbEntity
  8
0
  6
Continuous
 62
     8
370
    25
100
AcDbCircle
 10
6720.1151186926
 20
5114.3682500588
 30
0.0
 40
2.606730429039206
100
AcDbArc
 50
81.0922494093
 51
164.9392964514
  0
ARC
  5
C9
330
1F
100
AcDbEntity
  8
0
  6
Continuous
 62
     8
370
    25
100
AcDbCircle
 10
6770.9223919796
 20
5114.3682500588
 30
0.0
 40
2.606730429036792
100
AcDbArc
 50
15.0607035486
 51
98.9077505907
  0
LINE
  5
CA
330
1F
100
AcDbEntity
  8
0
  6
Continuous
 62
     7
370
    25
100
AcDbLine
 10
7460.0229598734
 20
5204.9414676102
 30
0.0
 11
7463.0229598734
 21
5201.9414676102
 31
0.0
  0
LINE
  5
CB
330
1F
100
AcDbEntity
  8
0
  6
Continuous
 62
     7
370
    25
100
AcDbLine
 10
7528.0229598734
 20
5201.9414676102
 30
0.0
 11
7531.0229598734
 21
5204.9414676102
 31
0.0
  0
LINE
  5
CC
330
1F
100
AcDbEntity
  8
0
  6
Continuous
 62
     7
370
    25
100
AcDbLine
 10
7531.0229598734
 20
5204.9414676103
 30
0.0
 11
7531.0229598734
 21
5205.4414676102
 31
0.0
  0
LINE
  5
CD
330
1F
100
AcDbEntity
  8
0
  6
Continuous
 62
     7
370
    25
100
AcDbLine
 10
7460.0229598734
 20
5205.4414676102
 30
0.0
 11
7460.0229598734
 21
5204.9414676103
 31
0.0
  0
LINE
  5
CE
330
1F
100
AcDbEntity
  8
0
  6
Continuous
 62
     7
370
    25
100
AcDbLine
 10
7415.5229598734
 20
5079.9414676102
 30
0.0
 11
7435.5229598734
 21
5079.9414676102
 31
0.0
  0
LINE
  5
CF
330
1F
100
AcDbEntity
  8
0
  6
Continuous
 62
     7
370
    25
100
AcDbLine
 10
7435.5229598734
 20
5145.9414676102
 30
0.0
 11
7415.5229598734
 21
5145.9414676102
 31
0.0
  0
ARC
  5
D0
330
1F
100
AcDbEntity
  8
0
  6
Continuous
 62
     7
370
    25
100
AcDbCircle
 10
7465.5229598734
 20
5056.9574165752
 30
0.0
 40
80.00000000000037
100
AcDbArc
 50
246.0305176822
 51
293.9694823178
  0
LINE
  5
D1
330
1F
100
AcDbEntity
  8
0
  6
Continuous
 62
     7
370
    25
100
AcDbLine
 10
7498.0229598734
 20
4983.8564589891
 30
0.0
 11
7498.0229598734
 21
4998.8564589891
 31
0.0
  0
LINE
  5
D2
330
1F
100
AcDbEntity
  8
0
  6
Continuous
 62
     7
370
    25
100
AcDbLine
 10
7433.0229598734
 20
4998.8564589891
 30
0.0
 11
7433.0229598734
 21
4983.8564589891
 31
0.0
  0
LINE
  5
D3
330
1F
100
AcDbEntity
  8
0
  6
Continuous
 62
     7
370
    25
100
AcDbLine
 10
7528.0229598734
 20
5196.3414676103
 30
0.0
 11
7528.0229598734
 21
5201.9414676103
 31
0.0
  0
LINE
  5
D4
330
1F
100
AcDbEntity
  8
0
  6
Continuous
 62
     7
370
    25
100
AcDbLine
 10
7463.0229598734
 20
5201.9414676103
 30
0.0
 11
7463.0229598734
 21
5196.3414676103
 31
0.0
  0
LINE
  5
D5
330
1F
100
AcDbEntity
  8
0
  6
Continuous
 62
     7
370
    25
100
AcDbLine
 10
7465.5229598734
 20
5145.9414676102
 30
0.0
 11
7465.5229598734
 21
5127.9414676102
 31
0.0
  0
LINE
  5
D6
330
1F
100
AcDbEntity
  8
0
  6
Continuous
 62
     7
370
    25
100
AcDbLine
 10
7525.5229598734
 20
5127.9414676102
 30
0.0
 11
7525.5229598734
 21
5145.9414676102
 31
0.0
  0
LINE
  5
D7
330
1F
100
AcDbEntity
  8
0
  6
Continuous
 62
     7
370
    25
100
AcDbLine
 10
7444.2803191863
 20
5140.9414676102
 30
0.0
 11
7435.5229598734
 21
5140.9414676102
 31
0.0
  0
LINE
  5
D8
330
1F
100
AcDbEntity
  8
0
  6
Continuous
 62
     7
370
    25
100
AcDbLine
 10
7493.5229598734
 20
4998.8564589891
 30
0.0
 11
7493.5229598734
 21
4999.0003447619
 31
0.0
  0
LINE
  5
D9
330
1F
100
AcDbEntity
  8
0
  6
Continuous
 62
     7
370
    25
100
AcDbLine
 10
7437.5229598734
 20
5081.9414676102
 30
0.0
 11
7437.5229598734
 21
4998.8564589891
 31
0.0
  0
ARC
  5
DA
330
1F
100
AcDbEntity
  8
0
  6
Continuous
 62
     7
370
    25
100
AcDbCircle
 10
7434.5229598734
 20
5081.9414676102
 30
0.0
 40
2.999999999999913
100
AcDbArc
 50
1.9214190687
 51
70.7560218485
  0
ARC
  5
DB
330
1F
100
AcDbEntity
  8
0
  6
Continuous
 62
     7
370
    25
100
AcDbCircle
 10
7444.2803191863
 20
5137.9414676102
 30
0.0
 40
2.999999999999864
100
AcDbArc
 50
45.0
 51
88.5698539102
  0
LINE
  5
DC
330
1F
100
AcDbEntity
  8
0
  6
Continuous
 62
     7
370
    25
100
AcDbLine
 10
7469.5229598734
 20
5167.3414676102
 30
0.0
 11
7473.5229598734
 21
5156.3414676102
 31
0.0
  0
LINE
  5
DD
330
1F
100
AcDbEntity
  8
0
  6
Continuous
 62
     7
370
    25
100
AcDbLine
 10
7517.5229598734
 20
5156.3414676102
 30
0.0
 11
7521.5229598734
 21
5167.3414676102
 31
0.0
  0
LINE
  5
DE
330
1F
100
AcDbEntity
  8
0
  6
Continuous
 62
     7
370
    25
100
AcDbLine
 10
7521.5229598734
 20
5167.3414676103
 30
0.0
 11
7521.5229598734
 21
5196.3414676103
 31
0.0
  0
LINE
  5
DF
330
1F
100
AcDbEntity
  8
0
  6
Continuous
 62
     7
370
    25
100
AcDbLine
 10
7469.5229598734
 20
5196.3414676103
 30
0.0
 11
7469.5229598734
 21
5167.3414676103
 31
0.0
  0
LINE
  5
E0
330
1F
100
AcDbEntity
  8
0
  6
Continuous
 62
     7
370
    25
100
AcDbLine
 10
7520.5229598734
 20
5026.9414676102
 30
0.0
 11
7520.5229598734
 21
5127.9414676102
 31
0.0
  0
LINE
  5
E1
330
1F
100
AcDbEntity
  8
0
  6
Continuous
 62
     7
370
    25
100
AcDbLine
 10
7470.5229598734
 20
5127.9414676102
 30
0.0
 11
7470.5229598734
 21
5123.1841082974
 31
0.0
  0
ARC
  5
E2
330
1F
100
AcDbEntity
  8
0
  6
Continuous
 62
     7
370
    25
100
AcDbCircle
 10
7495.5229598734
 20
5026.9414676102
 30
0.0
 40
25.0
100
AcDbArc
 50
271.980862399
 51
0.0
  0
SPLINE
  5
E3
330
1F
100
AcDbEntity
  8
0
  6
Continuous
 62
     7
370
    25
100
AcDbSpline
210
0.0
220
0.0
230
1.0
 70
     8
 71
     3
 72
    13
 73
     9
 74
     0
 42
0.000000001
 43
0.00000001
 40
0.0
 40
0.0
 40
0.0
 40
0.0
 40
0.1834125473288205
 40
0.3798283381614042
 40
0.5844100304760813
 40
0.786216077141769
 40
0.9559617535887087
 40
1.0
 40
1.0
 40
1.0
 40
1.0
 10
7493.524759727944
 20
4998.994721411311
 30
0.0
 10
7493.549818371296
 20
4999.271850147838
 30
0.0
 10
7493.601712219343
 20
4999.845754981422
 30
0.0
 10
7493.995489452197
 20
5000.654191321885
 30
0.0
 10
7494.614237643346
 20
5001.338933505362
 30
0.0
 10
7495.38015936651
 20
5001.766195602667
 30
0.0
 10
7495.994177209564
 20
5001.948108737158
 30
0.0
 10
7496.316819264421
 20
5001.941772555658
 30
0.0
 10
7496.383281653756
 20
5001.940467339072
 30
0.0
  0
ARC
  5
E4
330
1F
100
AcDbEntity
  8
0
  6
Continuous
 62
     7
370
    25
100
AcDbCircle
 10
7467.5229598734
 20
5123.1841082974
 30
0.0
 40
3.000000000000237
100
AcDbArc
 50
225.0
 51
358.8104357083
  0
LINE
  5
E5
330
1F
100
AcDbEntity
  8
0
  6
Continuous
 62
     7
370
    25
100
AcDbLine
 10
7517.5229598734
 20
5145.9414676103
 30
0.0
 11
7517.5229598734
 21
5156.3414676103
 31
0.0
  0
LINE
  5
E6
330
1F
100
AcDbEntity
  8
0
  6
Continuous
 62
     7
370
    25
100
AcDbLine
 10
7473.5229598734
 20
5156.3414676103
 30
0.0
 11
7473.5229598734
 21
5145.9414676103
 31
0.0
  0
LINE
  5
E7
330
1F
100
AcDbEntity
  8
0
  6
Continuous
 62
     7
370
    25
100
AcDbLine
 10
7531.0229598734
 20
5204.9414676102
 30
0.0
 11
7460.0229598734
 21
5204.9414676102
 31
0.0
  0
LINE
  5
E8
330
1F
100
AcDbEntity
  8
0
  6
Continuous
 62
     7
370
    25
100
AcDbLine
 10
7528.0229598734
 20
5201.9414676102
 30
0.0
 11
7463.0229598734
 21
5201.9414676102
 31
0.0
  0
LINE
  5
E9
330
1F
100
AcDbEntity
  8
0
  6
Continuous
 62
     7
370
    25
100
AcDbLine
 10
7415.5229598734
 20
5112.9414676102
 30
0.0
 11
7415.5229598734
 21
5145.9414676102
 31
0.0
  0
LINE
  5
EA
330
1F
100
AcDbEntity
  8
0
  6
Continuous
 62
     7
370
    25
100
AcDbLine
 10
7415.5229598734
 20
5079.9414676102
 30
0.0
 11
7415.5229598734
 21
5112.9414676102
 31
0.0
  0
LINE
  5
EB
330
1F
100
AcDbEntity
  8
0
  6
Continuous
 62
     7
370
    25
100
AcDbLine
 10
7435.5229598734
 20
5112.9414676102
 30
0.0
 11
7435.5229598734
 21
5145.9414676102
 31
0.0
  0
LINE
  5
EC
330
1F
100
AcDbEntity
  8
0
  6
Continuous
 62
     7
370
    25
100
AcDbLine
 10
7435.5229598734
 20
5079.9414676102
 30
0.0
 11
7435.5229598734
 21
5112.9414676102
 31
0.0
  0
LINE
  5
ED
330
1F
100
AcDbEntity
  8
0
  6
Continuous
 62
     7
370
    25
100
AcDbLine
 10
7498.0229598734
 20
4983.8564589891
 30
0.0
 11
7433.0229598734
 21
4983.8564589891
 31
0.0
  0
LINE
  5
EE
330
1F
100
AcDbEntity
  8
0
  6
Continuous
 62
     7
370
    25
100
AcDbLine
 10
7498.0229598734
 20
4998.8564589891
 30
0.0
 11
7433.0229598734
 21
4998.8564589891
 31
0.0
  0
LINE
  5
EF
330
1F
100
AcDbEntity
  8
0
  6
Continuous
 62
     7
370
    25
100
AcDbLine
 10
7528.0229598734
 20
5196.3414676102
 30
0.0
 11
7463.0229598734
 21
5196.3414676102
 31
0.0
  0
LINE
  5
F0
330
1F
100
AcDbEntity
  8
0
  6
Continuous
 62
     7
370
    25
100
AcDbLine
 10
7465.5229598734
 20
5145.9414676102
 30
0.0
 11
7525.5229598734
 21
5145.9414676102
 31
0.0
  0
LINE
  5
F1
330
1F
100
AcDbEntity
  8
0
  6
Continuous
 62
     7
370
    25
100
AcDbLine
 10
7465.5229598734
 20
5127.9414676102
 30
0.0
 11
7525.5229598734
 21
5127.9414676102
 31
0.0
  0
LINE
  5
F2
330
1F
100
AcDbEntity
  8
0
  6
Continuous
 62
     7
370
    25
100
AcDbLine
 10
7465.5229598734
 20
5112.9414676102
 30
0.0
 11
7467.4016395299
 21
5115.0455888255
 31
0.0
  0
LINE
  5
F3
330
1F
100
AcDbEntity
  8
0
  6
Continuous
 62
     7
370
    25
100
AcDbLine
 10
7435.5229598734
 20
5085.8446934167
 30
0.0
 11
7465.5229598734
 21
5112.9414676102
 31
0.0
  0
LINE
  5
F4
330
1F
100
AcDbEntity
  8
0
  6
Continuous
 62
     7
370
    25
100
AcDbLine
 10
7467.6270810886
 20
5114.8201472667
 30
0.0
 11
7465.5229598734
 21
5112.9414676102
 31
0.0
  0
LINE
  5
F5
330
1F
100
AcDbEntity
  8
0
  6
Continuous
 62
     7
370
    25
100
AcDbLine
 10
7476.4902049812
 20
5106.9066437912
 30
0.0
 11
7467.6270810886
 21
5114.8201472667
 31
0.0
  0
SPLINE
  5
F6
330
1F
100
AcDbEntity
  8
0
  6
Continuous
 62
     7
370
    25
100
AcDbSpline
210
0.0
220
0.0
230
1.0
 70
     8
 71
     3
 72
    10
 73
     6
 74
     0
 42
0.000000001
 43
0.00000001
 40
0.0
 40
0.0
 40
0.0
 40
0.0
 40
0.2767262145199648
 40
0.6090796950219497
 40
1.0
 40
1.0
 40
1.0
 40
1.0
 10
7481.73586309923
 20
5104.837250636137
 30
0.0
 10
7481.233925092057
 20
5104.797220032357
 30
0.0
 10
7480.12914993059
 20
5104.709111907203
 30
0.0
 10
7478.286794352742
 20
5105.479692996068
 30
0.0
 10
7477.120546921657
 20
5106.405991306329
 30
0.0
 10
7476.490204981174
 20
5106.906643791206
 30
0.0
  0
LINE
  5
F7
330
1F
100
AcDbEntity
  8
0
  6
Continuous
 62
     7
370
    25
100
AcDbLine
 10
7481.7358630992
 20
5026.9414676102
 30
0.0
 11
7481.7358630992
 21
5104.8372506361
 31
0.0
  0
ARC
  5
F8
330
1F
100
AcDbEntity
  8
0
  6
Continuous
 62
     7
370
    25
100
AcDbCircle
 10
7427.6820270432
 20
5075.1005347801
 30
0.0
 40
56.33165148277526
100
AcDbArc
 50
44.8378601716
 51
45.1621398284
  0
ARC
  5
F9
330
1F
100
AcDbEntity
  8
0
  6
Continuous
 62
     7
370
    25
100
AcDbCircle
 10
7477.2292169178
 20
5106.1841247949
 30
0.0
 40
13.23279343450628
100
AcDbArc
 50
125.6167439691
 51
137.9592202317
  0
ARC
  5
FA
330
1F
100
AcDbEntity
  8
0
  6
Continuous
 62
     7
370
    25
100
AcDbCircle
 10
7458.7656170583
 20
5124.6477246544
 30
0.0
 40
13.2327934341842
100
AcDbArc
 50
312.0407797682
 51
324.3832560311
  0
LINE
  5
FB
330
1F
100
AcDbEntity
  8
0
  6
Continuous
 62
     7
370
    25
100
AcDbLine
 10
7446.4016395333
 20
5140.0627879503
 30
0.0
 11
7469.5229598734
 21
5116.9414676102
 31
0.0
  0
LINE
  5
FC
330
1F
100
AcDbEntity
  8
0
  6
Continuous
 62
     7
370
    25
100
AcDbLine
 10
7469.5229598734
 20
5116.9414676102
 30
0.0
 11
7477.4364633489
 21
5109.0279641348
 31
0.0
  0
LWPOLYLINE
  5
FD
330
1F
100
AcDbEntity
  8
0
  6
Continuous
 62
     7
370
    25
100
AcDbPolyline
 90
        9
 70
   128
 43
0.0
 10
7476.4902049812
 20
5106.9066437912
 10
7476.7750643146
 20
5107.261136512
 10
7477.0220360727
 20
5107.6064295111
 10
7477.2247108954
 20
5107.9335618162
 10
7477.3778290077
 20
5108.2340437574
 10
7477.4774167202
 20
5108.5000772896
 10
7477.5208895531
 20
5108.7247583657
 10
7477.5071193085
 20
5108.902256109
 10
7477.4364633489
 20
5109.0279641348
  0
SPLINE
  5
FE
330
1F
100
AcDbEntity
  8
0
  6
Continuous
 62
     7
370
    25
100
AcDbSpline
210
0.0
220
0.0
230
1.0
 70
     8
 71
     3
 72
    11
 73
     7
 74
     0
 42
0.000000001
 43
0.00000001
 40
0.0
 40
0.0
 40
0.0
 40
0.0
 40
0.4418022567785225
 40
0.774290391758291
 40
0.9215398729471656
 40
1.0
 40
1.0
 40
1.0
 40
1.0
 10
7477.436463348904
 20
5109.027964134767
 30
0.0
 10
7477.892311855241
 20
5108.5979334248
 30
0.0
 10
7478.691219314718
 20
5107.844273519762
 30
0.0
 10
7479.786677815698
 20
5107.136616944485
 30
0.0
 10
7480.512636100944
 20
5106.873130575384
 30
0.0
 10
7480.800693159173
 20
5106.871339094625
 30
0.0
 10
7480.900826217587
 20
5106.870716348394
 30
0.0
  0
ARC
  5
FF
330
1F
100
AcDbEntity
  8
0
  6
Continuous
 62
     7
370
    25
100
AcDbCircle
 10
7476.9389786711
 20
5104.0556093689
 30
0.0
 40
4.860150541622964
100
AcDbArc
 50
9.2548756585
 51
35.3958533234
  0
LINE
  5
100
330
1F
100
AcDbEntity
  8
0
  6
Continuous
 62
     7
370
    25
100
AcDbLine
 10
7521.5229598734
 20
5167.3414676102
 30
0.0
 11
7469.5229598734
 21
5167.3414676102
 31
0.0
  0
LINE
  5
101
330
1F
100
AcDbEntity
  8
0
  6
Continuous
 62
     7
370
    25
100
AcDbLine
 10
7517.5229598734
 20
5156.3414676102
 30
0.0
 11
7473.5229598734
 21
5156.3414676102
 31
0.0
  0
LINE
  5
102
330
1F
100
AcDbEntity
  8
0
  6
Continuous
 62
     7
370
    25
100
AcDbLine
 10
7484.764031302
 20
5107.2341082974
 30
0.0
 11
7484.764031302
 21
5026.9414676102
 31
0.0
  0
LINE
  5
103
330
1F
100
AcDbEntity
  8
0
  6
Continuous
 62
     7
370
    25
100
AcDbLine
 10
7484.764031302
 20
5026.9414676102
 30
0.0
 11
7481.7358630992
 21
5026.9414676102
 31
0.0
  0
SPLINE
  5
104
330
1F
100
AcDbEntity
  8
0
  6
Continuous
 62
     7
370
    25
100
AcDbSpline
210
0.0
220
0.0
230
1.0
 70
     8
 71
     3
 72
    12
 73
     8
 74
     0
 42
0.000000001
 43
0.00000001
 40
0.0
 40
0.0
 40
0.0
 40
0.0
 40
0.2860841375525823
 40
0.5938173985192626
 40
0.9402661687057776
 40
0.9946780011584812
 40
1.0
 40
1.0
 40
1.0
 40
1.0
 10
7480.900826217587
 20
5106.870716348394
 30
0.0
 10
7481.260090331921
 20
5106.901571968956
 30
0.0
 10
7482.005805503618
 20
5106.965618177489
 30
0.0
 10
7483.282969054444
 20
5107.083810725385
 30
0.0
 10
7484.193444238402
 20
5107.173567141197
 30
0.0
 10
7484.685955789409
 20
5107.225737117842
 30
0.0
 10
7484.757644206685
 20
5107.233423479302
 30
0.0
 10
7484.764031301994
 20
5107.234108297367
 30
0.0
  0
SPLINE
  5
105
330
1F
100
AcDbEntity
  8
0
  6
Continuous
 62
     7
370
    25
100
AcDbSpline
210
0.0
220
0.0
230
1.0
 70
     8
 71
     3
 72
    12
 73
     8
 74
     0
 42
0.000000001
 43
0.00000001
 40
0.0
 40
0.0
 40
0.0
 40
0.0
 40
0.004073600879123
 40
0.0594267419899333
 40
0.4039567950184616
 40
0.7115404366576197
 40
1.0
 40
1.0
 40
1.0
 40
1.0
 10
7484.764031301994
 20
5107.234108297367
 30
0.0
 10
7484.760431228402
 20
5107.230430846638
 30
0.0
 10
7484.707912424793
 20
5107.176783245382
 30
0.0
 10
7484.345955945834
 20
5106.811894087179
 30
0.0
 10
7483.657709316161
 20
5106.176664818114
 30
0.0
 10
7482.659212587307
 20
5105.377910038708
 30
0.0
 10
7482.036991597276
 20
5105.013573854975
 30
0.0
 10
7481.73586309923
 20
5104.837250636137
 30
0.0
  0
LINE
  5
106
330
1F
100
AcDbEntity
  8
0
  6
Continuous
 62
     7
370
    25
100
AcDbLine
 10
7270.5229598734
 20
5450.4414676102
 30
0.0
 11
7270.5229598734
 21
5205.4414676102
 31
0.0
  0
LINE
  5
107
330
1F
100
AcDbEntity
  8
0
  6
Continuous
 62
     7
370
    25
100
AcDbLine
 10
7273.5229598734
 20
5450.4414676102
 30
0.0
 11
7270.5229598734
 21
5450.4414676102
 31
0.0
  0
LINE
  5
108
330
1F
100
AcDbEntity
  8
0
  6
Continuous
 62
     7
370
    25
100
AcDbLine
 10
7273.5229598734
 20
5410.4414676102
 30
0.0
 11
7273.5229598734
 21
5450.4414676102
 31
0.0
  0
LINE
  5
109
330
1F
100
AcDbEntity
  8
0
  6
Continuous
 62
     7
370
    25
100
AcDbLine
 10
7695.5229598734
 20
5410.4414676102
 30
0.0
 11
7273.5229598734
 21
5410.4414676102
 31
0.0
  0
LINE
  5
10A
330
1F
100
AcDbEntity
  8
0
  6
Continuous
 62
     7
370
    25
100
AcDbLine
 10
7695.5229598734
 20
5205.4414676102
 30
0.0
 11
7695.5229598734
 21
5410.4414676102
 31
0.0
  0
LINE
  5
10B
330
1F
100
AcDbEntity
  8
0
  6
Continuous
 62
     7
370
    25
100
AcDbLine
 10
7270.5229598734
 20
5205.4414676102
 30
0.0
 11
7695.5229598734
 21
5205.4414676102
 31
0.0
  0
LINE
  5
10C
330
1F
100
AcDbEntity
  8
0
  6
Continuous
 62
     8
370
    25
100
AcDbLine
 10
7467.4016395299
 20
5115.0455888255
 30
0.0
 11
7444.2803191863
 21
5140.9414676102
 31
0.0
  0
LINE
  5
10D
330
1F
100
AcDbEntity
  8
0
  6
Continuous
 62
     8
370
    25
100
AcDbLine
 10
7465.5229598734
 20
5112.9414676102
 30
0.0
 11
7437.5229598734
 21
5081.9414676102
 31
0.0
  0
SPLINE
  5
10E
330
1F
100
AcDbEntity
  8
0
  6
Continuous
 62
     8
370
    25
100
AcDbSpline
210
0.0
220
0.0
230
1.0
 70
     8
 71
     3
 72
    18
 73
    14
 74
     0
 42
0.000000001
 43
0.00000001
 40
0.0
 40
0.0
 40
0.0
 40
0.0
 40
0.017316443052085
 40
0.1020731770893537
 40
0.1903240562381124
 40
0.2883105228647168
 40
0.3903879717739283
 40
0.4917547330218466
 40
0.5960943130592143
 40
0.694813256144498
 40
0.7957827708096014
 40
0.8966057184902022
 40
1.0
 40
1.0
 40
1.0
 40
1.0
 10
7493.488477863101
 20
4999.000344761867
 30
0.0
 10
7493.49900866929
 20
4998.987818295699
 30
0.0
 10
7493.561083359901
 20
4998.913980025586
 30
0.0
 10
7493.231611675751
 20
4999.304594899759
 30
0.0
 10
7492.435118015243
 20
5000.271721363848
 30
0.0
 10
7491.103155223505
 20
5001.968167945502
 30
0.0
 10
7489.396361544129
 20
5004.330939113018
 30
0.0
 10
7487.504747362196
 20
5007.279023602525
 30
0.0
 10
7485.672154671807
 20
5010.641695641591
 30
0.0
 10
7484.042580986154
 20
5014.363487229987
 30
0.0
 10
7482.775221017372
 20
5018.326532505031
 30
0.0
 10
7481.905346024426
 20
5022.559929924961
 30
0.0
 10
7481.792829645244
 20
5025.468746580246
 30
0.0
 10
7481.73586309923
 20
5026.941467610247
 30
0.0
  0
LINE
  5
10F
330
1F
100
AcDbEntity
  8
0
  6
Continuous
 62
     8
370
    25
100
AcDbLine
 10
7470.5229598734
 20
5123.1841082974
 30
0.0
 11
7484.764031302
 21
5107.2341082974
 31
0.0
  0
LINE
  5
110
330
1F
100
AcDbEntity
  8
0
  6
Continuous
 62
     8
370
    25
100
AcDbLine
 10
7520.5229598734
 20
5026.9414676102
 30
0.0
 11
7484.764031302
 21
5026.9414676102
 31
0.0
  0
SPLINE
  5
111
330
1F
100
AcDbEntity
  8
0
  6
Continuous
 62
     8
370
    25
100
AcDbSpline
210
0.0
220
0.0
230
1.0
 70
     8
 71
     3
 72
    18
 73
    14
 74
     0
 42
0.000000001
 43
0.00000001
 40
0.0
 40
0.0
 40
0.0
 40
0.0
 40
0.0958594062342508
 40
0.1947451865789473
 40
0.2905476350793152
 40
0.3888375160307835
 40
0.4902312858400467
 40
0.5945328820629758
 40
0.6956023670953944
 40
0.800413577909996
 40
0.889481129268496
 40
0.9817626184328728
 40
1.0
 40
1.0
 40
1.0
 40
1.0
 10
7484.764031301994
 20
5026.941467610247
 30
0.0
 10
7484.817919996777
 20
5025.658385557754
 30
0.0
 10
7484.927398704523
 20
5023.051713312171
 30
0.0
 10
7485.781041624146
 20
5019.283282421661
 30
0.0
 10
7487.044422416136
 20
5015.709902228177
 30
0.0
 10
7488.645766466614
 20
5012.406036441367
 30
0.0
 10
7490.467320922801
 20
5009.384295259905
 30
0.0
 10
7492.318202193431
 20
5006.77873063591
 30
0.0
 10
7494.016518746377
 20
5004.652153777091
 30
0.0
 10
7495.321423138173
 20
5003.150751518606
 30
0.0
 10
7496.12380556067
 20
5002.269864894334
 30
0.0
 10
7496.452908809512
 20
5001.917576920689
 30
0.0
 10
7496.392984778257
 20
5001.981941962085
 30
0.0
 10
7496.383096354534
 20
5001.99256322352
 30
0.0
  0
SPLINE
  5
112
330
1F
100
AcDbEntity
  8
0
  6
Continuous
 62
     7
370
    25
100
AcDbSpline
210
0.0
220
0.0
230
1.0
 70
     8
 71
     3
 72
     9
 73
     5
 74
     0
 42
0.000000001
 43
0.00000001
 40
0.0
 40
0.0
 40
0.0
 40
0.0
 40
0.9771071422687971
 40
1.0
 40
1.0
 40
1.0
 40
1.0
 10
6746.564187957717
 20
4394.038666259042
 30
0.0
 10
6745.975915014095
 20
4393.985310295152
 30
0.0
 10
6745.373859294538
 20
4393.930704242671
 30
0.0
 10
6744.778608965891
 20
4393.981940940986
 30
0.0
 10
6744.764981984803
 20
4393.983113895431
 30
0.0
  0
SPLINE
  5
113
330
1F
100
AcDbEntity
  8
0
  6
Continuous
 62
     7
370
    25
100
AcDbSpline
210
0.0
220
0.0
230
1.0
 70
     8
 71
     3
 72
    11
 73
     7
 74
     0
 42
0.000000001
 43
0.00000001
 40
0.0
 40
0.0
 40
0.0
 40
0.0
 40
0.0767981087779116
 40
0.7654753657168083
 40
0.8927985660153389
 40
1.0
 40
1.0
 40
1.0
 40
1.0
 10
6735.103799824914
 20
4396.083491402812
 30
0.0
 10
6734.980061358575
 20
4396.127550712163
 30
0.0
 10
6733.746713958728
 20
4396.566706265282
 30
0.0
 10
6732.579054930409
 20
4397.265481657691
 30
0.0
 10
6731.376599471255
 20
4397.959661908782
 30
0.0
 10
6731.12160433145
 20
4398.144252581465
 30
0.0
 10
6731.005045809869
 20
4398.228629153982
 30
0.0
  0
CIRCLE
  5
114
330
1F
100
AcDbEntity
  8
0
  6
Continuous
 62
     7
370
    25
100
AcDbCircle
 10
6745.9113038416
 20
4390.9710235925
 30
0.0
 40
36.4992346079172
  0
CIRCLE
  5
115
330
1F
100
AcDbEntity
  8
0
  6
Continuous
 62
     7
370
    25
100
AcDbCircle
 10
6745.903433467
 20
4390.9710277384
 30
0.0
 40
36.69174799310927
  0
CIRCLE
  5
116
330
1F
100
AcDbEntity
  8
0
  6
Continuous
 62
     7
370
    25
100
AcDbCircle
 10
6745.8950368874
 20
4390.9708299296
 30
0.0
 40
26.11438827999368
  0
CIRCLE
  5
117
330
1F
100
AcDbEntity
  8
0
  6
Continuous
 62
     7
370
    25
100
AcDbCircle
 10
6745.8793033958
 20
4390.9707644835
 30
0.0
 40
24.49948830907883
  0
LWPOLYLINE
  5
118
330
1F
100
AcDbEntity
  8
0
  6
Continuous
 62
     7
370
    25
100
AcDbPolyline
 90
        3
 70
   128
 43
0.0
 10
6748.7937364387
 20
4415.2865445642
 10
6745.8409909578
 20
4415.4702020853
 10
6745.7993021252
 20
4415.4702375561
  0
ARC
  5
119
330
1F
100
AcDbEntity
  8
0
  6
Continuous
 62
     7
370
    25
100
AcDbCircle
 10
6745.7986245765
 20
4390.9702732114
 30
0.0
 40
24.50003566467485
100
AcDbArc
 50
270.0015845152
 51
82.9780669059
  0
CIRCLE
  5
11A
330
1F
100
AcDbEntity
  8
0
  6
Continuous
 62
     7
370
    25
100
AcDbCircle
 10
6745.7911159187
 20
4390.9707548037
 30
0.0
 40
23.5570402289319
  0
CIRCLE
  5
11B
330
1F
100
AcDbEntity
  8
0
  6
Continuous
 62
     7
370
    25
100
AcDbCircle
 10
6745.783205312
 20
4390.9703834212
 30
0.0
 40
6.179096598229043
  0
SPLINE
  5
11C
330
1F
100
AcDbEntity
  8
0
  6
Continuous
 62
     7
370
    25
100
AcDbSpline
210
0.0
220
0.0
230
1.0
 70
    11
 71
     3
 72
    26
 73
    22
 74
     0
 42
0.000000001
 43
0.00000001
 40
0.0
 40
0.0
 40
0.0
 40
0.0
 40
0.0536472078844389
 40
0.1072997174133885
 40
0.1608187184991315
 40
0.2142538036104081
 40
0.2678237548995774
 40
0.3215618845136035
 40
0.3753758631179831
 40
0.4291877588805966
 40
0.4829562180736521
 40
0.5366664022251149
 40
0.5903213970299778
 40
0.6439364195215561
 40
0.6975341018214929
 40
0.7511400393424514
 40
0.8047783884574153
 40
0.8584674889464964
 40
0.9122153836824789
 40
0.9660146554639998
 40
1.0
 40
1.0
 40
1.0
 40
1.0
 10
6735.228178619211
 20
4396.195562193931
 30
0.0
 10
6735.561173989477
 20
4395.671872157244
 30
0.0
 10
6736.227197638023
 20
4394.624440330603
 30
0.0
 10
6736.496470334722
 20
4392.745702493407
 30
0.0
 10
6736.171228728957
 20
4390.902881267174
 30
0.0
 10
6735.246633609345
 20
4389.268048757284
 30
0.0
 10
6733.836945303181
 20
4388.030335158251
 30
0.0
 10
6732.093131176116
 20
4387.326603310801
 30
0.0
 10
6730.211883022898
 20
4387.240442556587
 30
0.0
 10
6728.407393555785
 20
4387.783402502218
 30
0.0
 10
6726.88518528798
 20
4388.893950213121
 30
0.0
 10
6725.817445300488
 20
4390.445523470551
 30
0.0
 10
6725.323925605498
 20
4392.262094283345
 30
0.0
 10
6725.459147120992
 20
4394.138613012536
 30
0.0
 10
6726.206941095025
 20
4395.864062388578
 30
0.0
 10
6727.483053845426
 20
4397.244965324981
 30
0.0
 10
6729.143528673973
 20
4398.125805995513
 30
0.0
 10
6731.004713510835
 20
4398.408880953578
 30
0.0
 10
6732.847555819747
 20
4398.054876667954
 30
0.0
 10
6734.29742497446
 20
4397.240795678937
 30
0.0
 10
6734.968410257019
 20
4396.487281267005
 30
0.0
 10
6735.228178619211
 20
4396.195562193931
 30
0.0
  0
SPLINE
  5
11D
330
1F
100
AcDbEntity
  8
0
  6
Continuous
 62
     7
370
    25
100
AcDbSpline
210
0.0
220
0.0
230
1.0
 70
    11
 71
     3
 72
    26
 73
    22
 74
     0
 42
0.000000001
 43
0.00000001
 40
0.0
 40
0.0
 40
0.0
 40
0.0
 40
0.0537906528572838
 40
0.1075800343267887
 40
0.1613964711451115
 40
0.2152044423048398
 40
0.2689187362134073
 40
0.3224537086462537
 40
0.3758867226899335
 40
0.4294403524595229
 40
0.483167232045105
 40
0.5369784271021751
 40
0.5907927854588396
 40
0.6445661075254716
 40
0.6982816371630437
 40
0.7519411518723422
 40
0.8055590047808309
 40
0.8591573592726126
 40
0.9127617279340801
 40
0.9663965674840078
 40
1.0
 40
1.0
 40
1.0
 40
1.0
 10
6744.271742920943
 20
4408.159309141592
 30
0.0
 10
6744.60390152832
 20
4407.633184337578
 30
0.0
 10
6745.26821089222
 20
4406.58094716496
 30
0.0
 10
6745.529801948912
 20
4404.697088735442
 30
0.0
 10
6745.193933174303
 20
4402.849673006969
 30
0.0
 10
6744.253512576932
 20
4401.213069084153
 30
0.0
 10
6742.828323846632
 20
4399.982841687337
 30
0.0
 10
6741.079439588963
 20
4399.294567275267
 30
0.0
 10
6739.205202213321
 20
4399.222381670793
 30
0.0
 10
6737.411532714445
 20
4399.772748472204
 30
0.0
 10
6735.897591409516
 20
4400.887462182331
 30
0.0
 10
6734.836476792717
 20
4402.443599507363
 30
0.0
 10
6734.350887340811
 20
4404.264937791615
 30
0.0
 10
6734.496478337057
 20
4406.144230730827
 30
0.0
 10
6735.256020062179
 20
4407.868324835347
 30
0.0
 10
6736.54280804279
 20
4409.242884584067
 30
0.0
 10
6738.210223844806
 20
4410.113300414315
 30
0.0
 10
6740.072887068331
 20
4410.384201956572
 30
0.0
 10
6741.911726986143
 20
4410.019330391029
 30
0.0
 10
6743.351473225468
 20
4409.2001579916
 30
0.0
 10
6744.015836065644
 20
4408.448746419985
 30
0.0
 10
6744.271742920943
 20
4408.159309141592
 30
0.0
  0
SPLINE
  5
11E
330
1F
100
AcDbEntity
  8
0
  6
Continuous
 62
     7
370
    25
100
AcDbSpline
210
0.0
220
0.0
230
1.0
 70
    11
 71
     3
 72
    26
 73
    22
 74
     0
 42
0.000000001
 43
0.00000001
 40
0.0
 40
0.0
 40
0.0
 40
0.0
 40
0.0536289995832246
 40
0.1072568460891631
 40
0.1609153676640751
 40
0.2146296343374673
 40
0.2684017600027264
 40
0.3222156390340324
 40
0.3760279458847846
 40
0.4297575347761922
 40
0.4833128803451188
 40
0.5367459192403836
 40
0.5902793785161387
 40
0.6439908597765116
 40
0.6977974594700159
 40
0.7516141994956133
 40
0.8053931961398526
 40
0.8591152006898262
 40
0.9127802927048771
 40
0.9664016946692061
 40
1.0
 40
1.0
 40
1.0
 40
1.0
 10
6759.158293377278
 20
4406.328414430332
 30
0.0
 10
6759.490420408651
 20
4405.803506623844
 30
0.0
 10
6760.154667330331
 20
4404.753702296916
 30
0.0
 10
6760.418970287587
 20
4402.873716686951
 30
0.0
 10
6760.08779299896
 20
4401.029102398691
 30
0.0
 10
6759.153195355949
 20
4399.392359819225
 30
0.0
 10
6757.731311819633
 20
4398.157523518335
 30
0.0
 10
6755.978678351443
 20
4397.462487888644
 30
0.0
 10
6754.094650614855
 20
4397.38754918457
 30
0.0
 10
6752.293879944452
 20
4397.94072070944
 30
0.0
 10
6750.781119802822
 20
4399.056579298375
 30
0.0
 10
6749.723970992784
 20
4400.606511619022
 30
0.0
 10
6749.237327938711
 20
4402.418794402325
 30
0.0
 10
6749.377156776744
 20
4404.294000130958
 30
0.0
 10
6750.131361240892
 20
4406.02049653709
 30
0.0
 10
6751.416293873023
 20
4407.400735589073
 30
0.0
 10
6753.085318758634
 20
4408.27673483748
 30
0.0
 10
6754.951414407727
 20
4408.551351828282
 30
0.0
 10
6756.793604422189
 20
4408.188250758724
 30
0.0
 10
6758.23612330384
 20
4407.369585777898
 30
0.0
 10
6758.901846916847
 20
4406.617953978922
 30
0.0
 10
6759.158293377278
 20
4406.328414430332
 30
0.0
  0
SPLINE
  5
11F
330
1F
100
AcDbEntity
  8
0
  6
Continuous
 62
     7
370
    25
100
AcDbSpline
210
0.0
220
0.0
230
1.0
 70
    11
 71
     3
 72
    26
 73
    22
 74
     0
 42
0.000000001
 43
0.00000001
 40
0.0
 40
0.0
 40
0.0
 40
0.0
 40
0.0536294452053619
 40
0.1072599744137946
 40
0.1608668897041036
 40
0.2144644609330972
 40
0.2680783002312046
 40
0.3217311957135081
 40
0.3754387257267431
 40
0.4292046595899247
 40
0.4830153157198542
 40
0.536831021231055
 40
0.5905750139480074
 40
0.6441518335194252
 40
0.6975881575669658
 40
0.75110165405815
 40
0.8047959610465399
 40
0.85859668357473
 40
0.9124152413408556
 40
0.966199807595834
 40
0.9999999999999999
 40
0.9999999999999999
 40
0.9999999999999999
 40
0.9999999999999999
 10
6765.006625051226
 20
4392.527682832701
 30
0.0
 10
6765.339989868347
 20
4392.003627130946
 30
0.0
 10
6766.006726240837
 20
4390.955505134783
 30
0.0
 10
6766.275792213435
 20
4389.075784443571
 30
0.0
 10
6765.948972314239
 20
4387.230663070999
 30
0.0
 10
6765.019216370154
 20
4385.593232703975
 30
0.0
 10
6763.603083779313
 20
4384.356629306435
 30
0.0
 10
6761.856214771987
 20
4383.657346960882
 30
0.0
 10
6759.975443805261
 20
4383.575295382349
 30
0.0
 10
6758.172169523526
 20
4384.120636292825
 30
0.0
 10
6756.65036025723
 20
4385.233054219352
 30
0.0
 10
6755.583078359049
 20
4386.787186925796
 30
0.0
 10
6755.091876483643
 20
4388.605856597559
 30
0.0
 10
6755.230752747488
 20
4390.481001108604
 30
0.0
 10
6755.980067973012
 20
4392.201675866776
 30
0.0
 10
6757.255223197244
 20
4393.579043361016
 30
0.0
 10
6758.916369925993
 20
4394.459479520208
 30
0.0
 10
6760.781096255221
 20
4394.742375645606
 30
0.0
 10
6762.627559402513
 20
4394.38656407102
 30
0.0
 10
6764.077604101273
 20
4393.570975500624
 30
0.0
 10
6764.747934937001
 20
4392.818192427184
 30
0.0
 10
6765.006625051226
 20
4392.527682832701
 30
0.0
  0
SPLINE
  5
120
330
1F
100
AcDbEntity
  8
0
  6
Continuous
 62
     7
370
    25
100
AcDbSpline
210
0.0
220
0.0
230
1.0
 70
    11
 71
     3
 72
    26
 73
    22
 74
     0
 42
0.000000001
 43
0.00000001
 40
0.0
 40
0.0
 40
0.0
 40
0.0
 40
0.0537910058901625
 40
0.1075833788204229
 40
0.1613394743992225
 40
0.2150366708392909
 40
0.2686811950588092
 40
0.3222903099118866
 40
0.3758876912617359
 40
0.4294989939798833
 40
0.4831474565139159
 40
0.5368495208602129
 40
0.5906102754171765
 40
0.6444179729707932
 40
0.6982358549631155
 40
0.7519908798806375
 40
0.8055857705448066
 40
0.8590274220890816
 40
0.9125254071038759
 40
0.9662046361283457
 40
1.0
 40
1.0
 40
1.0
 40
1.0
 10
6755.978686286471
 20
4380.544394845947
 30
0.0
 10
6756.311854097454
 20
4380.018790837794
 30
0.0
 10
6756.978198186516
 20
4378.967569463831
 30
0.0
 10
6757.243565848928
 20
4377.083693853642
 30
0.0
 10
6756.910978484761
 20
4375.236208180016
 30
0.0
 10
6755.974283690316
 20
4373.599692586616
 30
0.0
 10
6754.552297953854
 20
4372.36785583442
 30
0.0
 10
6752.802775632354
 20
4371.676114665336
 30
0.0
 10
6750.923567436067
 20
4371.602133358955
 30
0.0
 10
6749.125467839002
 20
4372.153671431931
 30
0.0
 10
6747.610424558631
 20
4373.26901076033
 30
0.0
 10
6746.549001696621
 20
4374.823374273967
 30
0.0
 10
6746.061509986949
 20
4376.64243963576
 30
0.0
 10
6746.204163866705
 20
4378.521256674365
 30
0.0
 10
6746.961748783816
 20
4380.246832572534
 30
0.0
 10
6748.248220694254
 20
4381.622766968446
 30
0.0
 10
6749.914695885521
 20
4382.492949241125
 30
0.0
 10
6751.773946827516
 20
4382.764370253826
 30
0.0
 10
6753.610333932147
 20
4382.403169725311
 30
0.0
 10
6755.053081774633
 20
4381.587137568244
 30
0.0
 10
6755.720739948297
 20
4380.834985117964
 30
0.0
 10
6755.978686286471
 20
4380.544394845947
 30
0.0
  0
SPLINE
  5
121
330
1F
100
AcDbEntity
  8
0
  6
Continuous
 62
     7
370
    25
100
AcDbSpline
210
0.0
220
0.0
230
1.0
 70
    11
 71
     3
 72
    26
 73
    22
 74
     0
 42
0.000000001
 43
0.00000001
 40
0.0
 40
0.0
 40
0.0
 40
0.0
 40
0.0536305645324719
 40
0.1072560498675151
 40
0.1610088640350682
 40
0.2148261845036004
 40
0.2686346360175341
 40
0.3223966550720427
 40
0.376099952158832
 40
0.429749353528415
 40
0.4833612139276587
 40
0.5369587588087494
 40
0.590567643063822
 40
0.6442115524208695
 40
0.6979078253393453
 40
0.7516629348136745
 40
0.8054671625818878
 40
0.8592868023527293
 40
0.9130528888727868
 40
0.9666674660934441
 40
1.0
 40
1.0
 40
1.0
 40
1.0
 10
6741.093069601296
 20
4382.373096736414
 30
0.0
 10
6741.424981922917
 20
4381.848153563113
 30
0.0
 10
6742.088775131695
 20
4380.798316932378
 30
0.0
 10
6742.353511582176
 20
4378.919004461691
 30
0.0
 10
6742.023154708496
 20
4377.073664214342
 30
0.0
 10
6741.087826167102
 20
4375.435539221946
 30
0.0
 10
6739.66465399462
 20
4374.201163051815
 30
0.0
 10
6737.91231608935
 20
4373.508513967733
 30
0.0
 10
6736.030644084451
 20
4373.43599344517
 30
0.0
 10
6734.232080726835
 20
4373.990433620001
 30
0.0
 10
6732.719021343775
 20
4375.108304467432
 30
0.0
 10
6731.661070123116
 20
4376.663194570036
 30
0.0
 10
6731.176676665245
 20
4378.480249858259
 30
0.0
 10
6731.320309800021
 20
4380.355515054274
 30
0.0
 10
6732.076373697631
 20
4382.078250212403
 30
0.0
 10
6733.360907250257
 20
4383.454319643507
 30
0.0
 10
6735.029186255012
 20
4384.327176192857
 30
0.0
 10
6736.895386993378
 20
4384.598739298891
 30
0.0
 10
6738.737377425063
 20
4384.231631526928
 30
0.0
 10
6740.17602837284
 20
4383.41048331247
 30
0.0
 10
6740.838934266654
 20
4382.660582812807
 30
0.0
 10
6741.093069601296
 20
4382.373096736414
 30
0.0
  0
SPLINE
  5
122
330
1F
100
AcDbEntity
  8
0
  6
Continuous
 62
     7
370
    25
100
AcDbSpline
210
0.0
220
0.0
230
1.0
 70
     8
 71
     3
 72
    10
 73
     6
 74
     0
 42
0.000000001
 43
0.00000001
 40
0.0
 40
0.0
 40
0.0
 40
0.0
 40
0.3727501304294962
 40
0.7454944332704184
 40
1.0
 40
1.0
 40
1.0
 40
1.0
 10
6735.220038672616
 20
4396.195699691622
 30
0.0
 10
6734.790223613335
 20
4396.641147851923
 30
0.0
 10
6733.930600214516
 20
4397.532037208372
 30
0.0
 10
6732.354142238359
 20
4398.22815929989
 30
0.0
 10
6731.311752106625
 20
4398.233585924795
 30
0.0
 10
6730.888804085269
 20
4398.235787768612
 30
0.0
  0
SPLINE
  5
123
330
1F
100
AcDbEntity
  8
0
  6
Continuous
 62
     7
370
    25
100
AcDbSpline
210
0.0
220
0.0
230
1.0
 70
     8
 71
     3
 72
    15
 73
    11
 74
     0
 42
0.000000001
 43
0.00000001
 40
0.0
 40
0.0
 40
0.0
 40
0.0
 40
0.0009096914750789
 40
0.1520553633739433
 40
0.3032964410115948
 40
0.4544868551771216
 40
0.6053737825089459
 40
0.7557471417348075
 40
0.9059166330046532
 40
1.0
 40
1.0
 40
1.0
 40
1.0
 10
6730.892718404782
 20
4387.305481254866
 30
0.0
 10
6730.896374464439
 20
4387.304862493209
 30
0.0
 10
6731.507486577659
 20
4387.201436187253
 30
0.0
 10
6732.765098253339
 20
4387.566109716867
 30
0.0
 10
6734.403769048055
 20
4388.423807090759
 30
0.0
 10
6735.653138493243
 20
4389.851291717957
 30
0.0
 10
6736.36319936264
 20
4391.592223720007
 30
0.0
 10
6736.450403868129
 20
4393.464883389725
 30
0.0
 10
6736.003639697922
 20
4395.054878756134
 30
0.0
 10
6735.437939734747
 20
4395.878464152723
 30
0.0
 10
6735.220038672616
 20
4396.195699691622
 30
0.0
  0
SPLINE
  5
124
330
1F
100
AcDbEntity
  8
0
  6
Continuous
 62
     7
370
    25
100
AcDbSpline
210
0.0
220
0.0
230
1.0
 70
     8
 71
     3
 72
    10
 73
     6
 74
     0
 42
0.000000001
 43
0.00000001
 40
0.0
 40
0.0
 40
0.0
 40
0.0
 40
0.3694406328066562
 40
0.7388788804798043
 40
0.9999999999999999
 40
0.9999999999999999
 40
0.9999999999999999
 40
0.9999999999999999
 10
6741.08508452671
 20
4382.373036107912
 30
0.0
 10
6740.658819791533
 20
4382.817833721038
 30
0.0
 10
6739.80629307317
 20
4383.707426075649
 30
0.0
 10
6738.227368327889
 20
4384.411999688183
 30
0.0
 10
6737.176880060355
 20
4384.424538146843
 30
0.0
 10
6736.74186206406
 20
4384.429730451538
 30
0.0
  0
SPLINE
  5
125
330
1F
100
AcDbEntity
  8
0
  6
Continuous
 62
     7
370
    25
100
AcDbSpline
210
0.0
220
0.0
230
1.0
 70
     8
 71
     3
 72
    14
 73
    10
 74
     0
 42
0.000000001
 43
0.00000001
 40
0.0
 40
0.0
 40
0.0
 40
0.0
 40
0.1485208609554924
 40
0.2994887251976907
 40
0.4506162726004104
 40
0.6019041976169477
 40
0.7532994367515804
 40
0.9046684467542646
 40
1.0
 40
1.0
 40
1.0
 40
1.0
 10
6736.749457086314
 20
4373.49864436492
 30
0.0
 10
6737.357901910675
 20
4373.555534790894
 30
0.0
 10
6738.584816188095
 20
4373.67025295938
 30
0.0
 10
6740.225943124904
 20
4374.605263574463
 30
0.0
 10
6741.484247673967
 20
4375.993635305469
 30
0.0
 10
6742.210602686122
 20
4377.735678813729
 30
0.0
 10
6742.313227502052
 20
4379.611351474087
 30
0.0
 10
6741.873633941962
 20
4381.216875949609
 30
0.0
 10
6741.304869853707
 20
4382.050789925824
 30
0.0
 10
6741.08508452671
 20
4382.373036107912
 30
0.0
  0
SPLINE
  5
126
330
1F
100
AcDbEntity
  8
0
  6
Continuous
 62
     7
370
    25
100
AcDbSpline
210
0.0
220
0.0
230
1.0
 70
     8
 71
     3
 72
    10
 73
     6
 74
     0
 42
0.000000001
 43
0.00000001
 40
0.0
 40
0.0
 40
0.0
 40
0.0
 40
0.3712068091217868
 40
0.7424255978933788
 40
1.0
 40
1.0
 40
1.0
 40
1.0
 10
6744.263613530316
 20
4408.159433893259
 30
0.0
 10
6743.835755044754
 20
4408.605658137927
 30
0.0
 10
6742.980024265707
 20
4409.498121027887
 30
0.0
 10
6741.400109282111
 20
4410.200951536917
 30
0.0
 10
6740.351196809895
 20
4410.209987525001
 30
0.0
 10
6739.921527712309
 20
4410.213688963348
 30
0.0
  0
SPLINE
  5
127
330
1F
100
AcDbEntity
  8
0
  6
Continuous
 62
     7
370
    25
100
AcDbSpline
210
0.0
220
0.0
230
1.0
 70
     8
 71
     3
 72
    14
 73
    10
 74
     0
 42
0.000000001
 43
0.00000001
 40
0.0
 40
0.0
 40
0.0
 40
0.0
 40
0.1503787068351099
 40
0.3008917533719482
 40
0.4512573546642772
 40
0.6020563209691222
 40
0.7532999067894895
 40
0.9047195236205449
 40
1.0
 40
1.0
 40
1.0
 40
1.0
 10
6739.921030874829
 20
4399.281241564258
 30
0.0
 10
6740.536977584971
 20
4399.340980194033
 30
0.0
 10
6741.769421256678
 20
4399.460510820643
 30
0.0
 10
6743.411897139108
 20
4400.402940017726
 30
0.0
 10
6744.663386165563
 20
4401.790555206085
 30
0.0
 10
6745.386542875253
 20
4403.528284746329
 30
0.0
 10
6745.489258567847
 20
4405.401164515961
 30
0.0
 10
6745.050594743093
 20
4407.004801581009
 30
0.0
 10
6744.482877288327
 20
4407.837737497215
 30
0.0
 10
6744.263613530316
 20
4408.159433893259
 30
0.0
  0
SPLINE
  5
128
330
1F
100
AcDbEntity
  8
0
  6
Continuous
 62
     7
370
    25
100
AcDbSpline
210
0.0
220
0.0
230
1.0
 70
     8
 71
     3
 72
    10
 73
     6
 74
     0
 42
0.000000001
 43
0.00000001
 40
0.0
 40
0.0
 40
0.0
 40
0.0
 40
0.3720493008172547
 40
0.7441065570847447
 40
1.0
 40
1.0
 40
1.0
 40
1.0
 10
6755.970770109544
 20
4380.544246156317
 30
0.0
 10
6755.541353165982
 20
4380.990505754672
 30
0.0
 10
6754.682510096729
 20
4381.883034493655
 30
0.0
 10
6753.102465561426
 20
4382.583274690783
 30
0.0
 10
6752.055366603306
 20
4382.590476525902
 30
0.0
 10
6751.628667886646
 20
4382.593411314231
 30
0.0
  0
SPLINE
  5
129
330
1F
100
AcDbEntity
  8
0
  6
Continuous
 62
     7
370
    25
100
AcDbSpline
210
0.0
220
0.0
230
1.0
 70
     8
 71
     3
 72
    14
 73
    10
 74
     0
 42
0.000000001
 43
0.00000001
 40
0.0
 40
0.0
 40
0.0
 40
0.0
 40
0.1505329908916973
 40
0.3013391494306171
 40
0.452129254038598
 40
0.6029749892450503
 40
0.7539383415420281
 40
0.9050592445015603
 40
1.0
 40
1.0
 40
1.0
 40
1.0
 10
6751.637397773594
 20
4371.661295179154
 30
0.0
 10
6752.254313801111
 20
4371.721465889811
 30
0.0
 10
6753.489265354923
 20
4371.841916501086
 30
0.0
 10
6755.134075097963
 20
4372.787319932299
 30
0.0
 10
6756.385505050725
 20
4374.180295171015
 30
0.0
 10
6757.104182693494
 20
4375.922351096043
 30
0.0
 10
6757.200558187034
 20
4377.794882642133
 30
0.0
 10
6756.757844003037
 20
4379.394229506152
 30
0.0
 10
6756.189904599574
 20
4380.224062353699
 30
0.0
 10
6755.970770109544
 20
4380.544246156317
 30
0.0
  0
SPLINE
  5
12A
330
1F
100
AcDbEntity
  8
0
  6
Continuous
 62
     7
370
    25
100
AcDbSpline
210
0.0
220
0.0
230
1.0
 70
     8
 71
     3
 72
    10
 73
     6
 74
     0
 42
0.000000001
 43
0.00000001
 40
0.0
 40
0.0
 40
0.0
 40
0.0
 40
0.3708695782722686
 40
0.7417388577591992
 40
1.0
 40
1.0
 40
1.0
 40
1.0
 10
6759.150239067341
 20
4406.328442666676
 30
0.0
 10
6758.722399244352
 20
4406.774050950302
 30
0.0
 10
6757.866719943057
 20
4407.665267158558
 30
0.0
 10
6756.287209831678
 20
4408.367220360807
 30
0.0
 10
6755.23874141664
 20
4408.376781914925
 30
0.0
 10
6754.808339959136
 20
4408.380706980068
 30
0.0
  0
SPLINE
  5
12B
330
1F
100
AcDbEntity
  8
0
  6
Continuous
 62
     7
370
    25
100
AcDbSpline
210
0.0
220
0.0
230
1.0
 70
     8
 71
     3
 72
    14
 73
    10
 74
     0
 42
0.000000001
 43
0.00000001
 40
0.0
 40
0.0
 40
0.0
 40
0.0
 40
0.149098618528568
 40
0.3003211311001984
 40
0.4516932802240804
 40
0.6030223613866249
 40
0.7542132214417024
 40
0.9052383524283085
 40
1.0
 40
1.0
 40
1.0
 40
1.0
 10
6754.808176323324
 20
4397.449979367658
 30
0.0
 10
6755.418916367257
 20
4397.507777206283
 30
0.0
 10
6756.64909638242
 20
4397.624196207629
 30
0.0
 10
6758.293762836562
 20
4398.562604456715
 30
0.0
 10
6759.552963074936
 20
4399.954958736391
 30
0.0
 10
6760.277876689369
 20
4401.70009405025
 30
0.0
 10
6760.37764658705
 20
4403.576011560081
 30
0.0
 10
6759.936408777206
 20
4405.177568370361
 30
0.0
 10
6759.369000134084
 20
4406.008198213615
 30
0.0
 10
6759.150239067341
 20
4406.328442666676
 30
0.0
  0
SPLINE
  5
12C
330
1F
100
AcDbEntity
  8
0
  6
Continuous
 62
     7
370
    25
100
AcDbSpline
210
0.0
220
0.0
230
1.0
 70
     8
 71
     3
 72
    10
 73
     6
 74
     0
 42
0.000000001
 43
0.00000001
 40
0.0
 40
0.0
 40
0.0
 40
0.0
 40
0.3720845598321544
 40
0.7441570156150159
 40
1.0
 40
1.0
 40
1.0
 40
1.0
 10
6764.998656490597
 20
4392.527601464471
 30
0.0
 10
6764.569018107018
 20
4392.972812129629
 30
0.0
 10
6763.709755316158
 20
4393.863218977077
 30
0.0
 10
6762.131723662165
 20
4394.560267089899
 30
0.0
 10
6761.087678484596
 20
4394.566987928491
 30
0.0
 10
6760.662284208592
 20
4394.569726321741
 30
0.0
  0
SPLINE
  5
12D
330
1F
100
AcDbEntity
  8
0
  6
Continuous
 62
     7
370
    25
100
AcDbSpline
210
0.0
220
0.0
230
1.0
 70
     8
 71
     3
 72
    14
 73
    10
 74
     0
 42
0.000000001
 43
0.00000001
 40
0.0
 40
0.0
 40
0.0
 40
0.0
 40
0.1512553317324087
 40
0.3023899119673224
 40
0.4533589063516259
 40
0.6041849228544836
 40
0.7549197265220223
 40
0.9056313907025227
 40
1.0
 40
1.0
 40
1.0
 40
1.0
 10
6760.667094324521
 20
4383.636899837227
 30
0.0
 10
6761.286727344414
 20
4383.697851126415
 30
0.0
 10
6762.525498713275
 20
4383.819705045618
 30
0.0
 10
6764.173707106273
 20
4384.770193934462
 30
0.0
 10
6765.424445219609
 20
4386.168166026508
 30
0.0
 10
6766.139680545471
 20
4387.913591230263
 30
0.0
 10
6766.231351648207
 20
4389.786419896018
 30
0.0
 10
6765.785319972048
 20
4391.382402592824
 30
0.0
 10
6765.217353155976
 20
4392.209230038404
 30
0.0
 10
6764.998656490597
 20
4392.527601464471
 30
0.0
  0
CIRCLE
  5
12E
330
1F
100
AcDbEntity
  8
0
  6
Continuous
 62
     7
370
    25
100
AcDbCircle
 10
6745.7794270331
 20
4390.9703481104
 30
0.0
 40
4.999894267083905
  0
CIRCLE
  5
12F
330
1F
100
AcDbEntity
  8
0
  6
Continuous
 62
     7
370
    25
100
AcDbCircle
 10
6745.7671905277
 20
4390.9703148941
 30
0.0
 40
3.199926061597666
  0
LINE
  5
130
330
1F
100
AcDbEntity
  8
0
  6
Continuous
 62
     7
370
    25
100
AcDbLine
 10
5647.5187553361
 20
4615.9702375561
 30
0.0
 11
6900.5187553361
 21
4615.9702375561
 31
0.0
  0
LINE
  5
131
330
1F
100
AcDbEntity
  8
0
  6
Continuous
 62
     7
370
    25
100
AcDbLine
 10
6900.5187553361
 20
4612.9702375561
 30
0.0
 11
6900.5187553361
 21
4615.9702375561
 31
0.0
  0
LINE
  5
132
330
1F
100
AcDbEntity
  8
0
  6
Continuous
 62
     7
370
    25
100
AcDbLine
 10
5647.5187553361
 20
4612.9702375561
 30
0.0
 11
6900.5187553361
 21
4612.9702375561
 31
0.0
  0
LINE
  5
133
330
1F
100
AcDbEntity
  8
0
  6
Continuous
 62
     7
370
    25
100
AcDbLine
 10
5647.5187553361
 20
4612.9702375561
 30
0.0
 11
5647.5187553361
 21
4615.9702375561
 31
0.0
  0
LINE
  5
134
330
1F
100
AcDbEntity
  8
0
  6
Continuous
 62
     7
370
    25
100
AcDbLine
 10
6900.5187553361
 20
4190.9702375561
 30
0.0
 11
5647.5187553361
 21
4190.9702375561
 31
0.0
  0
LINE
  5
135
330
1F
100
AcDbEntity
  8
0
  6
Continuous
 62
     7
370
    25
100
AcDbLine
 10
5653.5187553361
 20
4550.9702375561
 30
0.0
 11
5653.5187553361
 21
4230.9702375561
 31
0.0
  0
LINE
  5
136
330
1F
100
AcDbEntity
  8
0
  6
Continuous
 62
     7
370
    25
100
AcDbLine
 10
6894.5187553361
 20
4230.9702375561
 30
0.0
 11
5653.5187553361
 21
4230.9702375561
 31
0.0
  0
LINE
  5
137
330
1F
100
AcDbEntity
  8
0
  6
Continuous
 62
     7
370
    25
100
AcDbLine
 10
6894.5187553361
 20
4550.9702375561
 30
0.0
 11
6894.5187553361
 21
4230.9702375561
 31
0.0
  0
LINE
  5
138
330
1F
100
AcDbEntity
  8
0
  6
Continuous
 62
     7
370
    25
100
AcDbLine
 10
6894.5187553361
 20
4550.9702375561
 30
0.0
 11
5653.5187553361
 21
4550.9702375561
 31
0.0
  0
LINE
  5
139
330
1F
100
AcDbEntity
  8
0
  6
Continuous
 62
     7
370
    25
100
AcDbLine
 10
6900.5187553361
 20
4190.9702375561
 30
0.0
 11
6900.5187553361
 21
4612.9702375561
 31
0.0
  0
LINE
  5
13A
330
1F
100
AcDbEntity
  8
0
  6
Continuous
 62
     7
370
    25
100
AcDbLine
 10
5647.5187553361
 20
4190.9702375561
 30
0.0
 11
5647.5187553361
 21
4612.9702375561
 31
0.0
  0
LWPOLYLINE
  5
13B
330
1F
100
AcDbEntity
  8
0
  6
Continuous
 62
     7
370
    25
100
AcDbPolyline
 90
        4
 70
   128
 43
0.0
 10
6894.5187553361
 20
4464.7582362433
 10
6649.7933946078
 20
4464.7785505826
 10
6151.6560749077
 20
4464.8210184753
 10
5653.5187553361
 20
4464.8650208288
  0
LWPOLYLINE
  5
13C
330
1F
100
AcDbEntity
  8
0
  6
Continuous
 62
     7
370
    25
100
AcDbPolyline
 90
        4
 70
   128
 43
0.0
 10
6894.5187553361
 20
4317.1822388689
 10
6649.7933748649
 20
4317.1619245279
 10
6151.6560650363
 20
4317.119456636
 10
5653.5187553361
 20
4317.0754542835
  0
CIRCLE
  5
13D
330
1F
100
AcDbEntity
  8
0
  6
Continuous
 62
     7
370
    25
100
AcDbCircle
 10
6745.9044044116
 20
4390.9703114939
 30
0.0
 40
32.99964439528782
  0
SPLINE
  5
13E
330
1F
100
AcDbEntity
  8
0
  6
Continuous
 62
     8
370
    25
100
AcDbSpline
210
0.0
220
0.0
230
1.0
 70
     8
 71
     3
 72
    11
 73
     7
 74
     0
 42
0.000000001
 43
0.00000001
 40
0.0
 40
0.0
 40
0.0
 40
0.0
 40
0.2311903427752631
 40
0.5431320525214506
 40
0.84540727270882
 40
1.0
 40
1.0
 40
1.0
 40
1.0
 10
6727.538414244518
 20
4397.15236160953
 30
0.0
 10
6728.015585086134
 20
4396.715734399759
 30
0.0
 10
6729.136595486042
 20
4395.689972554421
 30
0.0
 10
6731.501609807749
 20
4394.058252509605
 30
0.0
 10
6733.94969187824
 20
4392.656294860525
 30
0.0
 10
6735.684282030914
 20
4392.049703484376
 30
0.0
 10
6736.271224108847
 20
4391.844448080254
 30
0.0
  0
SPLINE
  5
13F
330
1F
100
AcDbEntity
  8
0
  6
Continuous
 62
     8
370
    25
100
AcDbSpline
210
0.0
220
0.0
230
1.0
 70
     8
 71
     3
 72
    10
 73
     6
 74
     0
 42
0.000000001
 43
0.00000001
 40
0.0
 40
0.0
 40
0.0
 40
0.0
 40
0.3468892976000019
 40
0.8431953995925319
 40
1.0
 40
1.0
 40
1.0
 40
1.0
 10
6742.683833014465
 20
4390.321286915228
 30
0.0
 10
6743.392159976874
 20
4390.241612377409
 30
0.0
 10
6745.113913978057
 20
4390.047944817705
 30
0.0
 10
6747.214492020197
 20
4390.099216366692
 30
0.0
 10
6748.52946063993
 20
4390.310921593906
 30
0.0
 10
6748.845169949558
 20
4390.361749659402
 30
0.0
  0
SPLINE
  5
140
330
1F
100
AcDbEntity
  8
0
  6
Continuous
 62
     8
370
    25
100
AcDbSpline
210
0.0
220
0.0
230
1.0
 70
     8
 71
     3
 72
    10
 73
     6
 74
     0
 42
0.000000001
 43
0.00000001
 40
0.0
 40
0.0
 40
0.0
 40
0.0
 40
0.0364883158552163
 40
0.6628587639365876
 40
1.0
 40
1.0
 40
1.0
 40
1.0
 10
6756.320353000552
 20
4392.417311332166
 30
0.0
 10
6756.374531699329
 20
4392.43825875575
 30
0.0
 10
6757.358759786087
 20
4392.818796552026
 30
0.0
 10
6758.673776749249
 20
4393.551728749874
 30
0.0
 10
6759.763339297058
 20
4394.283936734286
 30
0.0
 10
6760.144586842036
 20
4394.540142765807
 30
0.0
  0
ENDSEC
  0
SECTION
  2
OBJECTS
  0
DICTIONARY
  5
C
330
0
100
AcDbDictionary
281
     1
  3
ACAD_GROUP
350
D
  3
ACAD_LAYOUT
350
1A
  3
ACAD_MLINESTYLE
350
17
  3
ACAD_PLOTSETTINGS
350
19
  3
ACAD_PLOTSTYLENAME
350
E
  3
ACAD_SCALELIST
350
47
  0
DICTIONARY
  5
D
102
{ACAD_REACTORS
330
C
102
}
330
C
100
AcDbDictionary
281
     1
  0
DICTIONARY
  5
1A
102
{ACAD_REACTORS
330
C
102
}
330
C
100
AcDbDictionary
281
     1
  3
Layout1
350
1E
  3
Layout2
350
26
  3
Model
350
22
  0
DICTIONARY
  5
17
102
{ACAD_REACTORS
330
C
102
}
330
C
100
AcDbDictionary
281
     1
  3
Standard
350
18
  0
DICTIONARY
  5
19
102
{ACAD_REACTORS
330
C
102
}
330
C
100
AcDbDictionary
281
     1
  0
ACDBDICTIONARYWDFLT
  5
E
102
{ACAD_REACTORS
330
C
102
}
330
C
100
AcDbDictionary
281
     1
  3
Normal
350
F
100
AcDbDictionaryWithDefault
340
F
  0
DICTIONARY
  5
47
102
{ACAD_REACTORS
330
C
102
}
330
C
100
AcDbDictionary
281
     1
  3
A0
350
48
  3
A1
350
49
  3
A2
350
4A
  3
A3
350
4B
  3
A4
350
4C
  3
A5
350
4D
  3
A6
350
4E
  3
A7
350
4F
  3
A8
350
50
  3
A9
350
51
  3
B0
350
52
  3
B1
350
53
  3
B2
350
54
  3
B3
350
55
  3
B4
350
56
  3
B5
350
57
  3
B6
350
58
  3
B7
350
59
  3
B8
350
5A
  3
B9
350
5B
  3
C0
350
5C
  3
C1
350
5D
  3
C2
350
5E
  3
C3
350
5F
  3
C4
350
60
  3
C5
350
61
  3
C6
350
62
  3
C7
350
63
  3
C8
350
64
  3
C9
350
65
  3
D0
350
66
  3
D1
350
67
  3
D2
350
68
  0
LAYOUT
  5
1E
102
{ACAD_REACTORS
330
1A
102
}
330
1A
100
AcDbPlotSettings
  1

  2
none_device
  4

  6

 40
0.0
 41
0.0
 42
0.0
 43
0.0
 44
0.0
 45
0.0
 46
0.0
 47
0.0
 48
0.0
 49
0.0
140
0.0
141
0.0
142
1.0
143
1.0
 70
   688
 72
     1
 73
     0
 74
     5
  7

 75
    16
147
1.0
148
0.0
149
0.0
100
AcDbLayout
  1
Layout1
 70
     1
 71
     1
 10
0.0
 20
0.0
 11
420.0
 21
297.0
 12
0.0
 22
0.0
 32
0.0
 14
1.0000000000E+20
 24
1.0000000000E+20
 34
1.0000000000E+20
 15
-1.0000000000E+20
 25
-1.0000000000E+20
 35
-1.0000000000E+20
146
0.0
 13
0.0
 23
0.0
 33
0.0
 16
1.0
 26
0.0
 36
0.0
 17
0.0
 27
1.0
 37
0.0
 76
     0
330
1B
  0
LAYOUT
  5
26
102
{ACAD_REACTORS
330
1A
102
}
330
1A
100
AcDbPlotSettings
  1

  2
none_device
  4

  6

 40
0.0
 41
0.0
 42
0.0
 43
0.0
 44
0.0
 45
0.0
 46
0.0
 47
0.0
 48
0.0
 49
0.0
140
0.0
141
0.0
142
1.0
143
1.0
 70
   688
 72
     1
 73
     0
 74
     5
  7

 75
    16
147
1.0
148
0.0
149
0.0
100
AcDbLayout
  1
Layout2
 70
     1
 71
     2
 10
0.0
 20
0.0
 11
0.0
 21
0.0
 12
0.0
 22
0.0
 32
0.0
 14
0.0
 24
0.0
 34
0.0
 15
0.0
 25
0.0
 35
0.0
146
0.0
 13
0.0
 23
0.0
 33
0.0
 16
1.0
 26
0.0
 36
0.0
 17
0.0
 27
1.0
 37
0.0
 76
     0
330
23
  0
LAYOUT
  5
22
102
{ACAD_REACTORS
330
1A
102
}
330
1A
100
AcDbPlotSettings
  1

  2
none_device
  4
Letter_(8.50_x_11.00_Inches)
  6

 40
6.35
 41
6.35
 42
6.35000508
 43
6.35000508
 44
215.9
 45
279.4
 46
0.0
 47
0.0
 48
0.0
 49
0.0
140
0.0
141
0.0
142
1.0
143
1.0
 70
  1712
 72
     1
 73
     0
 74
     0
  7

 75
     0
147
1.0
148
0.0
149
0.0
100
AcDbLayout
  1
Model
 70
     1
 71
     0
 10
0.0
 20
0.0
 11
20000.0
 21
10000.0
 12
0.0
 22
0.0
 32
0.0
 14
0.0
 24
0.0
 34
0.0
 15
20000.0
 25
10000.0
 35
0.0
146
0.0
 13
0.0
 23
0.0
 33
0.0
 16
1.0
 26
0.0
 36
0.0
 17
0.0
 27
1.0
 37
0.0
 76
     0
330
1F
331
29
  0
MLINESTYLE
  5
18
102
{ACAD_REACTORS
330
17
102
}
330
17
100
AcDbMlineStyle
  2
Standard
 70
     0
  3

 62
   256
 51
90.0
 52
90.0
 71
     2
 49
0.5
 62
   256
  6
BYLAYER
 49
-0.5
 62
   256
  6
BYLAYER
  0
ACDBPLACEHOLDER
  5
F
102
{ACAD_REACTORS
330
E
102
}
330
E
  0
SCALE
  5
48
102
{ACAD_REACTORS
330
47
102
}
330
47
100
AcDbScale
 70
     0
300
1:1
140
1.0
141
1.0
290
     1
  0
SCALE
  5
49
102
{ACAD_REACTORS
330
47
102
}
330
47
100
AcDbScale
 70
     0
300
1:2
140
1.0
141
2.0
290
     0
  0
SCALE
  5
4A
102
{ACAD_REACTORS
330
47
102
}
330
47
100
AcDbScale
 70
     0
300
1:4
140
1.0
141
4.0
290
     0
  0
SCALE
  5
4B
102
{ACAD_REACTORS
330
47
102
}
330
47
100
AcDbScale
 70
     0
300
1:5
140
1.0
141
5.0
290
     0
  0
SCALE
  5
4C
102
{ACAD_REACTORS
330
47
102
}
330
47
100
AcDbScale
 70
     0
300
1:8
140
1.0
141
8.0
290
     0
  0
SCALE
  5
4D
102
{ACAD_REACTORS
330
47
102
}
330
47
100
AcDbScale
 70
     0
300
1:10
140
1.0
141
10.0
290
     0
  0
SCALE
  5
4E
102
{ACAD_REACTORS
330
47
102
}
330
47
100
AcDbScale
 70
     0
300
1:16
140
1.0
141
16.0
290
     0
  0
SCALE
  5
4F
102
{ACAD_REACTORS
330
47
102
}
330
47
100
AcDbScale
 70
     0
300
1:20
140
1.0
141
20.0
290
     0
  0
SCALE
  5
50
102
{ACAD_REACTORS
330
47
102
}
330
47
100
AcDbScale
 70
     0
300
1:30
140
1.0
141
30.0
290
     0
  0
SCALE
  5
51
102
{ACAD_REACTORS
330
47
102
}
330
47
100
AcDbScale
 70
     0
300
1:40
140
1.0
141
40.0
290
     0
  0
SCALE
  5
52
102
{ACAD_REACTORS
330
47
102
}
330
47
100
AcDbScale
 70
     0
300
1:50
140
1.0
141
50.0
290
     0
  0
SCALE
  5
53
102
{ACAD_REACTORS
330
47
102
}
330
47
100
AcDbScale
 70
     0
300
1:100
140
1.0
141
100.0
290
     0
  0
SCALE
  5
54
102
{ACAD_REACTORS
330
47
102
}
330
47
100
AcDbScale
 70
     0
300
2:1
140
2.0
141
1.0
290
     0
  0
SCALE
  5
55
102
{ACAD_REACTORS
330
47
102
}
330
47
100
AcDbScale
 70
     0
300
4:1
140
4.0
141
1.0
290
     0
  0
SCALE
  5
56
102
{ACAD_REACTORS
330
47
102
}
330
47
100
AcDbScale
 70
     0
300
8:1
140
8.0
141
1.0
290
     0
  0
SCALE
  5
57
102
{ACAD_REACTORS
330
47
102
}
330
47
100
AcDbScale
 70
     0
300
10:1
140
10.0
141
1.0
290
     0
  0
SCALE
  5
58
102
{ACAD_REACTORS
330
47
102
}
330
47
100
AcDbScale
 70
     0
300
100:1
140
100.0
141
1.0
290
     0
  0
SCALE
  5
59
102
{ACAD_REACTORS
330
47
102
}
330
47
100
AcDbScale
 70
     0
300
1/128" = 1'-0"
140
0.0078125
141
12.0
290
     0
  0
SCALE
  5
5A
102
{ACAD_REACTORS
330
47
102
}
330
47
100
AcDbScale
 70
     0
300
1/64" = 1'-0"
140
0.015625
141
12.0
290
     0
  0
SCALE
  5
5B
102
{ACAD_REACTORS
330
47
102
}
330
47
100
AcDbScale
 70
     0
300
1/32" = 1'-0"
140
0.03125
141
12.0
290
     0
  0
SCALE
  5
5C
102
{ACAD_REACTORS
330
47
102
}
330
47
100
AcDbScale
 70
     0
300
1/16" = 1'-0"
140
0.0625
141
12.0
290
     0
  0
SCALE
  5
5D
102
{ACAD_REACTORS
330
47
102
}
330
47
100
AcDbScale
 70
     0
300
3/32" = 1'-0"
140
0.09375
141
12.0
290
     0
  0
SCALE
  5
5E
102
{ACAD_REACTORS
330
47
102
}
330
47
100
AcDbScale
 70
     0
300
1/8" = 1'-0"
140
0.125
141
12.0
290
     0
  0
SCALE
  5
5F
102
{ACAD_REACTORS
330
47
102
}
330
47
100
AcDbScale
 70
     0
300
3/16" = 1'-0"
140
0.1875
141
12.0
290
     0
  0
SCALE
  5
60
102
{ACAD_REACTORS
330
47
102
}
330
47
100
AcDbScale
 70
     0
300
1/4" = 1'-0"
140
0.25
141
12.0
290
     0
  0
SCALE
  5
61
102
{ACAD_REACTORS
330
47
102
}
330
47
100
AcDbScale
 70
     0
300
3/8" = 1'-0"
140
0.375
141
12.0
290
     0
  0
SCALE
  5
62
102
{ACAD_REACTORS
330
47
102
}
330
47
100
AcDbScale
 70
     0
300
1/2" = 1'-0"
140
0.5
141
12.0
290
     0
  0
SCALE
  5
63
102
{ACAD_REACTORS
330
47
102
}
330
47
100
AcDbScale
 70
     0
300
3/4" = 1'-0"
140
0.75
141
12.0
290
     0
  0
SCALE
  5
64
102
{ACAD_REACTORS
330
47
102
}
330
47
100
AcDbScale
 70
     0
300
1" = 1'-0"
140
1.0
141
12.0
290
     0
  0
SCALE
  5
65
102
{ACAD_REACTORS
330
47
102
}
330
47
100
AcDbScale
 70
     0
300
1-1/2" = 1'-0"
140
1.5
141
12.0
290
     0
  0
SCALE
  5
66
102
{ACAD_REACTORS
330
47
102
}
330
47
100
AcDbScale
 70
     0
300
3" = 1'-0"
140
3.0
141
12.0
290
     0
  0
SCALE
  5
67
102
{ACAD_REACTORS
330
47
102
}
330
47
100
AcDbScale
 70
     0
300
6" = 1'-0"
140
6.0
141
12.0
290
     0
  0
SCALE
  5
68
102
{ACAD_REACTORS
330
47
102
}
330
47
100
AcDbScale
 70
     0
300
1'-0" = 1'-0"
140
12.0
141
12.0
290
     0
  0
ENDSEC
  0
EOF
