  0
SECTION
  2
HEADER
  9
$ACADVER
  1
AC1015
  9
$ACADMAINTVER
 70
     6
  9
$DWGCODEPAGE
  3
ANSI_1250
  9
$INSBASE
 10
0.0
 20
0.0
 30
0.0
  9
$EXTMIN
 10
5674.015045166
 20
4119.89690599
 30
0.0
  9
$EXTMAX
 10
7757.4720221183
 20
5421.1994464816
 30
0.0
  9
$LIMMIN
 10
0.0
 20
0.0
  9
$LIMMAX
 10
420.0
 20
297.0
  9
$ORTHOMODE
 70
     0
  9
$REGENMODE
 70
     1
  9
$FILLMODE
 70
     1
  9
$QTEXTMODE
 70
     0
  9
$MIRRTEXT
 70
     1
  9
$LTSCALE
 40
1.0
  9
$ATTMODE
 70
     1
  9
$TEXTSIZE
 40
3.5
  9
$TRACEWID
 40
1.0
  9
$TEXTSTYLE
  7
Standard
  9
$CLAYER
  8
0
  9
$CELTYPE
  6
ByLayer
  9
$CECOLOR
 62
   256
  9
$CELTSCALE
 40
1.0
  9
$DISPSILH
 70
     0
  9
$DIMSCALE
 40
1.0
  9
$DIMASZ
 40
3.302
  9
$DIMEXO
 40
0.0
  9
$DIMDLI
 40
3.75
  9
$DIMRND
 40
0.0
  9
$DIMDLE
 40
0.0
  9
$DIMEXE
 40
1.0
  9
$DIMTP
 40
0.0
  9
$DIMTM
 40
0.0
  9
$DIMTXT
 40
3.5
  9
$DIMCEN
 40
2.5
  9
$DIMTSZ
 40
0.0
  9
$DIMTOL
 70
     0
  9
$DIMLIM
 70
     0
  9
$DIMTIH
 70
     1
  9
$DIMTOH
 70
     1
  9
$DIMSE1
 70
     0
  9
$DIMSE2
 70
     0
  9
$DIMTAD
 70
     1
  9
$DIMZIN
 70
     0
  9
$DIMBLK
  1

  9
$DIMASO
 70
     1
  9
$DIMSHO
 70
     1
  9
$DIMPOST
  1

  9
$DIMAPOST
  1

  9
$DIMALT
 70
     0
  9
$DIMALTD
 70
     3
  9
$DIMALTF
 40
0.0393700787
  9
$DIMLFAC
 40
1.0
  9
$DIMTOFL
 70
     1
  9
$DIMTVP
 40
0.0
  9
$DIMTIX
 70
     0
  9
$DIMSOXD
 70
     0
  9
$DIMSAH
 70
     0
  9
$DIMBLK1
  1

  9
$DIMBLK2
  1

  9
$DIMSTYLE
  2
ISO-25
  9
$DIMCLRD
 70
     0
  9
$DIMCLRE
 70
     0
  9
$DIMCLRT
 70
     0
  9
$DIMTFAC
 40
1.0
  9
$DIMGAP
 40
1.524
  9
$DIMJUST
 70
     0
  9
$DIMSD1
 70
     0
  9
$DIMSD2
 70
     0
  9
$DIMTOLJ
 70
     0
  9
$DIMTZIN
 70
     0
  9
$DIMALTZ
 70
     0
  9
$DIMALTTZ
 70
     0
  9
$DIMUPT
 70
     0
  9
$DIMDEC
 70
     2
  9
$DIMTDEC
 70
     2
  9
$DIMALTU
 70
     2
  9
$DIMALTTD
 70
     3
  9
$DIMTXSTY
  7
Standard
  9
$DIMAUNIT
 70
     0
  9
$DIMADEC
 70
     2
  9
$DIMALTRND
 40
0.0
  9
$DIMAZIN
 70
     0
  9
$DIMDSEP
 70
    44
  9
$DIMATFIT
 70
     3
  9
$DIMFRAC
 70
     0
  9
$DIMLDRBLK
  1

  9
$DIMLUNIT
 70
     2
  9
$DIMLWD
 70
    -2
  9
$DIMLWE
 70
    -2
  9
$DIMTMOVE
 70
     0
  9
$LUNITS
 70
     2
  9
$LUPREC
 70
     2
  9
$SKETCHINC
 40
1.0
  9
$FILLETRAD
 40
10.0
  9
$AUNITS
 70
     0
  9
$AUPREC
 70
     2
  9
$MENU
  1
.
  9
$ELEVATION
 40
0.0
  9
$PELEVATION
 40
0.0
  9
$THICKNESS
 40
0.0
  9
$LIMCHECK
 70
     0
  9
$CHAMFERA
 40
0.0
  9
$CHAMFERB
 40
0.0
  9
$CHAMFERC
 40
0.0
  9
$CHAMFERD
 40
0.0
  9
$SKPOLY
 70
     0
  9
$TDCREATE
 40
2459096.411129363
  9
$TDUCREATE
 40
2459096.32779603
  9
$TDUPDATE
 40
2459096.41115853
  9
$TDUUPDATE
 40
2459096.327825197
  9
$TDINDWG
 40
0.0000000116
  9
$TDUSRTIMER
 40
0.0000000116
  9
$USRTIMER
 70
     1
  9
$ANGBASE
 50
0.0
  9
$ANGDIR
 70
     0
  9
$PDMODE
 70
     0
  9
$PDSIZE
 40
-1.0
  9
$PLINEWID
 40
0.0
  9
$SPLFRAME
 70
     0
  9
$SPLINETYPE
 70
     6
  9
$SPLINESEGS
 70
     8
  9
$HANDSEED
  5
271
  9
$SURFTAB1
 70
     6
  9
$SURFTAB2
 70
     6
  9
$SURFTYPE
 70
     6
  9
$SURFU
 70
     6
  9
$SURFV
 70
     6
  9
$UCSBASE
  2

  9
$UCSNAME
  2

  9
$UCSORG
 10
0.0
 20
0.0
 30
0.0
  9
$UCSXDIR
 10
1.0
 20
0.0
 30
0.0
  9
$UCSYDIR
 10
0.0
 20
1.0
 30
0.0
  9
$UCSORTHOREF
  2

  9
$UCSORTHOVIEW
 70
     0
  9
$UCSORGTOP
 10
0.0
 20
0.0
 30
0.0
  9
$UCSORGBOTTOM
 10
0.0
 20
0.0
 30
0.0
  9
$UCSORGLEFT
 10
0.0
 20
0.0
 30
0.0
  9
$UCSORGRIGHT
 10
0.0
 20
0.0
 30
0.0
  9
$UCSORGFRONT
 10
0.0
 20
0.0
 30
0.0
  9
$UCSORGBACK
 10
0.0
 20
0.0
 30
0.0
  9
$PUCSBASE
  2

  9
$PUCSNAME
  2

  9
$PUCSORG
 10
0.0
 20
0.0
 30
0.0
  9
$PUCSXDIR
 10
1.0
 20
0.0
 30
0.0
  9
$PUCSYDIR
 10
0.0
 20
1.0
 30
0.0
  9
$PUCSORTHOREF
  2

  9
$PUCSORTHOVIEW
 70
     0
  9
$PUCSORGTOP
 10
0.0
 20
0.0
 30
0.0
  9
$PUCSORGBOTTOM
 10
0.0
 20
0.0
 30
0.0
  9
$PUCSORGLEFT
 10
0.0
 20
0.0
 30
0.0
  9
$PUCSORGRIGHT
 10
0.0
 20
0.0
 30
0.0
  9
$PUCSORGFRONT
 10
0.0
 20
0.0
 30
0.0
  9
$PUCSORGBACK
 10
0.0
 20
0.0
 30
0.0
  9
$USERI1
 70
     0
  9
$USERI2
 70
     0
  9
$USERI3
 70
     0
  9
$USERI4
 70
     0
  9
$USERI5
 70
     0
  9
$USERR1
 40
0.0
  9
$USERR2
 40
0.0
  9
$USERR3
 40
0.0
  9
$USERR4
 40
0.0
  9
$USERR5
 40
0.0
  9
$WORLDVIEW
 70
     1
  9
$SHADEDGE
 70
     3
  9
$SHADEDIF
 70
    70
  9
$TILEMODE
 70
     1
  9
$MAXACTVP
 70
    64
  9
$PINSBASE
 10
0.0
 20
0.0
 30
0.0
  9
$PLIMCHECK
 70
     0
  9
$PEXTMIN
 10
1.0000000000E+20
 20
1.0000000000E+20
 30
1.0000000000E+20
  9
$PEXTMAX
 10
-1.0000000000E+20
 20
-1.0000000000E+20
 30
-1.0000000000E+20
  9
$PLIMMIN
 10
0.0
 20
0.0
  9
$PLIMMAX
 10
420.0
 20
297.0
  9
$UNITMODE
 70
     0
  9
$VISRETAIN
 70
     1
  9
$PLINEGEN
 70
     0
  9
$PSLTSCALE
 70
     1
  9
$TREEDEPTH
 70
  3020
  9
$CMLSTYLE
  2
Standard
  9
$CMLJUST
 70
     0
  9
$CMLSCALE
 40
20.0
  9
$PROXYGRAPHICS
 70
     1
  9
$MEASUREMENT
 70
     1
  9
$CELWEIGHT
370
    -1
  9
$ENDCAPS
280
     0
  9
$JOINSTYLE
280
     0
  9
$LWDISPLAY
290
     1
  9
$INSUNITS
 70
     4
  9
$HYPERLINKBASE
  1

  9
$STYLESHEET
  1

  9
$XEDIT
290
     1
  9
$CEPSNTYPE
380
     0
  9
$PSTYLEMODE
290
     1
  9
$FINGERPRINTGUID
  2
{51aceb8c-96b6-4b09-812c-2c551c95eeb7}
  9
$VERSIONGUID
  2
{FAEB1C32-E019-11D5-929B-00C0DF256EC4}
  9
$EXTNAMES
290
     1
  9
$PSVPSCALE
 40
0.0
  9
$OLESTARTUP
290
     0
  0
ENDSEC
  0
SECTION
  2
CLASSES
  0
CLASS
  1
ACDBDICTIONARYWDFLT
  2
AcDbDictionaryWithDefault
  3
ObjectDBX Classes
 90
        0
280
     0
281
     0
  0
CLASS
  1
VISUALSTYLE
  2
AcDbVisualStyle
  3
ObjectDBX Classes
 90
     4095
280
     0
281
     0
  0
CLASS
  1
MATERIAL
  2
AcDbMaterial
  3
ObjectDBX Classes
 90
     1153
280
     0
281
     0
  0
CLASS
  1
SCALE
  2
AcDbScale
  3
ObjectDBX Classes
 90
     1153
280
     0
281
     0
  0
CLASS
  1
TABLESTYLE
  2
AcDbTableStyle
  3
ObjectDBX Classes
 90
     4095
280
     0
281
     0
  0
CLASS
  1
MLEADERSTYLE
  2
AcDbMLeaderStyle
  3
ACDB_MLEADERSTYLE_CLASS
 90
     4095
280
     0
281
     0
  0
CLASS
  1
SUN
  2
AcDbSun
  3
SCENEOE
 90
     1153
280
     0
281
     0
  0
CLASS
  1
ACDBPLACEHOLDER
  2
AcDbPlaceHolder
  3
ObjectDBX Classes
 90
        0
280
     0
281
     0
  0
CLASS
  1
LAYOUT
  2
AcDbLayout
  3
ObjectDBX Classes
 90
        0
280
     0
281
     0
  0
ENDSEC
  0
SECTION
  2
TABLES
  0
TABLE
  2
VPORT
  5
8
330
0
100
AcDbSymbolTable
 70
     1
  0
VPORT
  5
29
330
8
100
AcDbSymbolTableRecord
100
AcDbViewportTableRecord
  2
*Active
 70
     0
 10
0.0
 20
0.0
 11
1.0
 21
1.0
 12
6715.7435336422
 22
4770.5481762358
 13
0.0
 23
0.0
 14
10.0
 24
10.0
 15
10.0
 25
10.0
 16
0.0
 26
0.0
 36
1.0
 17
0.0
 27
0.0
 37
0.0
 40
1327.3285913014
 41
1.6010550292
 42
50.0
 43
0.0
 44
0.0
 50
0.0
 51
0.0
 71
     0
 72
   100
 73
     1
 74
     3
 75
     0
 76
     0
 77
     0
 78
     0
281
     0
 65
     1
110
0.0
120
0.0
130
0.0
111
1.0
121
0.0
131
0.0
112
0.0
122
1.0
132
0.0
 79
     0
146
0.0
  0
ENDTAB
  0
TABLE
  2
LTYPE
  5
5
330
0
100
AcDbSymbolTable
 70
     6
  0
LTYPE
  5
14
330
5
100
AcDbSymbolTableRecord
100
AcDbLinetypeTableRecord
  2
ByBlock
 70
     0
  3

 72
    65
 73
     0
 40
0.0
  0
LTYPE
  5
15
330
5
100
AcDbSymbolTableRecord
100
AcDbLinetypeTableRecord
  2
ByLayer
 70
     0
  3

 72
    65
 73
     0
 40
0.0
  0
LTYPE
  5
16
330
5
100
AcDbSymbolTableRecord
100
AcDbLinetypeTableRecord
  2
Continuous
 70
     0
  3
Solid line
 72
    65
 73
     0
 40
0.0
  0
LTYPE
  5
6E
330
5
100
AcDbSymbolTableRecord
100
AcDbLinetypeTableRecord
  2
HIDDEN
 70
     0
  3
Hidden __ __ __ __ __ __ __ __ __ __ __ __ __ __
 72
    65
 73
     2
 40
1.905
 49
1.27
 74
     0
 49
-0.635
 74
     0
  0
LTYPE
  5
6F
330
5
100
AcDbSymbolTableRecord
100
AcDbLinetypeTableRecord
  2
PHANTOM
 70
     0
  3
Phantom ______  __  __  ______  __  __  ______
 72
    65
 73
     6
 40
12.7
 49
6.35
 74
     0
 49
-1.27
 74
     0
 49
1.27
 74
     0
 49
-1.27
 74
     0
 49
1.27
 74
     0
 49
-1.27
 74
     0
  0
LTYPE
  5
70
330
5
100
AcDbSymbolTableRecord
100
AcDbLinetypeTableRecord
  2
CENTER
 70
     0
  3
Center ____ _ ____ _ ____ _ ____ _ ____ _ ____
 72
    65
 73
     4
 40
10.16
 49
6.35
 74
     0
 49
-1.27
 74
     0
 49
1.27
 74
     0
 49
-1.27
 74
     0
  0
LTYPE
  5
71
330
5
100
AcDbSymbolTableRecord
100
AcDbLinetypeTableRecord
  2
CENTERX2
 70
     0
  3
Center (2x) ________  __  ________  __  _____
 72
    65
 73
     4
 40
20.32
 49
12.7
 74
     0
 49
-2.54
 74
     0
 49
2.54
 74
     0
 49
-2.54
 74
     0
  0
LTYPE
  5
72
330
5
100
AcDbSymbolTableRecord
100
AcDbLinetypeTableRecord
  2
DOT2
 70
     0
  3
Dot (.5x) ........................................
 72
    65
 73
     2
 40
0.635
 49
0.0
 74
     0
 49
-0.635
 74
     0
  0
ENDTAB
  0
TABLE
  2
LAYER
  5
2
330
0
100
AcDbSymbolTable
 70
     1
  0
LAYER
  5
10
330
2
100
AcDbSymbolTableRecord
100
AcDbLayerTableRecord
  2
0
 70
     0
 62
     7
  6
Continuous
370
    -3
390
F
  0
ENDTAB
  0
TABLE
  2
STYLE
  5
3
330
0
100
AcDbSymbolTable
 70
     1
  0
STYLE
  5
11
330
3
100
AcDbSymbolTableRecord
100
AcDbTextStyleTableRecord
  2
Standard
 70
     0
 40
0.0
 41
1.0
 50
0.0
 71
     0
 42
3.5
  3
txt
  4

  0
ENDTAB
  0
TABLE
  2
VIEW
  5
6
330
0
100
AcDbSymbolTable
 70
     0
  0
ENDTAB
  0
TABLE
  2
UCS
  5
7
330
0
100
AcDbSymbolTable
 70
     0
  0
ENDTAB
  0
TABLE
  2
APPID
  5
9
330
0
100
AcDbSymbolTable
 70
     1
  0
APPID
  5
12
330
9
100
AcDbSymbolTableRecord
100
AcDbRegAppTableRecord
  2
ACAD
 70
     0
  0
ENDTAB
  0
TABLE
  2
DIMSTYLE
  5
A
330
0
100
AcDbSymbolTable
 70
     1
100
AcDbDimStyleTable
  0
DIMSTYLE
105
27
330
A
100
AcDbSymbolTableRecord
100
AcDbDimStyleTableRecord
  2
ISO-25
 70
     0
 41
2.5
 42
0.625
 43
3.75
 44
1.25
 73
     0
 74
     0
 77
     1
 78
     8
140
2.5
141
2.5
143
0.0393700787
147
0.625
171
     3
172
     1
178
     0
271
     2
272
     2
274
     3
278
    44
283
     0
284
     8
340
11
  0
ENDTAB
  0
TABLE
  2
BLOCK_RECORD
  5
1
330
0
100
AcDbSymbolTable
 70
     1
  0
BLOCK_RECORD
  5
1F
330
1
100
AcDbSymbolTableRecord
100
AcDbBlockTableRecord
  2
*Model_Space
340
22
  0
BLOCK_RECORD
  5
1B
330
1
100
AcDbSymbolTableRecord
100
AcDbBlockTableRecord
  2
*Paper_Space
340
1E
  0
BLOCK_RECORD
  5
23
330
1
100
AcDbSymbolTableRecord
100
AcDbBlockTableRecord
  2
*Paper_Space0
340
26
  0
ENDTAB
  0
ENDSEC
  0
SECTION
  2
BLOCKS
  0
BLOCK
  5
20
330
1F
100
AcDbEntity
  8
0
100
AcDbBlockBegin
  2
*Model_Space
 70
     0
 10
0.0
 20
0.0
 30
0.0
  3
*Model_Space
  1

  0
ENDBLK
  5
21
330
1F
100
AcDbEntity
  8
0
100
AcDbBlockEnd
  0
BLOCK
  5
1C
330
1B
100
AcDbEntity
 67
     1
  8
0
100
AcDbBlockBegin
  2
*Paper_Space
 70
     0
 10
0.0
 20
0.0
 30
0.0
  3
*Paper_Space
  1

  0
ENDBLK
  5
1D
330
1B
100
AcDbEntity
 67
     1
  8
0
100
AcDbBlockEnd
  0
BLOCK
  5
24
330
23
100
AcDbEntity
  8
0
100
AcDbBlockBegin
  2
*Paper_Space0
 70
     0
 10
0.0
 20
0.0
 30
0.0
  3
*Paper_Space0
  1

  0
ENDBLK
  5
25
330
23
100
AcDbEntity
  8
0
100
AcDbBlockEnd
  0
ENDSEC
  0
SECTION
  2
ENTITIES
  0
ARC
  5
73
330
1F
100
AcDbEntity
  8
0
  6
Continuous
 62
     7
100
AcDbCircle
 10
6871.0187443393
 20
5378.1994538536
 30
0.0
 40
3.000000000000341
100
AcDbArc
 50
359.9999024628
 51
89.9992623399
  0
ARC
  5
74
330
1F
100
AcDbEntity
  8
0
  6
Continuous
 62
     7
100
AcDbCircle
 10
5677.0187562602
 20
5378.1994538535
 30
0.0
 40
3.000000000030722
100
AcDbArc
 50
89.9995992961
 51
180.0000975349
  0
ARC
  5
75
330
1F
100
AcDbEntity
  8
0
  6
Continuous
 62
     7
100
AcDbCircle
 10
5677.0187562602
 20
5378.1994538535
 30
0.0
 40
5.000002837162867
100
AcDbArc
 50
89.9997595778
 51
126.8698837124
  0
ARC
  5
76
330
1F
100
AcDbEntity
  8
0
  6
Continuous
 62
     7
100
AcDbCircle
 10
6871.0187443393
 20
5378.1994538536
 30
0.0
 40
5.000002837090108
100
AcDbArc
 50
53.1301162864
 51
89.9995574043
  0
ARC
  5
77
330
1F
100
AcDbEntity
  8
0
  6
Continuous
 62
     7
100
AcDbCircle
 10
7260.6719744346
 20
5383.1994538533
 30
0.0
 40
2.000000000001646
100
AcDbArc
 50
179.9999788185
 51
269.9995027615
  0
ARC
  5
78
330
1F
100
AcDbEntity
  8
0
  6
Continuous
 62
     7
100
AcDbCircle
 10
7754.4720221183
 20
5378.1994538535
 30
0.0
 40
2.999999999999794
100
AcDbArc
 50
359.9998838868
 51
90.0004007058
  0
ARC
  5
79
330
1F
100
AcDbEntity
  8
0
  6
Continuous
 62
     7
100
AcDbCircle
 10
6574.0188308413
 20
4498.9898888235
 30
0.0
 40
8.552641741590834
100
AcDbArc
 50
275.0303286577
 51
299.7665501833
  0
ARC
  5
7A
330
1F
100
AcDbEntity
  8
0
  6
Continuous
 62
     7
100
AcDbCircle
 10
6574.0186786988
 20
4498.9898888235
 30
0.0
 40
8.55264174159173
100
AcDbArc
 50
240.2334498168
 51
264.9696713431
  0
ARC
  5
7B
330
1F
100
AcDbEntity
  8
0
  6
Continuous
 62
     7
100
AcDbCircle
 10
5974.0186670477
 20
4498.9898903737
 30
0.0
 40
8.552641741592186
100
AcDbArc
 50
240.2334707346
 51
264.9697897824
  0
ARC
  5
7C
330
1F
100
AcDbEntity
  8
0
  6
Continuous
 62
     7
100
AcDbCircle
 10
5974.0188395122
 20
4498.9898903737
 30
0.0
 40
8.552641741591396
100
AcDbArc
 50
275.0302102176
 51
299.7665292654
  0
ARC
  5
7D
330
1F
100
AcDbEntity
  8
0
  6
Continuous
 62
     7
100
AcDbCircle
 10
6574.0187553361
 20
4339.8969536739
 30
0.0
 40
15.00000000000091
100
AcDbArc
 50
270.0
 51
289.4629509606
  0
ARC
  5
7E
330
1F
100
AcDbEntity
  8
0
  6
Continuous
 62
     7
100
AcDbCircle
 10
6574.0187553361
 20
4339.8969536739
 30
0.0
 40
15.00000000000205
100
AcDbArc
 50
310.5370510532
 51
349.4629489746
  0
ARC
  5
7F
330
1F
100
AcDbEntity
  8
0
  6
Continuous
 62
     7
100
AcDbCircle
 10
6574.0187553361
 20
4339.8969536739
 30
0.0
 40
15.00000000000066
100
AcDbArc
 50
10.5370495964
 51
49.4629504113
  0
ARC
  5
80
330
1F
100
AcDbEntity
  8
0
  6
Continuous
 62
     7
100
AcDbCircle
 10
6574.0187553361
 20
4339.8969536739
 30
0.0
 40
14.99999999999988
100
AcDbArc
 50
70.5370490849
 51
109.4629509179
  0
ARC
  5
81
330
1F
100
AcDbEntity
  8
0
  6
Continuous
 62
     7
100
AcDbCircle
 10
6574.0187553361
 20
4339.8969536739
 30
0.0
 40
14.99999999999952
100
AcDbArc
 50
130.5370509089
 51
169.4629490646
  0
ARC
  5
82
330
1F
100
AcDbEntity
  8
0
  6
Continuous
 62
     7
100
AcDbCircle
 10
6574.0187553361
 20
4339.8969536739
 30
0.0
 40
15.00000000000078
100
AcDbArc
 50
190.5370486873
 51
229.4629513178
  0
ARC
  5
83
330
1F
100
AcDbEntity
  8
0
  6
Continuous
 62
     7
100
AcDbCircle
 10
6574.0187553361
 20
4339.8969536739
 30
0.0
 40
15.00000000000098
100
AcDbArc
 50
250.5370490407
 51
270.0
  0
ARC
  5
84
330
1F
100
AcDbEntity
  8
0
  6
Continuous
 62
     7
100
AcDbCircle
 10
5974.0187553361
 20
4339.8969536739
 30
0.0
 40
15.00000000000127
100
AcDbArc
 50
270.0
 51
289.4629509206
  0
ARC
  5
85
330
1F
100
AcDbEntity
  8
0
  6
Continuous
 62
     7
100
AcDbCircle
 10
5974.0187553361
 20
4339.8969536739
 30
0.0
 40
15.00000000000105
100
AcDbArc
 50
310.5370510344
 51
349.4629489932
  0
ARC
  5
86
330
1F
100
AcDbEntity
  8
0
  6
Continuous
 62
     7
100
AcDbCircle
 10
5974.0187553361
 20
4339.8969536739
 30
0.0
 40
15.0000000000006
100
AcDbArc
 50
10.5370493896
 51
49.4629506151
  0
ARC
  5
87
330
1F
100
AcDbEntity
  8
0
  6
Continuous
 62
     7
100
AcDbCircle
 10
5974.0187553361
 20
4339.8969536739
 30
0.0
 40
14.99999999999972
100
AcDbArc
 50
70.5370491101
 51
109.4629508869
  0
ARC
  5
88
330
1F
100
AcDbEntity
  8
0
  6
Continuous
 62
     7
100
AcDbCircle
 10
5974.0187553361
 20
4339.8969536739
 30
0.0
 40
15.00000000000015
100
AcDbArc
 50
130.537049571
 51
169.4629504216
  0
ARC
  5
89
330
1F
100
AcDbEntity
  8
0
  6
Continuous
 62
     7
100
AcDbCircle
 10
5974.0187553361
 20
4339.8969536739
 30
0.0
 40
15.00000000000098
100
AcDbArc
 50
190.5370479087
 51
229.4629521074
  0
ARC
  5
8A
330
1F
100
AcDbEntity
  8
0
  6
Continuous
 62
     7
100
AcDbCircle
 10
5974.0187553361
 20
4339.8969536739
 30
0.0
 40
15.00000000000102
100
AcDbArc
 50
250.5370490808
 51
270.0
  0
ARC
  5
8B
330
1F
100
AcDbEntity
  8
0
  6
Continuous
 62
     7
100
AcDbCircle
 10
6574.0187547701
 20
4452.0854686429
 30
0.0
 40
44.11687698538849
100
AcDbArc
 50
75.2882307341
 51
104.7117692659
  0
ARC
  5
8C
330
1F
100
AcDbEntity
  8
0
  6
Continuous
 62
     7
100
AcDbCircle
 10
6574.5677536886
 20
4531.8089353989
 30
0.0
 40
41.01233414426655
100
AcDbArc
 50
272.8975675869
 51
285.0578624296
  0
ARC
  5
8D
330
1F
100
AcDbEntity
  8
0
  6
Continuous
 62
     7
100
AcDbCircle
 10
6573.4697558516
 20
4531.8089353989
 30
0.0
 40
41.01233414426743
100
AcDbArc
 50
254.9421375704
 51
267.1024324131
  0
ARC
  5
8E
330
1F
100
AcDbEntity
  8
0
  6
Continuous
 62
     7
100
AcDbCircle
 10
5974.01875328
 20
4452.0853693953
 30
0.0
 40
44.11697487139811
100
AcDbArc
 50
75.2882541089
 51
104.7117458911
  0
ARC
  5
8F
330
1F
100
AcDbEntity
  8
0
  6
Continuous
 62
     7
100
AcDbCircle
 10
5974.5677075648
 20
4531.8092650769
 30
0.0
 40
41.01266603366961
100
AcDbArc
 50
272.897616975
 51
285.0578130412
  0
ARC
  5
90
330
1F
100
AcDbEntity
  8
0
  6
Continuous
 62
     7
100
AcDbCircle
 10
5973.4698581432
 20
4531.8096394631
 30
0.0
 40
41.01304293127159
100
AcDbArc
 50
254.9422430434
 51
267.1023269396
  0
ARC
  5
91
330
1F
100
AcDbEntity
  8
0
  6
Continuous
 62
     7
100
AcDbCircle
 10
6574.0187553361
 20
4339.8969536739
 30
0.0
 40
5.250000000000943
100
AcDbArc
 50
278.2132107017
 51
81.7867892983
  0
ARC
  5
92
330
1F
100
AcDbEntity
  8
0
  6
Continuous
 62
     7
100
AcDbCircle
 10
6574.0187553361
 20
4339.8969536739
 30
0.0
 40
5.250000000000943
100
AcDbArc
 50
98.2132107017
 51
261.7867892983
  0
ARC
  5
93
330
1F
100
AcDbEntity
  8
0
  6
Continuous
 62
     7
100
AcDbCircle
 10
6574.0187553361
 20
4339.8969536739
 30
0.0
 40
5.250000000000943
100
AcDbArc
 50
81.7867892983
 51
98.2132107017
  0
ARC
  5
94
330
1F
100
AcDbEntity
  8
0
  6
Continuous
 62
     7
100
AcDbCircle
 10
6574.0187553361
 20
4339.8969536739
 30
0.0
 40
5.250000000000943
100
AcDbArc
 50
261.7867892983
 51
278.2132107017
  0
ARC
  5
95
330
1F
100
AcDbEntity
  8
0
  6
Continuous
 62
     7
100
AcDbCircle
 10
6574.0187547701
 20
4482.4849657484
 30
0.0
 40
12.5480995784767
100
AcDbArc
 50
86.5733986398
 51
93.4266013602
  0
ARC
  5
96
330
1F
100
AcDbEntity
  8
0
  6
Continuous
 62
     7
100
AcDbCircle
 10
6574.0187547701
 20
4503.214483973
 30
0.0
 40
12.54809957847657
100
AcDbArc
 50
266.5733986397
 51
273.4266013603
  0
ARC
  5
97
330
1F
100
AcDbEntity
  8
0
  6
Continuous
 62
     7
100
AcDbCircle
 10
5974.0187553361
 20
4339.8969536739
 30
0.0
 40
5.250000000000943
100
AcDbArc
 50
98.2132107017
 51
261.7867892983
  0
ARC
  5
98
330
1F
100
AcDbEntity
  8
0
  6
Continuous
 62
     7
100
AcDbCircle
 10
5974.0187553361
 20
4339.8969536739
 30
0.0
 40
5.250000000000943
100
AcDbArc
 50
278.2132107017
 51
81.7867892983
  0
ARC
  5
99
330
1F
100
AcDbEntity
  8
0
  6
Continuous
 62
     7
100
AcDbCircle
 10
5974.0187553361
 20
4339.8969536739
 30
0.0
 40
5.250000000000943
100
AcDbArc
 50
81.7867892983
 51
98.2132107017
  0
ARC
  5
9A
330
1F
100
AcDbEntity
  8
0
  6
Continuous
 62
     7
100
AcDbCircle
 10
5974.0187553361
 20
4339.8969536739
 30
0.0
 40
5.250000000000943
100
AcDbArc
 50
261.7867892983
 51
278.2132107017
  0
ARC
  5
9B
330
1F
100
AcDbEntity
  8
0
  6
Continuous
 62
     7
100
AcDbCircle
 10
5974.01875328
 20
4482.4853815916
 30
0.0
 40
12.54768403338464
100
AcDbArc
 50
86.5733191066
 51
93.4266808934
  0
ARC
  5
9C
330
1F
100
AcDbEntity
  8
0
  6
Continuous
 62
     7
100
AcDbCircle
 10
5974.01875328
 20
4503.2140681298
 30
0.0
 40
12.54768403338368
100
AcDbArc
 50
266.5733191066
 51
273.4266808934
  0
CIRCLE
  5
9D
330
1F
100
AcDbEntity
  8
0
  6
Continuous
 62
     7
100
AcDbCircle
 10
6574.0187553361
 20
4339.8969536739
 30
0.0
 40
24.96512544439429
  0
CIRCLE
  5
9E
330
1F
100
AcDbEntity
  8
0
  6
Continuous
 62
     7
100
AcDbCircle
 10
6574.0187553361
 20
4339.8969536739
 30
0.0
 40
35.0
  0
CIRCLE
  5
9F
330
1F
100
AcDbEntity
  8
0
  6
Continuous
 62
     7
100
AcDbCircle
 10
6574.0187553361
 20
4339.8969536739
 30
0.0
 40
35.16921944985916
  0
CIRCLE
  5
A0
330
1F
100
AcDbEntity
  8
0
  6
Continuous
 62
     7
100
AcDbCircle
 10
6574.0187553361
 20
4339.8969536739
 30
0.0
 40
22.0
  0
CIRCLE
  5
A1
330
1F
100
AcDbEntity
  8
0
  6
Continuous
 62
     7
100
AcDbCircle
 10
6574.0187553361
 20
4339.8969536739
 30
0.0
 40
20.5
  0
CIRCLE
  5
A2
330
1F
100
AcDbEntity
  8
0
  6
Continuous
 62
     7
100
AcDbCircle
 10
6574.0187553361
 20
4339.8969536739
 30
0.0
 40
19.48700763430315
  0
CIRCLE
  5
A3
330
1F
100
AcDbEntity
  8
0
  6
Continuous
 62
     7
100
AcDbCircle
 10
6574.0187553361
 20
4339.8969536739
 30
0.0
 40
5.699999999999818
  0
CIRCLE
  5
A4
330
1F
100
AcDbEntity
  8
0
  6
Continuous
 62
     7
100
AcDbCircle
 10
6574.0187553361
 20
4353.8969536739
 30
0.0
 40
5.0
  0
CIRCLE
  5
A5
330
1F
100
AcDbEntity
  8
0
  6
Continuous
 62
     7
100
AcDbCircle
 10
6586.1431109891
 20
4346.8969536739
 30
0.0
 40
4.999999999999091
  0
CIRCLE
  5
A6
330
1F
100
AcDbEntity
  8
0
  6
Continuous
 62
     7
100
AcDbCircle
 10
6586.1431109891
 20
4332.8969536739
 30
0.0
 40
5.000000000000909
  0
CIRCLE
  5
A7
330
1F
100
AcDbEntity
  8
0
  6
Continuous
 62
     7
100
AcDbCircle
 10
6574.0187553361
 20
4325.8969536739
 30
0.0
 40
5.0
  0
CIRCLE
  5
A8
330
1F
100
AcDbEntity
  8
0
  6
Continuous
 62
     7
100
AcDbCircle
 10
6561.8943996831
 20
4332.8969536739
 30
0.0
 40
5.000000000000909
  0
CIRCLE
  5
A9
330
1F
100
AcDbEntity
  8
0
  6
Continuous
 62
     7
100
AcDbCircle
 10
6561.8943996831
 20
4346.8969536739
 30
0.0
 40
4.999999999998181
  0
CIRCLE
  5
AA
330
1F
100
AcDbEntity
  8
0
  6
Continuous
 62
     7
100
AcDbCircle
 10
5974.0187553361
 20
4339.8969536739
 30
0.0
 40
24.96512544439429
  0
CIRCLE
  5
AB
330
1F
100
AcDbEntity
  8
0
  6
Continuous
 62
     7
100
AcDbCircle
 10
5974.0187553361
 20
4339.8969536739
 30
0.0
 40
35.0
  0
CIRCLE
  5
AC
330
1F
100
AcDbEntity
  8
0
  6
Continuous
 62
     7
100
AcDbCircle
 10
5974.0187553361
 20
4339.8969536739
 30
0.0
 40
35.16921944985916
  0
CIRCLE
  5
AD
330
1F
100
AcDbEntity
  8
0
  6
Continuous
 62
     7
100
AcDbCircle
 10
5974.0187553361
 20
4339.8969536739
 30
0.0
 40
22.0
  0
CIRCLE
  5
AE
330
1F
100
AcDbEntity
  8
0
  6
Continuous
 62
     7
100
AcDbCircle
 10
5974.0187553361
 20
4339.8969536739
 30
0.0
 40
20.5
  0
CIRCLE
  5
AF
330
1F
100
AcDbEntity
  8
0
  6
Continuous
 62
     7
100
AcDbCircle
 10
5974.0187553361
 20
4339.8969536739
 30
0.0
 40
19.48700763430406
  0
CIRCLE
  5
B0
330
1F
100
AcDbEntity
  8
0
  6
Continuous
 62
     7
100
AcDbCircle
 10
5974.0187553361
 20
4339.8969536739
 30
0.0
 40
5.699999999999818
  0
CIRCLE
  5
B1
330
1F
100
AcDbEntity
  8
0
  6
Continuous
 62
     7
100
AcDbCircle
 10
5974.0187553361
 20
4353.8969536739
 30
0.0
 40
5.0
  0
CIRCLE
  5
B2
330
1F
100
AcDbEntity
  8
0
  6
Continuous
 62
     7
100
AcDbCircle
 10
5986.1431109891
 20
4346.8969536739
 30
0.0
 40
4.999999999999091
  0
CIRCLE
  5
B3
330
1F
100
AcDbEntity
  8
0
  6
Continuous
 62
     7
100
AcDbCircle
 10
5986.1431109891
 20
4332.8969536739
 30
0.0
 40
5.000000000000909
  0
CIRCLE
  5
B4
330
1F
100
AcDbEntity
  8
0
  6
Continuous
 62
     7
100
AcDbCircle
 10
5974.0187553361
 20
4325.8969536739
 30
0.0
 40
5.0
  0
CIRCLE
  5
B5
330
1F
100
AcDbEntity
  8
0
  6
Continuous
 62
     7
100
AcDbCircle
 10
5961.8943996831
 20
4332.8969536739
 30
0.0
 40
5.0
  0
CIRCLE
  5
B6
330
1F
100
AcDbEntity
  8
0
  6
Continuous
 62
     7
100
AcDbCircle
 10
5961.8943996831
 20
4346.8969536739
 30
0.0
 40
4.999999999997272
  0
CIRCLE
  5
B7
330
1F
100
AcDbEntity
  8
0
  6
Continuous
 62
     7
100
AcDbCircle
 10
5974.0187553361
 20
4339.8969536739
 30
0.0
 40
169.776170925541
  0
CIRCLE
  5
B8
330
1F
100
AcDbEntity
  8
0
  6
Continuous
 62
     7
100
AcDbCircle
 10
6574.0187553361
 20
4339.8969536739
 30
0.0
 40
169.776170925541
  0
CIRCLE
  5
B9
330
1F
100
AcDbEntity
  8
0
  6
Continuous
 62
     7
100
AcDbCircle
 10
5974.0187553361
 20
4339.8969536739
 30
0.0
 40
165.0
  0
CIRCLE
  5
BA
330
1F
100
AcDbEntity
  8
0
  6
Continuous
 62
     7
100
AcDbCircle
 10
6574.0187553361
 20
4339.8969536739
 30
0.0
 40
165.0
  0
ARC
  5
BB
330
1F
100
AcDbEntity
  8
0
  6
Continuous
 62
     7
100
AcDbCircle
 10
6871.0187443394
 20
4122.8969059899
 30
0.0
 40
3.00000000000034
100
AcDbArc
 50
270.0007376589
 51
0.0004007104
  0
ARC
  5
BC
330
1F
100
AcDbEntity
  8
0
  6
Continuous
 62
     7
100
AcDbCircle
 10
5677.0187562601
 20
4122.89690599
 30
0.0
 40
3.000000000000607
100
AcDbArc
 50
179.9995992929
 51
270.0004007052
  0
CIRCLE
  5
BD
330
1F
100
AcDbEntity
  8
0
  6
Continuous
 62
     7
100
AcDbCircle
 10
5974.0187553361
 20
4339.8969536739
 30
0.0
 40
36.71817853400444
  0
CIRCLE
  5
BE
330
1F
100
AcDbEntity
  8
0
  6
Continuous
 62
     7
100
AcDbCircle
 10
6574.0187553361
 20
4339.8969536739
 30
0.0
 40
36.71817853400353
  0
LINE
  5
BF
330
1F
100
AcDbEntity
  8
0
  6
Continuous
 62
     7
100
AcDbLine
 10
5677.018777241
 20
5381.1994538534
 30
0.0
 11
6871.0187829631
 21
5381.1994538534
 31
0.0
  0
LINE
  5
C0
330
1F
100
AcDbEntity
  8
0
  6
Continuous
 62
     7
100
AcDbLine
 10
6871.0187829631
 20
5381.1994538534
 30
0.0
 11
6871.0187829631
 21
5378.1994487466
 31
0.0
  0
LINE
  5
C1
330
1F
100
AcDbEntity
  8
0
  6
Continuous
 62
     7
100
AcDbLine
 10
6871.0187829631
 20
5378.1994487466
 30
0.0
 11
5677.018777241
 21
5378.1994487466
 31
0.0
  0
LINE
  5
C2
330
1F
100
AcDbEntity
  8
0
  6
Continuous
 62
     7
100
AcDbLine
 10
5677.018777241
 20
5381.1994538534
 30
0.0
 11
5677.018777241
 21
5378.1994487466
 31
0.0
  0
LINE
  5
C3
330
1F
100
AcDbEntity
  8
0
  6
Continuous
 62
     7
100
AcDbLine
 10
6871.0187829631
 20
5378.1994487466
 30
0.0
 11
6874.0187443393
 21
5378.1994487466
 31
0.0
  0
LINE
  5
C4
330
1F
100
AcDbEntity
  8
0
  6
Continuous
 62
     7
100
AcDbLine
 10
5674.0187562602
 20
5341.1994482697
 30
0.0
 11
5674.0187562602
 21
5378.1994487466
 31
0.0
  0
LINE
  5
C5
330
1F
100
AcDbEntity
  8
0
  6
Continuous
 62
     7
100
AcDbLine
 10
5674.0187562602
 20
5378.1994487466
 30
0.0
 11
5677.018777241
 21
5378.1994487466
 31
0.0
  0
LINE
  5
C6
330
1F
100
AcDbEntity
  8
0
  6
Continuous
 62
     7
100
AcDbLine
 10
5677.018777241
 20
5378.1994487466
 30
0.0
 11
5677.018777241
 21
5341.1994482697
 31
0.0
  0
LINE
  5
C7
330
1F
100
AcDbEntity
  8
0
  6
Continuous
 62
     7
100
AcDbLine
 10
5677.018777241
 20
5341.1994482697
 30
0.0
 11
5674.0187562602
 21
5341.1994482697
 31
0.0
  0
LINE
  5
C8
330
1F
100
AcDbEntity
  8
0
  6
Continuous
 62
     7
100
AcDbLine
 10
6871.0187829631
 20
5341.1994482697
 30
0.0
 11
6871.0187829631
 21
5378.1994487466
 31
0.0
  0
LINE
  5
C9
330
1F
100
AcDbEntity
  8
0
  6
Continuous
 62
     7
100
AcDbLine
 10
6874.0187443393
 20
5378.1994487466
 30
0.0
 11
6874.0187443393
 21
5341.1994482697
 31
0.0
  0
LINE
  5
CA
330
1F
100
AcDbEntity
  8
0
  6
Continuous
 62
     7
100
AcDbLine
 10
6874.0187443393
 20
5341.1994482697
 30
0.0
 11
6871.0187829631
 21
5341.1994482697
 31
0.0
  0
LINE
  5
CB
330
1F
100
AcDbEntity
  8
0
  6
Continuous
 62
     7
100
AcDbLine
 10
6871.0187829631
 20
5341.1994482697
 30
0.0
 11
5677.018777241
 21
5341.1994482697
 31
0.0
  0
LINE
  5
CC
330
1F
100
AcDbEntity
  8
0
  6
Continuous
 62
     7
100
AcDbLine
 10
5679.0187514918
 20
5341.1994472969
 30
0.0
 11
5679.0187514918
 21
5006.1994538534
 31
0.0
  0
LINE
  5
CD
330
1F
100
AcDbEntity
  8
0
  6
Continuous
 62
     7
100
AcDbLine
 10
5679.0187514918
 20
5006.1994538534
 30
0.0
 11
5676.018730511
 21
5006.1994538534
 31
0.0
  0
LINE
  5
CE
330
1F
100
AcDbEntity
  8
0
  6
Continuous
 62
     7
100
AcDbLine
 10
5676.018730511
 20
5006.1994538534
 30
0.0
 11
5676.018730511
 21
5341.1994472969
 31
0.0
  0
LINE
  5
CF
330
1F
100
AcDbEntity
  8
0
  6
Continuous
 62
     7
100
AcDbLine
 10
6869.0187491076
 20
5006.1994538534
 30
0.0
 11
6869.0187491076
 21
5341.1994472969
 31
0.0
  0
LINE
  5
D0
330
1F
100
AcDbEntity
  8
0
  6
Continuous
 62
     7
100
AcDbLine
 10
6872.0187700885
 20
5341.1994472969
 30
0.0
 11
6872.0187700885
 21
5006.1994538534
 31
0.0
  0
LINE
  5
D1
330
1F
100
AcDbEntity
  8
0
  6
Continuous
 62
     7
100
AcDbLine
 10
6872.0187700885
 20
5006.1994538534
 30
0.0
 11
6869.0187491076
 21
5006.1994538534
 31
0.0
  0
LINE
  5
D2
330
1F
100
AcDbEntity
  8
0
  6
Continuous
 62
     7
100
AcDbLine
 10
5679.0187514918
 20
5006.1994538534
 30
0.0
 11
6869.0187491076
 21
5006.1994538534
 31
0.0
  0
LINE
  5
D3
330
1F
100
AcDbEntity
  8
0
  6
Continuous
 62
     7
100
AcDbLine
 10
5677.018777241
 20
5381.1994538534
 30
0.0
 11
5677.018777241
 21
5383.1994566906
 31
0.0
  0
LINE
  5
D4
330
1F
100
AcDbEntity
  8
0
  6
Continuous
 62
     7
100
AcDbLine
 10
6871.0187829631
 20
5381.1994538534
 30
0.0
 11
6871.0187829631
 21
5383.1994566906
 31
0.0
  0
LINE
  5
D5
330
1F
100
AcDbEntity
  8
0
  6
Continuous
 62
     7
100
AcDbLine
 10
5677.018777241
 20
5383.1994566906
 30
0.0
 11
6871.0187829631
 21
5383.1994566906
 31
0.0
  0
LINE
  5
D6
330
1F
100
AcDbEntity
  8
0
  6
Continuous
 62
     7
100
AcDbLine
 10
5674.0187555306
 20
5421.1994464816
 30
0.0
 11
6874.0187450689
 21
5421.1994464816
 31
0.0
  0
LINE
  5
D7
330
1F
100
AcDbEntity
  8
0
  6
Continuous
 62
     7
100
AcDbLine
 10
5674.0187555306
 20
5421.1994464816
 30
0.0
 11
5674.0187555306
 21
5382.1994568528
 31
0.0
  0
LINE
  5
D8
330
1F
100
AcDbEntity
  8
0
  6
Continuous
 62
     7
100
AcDbLine
 10
6874.0187450689
 20
5421.1994464816
 30
0.0
 11
6874.0187450689
 21
5382.1994568528
 31
0.0
  0
LINE
  5
D9
330
1F
100
AcDbEntity
  8
0
  6
Continuous
 62
     7
100
AcDbLine
 10
7257.4719625136
 20
5171.1119514782
 30
0.0
 11
7257.377429547
 21
5171.1119514782
 31
0.0
  0
LINE
  5
DA
330
1F
100
AcDbEntity
  8
0
  6
Continuous
 62
     7
100
AcDbLine
 10
7257.377429547
 20
5091.1119514037
 30
0.0
 11
7257.4719625136
 21
5091.1119514037
 31
0.0
  0
LINE
  5
DB
330
1F
100
AcDbEntity
  8
0
  6
Continuous
 62
     7
100
AcDbLine
 10
7257.377429547
 20
5151.1119528565
 30
0.0
 11
7247.3773794791
 21
5151.1119528565
 31
0.0
  0
LINE
  5
DC
330
1F
100
AcDbEntity
  8
0
  6
Continuous
 62
     7
100
AcDbLine
 10
7247.3773794791
 20
5111.1119528193
 30
0.0
 11
7257.377429547
 21
5111.1119528193
 31
0.0
  0
LINE
  5
DD
330
1F
100
AcDbEntity
  8
0
  6
Continuous
 62
     7
100
AcDbLine
 10
7257.377429547
 20
5171.1119514782
 30
0.0
 11
7257.377429547
 21
5091.1119514037
 31
0.0
  0
LINE
  5
DE
330
1F
100
AcDbEntity
  8
0
  6
Continuous
 62
     7
100
AcDbLine
 10
7247.3773794791
 20
5151.1119528565
 30
0.0
 11
7247.3773794791
 21
5111.1119528193
 31
0.0
  0
LINE
  5
DF
330
1F
100
AcDbEntity
  8
0
  6
Continuous
 62
     7
100
AcDbLine
 10
7257.4719625136
 20
5421.1994455088
 30
0.0
 11
7258.6719828269
 21
5421.1994455088
 31
0.0
  0
LINE
  5
E0
330
1F
100
AcDbEntity
  8
0
  6
Continuous
 62
     7
100
AcDbLine
 10
7258.6719828269
 20
5421.1994455088
 30
0.0
 11
7258.6719828269
 21
5382.19945588
 31
0.0
  0
LINE
  5
E1
330
1F
100
AcDbEntity
  8
0
  6
Continuous
 62
     7
100
AcDbLine
 10
7754.4720011374
 20
5378.1994477738
 30
0.0
 11
7260.6719570777
 21
5378.1994477738
 31
0.0
  0
LINE
  5
E2
330
1F
100
AcDbEntity
  8
0
  6
Continuous
 62
     7
100
AcDbLine
 10
7754.4720011374
 20
5341.1994472969
 30
0.0
 11
7754.4720011374
 21
5378.1994477738
 31
0.0
  0
LINE
  5
E3
330
1F
100
AcDbEntity
  8
0
  6
Continuous
 62
     7
100
AcDbLine
 10
7754.4720011374
 20
5341.1994472969
 30
0.0
 11
7257.4719625136
 21
5341.1994472969
 31
0.0
  0
LINE
  5
E4
330
1F
100
AcDbEntity
  8
0
  6
Continuous
 62
     7
100
AcDbLine
 10
7257.4719625136
 20
5341.1994472969
 30
0.0
 11
7257.4719625136
 21
5421.1994455088
 31
0.0
  0
LINE
  5
E5
330
1F
100
AcDbEntity
  8
0
  6
Continuous
 62
     7
100
AcDbLine
 10
7260.6719570777
 20
5381.1994538534
 30
0.0
 11
7260.6719570777
 21
5378.1994477738
 31
0.0
  0
LINE
  5
E6
330
1F
100
AcDbEntity
  8
0
  6
Continuous
 62
     7
100
AcDbLine
 10
7754.4720011374
 20
5381.1994538534
 30
0.0
 11
7754.4720011374
 21
5378.1994477738
 31
0.0
  0
LINE
  5
E7
330
1F
100
AcDbEntity
  8
0
  6
Continuous
 62
     7
100
AcDbLine
 10
7260.6719570777
 20
5381.1994538534
 30
0.0
 11
7754.4720011374
 21
5381.1994538534
 31
0.0
  0
LINE
  5
E8
330
1F
100
AcDbEntity
  8
0
  6
Continuous
 62
     7
100
AcDbLine
 10
7754.4720011374
 20
5378.1994477738
 30
0.0
 11
7757.4720221183
 21
5378.1994477738
 31
0.0
  0
LINE
  5
E9
330
1F
100
AcDbEntity
  8
0
  6
Continuous
 62
     7
100
AcDbLine
 10
7757.4720221183
 20
5378.1994477738
 30
0.0
 11
7757.4720221183
 21
5341.1994472969
 31
0.0
  0
LINE
  5
EA
330
1F
100
AcDbEntity
  8
0
  6
Continuous
 62
     7
100
AcDbLine
 10
7757.4720221183
 20
5341.1994472969
 30
0.0
 11
7754.4720011374
 21
5341.1994472969
 31
0.0
  0
LINE
  5
EB
330
1F
100
AcDbEntity
  8
0
  6
Continuous
 62
     7
100
AcDbLine
 10
7752.4720268867
 20
5006.1994538534
 30
0.0
 11
7752.4720268867
 21
5341.1994472969
 31
0.0
  0
LINE
  5
EC
330
1F
100
AcDbEntity
  8
0
  6
Continuous
 62
     7
100
AcDbLine
 10
7257.4719625136
 20
5006.1994538534
 30
0.0
 11
7752.4720268867
 21
5006.1994538534
 31
0.0
  0
LINE
  5
ED
330
1F
100
AcDbEntity
  8
0
  6
Continuous
 62
     7
100
AcDbLine
 10
7257.4719625136
 20
5341.1994472969
 30
0.0
 11
7257.4719625136
 21
5006.1994538534
 31
0.0
  0
LINE
  5
EE
330
1F
100
AcDbEntity
  8
0
  6
Continuous
 62
     7
100
AcDbLine
 10
7755.4719286582
 20
5341.1994472969
 30
0.0
 11
7755.4719286582
 21
5006.1994538534
 31
0.0
  0
LINE
  5
EF
330
1F
100
AcDbEntity
  8
0
  6
Continuous
 62
     7
100
AcDbLine
 10
7755.4719286582
 20
5006.1994538534
 30
0.0
 11
7752.4720268867
 21
5006.1994538534
 31
0.0
  0
LINE
  5
F0
330
1F
100
AcDbEntity
  8
0
  6
Continuous
 62
     7
100
AcDbLine
 10
5674.0187553361
 20
4619.8969536739
 30
0.0
 11
6874.0187553361
 21
4619.8969536739
 31
0.0
  0
LINE
  5
F1
330
1F
100
AcDbEntity
  8
0
  6
Continuous
 62
     7
100
AcDbLine
 10
5674.0187553361
 20
4619.8969536739
 30
0.0
 11
5674.0187553361
 21
4119.8969536739
 31
0.0
  0
LINE
  5
F2
330
1F
100
AcDbEntity
  8
0
  6
Continuous
 62
     7
100
AcDbLine
 10
5674.0187553361
 20
4119.8969536739
 30
0.0
 11
6874.0187553361
 21
4119.8969536739
 31
0.0
  0
LINE
  5
F3
330
1F
100
AcDbEntity
  8
0
  6
Continuous
 62
     7
100
AcDbLine
 10
6874.0187553361
 20
4619.8969536739
 30
0.0
 11
6874.0187553361
 21
4119.8969536739
 31
0.0
  0
LINE
  5
F4
330
1F
100
AcDbEntity
  8
0
  6
Continuous
 62
     7
100
AcDbLine
 10
6579.2687542336
 20
4492.8497248607
 30
0.0
 11
6579.2687542336
 21
4493.4804612117
 31
0.0
  0
LINE
  5
F5
330
1F
100
AcDbEntity
  8
0
  6
Continuous
 62
     7
100
AcDbLine
 10
6568.7687553065
 20
4493.4804612117
 30
0.0
 11
6568.7687553065
 21
4492.8497248607
 31
0.0
  0
LINE
  5
F6
330
1F
100
AcDbEntity
  8
0
  6
Continuous
 62
     7
100
AcDbLine
 10
5979.2687452929
 20
4492.8497248607
 30
0.0
 11
5979.2687452929
 21
4493.4804612117
 31
0.0
  0
LINE
  5
F7
330
1F
100
AcDbEntity
  8
0
  6
Continuous
 62
     7
100
AcDbLine
 10
5968.768761267
 20
4493.4804612117
 30
0.0
 11
5968.768761267
 21
4492.8497248607
 31
0.0
  0
LINE
  5
F8
330
1F
100
AcDbEntity
  8
0
  6
Continuous
 62
     7
100
AcDbLine
 10
6014.0187598365
 20
4619.8969655948
 30
0.0
 11
6014.0187598365
 21
4619.9914985614
 31
0.0
  0
LINE
  5
F9
330
1F
100
AcDbEntity
  8
0
  6
Continuous
 62
     7
100
AcDbLine
 10
5934.0187467235
 20
4619.9914985614
 30
0.0
 11
5934.0187467235
 21
4619.8969655948
 31
0.0
  0
LINE
  5
FA
330
1F
100
AcDbEntity
  8
0
  6
Continuous
 62
     7
100
AcDbLine
 10
5994.0187491076
 20
4619.9914985614
 30
0.0
 11
5994.0187491076
 21
4629.9915486293
 31
0.0
  0
LINE
  5
FB
330
1F
100
AcDbEntity
  8
0
  6
Continuous
 62
     7
100
AcDbLine
 10
5954.0187574523
 20
4629.9915486293
 30
0.0
 11
5954.0187574523
 21
4619.9914985614
 31
0.0
  0
LINE
  5
FC
330
1F
100
AcDbEntity
  8
0
  6
Continuous
 62
     7
100
AcDbLine
 10
6614.018753876
 20
4619.8969655948
 30
0.0
 11
6614.018753876
 21
4619.9914985614
 31
0.0
  0
LINE
  5
FD
330
1F
100
AcDbEntity
  8
0
  6
Continuous
 62
     7
100
AcDbLine
 10
6534.0187556641
 20
4619.9914985614
 30
0.0
 11
6534.0187556641
 21
4619.8969655948
 31
0.0
  0
LINE
  5
FE
330
1F
100
AcDbEntity
  8
0
  6
Continuous
 62
     7
100
AcDbLine
 10
6594.0187580483
 20
4619.9914985614
 30
0.0
 11
6594.0187580483
 21
4629.9915486293
 31
0.0
  0
LINE
  5
FF
330
1F
100
AcDbEntity
  8
0
  6
Continuous
 62
     7
100
AcDbLine
 10
6554.0187514918
 20
4629.9915486293
 30
0.0
 11
6554.0187514918
 21
4619.9914985614
 31
0.0
  0
LINE
  5
100
330
1F
100
AcDbEntity
  8
0
  6
Continuous
 62
     7
100
AcDbLine
 10
5968.2468033927
 20
4501.9893818813
 30
0.0
 11
5968.7750793593
 21
4502.0636492686
 31
0.0
  0
LINE
  5
101
330
1F
100
AcDbEntity
  8
0
  6
Continuous
 62
     7
100
AcDbLine
 10
5977.9732383387
 20
4502.2077732997
 30
0.0
 11
5978.2761491435
 21
4502.1747523265
 31
0.0
  0
LINE
  5
102
330
1F
100
AcDbEntity
  8
0
  6
Continuous
 62
     7
100
AcDbLine
 10
6568.2467974322
 20
4501.9893818813
 30
0.0
 11
6568.7750733989
 21
4502.0636492686
 31
0.0
  0
LINE
  5
103
330
1F
100
AcDbEntity
  8
0
  6
Continuous
 62
     7
100
AcDbLine
 10
6577.9732472794
 20
4502.2077732997
 30
0.0
 11
6578.276143183
 21
4502.1747523265
 31
0.0
  0
LINE
  5
104
330
1F
100
AcDbEntity
  8
0
  6
Continuous
 62
     7
100
AcDbLine
 10
6574.0187622207
 20
4486.6185360866
 30
0.0
 11
6576.4211721318
 21
4486.6917305904
 31
0.0
  0
LINE
  5
105
330
1F
100
AcDbEntity
  8
0
  6
Continuous
 62
     7
100
AcDbLine
 10
6576.4211721318
 20
4486.6917305904
 30
0.0
 11
6578.7723965543
 21
4486.9095259624
 31
0.0
  0
LINE
  5
106
330
1F
100
AcDbEntity
  8
0
  6
Continuous
 62
     7
100
AcDbLine
 10
6578.7723965543
 20
4486.9095259624
 30
0.0
 11
6581.0222930806
 21
4487.2673922496
 31
0.0
  0
LINE
  5
107
330
1F
100
AcDbEntity
  8
0
  6
Continuous
 62
     7
100
AcDbLine
 10
6581.0222930806
 20
4487.2673922496
 30
0.0
 11
6583.1229246753
 21
4487.7577000575
 31
0.0
  0
LINE
  5
108
330
1F
100
AcDbEntity
  8
0
  6
Continuous
 62
     7
100
AcDbLine
 10
6583.1229246753
 20
4487.7577000575
 30
0.0
 11
6585.0295133489
 21
4488.3699589687
 31
0.0
  0
LINE
  5
109
330
1F
100
AcDbEntity
  8
0
  6
Continuous
 62
     7
100
AcDbLine
 10
6585.0295133489
 20
4488.3699589687
 30
0.0
 11
6586.701438536
 21
4489.0910559612
 31
0.0
  0
LINE
  5
10A
330
1F
100
AcDbEntity
  8
0
  6
Continuous
 62
     7
100
AcDbLine
 10
6586.701438536
 20
4489.0910559612
 30
0.0
 11
6588.1030417579
 21
4489.9058514552
 31
0.0
  0
LINE
  5
10B
330
1F
100
AcDbEntity
  8
0
  6
Continuous
 62
     7
100
AcDbLine
 10
6588.1030417579
 20
4489.9058514552
 30
0.0
 11
6589.2044610875
 21
4490.796702476
 31
0.0
  0
LINE
  5
10C
330
1F
100
AcDbEntity
  8
0
  6
Continuous
 62
     7
100
AcDbLine
 10
6589.2044610875
 20
4490.796702476
 30
0.0
 11
6589.9822420972
 21
4491.7448931651
 31
0.0
  0
LINE
  5
10D
330
1F
100
AcDbEntity
  8
0
  6
Continuous
 62
     7
100
AcDbLine
 10
6589.9822420972
 20
4491.7448931651
 30
0.0
 11
6590.4197699922
 21
4492.7299195247
 31
0.0
  0
LINE
  5
10E
330
1F
100
AcDbEntity
  8
0
  6
Continuous
 62
     7
100
AcDbLine
 10
6590.4197699922
 20
4492.7299195247
 30
0.0
 11
6590.5077464478
 21
4493.7310391383
 31
0.0
  0
LINE
  5
10F
330
1F
100
AcDbEntity
  8
0
  6
Continuous
 62
     7
100
AcDbLine
 10
6590.5077464478
 20
4493.7310391383
 30
0.0
 11
6590.2442939179
 21
4494.726794334
 31
0.0
  0
LINE
  5
110
330
1F
100
AcDbEntity
  8
0
  6
Continuous
 62
     7
100
AcDbLine
 10
6590.2442939179
 20
4494.726794334
 30
0.0
 11
6589.635015239
 21
4495.695965858
 31
0.0
  0
LINE
  5
111
330
1F
100
AcDbEntity
  8
0
  6
Continuous
 62
     7
100
AcDbLine
 10
6589.635015239
 20
4495.695965858
 30
0.0
 11
6588.6929042237
 21
4496.6179305034
 31
0.0
  0
LINE
  5
112
330
1F
100
AcDbEntity
  8
0
  6
Continuous
 62
     7
100
AcDbLine
 10
6588.6929042237
 20
4496.6179305034
 30
0.0
 11
6587.4380327361
 21
4497.4730187373
 31
0.0
  0
LINE
  5
113
330
1F
100
AcDbEntity
  8
0
  6
Continuous
 62
     7
100
AcDbLine
 10
6587.4380327361
 20
4497.4730187373
 30
0.0
 11
6585.8971632617
 21
4498.2431107478
 31
0.0
  0
LINE
  5
114
330
1F
100
AcDbEntity
  8
0
  6
Continuous
 62
     7
100
AcDbLine
 10
6585.8971632617
 20
4498.2431107478
 30
0.0
 11
6584.1031230586
 21
4498.9115172343
 31
0.0
  0
LINE
  5
115
330
1F
100
AcDbEntity
  8
0
  6
Continuous
 62
     7
100
AcDbLine
 10
6584.1031230586
 20
4498.9115172343
 30
0.0
 11
6582.0941485064
 21
4499.46429071
 31
0.0
  0
LINE
  5
116
330
1F
100
AcDbEntity
  8
0
  6
Continuous
 62
     7
100
AcDbLine
 10
6582.0941485064
 20
4499.46429071
 30
0.0
 11
6579.9130655425
 21
4499.8895102458
 31
0.0
  0
LINE
  5
117
330
1F
100
AcDbEntity
  8
0
  6
Continuous
 62
     7
100
AcDbLine
 10
6579.9130655425
 20
4499.8895102458
 30
0.0
 11
6577.6063508885
 21
4500.1781159358
 31
0.0
  0
LINE
  5
118
330
1F
100
AcDbEntity
  8
0
  6
Continuous
 62
     7
100
AcDbLine
 10
6577.6063508885
 20
4500.1781159358
 30
0.0
 11
6575.2231783765
 21
4500.3239088969
 31
0.0
  0
LINE
  5
119
330
1F
100
AcDbEntity
  8
0
  6
Continuous
 62
     7
100
AcDbLine
 10
6575.2231783765
 20
4500.3239088969
 30
0.0
 11
6572.8143311637
 21
4500.3239088969
 31
0.0
  0
LINE
  5
11A
330
1F
100
AcDbEntity
  8
0
  6
Continuous
 62
     7
100
AcDbLine
 10
6572.8143311637
 20
4500.3239088969
 30
0.0
 11
6570.4311586516
 21
4500.1781159358
 31
0.0
  0
LINE
  5
11B
330
1F
100
AcDbEntity
  8
0
  6
Continuous
 62
     7
100
AcDbLine
 10
6570.4311586516
 20
4500.1781159358
 30
0.0
 11
6568.1244439977
 21
4499.8895102458
 31
0.0
  0
LINE
  5
11C
330
1F
100
AcDbEntity
  8
0
  6
Continuous
 62
     7
100
AcDbLine
 10
6568.1244439977
 20
4499.8895102458
 30
0.0
 11
6565.9433610337
 21
4499.46429071
 31
0.0
  0
LINE
  5
11D
330
1F
100
AcDbEntity
  8
0
  6
Continuous
 62
     7
100
AcDbLine
 10
6565.9433610337
 20
4499.46429071
 30
0.0
 11
6563.9343864816
 21
4498.9115172343
 31
0.0
  0
LINE
  5
11E
330
1F
100
AcDbEntity
  8
0
  6
Continuous
 62
     7
100
AcDbLine
 10
6563.9343864816
 20
4498.9115172343
 30
0.0
 11
6562.1403462785
 21
4498.2431107478
 31
0.0
  0
LINE
  5
11F
330
1F
100
AcDbEntity
  8
0
  6
Continuous
 62
     7
100
AcDbLine
 10
6562.1403462785
 20
4498.2431107478
 30
0.0
 11
6560.5994768041
 21
4497.4730187373
 31
0.0
  0
LINE
  5
120
330
1F
100
AcDbEntity
  8
0
  6
Continuous
 62
     7
100
AcDbLine
 10
6560.5994768041
 20
4497.4730187373
 30
0.0
 11
6559.3446053164
 21
4496.6179305034
 31
0.0
  0
LINE
  5
121
330
1F
100
AcDbEntity
  8
0
  6
Continuous
 62
     7
100
AcDbLine
 10
6559.3446053164
 20
4496.6179305034
 30
0.0
 11
6558.4024943011
 21
4495.695965858
 31
0.0
  0
LINE
  5
122
330
1F
100
AcDbEntity
  8
0
  6
Continuous
 62
     7
100
AcDbLine
 10
6558.4024943011
 20
4495.695965858
 30
0.0
 11
6557.7932156222
 21
4494.726794334
 31
0.0
  0
LINE
  5
123
330
1F
100
AcDbEntity
  8
0
  6
Continuous
 62
     7
100
AcDbLine
 10
6557.7932156222
 20
4494.726794334
 30
0.0
 11
6557.5297630923
 21
4493.7310391383
 31
0.0
  0
LINE
  5
124
330
1F
100
AcDbEntity
  8
0
  6
Continuous
 62
     7
100
AcDbLine
 10
6557.5297630923
 20
4493.7310391383
 30
0.0
 11
6557.617739548
 21
4492.7299195247
 31
0.0
  0
LINE
  5
125
330
1F
100
AcDbEntity
  8
0
  6
Continuous
 62
     7
100
AcDbLine
 10
6557.617739548
 20
4492.7299195247
 30
0.0
 11
6558.055267443
 21
4491.7448931651
 31
0.0
  0
LINE
  5
126
330
1F
100
AcDbEntity
  8
0
  6
Continuous
 62
     7
100
AcDbLine
 10
6558.055267443
 20
4491.7448931651
 30
0.0
 11
6558.8330484527
 21
4490.796702476
 31
0.0
  0
LINE
  5
127
330
1F
100
AcDbEntity
  8
0
  6
Continuous
 62
     7
100
AcDbLine
 10
6558.8330484527
 20
4490.796702476
 30
0.0
 11
6559.9344677823
 21
4489.9058514552
 31
0.0
  0
LINE
  5
128
330
1F
100
AcDbEntity
  8
0
  6
Continuous
 62
     7
100
AcDbLine
 10
6559.9344677823
 20
4489.9058514552
 30
0.0
 11
6561.3360710042
 21
4489.0910559612
 31
0.0
  0
LINE
  5
129
330
1F
100
AcDbEntity
  8
0
  6
Continuous
 62
     7
100
AcDbLine
 10
6561.3360710042
 20
4489.0910559612
 30
0.0
 11
6563.0079961913
 21
4488.3699589687
 31
0.0
  0
LINE
  5
12A
330
1F
100
AcDbEntity
  8
0
  6
Continuous
 62
     7
100
AcDbLine
 10
6563.0079961913
 20
4488.3699589687
 30
0.0
 11
6564.9145848649
 21
4487.7577000575
 31
0.0
  0
LINE
  5
12B
330
1F
100
AcDbEntity
  8
0
  6
Continuous
 62
     7
100
AcDbLine
 10
6564.9145848649
 20
4487.7577000575
 30
0.0
 11
6567.0152164596
 21
4487.2673922496
 31
0.0
  0
LINE
  5
12C
330
1F
100
AcDbEntity
  8
0
  6
Continuous
 62
     7
100
AcDbLine
 10
6567.0152164596
 20
4487.2673922496
 30
0.0
 11
6569.2651129859
 21
4486.9095259624
 31
0.0
  0
LINE
  5
12D
330
1F
100
AcDbEntity
  8
0
  6
Continuous
 62
     7
100
AcDbLine
 10
6569.2651129859
 20
4486.9095259624
 30
0.0
 11
6571.6163374083
 21
4486.6917305904
 31
0.0
  0
LINE
  5
12E
330
1F
100
AcDbEntity
  8
0
  6
Continuous
 62
     7
100
AcDbLine
 10
6571.6163374083
 20
4486.6917305904
 30
0.0
 11
6574.0187622207
 21
4486.6185360866
 31
0.0
  0
LINE
  5
12F
330
1F
100
AcDbEntity
  8
0
  6
Continuous
 62
     7
100
AcDbLine
 10
6592.0176960128
 20
4494.9255162196
 30
0.0
 11
6591.9201530116
 21
4495.6270628886
 31
0.0
  0
LINE
  5
130
330
1F
100
AcDbEntity
  8
0
  6
Continuous
 62
     7
100
AcDbLine
 10
6591.9201530116
 20
4495.6270628886
 30
0.0
 11
6591.4840854304
 21
4496.6554814296
 31
0.0
  0
LINE
  5
131
330
1F
100
AcDbEntity
  8
0
  6
Continuous
 62
     7
100
AcDbLine
 10
6591.4840854304
 20
4496.6554814296
 30
0.0
 11
6590.7080627578
 21
4497.6487332301
 31
0.0
  0
LINE
  5
132
330
1F
100
AcDbEntity
  8
0
  6
Continuous
 62
     7
100
AcDbLine
 10
6590.7080627578
 20
4497.6487332301
 30
0.0
 11
6589.6072096723
 21
4498.5873871761
 31
0.0
  0
LINE
  5
133
330
1F
100
AcDbEntity
  8
0
  6
Continuous
 62
     7
100
AcDbLine
 10
6589.6072096723
 20
4498.5873871761
 30
0.0
 11
6588.2029540437
 21
4499.4532042461
 31
0.0
  0
LINE
  5
134
330
1F
100
AcDbEntity
  8
0
  6
Continuous
 62
     7
100
AcDbLine
 10
6588.2029540437
 20
4499.4532042461
 30
0.0
 11
6586.5226097005
 21
4500.229256721
 31
0.0
  0
LINE
  5
135
330
1F
100
AcDbEntity
  8
0
  6
Continuous
 62
     7
100
AcDbLine
 10
6586.5226097005
 20
4500.229256721
 30
0.0
 11
6584.5988846915
 21
4500.9005242305
 31
0.0
  0
LINE
  5
136
330
1F
100
AcDbEntity
  8
0
  6
Continuous
 62
     7
100
AcDbLine
 10
6584.5988846915
 20
4500.9005242305
 30
0.0
 11
6582.469240536
 21
4501.4540129619
 31
0.0
  0
LINE
  5
137
330
1F
100
AcDbEntity
  8
0
  6
Continuous
 62
     7
100
AcDbLine
 10
6582.469240536
 20
4501.4540129619
 30
0.0
 11
6580.1751173633
 21
4501.8787556606
 31
0.0
  0
LINE
  5
138
330
1F
100
AcDbEntity
  8
0
  6
Continuous
 62
     7
100
AcDbLine
 10
6580.1751173633
 20
4501.8787556606
 30
0.0
 11
6577.7611590522
 21
4502.1666460948
 31
0.0
  0
LINE
  5
139
330
1F
100
AcDbEntity
  8
0
  6
Continuous
 62
     7
100
AcDbLine
 10
6577.7611590522
 20
4502.1666460948
 30
0.0
 11
6575.2743787663
 21
4502.3119622188
 31
0.0
  0
LINE
  5
13A
330
1F
100
AcDbEntity
  8
0
  6
Continuous
 62
     7
100
AcDbLine
 10
6575.2743787663
 20
4502.3119622188
 30
0.0
 11
6572.763145675
 21
4502.3119622188
 31
0.0
  0
LINE
  5
13B
330
1F
100
AcDbEntity
  8
0
  6
Continuous
 62
     7
100
AcDbLine
 10
6572.763145675
 20
4502.3119622188
 30
0.0
 11
6570.276350488
 21
4502.1666460948
 31
0.0
  0
LINE
  5
13C
330
1F
100
AcDbEntity
  8
0
  6
Continuous
 62
     7
100
AcDbLine
 10
6570.276350488
 20
4502.1666460948
 30
0.0
 11
6567.8623921769
 21
4501.8787556606
 31
0.0
  0
LINE
  5
13D
330
1F
100
AcDbEntity
  8
0
  6
Continuous
 62
     7
100
AcDbLine
 10
6567.8623921769
 20
4501.8787556606
 30
0.0
 11
6565.5682690041
 21
4501.4540129619
 31
0.0
  0
LINE
  5
13E
330
1F
100
AcDbEntity
  8
0
  6
Continuous
 62
     7
100
AcDbLine
 10
6565.5682690041
 20
4501.4540129619
 30
0.0
 11
6563.4386248486
 21
4500.9005242305
 31
0.0
  0
LINE
  5
13F
330
1F
100
AcDbEntity
  8
0
  6
Continuous
 62
     7
100
AcDbLine
 10
6563.4386248486
 20
4500.9005242305
 30
0.0
 11
6561.5148998397
 21
4500.229256721
 31
0.0
  0
LINE
  5
140
330
1F
100
AcDbEntity
  8
0
  6
Continuous
 62
     7
100
AcDbLine
 10
6561.5148998397
 20
4500.229256721
 30
0.0
 11
6559.8345554965
 21
4499.4532042461
 31
0.0
  0
LINE
  5
141
330
1F
100
AcDbEntity
  8
0
  6
Continuous
 62
     7
100
AcDbLine
 10
6559.8345554965
 20
4499.4532042461
 30
0.0
 11
6558.4302998679
 21
4498.5873871761
 31
0.0
  0
LINE
  5
142
330
1F
100
AcDbEntity
  8
0
  6
Continuous
 62
     7
100
AcDbLine
 10
6558.4302998679
 20
4498.5873871761
 30
0.0
 11
6557.3294467824
 21
4497.6487332301
 31
0.0
  0
LINE
  5
143
330
1F
100
AcDbEntity
  8
0
  6
Continuous
 62
     7
100
AcDbLine
 10
6557.3294467824
 20
4497.6487332301
 30
0.0
 11
6556.5534390109
 21
4496.6554814296
 31
0.0
  0
LINE
  5
144
330
1F
100
AcDbEntity
  8
0
  6
Continuous
 62
     7
100
AcDbLine
 10
6556.5534390109
 20
4496.6554814296
 30
0.0
 11
6556.1173565286
 21
4495.6270628886
 31
0.0
  0
LINE
  5
145
330
1F
100
AcDbEntity
  8
0
  6
Continuous
 62
     7
100
AcDbLine
 10
6556.1173565286
 20
4495.6270628886
 30
0.0
 11
6556.0191727775
 21
4494.7935515361
 31
0.0
  0
LINE
  5
146
330
1F
100
AcDbEntity
  8
0
  6
Continuous
 62
     7
100
AcDbLine
 10
6585.9811164039
 20
4494.9885779338
 30
0.0
 11
6585.1940519708
 21
4495.8093338924
 31
0.0
  0
LINE
  5
147
330
1F
100
AcDbEntity
  8
0
  6
Continuous
 62
     7
100
AcDbLine
 10
6585.1940519708
 20
4495.8093338924
 30
0.0
 11
6584.0840793746
 21
4496.5628558116
 31
0.0
  0
LINE
  5
148
330
1F
100
AcDbEntity
  8
0
  6
Continuous
 62
     7
100
AcDbLine
 10
6584.0840793746
 20
4496.5628558116
 30
0.0
 11
6582.6832510131
 21
4497.2273283916
 31
0.0
  0
LINE
  5
149
330
1F
100
AcDbEntity
  8
0
  6
Continuous
 62
     7
100
AcDbLine
 10
6582.6832510131
 20
4497.2273283916
 30
0.0
 11
6581.0320682423
 21
4497.7834397273
 31
0.0
  0
LINE
  5
14A
330
1F
100
AcDbEntity
  8
0
  6
Continuous
 62
     7
100
AcDbLine
 10
6581.0320682423
 20
4497.7834397273
 30
0.0
 11
6579.1782296794
 21
4498.2153349834
 31
0.0
  0
LINE
  5
14B
330
1F
100
AcDbEntity
  8
0
  6
Continuous
 62
     7
100
AcDbLine
 10
6579.1782296794
 20
4498.2153349834
 30
0.0
 11
6577.1753049987
 21
4498.5102587657
 31
0.0
  0
LINE
  5
14C
330
1F
100
AcDbEntity
  8
0
  6
Continuous
 62
     7
100
AcDbLine
 10
6577.1753049987
 20
4498.5102587657
 30
0.0
 11
6575.0811703103
 21
4498.6599856334
 31
0.0
  0
LINE
  5
14D
330
1F
100
AcDbEntity
  8
0
  6
Continuous
 62
     7
100
AcDbLine
 10
6575.0811703103
 20
4498.6599856334
 30
0.0
 11
6572.9563392299
 21
4498.6599856334
 31
0.0
  0
LINE
  5
14E
330
1F
100
AcDbEntity
  8
0
  6
Continuous
 62
     7
100
AcDbLine
 10
6572.9563392299
 20
4498.6599856334
 30
0.0
 11
6570.8622045415
 21
4498.5102587657
 31
0.0
  0
LINE
  5
14F
330
1F
100
AcDbEntity
  8
0
  6
Continuous
 62
     7
100
AcDbLine
 10
6570.8622045415
 20
4498.5102587657
 30
0.0
 11
6568.8592798608
 21
4498.2153349834
 31
0.0
  0
LINE
  5
150
330
1F
100
AcDbEntity
  8
0
  6
Continuous
 62
     7
100
AcDbLine
 10
6568.8592798608
 20
4498.2153349834
 30
0.0
 11
6567.0054412978
 21
4497.7834397273
 31
0.0
  0
LINE
  5
151
330
1F
100
AcDbEntity
  8
0
  6
Continuous
 62
     7
100
AcDbLine
 10
6567.0054412978
 20
4497.7834397273
 30
0.0
 11
6565.3542585271
 21
4497.2273283916
 31
0.0
  0
LINE
  5
152
330
1F
100
AcDbEntity
  8
0
  6
Continuous
 62
     7
100
AcDbLine
 10
6565.3542585271
 20
4497.2273283916
 30
0.0
 11
6563.9534301656
 21
4496.5628558116
 31
0.0
  0
LINE
  5
153
330
1F
100
AcDbEntity
  8
0
  6
Continuous
 62
     7
100
AcDbLine
 10
6563.9534301656
 20
4496.5628558116
 30
0.0
 11
6562.8434575694
 21
4495.8093338924
 31
0.0
  0
LINE
  5
154
330
1F
100
AcDbEntity
  8
0
  6
Continuous
 62
     7
100
AcDbLine
 10
6562.8434575694
 20
4495.8093338924
 30
0.0
 11
6562.0563931363
 21
4494.9885779338
 31
0.0
  0
LINE
  5
155
330
1F
100
AcDbEntity
  8
0
  6
Continuous
 62
     7
100
AcDbLine
 10
6562.0563931363
 20
4494.9885779338
 30
0.0
 11
6562.034920563
 21
4494.9255162196
 31
0.0
  0
LINE
  5
156
330
1F
100
AcDbEntity
  8
0
  6
Continuous
 62
     7
100
AcDbLine
 10
6562.034920563
 20
4494.9255162196
 30
0.0
 11
6562.0603568452
 21
4494.862692924
 31
0.0
  0
LINE
  5
157
330
1F
100
AcDbEntity
  8
0
  6
Continuous
 62
     7
100
AcDbLine
 10
6562.0603568452
 20
4494.862692924
 30
0.0
 11
6562.1303028958
 21
4494.8060685115
 31
0.0
  0
LINE
  5
158
330
1F
100
AcDbEntity
  8
0
  6
Continuous
 62
     7
100
AcDbLine
 10
6562.1303028958
 20
4494.8060685115
 30
0.0
 11
6562.2381873029
 21
4494.7608881908
 31
0.0
  0
LINE
  5
159
330
1F
100
AcDbEntity
  8
0
  6
Continuous
 62
     7
100
AcDbLine
 10
6562.2381873029
 20
4494.7608881908
 30
0.0
 11
6562.373907079
 21
4494.7314434962
 31
0.0
  0
LINE
  5
15A
330
1F
100
AcDbEntity
  8
0
  6
Continuous
 62
     7
100
AcDbLine
 10
6562.373907079
 20
4494.7314434962
 30
0.0
 11
6562.5247217315
 21
4494.7203570323
 31
0.0
  0
LINE
  5
15B
330
1F
100
AcDbEntity
  8
0
  6
Continuous
 62
     7
100
AcDbLine
 10
6562.5247217315
 20
4494.7203570323
 30
0.0
 11
6562.6764900582
 21
4494.7288208919
 31
0.0
  0
LINE
  5
15C
330
1F
100
AcDbEntity
  8
0
  6
Continuous
 62
     7
100
AcDbLine
 10
6562.6764900582
 20
4494.7288208919
 30
0.0
 11
6562.8149814504
 21
4494.7560006099
 31
0.0
  0
LINE
  5
15D
330
1F
100
AcDbEntity
  8
0
  6
Continuous
 62
     7
100
AcDbLine
 10
6585.2225280898
 20
4494.7560006099
 30
0.0
 11
6585.3610194819
 21
4494.7288208919
 31
0.0
  0
LINE
  5
15E
330
1F
100
AcDbEntity
  8
0
  6
Continuous
 62
     7
100
AcDbLine
 10
6585.3610194819
 20
4494.7288208919
 30
0.0
 11
6585.5127878087
 21
4494.7203570323
 31
0.0
  0
LINE
  5
15F
330
1F
100
AcDbEntity
  8
0
  6
Continuous
 62
     7
100
AcDbLine
 10
6585.5127878087
 20
4494.7203570323
 30
0.0
 11
6585.6636024611
 21
4494.7314434962
 31
0.0
  0
LINE
  5
160
330
1F
100
AcDbEntity
  8
0
  6
Continuous
 62
     7
100
AcDbLine
 10
6585.6636024611
 20
4494.7314434962
 30
0.0
 11
6585.7993222373
 21
4494.7608881908
 31
0.0
  0
LINE
  5
161
330
1F
100
AcDbEntity
  8
0
  6
Continuous
 62
     7
100
AcDbLine
 10
6585.7993222373
 20
4494.7608881908
 30
0.0
 11
6585.9072066443
 21
4494.8060685115
 31
0.0
  0
LINE
  5
162
330
1F
100
AcDbEntity
  8
0
  6
Continuous
 62
     7
100
AcDbLine
 10
6585.9072066443
 20
4494.8060685115
 30
0.0
 11
6585.977152695
 21
4494.862692924
 31
0.0
  0
LINE
  5
163
330
1F
100
AcDbEntity
  8
0
  6
Continuous
 62
     7
100
AcDbLine
 10
6585.977152695
 20
4494.862692924
 30
0.0
 11
6586.0025889771
 21
4494.9255162196
 31
0.0
  0
LINE
  5
164
330
1F
100
AcDbEntity
  8
0
  6
Continuous
 62
     7
100
AcDbLine
 10
6586.0025889771
 20
4494.9255162196
 30
0.0
 11
6585.9811164039
 21
4494.9885779338
 31
0.0
  0
LINE
  5
165
330
1F
100
AcDbEntity
  8
0
  6
Continuous
 62
     7
100
AcDbLine
 10
6562.8149814504
 20
4492.2048026042
 30
0.0
 11
6562.6764900582
 21
4492.2319823222
 31
0.0
  0
LINE
  5
166
330
1F
100
AcDbEntity
  8
0
  6
Continuous
 62
     7
100
AcDbLine
 10
6562.6764900582
 20
4492.2319823222
 30
0.0
 11
6562.5247217315
 21
4492.2404461818
 31
0.0
  0
LINE
  5
167
330
1F
100
AcDbEntity
  8
0
  6
Continuous
 62
     7
100
AcDbLine
 10
6562.5247217315
 20
4492.2404461818
 30
0.0
 11
6562.373907079
 21
4492.2294789272
 31
0.0
  0
LINE
  5
168
330
1F
100
AcDbEntity
  8
0
  6
Continuous
 62
     7
100
AcDbLine
 10
6562.373907079
 20
4492.2294789272
 30
0.0
 11
6562.2381873029
 21
4492.1999150233
 31
0.0
  0
LINE
  5
169
330
1F
100
AcDbEntity
  8
0
  6
Continuous
 62
     7
100
AcDbLine
 10
6562.2381873029
 20
4492.1999150233
 30
0.0
 11
6562.1303028958
 21
4492.1547347026
 31
0.0
  0
LINE
  5
16A
330
1F
100
AcDbEntity
  8
0
  6
Continuous
 62
     7
100
AcDbLine
 10
6562.1303028958
 20
4492.1547347026
 30
0.0
 11
6562.0603568452
 21
4492.0981102901
 31
0.0
  0
LINE
  5
16B
330
1F
100
AcDbEntity
  8
0
  6
Continuous
 62
     7
100
AcDbLine
 10
6562.0603568452
 20
4492.0981102901
 30
0.0
 11
6562.034920563
 21
4492.0352869945
 31
0.0
  0
LINE
  5
16C
330
1F
100
AcDbEntity
  8
0
  6
Continuous
 62
     7
100
AcDbLine
 10
6562.034920563
 20
4492.0352869945
 30
0.0
 11
6562.0563931363
 21
4491.9722252803
 31
0.0
  0
LINE
  5
16D
330
1F
100
AcDbEntity
  8
0
  6
Continuous
 62
     7
100
AcDbLine
 10
6562.0563931363
 20
4491.9722252803
 30
0.0
 11
6562.8434575694
 21
4491.1514693217
 31
0.0
  0
LINE
  5
16E
330
1F
100
AcDbEntity
  8
0
  6
Continuous
 62
     7
100
AcDbLine
 10
6562.8434575694
 20
4491.1514693217
 30
0.0
 11
6563.9534301656
 21
4490.3979474025
 31
0.0
  0
LINE
  5
16F
330
1F
100
AcDbEntity
  8
0
  6
Continuous
 62
     7
100
AcDbLine
 10
6563.9534301656
 20
4490.3979474025
 30
0.0
 11
6565.3542585271
 21
4489.7334748225
 31
0.0
  0
LINE
  5
170
330
1F
100
AcDbEntity
  8
0
  6
Continuous
 62
     7
100
AcDbLine
 10
6565.3542585271
 20
4489.7334748225
 30
0.0
 11
6567.0054412978
 21
4489.1773634868
 31
0.0
  0
LINE
  5
171
330
1F
100
AcDbEntity
  8
0
  6
Continuous
 62
     7
100
AcDbLine
 10
6567.0054412978
 20
4489.1773634868
 30
0.0
 11
6568.8592798608
 21
4488.74558744
 31
0.0
  0
LINE
  5
172
330
1F
100
AcDbEntity
  8
0
  6
Continuous
 62
     7
100
AcDbLine
 10
6568.8592798608
 20
4488.74558744
 30
0.0
 11
6570.8622045415
 21
4488.4505444484
 31
0.0
  0
LINE
  5
173
330
1F
100
AcDbEntity
  8
0
  6
Continuous
 62
     7
100
AcDbLine
 10
6570.8622045415
 20
4488.4505444484
 30
0.0
 11
6572.9563392299
 21
4488.3008175807
 31
0.0
  0
LINE
  5
174
330
1F
100
AcDbEntity
  8
0
  6
Continuous
 62
     7
100
AcDbLine
 10
6572.9563392299
 20
4488.3008175807
 30
0.0
 11
6575.0811703103
 21
4488.3008175807
 31
0.0
  0
LINE
  5
175
330
1F
100
AcDbEntity
  8
0
  6
Continuous
 62
     7
100
AcDbLine
 10
6575.0811703103
 20
4488.3008175807
 30
0.0
 11
6577.1753049987
 21
4488.4505444484
 31
0.0
  0
LINE
  5
176
330
1F
100
AcDbEntity
  8
0
  6
Continuous
 62
     7
100
AcDbLine
 10
6577.1753049987
 20
4488.4505444484
 30
0.0
 11
6579.1782296794
 21
4488.74558744
 31
0.0
  0
LINE
  5
177
330
1F
100
AcDbEntity
  8
0
  6
Continuous
 62
     7
100
AcDbLine
 10
6579.1782296794
 20
4488.74558744
 30
0.0
 11
6581.0320682423
 21
4489.1773634868
 31
0.0
  0
LINE
  5
178
330
1F
100
AcDbEntity
  8
0
  6
Continuous
 62
     7
100
AcDbLine
 10
6581.0320682423
 20
4489.1773634868
 30
0.0
 11
6582.6832510131
 21
4489.7334748225
 31
0.0
  0
LINE
  5
179
330
1F
100
AcDbEntity
  8
0
  6
Continuous
 62
     7
100
AcDbLine
 10
6582.6832510131
 20
4489.7334748225
 30
0.0
 11
6584.0840793746
 21
4490.3979474025
 31
0.0
  0
LINE
  5
17A
330
1F
100
AcDbEntity
  8
0
  6
Continuous
 62
     7
100
AcDbLine
 10
6584.0840793746
 20
4490.3979474025
 30
0.0
 11
6585.1940519708
 21
4491.1514693217
 31
0.0
  0
LINE
  5
17B
330
1F
100
AcDbEntity
  8
0
  6
Continuous
 62
     7
100
AcDbLine
 10
6585.1940519708
 20
4491.1514693217
 30
0.0
 11
6585.9811164039
 21
4491.9722252803
 31
0.0
  0
LINE
  5
17C
330
1F
100
AcDbEntity
  8
0
  6
Continuous
 62
     7
100
AcDbLine
 10
6585.9811164039
 20
4491.9722252803
 30
0.0
 11
6586.0025889771
 21
4492.0352869945
 31
0.0
  0
LINE
  5
17D
330
1F
100
AcDbEntity
  8
0
  6
Continuous
 62
     7
100
AcDbLine
 10
6586.0025889771
 20
4492.0352869945
 30
0.0
 11
6585.977152695
 21
4492.0981102901
 31
0.0
  0
LINE
  5
17E
330
1F
100
AcDbEntity
  8
0
  6
Continuous
 62
     7
100
AcDbLine
 10
6585.977152695
 20
4492.0981102901
 30
0.0
 11
6585.9072066443
 21
4492.1547347026
 31
0.0
  0
LINE
  5
17F
330
1F
100
AcDbEntity
  8
0
  6
Continuous
 62
     7
100
AcDbLine
 10
6585.9072066443
 20
4492.1547347026
 30
0.0
 11
6585.7993222373
 21
4492.1999150233
 31
0.0
  0
LINE
  5
180
330
1F
100
AcDbEntity
  8
0
  6
Continuous
 62
     7
100
AcDbLine
 10
6585.7993222373
 20
4492.1999150233
 30
0.0
 11
6585.6636024611
 21
4492.2294789272
 31
0.0
  0
LINE
  5
181
330
1F
100
AcDbEntity
  8
0
  6
Continuous
 62
     7
100
AcDbLine
 10
6585.6636024611
 20
4492.2294789272
 30
0.0
 11
6585.5127878087
 21
4492.2404461818
 31
0.0
  0
LINE
  5
182
330
1F
100
AcDbEntity
  8
0
  6
Continuous
 62
     7
100
AcDbLine
 10
6585.5127878087
 20
4492.2404461818
 30
0.0
 11
6585.3610194819
 21
4492.2319823222
 31
0.0
  0
LINE
  5
183
330
1F
100
AcDbEntity
  8
0
  6
Continuous
 62
     7
100
AcDbLine
 10
6585.3610194819
 20
4492.2319823222
 30
0.0
 11
6585.2225280898
 21
4492.2048026042
 31
0.0
  0
LINE
  5
184
330
1F
100
AcDbEntity
  8
0
  6
Continuous
 62
     7
100
AcDbLine
 10
5974.0187681811
 20
4486.6185360866
 30
0.0
 11
5976.4211631911
 21
4486.6917305904
 31
0.0
  0
LINE
  5
185
330
1F
100
AcDbEntity
  8
0
  6
Continuous
 62
     7
100
AcDbLine
 10
5976.4211631911
 20
4486.6917305904
 30
0.0
 11
5978.7723876136
 21
4486.9095259624
 31
0.0
  0
LINE
  5
186
330
1F
100
AcDbEntity
  8
0
  6
Continuous
 62
     7
100
AcDbLine
 10
5978.7723876136
 20
4486.9095259624
 30
0.0
 11
5981.0222841399
 21
4487.2673922496
 31
0.0
  0
LINE
  5
187
330
1F
100
AcDbEntity
  8
0
  6
Continuous
 62
     7
100
AcDbLine
 10
5981.0222841399
 20
4487.2673922496
 30
0.0
 11
5983.1229306357
 21
4487.7577000575
 31
0.0
  0
LINE
  5
188
330
1F
100
AcDbEntity
  8
0
  6
Continuous
 62
     7
100
AcDbLine
 10
5983.1229306357
 20
4487.7577000575
 30
0.0
 11
5985.0295044082
 21
4488.3699589687
 31
0.0
  0
LINE
  5
189
330
1F
100
AcDbEntity
  8
0
  6
Continuous
 62
     7
100
AcDbLine
 10
5985.0295044082
 20
4488.3699589687
 30
0.0
 11
5986.7014444964
 21
4489.0910559612
 31
0.0
  0
LINE
  5
18A
330
1F
100
AcDbEntity
  8
0
  6
Continuous
 62
     7
100
AcDbLine
 10
5986.7014444964
 20
4489.0910559612
 30
0.0
 11
5988.1030477183
 21
4489.9058514552
 31
0.0
  0
LINE
  5
18B
330
1F
100
AcDbEntity
  8
0
  6
Continuous
 62
     7
100
AcDbLine
 10
5988.1030477183
 20
4489.9058514552
 30
0.0
 11
5989.2044819491
 21
4490.796702476
 31
0.0
  0
LINE
  5
18C
330
1F
100
AcDbEntity
  8
0
  6
Continuous
 62
     7
100
AcDbLine
 10
5989.2044819491
 20
4490.796702476
 30
0.0
 11
5989.9822331565
 21
4491.7448931651
 31
0.0
  0
LINE
  5
18D
330
1F
100
AcDbEntity
  8
0
  6
Continuous
 62
     7
100
AcDbLine
 10
5989.9822331565
 20
4491.7448931651
 30
0.0
 11
5990.4197610515
 21
4492.7299195247
 31
0.0
  0
LINE
  5
18E
330
1F
100
AcDbEntity
  8
0
  6
Continuous
 62
     7
100
AcDbLine
 10
5990.4197610515
 20
4492.7299195247
 30
0.0
 11
5990.5077375071
 21
4493.7310391383
 31
0.0
  0
LINE
  5
18F
330
1F
100
AcDbEntity
  8
0
  6
Continuous
 62
     7
100
AcDbLine
 10
5990.5077375071
 20
4493.7310391383
 30
0.0
 11
5990.2442849772
 21
4494.726794334
 31
0.0
  0
LINE
  5
190
330
1F
100
AcDbEntity
  8
0
  6
Continuous
 62
     7
100
AcDbLine
 10
5990.2442849772
 20
4494.726794334
 30
0.0
 11
5989.6350062983
 21
4495.695965858
 31
0.0
  0
LINE
  5
191
330
1F
100
AcDbEntity
  8
0
  6
Continuous
 62
     7
100
AcDbLine
 10
5989.6350062983
 20
4495.695965858
 30
0.0
 11
5988.692895283
 21
4496.6179305034
 31
0.0
  0
LINE
  5
192
330
1F
100
AcDbEntity
  8
0
  6
Continuous
 62
     7
100
AcDbLine
 10
5988.692895283
 20
4496.6179305034
 30
0.0
 11
5987.4380386966
 21
4497.4730187373
 31
0.0
  0
LINE
  5
193
330
1F
100
AcDbEntity
  8
0
  6
Continuous
 62
     7
100
AcDbLine
 10
5987.4380386966
 20
4497.4730187373
 30
0.0
 11
5985.8971692222
 21
4498.2431107478
 31
0.0
  0
LINE
  5
194
330
1F
100
AcDbEntity
  8
0
  6
Continuous
 62
     7
100
AcDbLine
 10
5985.8971692222
 20
4498.2431107478
 30
0.0
 11
5984.1031290191
 21
4498.9115172343
 31
0.0
  0
LINE
  5
195
330
1F
100
AcDbEntity
  8
0
  6
Continuous
 62
     7
100
AcDbLine
 10
5984.1031290191
 20
4498.9115172343
 30
0.0
 11
5982.0941544669
 21
4499.46429071
 31
0.0
  0
LINE
  5
196
330
1F
100
AcDbEntity
  8
0
  6
Continuous
 62
     7
100
AcDbLine
 10
5982.0941544669
 20
4499.46429071
 30
0.0
 11
5979.913071503
 21
4499.8895102458
 31
0.0
  0
LINE
  5
197
330
1F
100
AcDbEntity
  8
0
  6
Continuous
 62
     7
100
AcDbLine
 10
5979.913071503
 20
4499.8895102458
 30
0.0
 11
5977.6063419478
 21
4500.1781159358
 31
0.0
  0
LINE
  5
198
330
1F
100
AcDbEntity
  8
0
  6
Continuous
 62
     7
100
AcDbLine
 10
5977.6063419478
 20
4500.1781159358
 30
0.0
 11
5975.2231694358
 21
4500.3239088969
 31
0.0
  0
LINE
  5
199
330
1F
100
AcDbEntity
  8
0
  6
Continuous
 62
     7
100
AcDbLine
 10
5975.2231694358
 20
4500.3239088969
 30
0.0
 11
5972.8143371241
 21
4500.3239088969
 31
0.0
  0
LINE
  5
19A
330
1F
100
AcDbEntity
  8
0
  6
Continuous
 62
     7
100
AcDbLine
 10
5972.8143371241
 20
4500.3239088969
 30
0.0
 11
5970.4311646121
 21
4500.1781159358
 31
0.0
  0
LINE
  5
19B
330
1F
100
AcDbEntity
  8
0
  6
Continuous
 62
     7
100
AcDbLine
 10
5970.4311646121
 20
4500.1781159358
 30
0.0
 11
5968.124435057
 21
4499.8895102458
 31
0.0
  0
LINE
  5
19C
330
1F
100
AcDbEntity
  8
0
  6
Continuous
 62
     7
100
AcDbLine
 10
5968.124435057
 20
4499.8895102458
 30
0.0
 11
5965.943352093
 21
4499.46429071
 31
0.0
  0
LINE
  5
19D
330
1F
100
AcDbEntity
  8
0
  6
Continuous
 62
     7
100
AcDbLine
 10
5965.943352093
 20
4499.46429071
 30
0.0
 11
5963.9343775409
 21
4498.9115172343
 31
0.0
  0
LINE
  5
19E
330
1F
100
AcDbEntity
  8
0
  6
Continuous
 62
     7
100
AcDbLine
 10
5963.9343775409
 20
4498.9115172343
 30
0.0
 11
5962.1403373378
 21
4498.2431107478
 31
0.0
  0
LINE
  5
19F
330
1F
100
AcDbEntity
  8
0
  6
Continuous
 62
     7
100
AcDbLine
 10
5962.1403373378
 20
4498.2431107478
 30
0.0
 11
5960.5994678634
 21
4497.4730187373
 31
0.0
  0
LINE
  5
1A0
330
1F
100
AcDbEntity
  8
0
  6
Continuous
 62
     7
100
AcDbLine
 10
5960.5994678634
 20
4497.4730187373
 30
0.0
 11
5959.3446112769
 21
4496.6179305034
 31
0.0
  0
LINE
  5
1A1
330
1F
100
AcDbEntity
  8
0
  6
Continuous
 62
     7
100
AcDbLine
 10
5959.3446112769
 20
4496.6179305034
 30
0.0
 11
5958.4025002616
 21
4495.695965858
 31
0.0
  0
LINE
  5
1A2
330
1F
100
AcDbEntity
  8
0
  6
Continuous
 62
     7
100
AcDbLine
 10
5958.4025002616
 20
4495.695965858
 30
0.0
 11
5957.7932215827
 21
4494.726794334
 31
0.0
  0
LINE
  5
1A3
330
1F
100
AcDbEntity
  8
0
  6
Continuous
 62
     7
100
AcDbLine
 10
5957.7932215827
 20
4494.726794334
 30
0.0
 11
5957.5297690528
 21
4493.7310391383
 31
0.0
  0
LINE
  5
1A4
330
1F
100
AcDbEntity
  8
0
  6
Continuous
 62
     7
100
AcDbLine
 10
5957.5297690528
 20
4493.7310391383
 30
0.0
 11
5957.6177455085
 21
4492.7299195247
 31
0.0
  0
LINE
  5
1A5
330
1F
100
AcDbEntity
  8
0
  6
Continuous
 62
     7
100
AcDbLine
 10
5957.6177455085
 20
4492.7299195247
 30
0.0
 11
5958.0552734034
 21
4491.7448931651
 31
0.0
  0
LINE
  5
1A6
330
1F
100
AcDbEntity
  8
0
  6
Continuous
 62
     7
100
AcDbLine
 10
5958.0552734034
 20
4491.7448931651
 30
0.0
 11
5958.8330544131
 21
4490.796702476
 31
0.0
  0
LINE
  5
1A7
330
1F
100
AcDbEntity
  8
0
  6
Continuous
 62
     7
100
AcDbLine
 10
5958.8330544131
 20
4490.796702476
 30
0.0
 11
5959.9344588416
 21
4489.9058514552
 31
0.0
  0
LINE
  5
1A8
330
1F
100
AcDbEntity
  8
0
  6
Continuous
 62
     7
100
AcDbLine
 10
5959.9344588416
 20
4489.9058514552
 30
0.0
 11
5961.3360918658
 21
4489.0910559612
 31
0.0
  0
LINE
  5
1A9
330
1F
100
AcDbEntity
  8
0
  6
Continuous
 62
     7
100
AcDbLine
 10
5961.3360918658
 20
4489.0910559612
 30
0.0
 11
5963.0080021518
 21
4488.3699589687
 31
0.0
  0
LINE
  5
1AA
330
1F
100
AcDbEntity
  8
0
  6
Continuous
 62
     7
100
AcDbLine
 10
5963.0080021518
 20
4488.3699589687
 30
0.0
 11
5964.9145759242
 21
4487.7577000575
 31
0.0
  0
LINE
  5
1AB
330
1F
100
AcDbEntity
  8
0
  6
Continuous
 62
     7
100
AcDbLine
 10
5964.9145759242
 20
4487.7577000575
 30
0.0
 11
5967.01522242
 21
4487.2673922496
 31
0.0
  0
LINE
  5
1AC
330
1F
100
AcDbEntity
  8
0
  6
Continuous
 62
     7
100
AcDbLine
 10
5967.01522242
 20
4487.2673922496
 30
0.0
 11
5969.2651189464
 21
4486.9095259624
 31
0.0
  0
LINE
  5
1AD
330
1F
100
AcDbEntity
  8
0
  6
Continuous
 62
     7
100
AcDbLine
 10
5969.2651189464
 20
4486.9095259624
 30
0.0
 11
5971.6163433688
 21
4486.6917305904
 31
0.0
  0
LINE
  5
1AE
330
1F
100
AcDbEntity
  8
0
  6
Continuous
 62
     7
100
AcDbLine
 10
5971.6163433688
 20
4486.6917305904
 30
0.0
 11
5974.0187681811
 21
4486.6185360866
 31
0.0
  0
LINE
  5
1AF
330
1F
100
AcDbEntity
  8
0
  6
Continuous
 62
     7
100
AcDbLine
 10
5992.0177019732
 20
4494.9255162196
 30
0.0
 11
5991.9201589721
 21
4495.6270628886
 31
0.0
  0
LINE
  5
1B0
330
1F
100
AcDbEntity
  8
0
  6
Continuous
 62
     7
100
AcDbLine
 10
5991.9201589721
 20
4495.6270628886
 30
0.0
 11
5991.4840913909
 21
4496.6554814296
 31
0.0
  0
LINE
  5
1B1
330
1F
100
AcDbEntity
  8
0
  6
Continuous
 62
     7
100
AcDbLine
 10
5991.4840913909
 20
4496.6554814296
 30
0.0
 11
5990.7080687182
 21
4497.6487332301
 31
0.0
  0
LINE
  5
1B2
330
1F
100
AcDbEntity
  8
0
  6
Continuous
 62
     7
100
AcDbLine
 10
5990.7080687182
 20
4497.6487332301
 30
0.0
 11
5989.6072007316
 21
4498.5873871761
 31
0.0
  0
LINE
  5
1B3
330
1F
100
AcDbEntity
  8
0
  6
Continuous
 62
     7
100
AcDbLine
 10
5989.6072007316
 20
4498.5873871761
 30
0.0
 11
5988.202945103
 21
4499.4532042461
 31
0.0
  0
LINE
  5
1B4
330
1F
100
AcDbEntity
  8
0
  6
Continuous
 62
     7
100
AcDbLine
 10
5988.202945103
 20
4499.4532042461
 30
0.0
 11
5986.5226007598
 21
4500.229256721
 31
0.0
  0
LINE
  5
1B5
330
1F
100
AcDbEntity
  8
0
  6
Continuous
 62
     7
100
AcDbLine
 10
5986.5226007598
 20
4500.229256721
 30
0.0
 11
5984.598890652
 21
4500.9005242305
 31
0.0
  0
LINE
  5
1B6
330
1F
100
AcDbEntity
  8
0
  6
Continuous
 62
     7
100
AcDbLine
 10
5984.598890652
 20
4500.9005242305
 30
0.0
 11
5982.4692464965
 21
4501.4540129619
 31
0.0
  0
LINE
  5
1B7
330
1F
100
AcDbEntity
  8
0
  6
Continuous
 62
     7
100
AcDbLine
 10
5982.4692464965
 20
4501.4540129619
 30
0.0
 11
5980.1751233237
 21
4501.8787556606
 31
0.0
  0
LINE
  5
1B8
330
1F
100
AcDbEntity
  8
0
  6
Continuous
 62
     7
100
AcDbLine
 10
5980.1751233237
 20
4501.8787556606
 30
0.0
 11
5977.7611650126
 21
4502.1666460948
 31
0.0
  0
LINE
  5
1B9
330
1F
100
AcDbEntity
  8
0
  6
Continuous
 62
     7
100
AcDbLine
 10
5977.7611650126
 20
4502.1666460948
 30
0.0
 11
5975.2743698256
 21
4502.3119622188
 31
0.0
  0
LINE
  5
1BA
330
1F
100
AcDbEntity
  8
0
  6
Continuous
 62
     7
100
AcDbLine
 10
5975.2743698256
 20
4502.3119622188
 30
0.0
 11
5972.7631367343
 21
4502.3119622188
 31
0.0
  0
LINE
  5
1BB
330
1F
100
AcDbEntity
  8
0
  6
Continuous
 62
     7
100
AcDbLine
 10
5972.7631367343
 20
4502.3119622188
 30
0.0
 11
5970.2763415473
 21
4502.1666460948
 31
0.0
  0
LINE
  5
1BC
330
1F
100
AcDbEntity
  8
0
  6
Continuous
 62
     7
100
AcDbLine
 10
5970.2763415473
 20
4502.1666460948
 30
0.0
 11
5967.8623832362
 21
4501.8787556606
 31
0.0
  0
LINE
  5
1BD
330
1F
100
AcDbEntity
  8
0
  6
Continuous
 62
     7
100
AcDbLine
 10
5967.8623832362
 20
4501.8787556606
 30
0.0
 11
5965.5682600634
 21
4501.4540129619
 31
0.0
  0
LINE
  5
1BE
330
1F
100
AcDbEntity
  8
0
  6
Continuous
 62
     7
100
AcDbLine
 10
5965.5682600634
 20
4501.4540129619
 30
0.0
 11
5963.4386159079
 21
4500.9005242305
 31
0.0
  0
LINE
  5
1BF
330
1F
100
AcDbEntity
  8
0
  6
Continuous
 62
     7
100
AcDbLine
 10
5963.4386159079
 20
4500.9005242305
 30
0.0
 11
5961.5149058001
 21
4500.229256721
 31
0.0
  0
LINE
  5
1C0
330
1F
100
AcDbEntity
  8
0
  6
Continuous
 62
     7
100
AcDbLine
 10
5961.5149058001
 20
4500.229256721
 30
0.0
 11
5959.834561457
 21
4499.4532042461
 31
0.0
  0
LINE
  5
1C1
330
1F
100
AcDbEntity
  8
0
  6
Continuous
 62
     7
100
AcDbLine
 10
5959.834561457
 20
4499.4532042461
 30
0.0
 11
5958.4303058284
 21
4498.5873871761
 31
0.0
  0
LINE
  5
1C2
330
1F
100
AcDbEntity
  8
0
  6
Continuous
 62
     7
100
AcDbLine
 10
5958.4303058284
 20
4498.5873871761
 30
0.0
 11
5957.3294378417
 21
4497.6487332301
 31
0.0
  0
LINE
  5
1C3
330
1F
100
AcDbEntity
  8
0
  6
Continuous
 62
     7
100
AcDbLine
 10
5957.3294378417
 20
4497.6487332301
 30
0.0
 11
5956.5534449714
 21
4496.6554814296
 31
0.0
  0
LINE
  5
1C4
330
1F
100
AcDbEntity
  8
0
  6
Continuous
 62
     7
100
AcDbLine
 10
5956.5534449714
 20
4496.6554814296
 30
0.0
 11
5956.1173475879
 21
4495.6270628886
 31
0.0
  0
LINE
  5
1C5
330
1F
100
AcDbEntity
  8
0
  6
Continuous
 62
     7
100
AcDbLine
 10
5956.1173475879
 20
4495.6270628886
 30
0.0
 11
5956.0191787379
 21
4494.7935515361
 31
0.0
  0
LINE
  5
1C6
330
1F
100
AcDbEntity
  8
0
  6
Continuous
 62
     7
100
AcDbLine
 10
5985.9811223643
 20
4494.9885779338
 30
0.0
 11
5985.1940430301
 21
4495.8093338924
 31
0.0
  0
LINE
  5
1C7
330
1F
100
AcDbEntity
  8
0
  6
Continuous
 62
     7
100
AcDbLine
 10
5985.1940430301
 20
4495.8093338924
 30
0.0
 11
5984.0840853351
 21
4496.5628558116
 31
0.0
  0
LINE
  5
1C8
330
1F
100
AcDbEntity
  8
0
  6
Continuous
 62
     7
100
AcDbLine
 10
5984.0840853351
 20
4496.5628558116
 30
0.0
 11
5982.6832569735
 21
4497.2273283916
 31
0.0
  0
LINE
  5
1C9
330
1F
100
AcDbEntity
  8
0
  6
Continuous
 62
     7
100
AcDbLine
 10
5982.6832569735
 20
4497.2273283916
 30
0.0
 11
5981.0320593017
 21
4497.7834397273
 31
0.0
  0
LINE
  5
1CA
330
1F
100
AcDbEntity
  8
0
  6
Continuous
 62
     7
100
AcDbLine
 10
5981.0320593017
 20
4497.7834397273
 30
0.0
 11
5979.1782356398
 21
4498.2153349834
 31
0.0
  0
LINE
  5
1CB
330
1F
100
AcDbEntity
  8
0
  6
Continuous
 62
     7
100
AcDbLine
 10
5979.1782356398
 20
4498.2153349834
 30
0.0
 11
5977.1753109591
 21
4498.5102587657
 31
0.0
  0
LINE
  5
1CC
330
1F
100
AcDbEntity
  8
0
  6
Continuous
 62
     7
100
AcDbLine
 10
5977.1753109591
 20
4498.5102587657
 30
0.0
 11
5975.0811613696
 21
4498.6599856334
 31
0.0
  0
LINE
  5
1CD
330
1F
100
AcDbEntity
  8
0
  6
Continuous
 62
     7
100
AcDbLine
 10
5975.0811613696
 20
4498.6599856334
 30
0.0
 11
5972.9563451903
 21
4498.6599856334
 31
0.0
  0
LINE
  5
1CE
330
1F
100
AcDbEntity
  8
0
  6
Continuous
 62
     7
100
AcDbLine
 10
5972.9563451903
 20
4498.6599856334
 30
0.0
 11
5970.8621956008
 21
4498.5102587657
 31
0.0
  0
LINE
  5
1CF
330
1F
100
AcDbEntity
  8
0
  6
Continuous
 62
     7
100
AcDbLine
 10
5970.8621956008
 20
4498.5102587657
 30
0.0
 11
5968.8592709201
 21
4498.2153349834
 31
0.0
  0
LINE
  5
1D0
330
1F
100
AcDbEntity
  8
0
  6
Continuous
 62
     7
100
AcDbLine
 10
5968.8592709201
 20
4498.2153349834
 30
0.0
 11
5967.0054472583
 21
4497.7834397273
 31
0.0
  0
LINE
  5
1D1
330
1F
100
AcDbEntity
  8
0
  6
Continuous
 62
     7
100
AcDbLine
 10
5967.0054472583
 20
4497.7834397273
 30
0.0
 11
5965.3542495864
 21
4497.2273283916
 31
0.0
  0
LINE
  5
1D2
330
1F
100
AcDbEntity
  8
0
  6
Continuous
 62
     7
100
AcDbLine
 10
5965.3542495864
 20
4497.2273283916
 30
0.0
 11
5963.9534212249
 21
4496.5628558116
 31
0.0
  0
LINE
  5
1D3
330
1F
100
AcDbEntity
  8
0
  6
Continuous
 62
     7
100
AcDbLine
 10
5963.9534212249
 20
4496.5628558116
 30
0.0
 11
5962.8434635299
 21
4495.8093338924
 31
0.0
  0
LINE
  5
1D4
330
1F
100
AcDbEntity
  8
0
  6
Continuous
 62
     7
100
AcDbLine
 10
5962.8434635299
 20
4495.8093338924
 30
0.0
 11
5962.0563841956
 21
4494.9885779338
 31
0.0
  0
LINE
  5
1D5
330
1F
100
AcDbEntity
  8
0
  6
Continuous
 62
     7
100
AcDbLine
 10
5962.0563841956
 20
4494.9885779338
 30
0.0
 11
5962.0349265235
 21
4494.9255162196
 31
0.0
  0
LINE
  5
1D6
330
1F
100
AcDbEntity
  8
0
  6
Continuous
 62
     7
100
AcDbLine
 10
5962.0349265235
 20
4494.9255162196
 30
0.0
 11
5962.0603479045
 21
4494.862692924
 31
0.0
  0
LINE
  5
1D7
330
1F
100
AcDbEntity
  8
0
  6
Continuous
 62
     7
100
AcDbLine
 10
5962.0603479045
 20
4494.862692924
 30
0.0
 11
5962.1302939551
 21
4494.8060685115
 31
0.0
  0
LINE
  5
1D8
330
1F
100
AcDbEntity
  8
0
  6
Continuous
 62
     7
100
AcDbLine
 10
5962.1302939551
 20
4494.8060685115
 30
0.0
 11
5962.2381783622
 21
4494.7608881908
 31
0.0
  0
LINE
  5
1D9
330
1F
100
AcDbEntity
  8
0
  6
Continuous
 62
     7
100
AcDbLine
 10
5962.2381783622
 20
4494.7608881908
 30
0.0
 11
5962.3738981383
 21
4494.7314434962
 31
0.0
  0
LINE
  5
1DA
330
1F
100
AcDbEntity
  8
0
  6
Continuous
 62
     7
100
AcDbLine
 10
5962.3738981383
 20
4494.7314434962
 30
0.0
 11
5962.5247276919
 21
4494.7203570323
 31
0.0
  0
LINE
  5
1DB
330
1F
100
AcDbEntity
  8
0
  6
Continuous
 62
     7
100
AcDbLine
 10
5962.5247276919
 20
4494.7203570323
 30
0.0
 11
5962.6764811175
 21
4494.7288208919
 31
0.0
  0
LINE
  5
1DC
330
1F
100
AcDbEntity
  8
0
  6
Continuous
 62
     7
100
AcDbLine
 10
5962.6764811175
 20
4494.7288208919
 30
0.0
 11
5962.8149725097
 21
4494.7560006099
 31
0.0
  0
LINE
  5
1DD
330
1F
100
AcDbEntity
  8
0
  6
Continuous
 62
     7
100
AcDbLine
 10
5985.2225340503
 20
4494.7560006099
 30
0.0
 11
5985.3610254424
 21
4494.7288208919
 31
0.0
  0
LINE
  5
1DE
330
1F
100
AcDbEntity
  8
0
  6
Continuous
 62
     7
100
AcDbLine
 10
5985.3610254424
 20
4494.7288208919
 30
0.0
 11
5985.512778868
 21
4494.7203570323
 31
0.0
  0
LINE
  5
1DF
330
1F
100
AcDbEntity
  8
0
  6
Continuous
 62
     7
100
AcDbLine
 10
5985.512778868
 20
4494.7203570323
 30
0.0
 11
5985.6636084216
 21
4494.7314434962
 31
0.0
  0
LINE
  5
1E0
330
1F
100
AcDbEntity
  8
0
  6
Continuous
 62
     7
100
AcDbLine
 10
5985.6636084216
 20
4494.7314434962
 30
0.0
 11
5985.7993281978
 21
4494.7608881908
 31
0.0
  0
LINE
  5
1E1
330
1F
100
AcDbEntity
  8
0
  6
Continuous
 62
     7
100
AcDbLine
 10
5985.7993281978
 20
4494.7608881908
 30
0.0
 11
5985.9072126048
 21
4494.8060685115
 31
0.0
  0
LINE
  5
1E2
330
1F
100
AcDbEntity
  8
0
  6
Continuous
 62
     7
100
AcDbLine
 10
5985.9072126048
 20
4494.8060685115
 30
0.0
 11
5985.9771586554
 21
4494.862692924
 31
0.0
  0
LINE
  5
1E3
330
1F
100
AcDbEntity
  8
0
  6
Continuous
 62
     7
100
AcDbLine
 10
5985.9771586554
 20
4494.862692924
 30
0.0
 11
5986.0025800364
 21
4494.9255162196
 31
0.0
  0
LINE
  5
1E4
330
1F
100
AcDbEntity
  8
0
  6
Continuous
 62
     7
100
AcDbLine
 10
5986.0025800364
 20
4494.9255162196
 30
0.0
 11
5985.9811223643
 21
4494.9885779338
 31
0.0
  0
LINE
  5
1E5
330
1F
100
AcDbEntity
  8
0
  6
Continuous
 62
     7
100
AcDbLine
 10
5962.8149725097
 20
4492.2048026042
 30
0.0
 11
5962.6764811175
 21
4492.2319823222
 31
0.0
  0
LINE
  5
1E6
330
1F
100
AcDbEntity
  8
0
  6
Continuous
 62
     7
100
AcDbLine
 10
5962.6764811175
 20
4492.2319823222
 30
0.0
 11
5962.5247276919
 21
4492.2404461818
 31
0.0
  0
LINE
  5
1E7
330
1F
100
AcDbEntity
  8
0
  6
Continuous
 62
     7
100
AcDbLine
 10
5962.5247276919
 20
4492.2404461818
 30
0.0
 11
5962.3738981383
 21
4492.2294789272
 31
0.0
  0
LINE
  5
1E8
330
1F
100
AcDbEntity
  8
0
  6
Continuous
 62
     7
100
AcDbLine
 10
5962.3738981383
 20
4492.2294789272
 30
0.0
 11
5962.2381783622
 21
4492.1999150233
 31
0.0
  0
LINE
  5
1E9
330
1F
100
AcDbEntity
  8
0
  6
Continuous
 62
     7
100
AcDbLine
 10
5962.2381783622
 20
4492.1999150233
 30
0.0
 11
5962.1302939551
 21
4492.1547347026
 31
0.0
  0
LINE
  5
1EA
330
1F
100
AcDbEntity
  8
0
  6
Continuous
 62
     7
100
AcDbLine
 10
5962.1302939551
 20
4492.1547347026
 30
0.0
 11
5962.0603479045
 21
4492.0981102901
 31
0.0
  0
LINE
  5
1EB
330
1F
100
AcDbEntity
  8
0
  6
Continuous
 62
     7
100
AcDbLine
 10
5962.0603479045
 20
4492.0981102901
 30
0.0
 11
5962.0349265235
 21
4492.0352869945
 31
0.0
  0
LINE
  5
1EC
330
1F
100
AcDbEntity
  8
0
  6
Continuous
 62
     7
100
AcDbLine
 10
5962.0349265235
 20
4492.0352869945
 30
0.0
 11
5962.0563841956
 21
4491.9722252803
 31
0.0
  0
LINE
  5
1ED
330
1F
100
AcDbEntity
  8
0
  6
Continuous
 62
     7
100
AcDbLine
 10
5962.0563841956
 20
4491.9722252803
 30
0.0
 11
5962.8434635299
 21
4491.1514693217
 31
0.0
  0
LINE
  5
1EE
330
1F
100
AcDbEntity
  8
0
  6
Continuous
 62
     7
100
AcDbLine
 10
5962.8434635299
 20
4491.1514693217
 30
0.0
 11
5963.9534212249
 21
4490.3979474025
 31
0.0
  0
LINE
  5
1EF
330
1F
100
AcDbEntity
  8
0
  6
Continuous
 62
     7
100
AcDbLine
 10
5963.9534212249
 20
4490.3979474025
 30
0.0
 11
5965.3542495864
 21
4489.7334748225
 31
0.0
  0
LINE
  5
1F0
330
1F
100
AcDbEntity
  8
0
  6
Continuous
 62
     7
100
AcDbLine
 10
5965.3542495864
 20
4489.7334748225
 30
0.0
 11
5967.0054472583
 21
4489.1773634868
 31
0.0
  0
LINE
  5
1F1
330
1F
100
AcDbEntity
  8
0
  6
Continuous
 62
     7
100
AcDbLine
 10
5967.0054472583
 20
4489.1773634868
 30
0.0
 11
5968.8592709201
 21
4488.74558744
 31
0.0
  0
LINE
  5
1F2
330
1F
100
AcDbEntity
  8
0
  6
Continuous
 62
     7
100
AcDbLine
 10
5968.8592709201
 20
4488.74558744
 30
0.0
 11
5970.8621956008
 21
4488.4505444484
 31
0.0
  0
LINE
  5
1F3
330
1F
100
AcDbEntity
  8
0
  6
Continuous
 62
     7
100
AcDbLine
 10
5970.8621956008
 20
4488.4505444484
 30
0.0
 11
5972.9563451903
 21
4488.3008175807
 31
0.0
  0
LINE
  5
1F4
330
1F
100
AcDbEntity
  8
0
  6
Continuous
 62
     7
100
AcDbLine
 10
5972.9563451903
 20
4488.3008175807
 30
0.0
 11
5975.0811613696
 21
4488.3008175807
 31
0.0
  0
LINE
  5
1F5
330
1F
100
AcDbEntity
  8
0
  6
Continuous
 62
     7
100
AcDbLine
 10
5975.0811613696
 20
4488.3008175807
 30
0.0
 11
5977.1753109591
 21
4488.4505444484
 31
0.0
  0
LINE
  5
1F6
330
1F
100
AcDbEntity
  8
0
  6
Continuous
 62
     7
100
AcDbLine
 10
5977.1753109591
 20
4488.4505444484
 30
0.0
 11
5979.1782356398
 21
4488.74558744
 31
0.0
  0
LINE
  5
1F7
330
1F
100
AcDbEntity
  8
0
  6
Continuous
 62
     7
100
AcDbLine
 10
5979.1782356398
 20
4488.74558744
 30
0.0
 11
5981.0320593017
 21
4489.1773634868
 31
0.0
  0
LINE
  5
1F8
330
1F
100
AcDbEntity
  8
0
  6
Continuous
 62
     7
100
AcDbLine
 10
5981.0320593017
 20
4489.1773634868
 30
0.0
 11
5982.6832569735
 21
4489.7334748225
 31
0.0
  0
LINE
  5
1F9
330
1F
100
AcDbEntity
  8
0
  6
Continuous
 62
     7
100
AcDbLine
 10
5982.6832569735
 20
4489.7334748225
 30
0.0
 11
5984.0840853351
 21
4490.3979474025
 31
0.0
  0
LINE
  5
1FA
330
1F
100
AcDbEntity
  8
0
  6
Continuous
 62
     7
100
AcDbLine
 10
5984.0840853351
 20
4490.3979474025
 30
0.0
 11
5985.1940430301
 21
4491.1514693217
 31
0.0
  0
LINE
  5
1FB
330
1F
100
AcDbEntity
  8
0
  6
Continuous
 62
     7
100
AcDbLine
 10
5985.1940430301
 20
4491.1514693217
 30
0.0
 11
5985.9811223643
 21
4491.9722252803
 31
0.0
  0
LINE
  5
1FC
330
1F
100
AcDbEntity
  8
0
  6
Continuous
 62
     7
100
AcDbLine
 10
5985.9811223643
 20
4491.9722252803
 30
0.0
 11
5986.0025800364
 21
4492.0352869945
 31
0.0
  0
LINE
  5
1FD
330
1F
100
AcDbEntity
  8
0
  6
Continuous
 62
     7
100
AcDbLine
 10
5986.0025800364
 20
4492.0352869945
 30
0.0
 11
5985.9771586554
 21
4492.0981102901
 31
0.0
  0
LINE
  5
1FE
330
1F
100
AcDbEntity
  8
0
  6
Continuous
 62
     7
100
AcDbLine
 10
5985.9771586554
 20
4492.0981102901
 30
0.0
 11
5985.9072126048
 21
4492.1547347026
 31
0.0
  0
LINE
  5
1FF
330
1F
100
AcDbEntity
  8
0
  6
Continuous
 62
     7
100
AcDbLine
 10
5985.9072126048
 20
4492.1547347026
 30
0.0
 11
5985.7993281978
 21
4492.1999150233
 31
0.0
  0
LINE
  5
200
330
1F
100
AcDbEntity
  8
0
  6
Continuous
 62
     7
100
AcDbLine
 10
5985.7993281978
 20
4492.1999150233
 30
0.0
 11
5985.6636084216
 21
4492.2294789272
 31
0.0
  0
LINE
  5
201
330
1F
100
AcDbEntity
  8
0
  6
Continuous
 62
     7
100
AcDbLine
 10
5985.6636084216
 20
4492.2294789272
 30
0.0
 11
5985.512778868
 21
4492.2404461818
 31
0.0
  0
LINE
  5
202
330
1F
100
AcDbEntity
  8
0
  6
Continuous
 62
     7
100
AcDbLine
 10
5985.512778868
 20
4492.2404461818
 30
0.0
 11
5985.3610254424
 21
4492.2319823222
 31
0.0
  0
LINE
  5
203
330
1F
100
AcDbEntity
  8
0
  6
Continuous
 62
     7
100
AcDbLine
 10
5985.3610254424
 20
4492.2319823222
 30
0.0
 11
5985.2225340503
 21
4492.2048026042
 31
0.0
  0
LINE
  5
204
330
1F
100
AcDbEntity
  8
0
  6
Continuous
 62
     7
100
AcDbLine
 10
6574.7687553361
 20
4334.7008012512
 30
0.0
 11
6574.7687553361
 21
4345.0931060966
 31
0.0
  0
LINE
  5
205
330
1F
100
AcDbEntity
  8
0
  6
Continuous
 62
     7
100
AcDbLine
 10
6573.2687553361
 20
4345.0931060966
 30
0.0
 11
6573.2687553361
 21
4334.7008012512
 31
0.0
  0
LINE
  5
206
330
1F
100
AcDbEntity
  8
0
  6
Continuous
 62
     7
100
AcDbLine
 10
6578.2649375098
 20
4491.5657216029
 30
0.0
 11
6578.8759149211
 21
4492.0209818797
 31
0.0
  0
LINE
  5
207
330
1F
100
AcDbEntity
  8
0
  6
Continuous
 62
     7
100
AcDbLine
 10
6578.8759149211
 20
4492.0209818797
 30
0.0
 11
6579.2246169942
 21
4492.5671988445
 31
0.0
  0
LINE
  5
208
330
1F
100
AcDbEntity
  8
0
  6
Continuous
 62
     7
100
AcDbLine
 10
6579.2246169942
 20
4492.5671988445
 30
0.0
 11
6579.2246169942
 21
4493.1322508769
 31
0.0
  0
LINE
  5
209
330
1F
100
AcDbEntity
  8
0
  6
Continuous
 62
     7
100
AcDbLine
 10
6579.2246169942
 20
4493.1322508769
 30
0.0
 11
6578.8759149211
 21
4493.6783486324
 31
0.0
  0
LINE
  5
20A
330
1F
100
AcDbEntity
  8
0
  6
Continuous
 62
     7
100
AcDbLine
 10
6578.8759149211
 20
4493.6783486324
 30
0.0
 11
6578.2018757956
 21
4494.1690140681
 31
0.0
  0
LINE
  5
20B
330
1F
100
AcDbEntity
  8
0
  6
Continuous
 62
     7
100
AcDbLine
 10
6578.2018757956
 20
4494.1690140681
 30
0.0
 11
6577.2476501363
 21
4494.5712262111
 31
0.0
  0
LINE
  5
20C
330
1F
100
AcDbEntity
  8
0
  6
Continuous
 62
     7
100
AcDbLine
 10
6577.2476501363
 20
4494.5712262111
 30
0.0
 11
6576.0771341222
 21
4494.858162971
 31
0.0
  0
LINE
  5
20D
330
1F
100
AcDbEntity
  8
0
  6
Continuous
 62
     7
100
AcDbLine
 10
6576.0771341222
 20
4494.858162971
 30
0.0
 11
6574.7687525647
 21
4495.0106316524
 31
0.0
  0
LINE
  5
20E
330
1F
100
AcDbEntity
  8
0
  6
Continuous
 62
     7
100
AcDbLine
 10
6574.7687525647
 20
4490.470188232
 30
0.0
 11
6574.7687525647
 21
4495.0106316524
 31
0.0
  0
LINE
  5
20F
330
1F
100
AcDbEntity
  8
0
  6
Continuous
 62
     7
100
AcDbLine
 10
6573.2687569755
 20
4495.0106316524
 30
0.0
 11
6571.960375418
 21
4494.858162971
 31
0.0
  0
LINE
  5
210
330
1F
100
AcDbEntity
  8
0
  6
Continuous
 62
     7
100
AcDbLine
 10
6571.960375418
 20
4494.858162971
 30
0.0
 11
6570.7898594039
 21
4494.5712262111
 31
0.0
  0
LINE
  5
211
330
1F
100
AcDbEntity
  8
0
  6
Continuous
 62
     7
100
AcDbLine
 10
6570.7898594039
 20
4494.5712262111
 30
0.0
 11
6569.8356337445
 21
4494.1690140681
 31
0.0
  0
LINE
  5
212
330
1F
100
AcDbEntity
  8
0
  6
Continuous
 62
     7
100
AcDbLine
 10
6569.8356337445
 20
4494.1690140681
 30
0.0
 11
6569.1615946191
 21
4493.6783486324
 31
0.0
  0
LINE
  5
213
330
1F
100
AcDbEntity
  8
0
  6
Continuous
 62
     7
100
AcDbLine
 10
6569.1615946191
 20
4493.6783486324
 30
0.0
 11
6568.812892546
 21
4493.1322508769
 31
0.0
  0
LINE
  5
214
330
1F
100
AcDbEntity
  8
0
  6
Continuous
 62
     7
100
AcDbLine
 10
6568.812892546
 20
4493.1322508769
 30
0.0
 11
6568.812892546
 21
4492.5671988445
 31
0.0
  0
LINE
  5
215
330
1F
100
AcDbEntity
  8
0
  6
Continuous
 62
     7
100
AcDbLine
 10
6568.812892546
 20
4492.5671988445
 30
0.0
 11
6569.1615946191
 21
4492.0209818797
 31
0.0
  0
LINE
  5
216
330
1F
100
AcDbEntity
  8
0
  6
Continuous
 62
     7
100
AcDbLine
 10
6569.1615946191
 20
4492.0209818797
 30
0.0
 11
6569.7725720303
 21
4491.5657216029
 31
0.0
  0
LINE
  5
217
330
1F
100
AcDbEntity
  8
0
  6
Continuous
 62
     7
100
AcDbLine
 10
6573.2687569755
 20
4495.0106316524
 30
0.0
 11
6573.2687569755
 21
4490.470188232
 31
0.0
  0
LINE
  5
218
330
1F
100
AcDbEntity
  8
0
  6
Continuous
 62
     7
100
AcDbLine
 10
6579.2687542336
 20
4493.4863024669
 30
0.0
 11
6579.0898657935
 21
4494.0513544994
 31
0.0
  0
LINE
  5
219
330
1F
100
AcDbEntity
  8
0
  6
Continuous
 62
     7
100
AcDbLine
 10
6579.0898657935
 20
4494.0513544994
 30
0.0
 11
6578.565389623
 21
4494.5779019313
 31
0.0
  0
LINE
  5
21A
330
1F
100
AcDbEntity
  8
0
  6
Continuous
 62
     7
100
AcDbLine
 10
6578.565389623
 20
4494.5779019313
 30
0.0
 11
6577.7310587066
 21
4495.0300627666
 31
0.0
  0
LINE
  5
21B
330
1F
100
AcDbEntity
  8
0
  6
Continuous
 62
     7
100
AcDbLine
 10
6577.7310587066
 20
4495.0300627666
 30
0.0
 11
6576.6437507766
 21
4495.3770810085
 31
0.0
  0
LINE
  5
21C
330
1F
100
AcDbEntity
  8
0
  6
Continuous
 62
     7
100
AcDbLine
 10
6576.6437507766
 20
4495.3770810085
 30
0.0
 11
6575.3775544064
 21
4495.5952340083
 31
0.0
  0
LINE
  5
21D
330
1F
100
AcDbEntity
  8
0
  6
Continuous
 62
     7
100
AcDbLine
 10
6575.3775544064
 20
4495.5952340083
 30
0.0
 11
6574.0187622207
 21
4495.669620605
 31
0.0
  0
LINE
  5
21E
330
1F
100
AcDbEntity
  8
0
  6
Continuous
 62
     7
100
AcDbLine
 10
6574.0187622207
 20
4495.669620605
 30
0.0
 11
6572.6599551337
 21
4495.5952340083
 31
0.0
  0
LINE
  5
21F
330
1F
100
AcDbEntity
  8
0
  6
Continuous
 62
     7
100
AcDbLine
 10
6572.6599551337
 20
4495.5952340083
 30
0.0
 11
6571.3937587636
 21
4495.3770810085
 31
0.0
  0
LINE
  5
220
330
1F
100
AcDbEntity
  8
0
  6
Continuous
 62
     7
100
AcDbLine
 10
6571.3937587636
 20
4495.3770810085
 30
0.0
 11
6570.3064508336
 21
4495.0300627666
 31
0.0
  0
LINE
  5
221
330
1F
100
AcDbEntity
  8
0
  6
Continuous
 62
     7
100
AcDbLine
 10
6570.3064508336
 20
4495.0300627666
 30
0.0
 11
6569.4721199172
 21
4494.5779019313
 31
0.0
  0
LINE
  5
222
330
1F
100
AcDbEntity
  8
0
  6
Continuous
 62
     7
100
AcDbLine
 10
6569.4721199172
 20
4494.5779019313
 30
0.0
 11
6568.9476437467
 21
4494.0513544994
 31
0.0
  0
LINE
  5
223
330
1F
100
AcDbEntity
  8
0
  6
Continuous
 62
     7
100
AcDbLine
 10
6568.9476437467
 20
4494.0513544994
 30
0.0
 11
6568.7687553065
 21
4493.4863024669
 31
0.0
  0
LINE
  5
224
330
1F
100
AcDbEntity
  8
0
  6
Continuous
 62
     7
100
AcDbLine
 10
5973.2687553361
 20
4345.0931060966
 30
0.0
 11
5973.2687553361
 21
4334.7008012512
 31
0.0
  0
LINE
  5
225
330
1F
100
AcDbEntity
  8
0
  6
Continuous
 62
     7
100
AcDbLine
 10
5974.7687553361
 20
4334.7008012512
 30
0.0
 11
5974.7687553361
 21
4345.0931060966
 31
0.0
  0
LINE
  5
226
330
1F
100
AcDbEntity
  8
0
  6
Continuous
 62
     7
100
AcDbLine
 10
5973.2687629359
 20
4495.0106316524
 30
0.0
 11
5971.9603813785
 21
4494.858162971
 31
0.0
  0
LINE
  5
227
330
1F
100
AcDbEntity
  8
0
  6
Continuous
 62
     7
100
AcDbLine
 10
5971.9603813785
 20
4494.858162971
 30
0.0
 11
5970.7898653644
 21
4494.5712262111
 31
0.0
  0
LINE
  5
228
330
1F
100
AcDbEntity
  8
0
  6
Continuous
 62
     7
100
AcDbLine
 10
5970.7898653644
 20
4494.5712262111
 30
0.0
 11
5969.8356248038
 21
4494.1690140681
 31
0.0
  0
LINE
  5
229
330
1F
100
AcDbEntity
  8
0
  6
Continuous
 62
     7
100
AcDbLine
 10
5969.8356248038
 20
4494.1690140681
 30
0.0
 11
5969.1615856784
 21
4493.6783486324
 31
0.0
  0
LINE
  5
22A
330
1F
100
AcDbEntity
  8
0
  6
Continuous
 62
     7
100
AcDbLine
 10
5969.1615856784
 20
4493.6783486324
 30
0.0
 11
5968.8128985064
 21
4493.1322508769
 31
0.0
  0
LINE
  5
22B
330
1F
100
AcDbEntity
  8
0
  6
Continuous
 62
     7
100
AcDbLine
 10
5968.8128985064
 20
4493.1322508769
 30
0.0
 11
5968.8128985064
 21
4492.5671988445
 31
0.0
  0
LINE
  5
22C
330
1F
100
AcDbEntity
  8
0
  6
Continuous
 62
     7
100
AcDbLine
 10
5968.8128985064
 20
4492.5671988445
 30
0.0
 11
5969.1615856784
 21
4492.0209818797
 31
0.0
  0
LINE
  5
22D
330
1F
100
AcDbEntity
  8
0
  6
Continuous
 62
     7
100
AcDbLine
 10
5969.1615856784
 20
4492.0209818797
 30
0.0
 11
5969.7725630896
 21
4491.5657216029
 31
0.0
  0
LINE
  5
22E
330
1F
100
AcDbEntity
  8
0
  6
Continuous
 62
     7
100
AcDbLine
 10
5973.2687629359
 20
4495.0106316524
 30
0.0
 11
5973.2687629359
 21
4490.470188232
 31
0.0
  0
LINE
  5
22F
330
1F
100
AcDbEntity
  8
0
  6
Continuous
 62
     7
100
AcDbLine
 10
5978.2649434703
 20
4491.5657216029
 30
0.0
 11
5978.8759208815
 21
4492.0209818797
 31
0.0
  0
LINE
  5
230
330
1F
100
AcDbEntity
  8
0
  6
Continuous
 62
     7
100
AcDbLine
 10
5978.8759208815
 20
4492.0209818797
 30
0.0
 11
5979.2246080535
 21
4492.5671988445
 31
0.0
  0
LINE
  5
231
330
1F
100
AcDbEntity
  8
0
  6
Continuous
 62
     7
100
AcDbLine
 10
5979.2246080535
 20
4492.5671988445
 30
0.0
 11
5979.2246080535
 21
4493.1322508769
 31
0.0
  0
LINE
  5
232
330
1F
100
AcDbEntity
  8
0
  6
Continuous
 62
     7
100
AcDbLine
 10
5979.2246080535
 20
4493.1322508769
 30
0.0
 11
5978.8759208815
 21
4493.6783486324
 31
0.0
  0
LINE
  5
233
330
1F
100
AcDbEntity
  8
0
  6
Continuous
 62
     7
100
AcDbLine
 10
5978.8759208815
 20
4493.6783486324
 30
0.0
 11
5978.2018817561
 21
4494.1690140681
 31
0.0
  0
LINE
  5
234
330
1F
100
AcDbEntity
  8
0
  6
Continuous
 62
     7
100
AcDbLine
 10
5978.2018817561
 20
4494.1690140681
 30
0.0
 11
5977.2476411956
 21
4494.5712262111
 31
0.0
  0
LINE
  5
235
330
1F
100
AcDbEntity
  8
0
  6
Continuous
 62
     7
100
AcDbLine
 10
5977.2476411956
 20
4494.5712262111
 30
0.0
 11
5976.0771251815
 21
4494.858162971
 31
0.0
  0
LINE
  5
236
330
1F
100
AcDbEntity
  8
0
  6
Continuous
 62
     7
100
AcDbLine
 10
5976.0771251815
 20
4494.858162971
 30
0.0
 11
5974.768743624
 21
4495.0106316524
 31
0.0
  0
LINE
  5
237
330
1F
100
AcDbEntity
  8
0
  6
Continuous
 62
     7
100
AcDbLine
 10
5974.768743624
 20
4490.470188232
 30
0.0
 11
5974.768743624
 21
4495.0106316524
 31
0.0
  0
LINE
  5
238
330
1F
100
AcDbEntity
  8
0
  6
Continuous
 62
     7
100
AcDbLine
 10
5979.2687452929
 20
4493.4863024669
 30
0.0
 11
5979.089871754
 21
4494.0513544994
 31
0.0
  0
LINE
  5
239
330
1F
100
AcDbEntity
  8
0
  6
Continuous
 62
     7
100
AcDbLine
 10
5979.089871754
 20
4494.0513544994
 30
0.0
 11
5978.5653806823
 21
4494.5779019313
 31
0.0
  0
LINE
  5
23A
330
1F
100
AcDbEntity
  8
0
  6
Continuous
 62
     7
100
AcDbLine
 10
5978.5653806823
 20
4494.5779019313
 30
0.0
 11
5977.731064667
 21
4495.0300627666
 31
0.0
  0
LINE
  5
23B
330
1F
100
AcDbEntity
  8
0
  6
Continuous
 62
     7
100
AcDbLine
 10
5977.731064667
 20
4495.0300627666
 30
0.0
 11
5976.643756737
 21
4495.3770810085
 31
0.0
  0
LINE
  5
23C
330
1F
100
AcDbEntity
  8
0
  6
Continuous
 62
     7
100
AcDbLine
 10
5976.643756737
 20
4495.3770810085
 30
0.0
 11
5975.3775454657
 21
4495.5952340083
 31
0.0
  0
LINE
  5
23D
330
1F
100
AcDbEntity
  8
0
  6
Continuous
 62
     7
100
AcDbLine
 10
5975.3775454657
 20
4495.5952340083
 30
0.0
 11
5974.0187681811
 21
4495.669620605
 31
0.0
  0
LINE
  5
23E
330
1F
100
AcDbEntity
  8
0
  6
Continuous
 62
     7
100
AcDbLine
 10
5974.0187681811
 20
4495.669620605
 30
0.0
 11
5972.6599610942
 21
4495.5952340083
 31
0.0
  0
LINE
  5
23F
330
1F
100
AcDbEntity
  8
0
  6
Continuous
 62
     7
100
AcDbLine
 10
5972.6599610942
 20
4495.5952340083
 30
0.0
 11
5971.3937498229
 21
4495.3770810085
 31
0.0
  0
LINE
  5
240
330
1F
100
AcDbEntity
  8
0
  6
Continuous
 62
     7
100
AcDbLine
 10
5971.3937498229
 20
4495.3770810085
 30
0.0
 11
5970.3064418929
 21
4495.0300627666
 31
0.0
  0
LINE
  5
241
330
1F
100
AcDbEntity
  8
0
  6
Continuous
 62
     7
100
AcDbLine
 10
5970.3064418929
 20
4495.0300627666
 30
0.0
 11
5969.4721258777
 21
4494.5779019313
 31
0.0
  0
LINE
  5
242
330
1F
100
AcDbEntity
  8
0
  6
Continuous
 62
     7
100
AcDbLine
 10
5969.4721258777
 20
4494.5779019313
 30
0.0
 11
5968.947634806
 21
4494.0513544994
 31
0.0
  0
LINE
  5
243
330
1F
100
AcDbEntity
  8
0
  6
Continuous
 62
     7
100
AcDbLine
 10
5968.947634806
 20
4494.0513544994
 30
0.0
 11
5968.768761267
 21
4493.4863024669
 31
0.0
  0
LINE
  5
244
330
1F
100
AcDbEntity
  8
0
  6
Continuous
 62
     7
100
AcDbLine
 10
6014.0187598365
 20
4619.9914985614
 30
0.0
 11
5934.0187467235
 21
4619.9914985614
 31
0.0
  0
LINE
  5
245
330
1F
100
AcDbEntity
  8
0
  6
Continuous
 62
     7
100
AcDbLine
 10
5994.0187491076
 20
4629.9915486293
 30
0.0
 11
5954.0187574523
 21
4629.9915486293
 31
0.0
  0
LINE
  5
246
330
1F
100
AcDbEntity
  8
0
  6
Continuous
 62
     7
100
AcDbLine
 10
6614.018753876
 20
4619.9914985614
 30
0.0
 11
6534.0187556641
 21
4619.9914985614
 31
0.0
  0
LINE
  5
247
330
1F
100
AcDbEntity
  8
0
  6
Continuous
 62
     7
100
AcDbLine
 10
6594.0187580483
 20
4629.9915486293
 30
0.0
 11
6554.0187514918
 21
4629.9915486293
 31
0.0
  0
LINE
  5
248
330
1F
100
AcDbEntity
  8
0
  6
Continuous
 62
     7
100
AcDbLine
 10
6874.0187443393
 20
4619.8969655948
 30
0.0
 11
5674.0187562602
 21
4619.8969655948
 31
0.0
  0
LINE
  5
249
330
1F
100
AcDbEntity
  8
0
  6
Continuous
 62
     7
100
AcDbLine
 10
5674.0187562602
 20
4618.6969452815
 30
0.0
 11
6874.0187443393
 21
4618.6969452815
 31
0.0
  0
LINE
  5
24A
330
1F
100
AcDbEntity
  8
0
  6
Continuous
 62
     7
100
AcDbLine
 10
5674.0187562602
 20
4619.8969655948
 30
0.0
 11
5674.0187562602
 21
4618.6969452815
 31
0.0
  0
LINE
  5
24B
330
1F
100
AcDbEntity
  8
0
  6
Continuous
 62
     7
100
AcDbLine
 10
6874.0187443393
 20
4618.6969452815
 30
0.0
 11
6874.0187443393
 21
4619.8969655948
 31
0.0
  0
LINE
  5
24C
330
1F
100
AcDbEntity
  8
0
  6
Continuous
 62
     7
100
AcDbLine
 10
5677.018777241
 20
4616.6969710307
 30
0.0
 11
5677.018777241
 21
4618.6969452815
 31
0.0
  0
LINE
  5
24D
330
1F
100
AcDbEntity
  8
0
  6
Continuous
 62
     7
100
AcDbLine
 10
5677.018777241
 20
4616.6969710307
 30
0.0
 11
5674.0187562602
 21
4616.6969710307
 31
0.0
  0
LINE
  5
24E
330
1F
100
AcDbEntity
  8
0
  6
Continuous
 62
     7
100
AcDbLine
 10
6871.0187829631
 20
4616.6969710307
 30
0.0
 11
5677.018777241
 21
4616.6969710307
 31
0.0
  0
LINE
  5
24F
330
1F
100
AcDbEntity
  8
0
  6
Continuous
 62
     7
100
AcDbLine
 10
6871.0187829631
 20
4616.6969710307
 30
0.0
 11
6871.0187829631
 21
4618.6969452815
 31
0.0
  0
LINE
  5
250
330
1F
100
AcDbEntity
  8
0
  6
Continuous
 62
     7
100
AcDbLine
 10
6874.0187443393
 20
4616.6969710307
 30
0.0
 11
6871.0187829631
 21
4616.6969710307
 31
0.0
  0
LINE
  5
251
330
1F
100
AcDbEntity
  8
0
  6
Continuous
 62
     7
100
AcDbLine
 10
6871.0187829631
 20
4122.896926971
 30
0.0
 11
6874.0187443393
 21
4122.896926971
 31
0.0
  0
LINE
  5
252
330
1F
100
AcDbEntity
  8
0
  6
Continuous
 62
     7
100
AcDbLine
 10
6871.0187829631
 20
4122.896926971
 30
0.0
 11
6871.0187829631
 21
4616.6969710307
 31
0.0
  0
LINE
  5
253
330
1F
100
AcDbEntity
  8
0
  6
Continuous
 62
     7
100
AcDbLine
 10
6874.0187443393
 20
4616.6969710307
 30
0.0
 11
6874.0187443393
 21
4122.896926971
 31
0.0
  0
LINE
  5
254
330
1F
100
AcDbEntity
  8
0
  6
Continuous
 62
     7
100
AcDbLine
 10
5677.018777241
 20
4122.896926971
 30
0.0
 11
6871.0187829631
 21
4122.896926971
 31
0.0
  0
LINE
  5
255
330
1F
100
AcDbEntity
  8
0
  6
Continuous
 62
     7
100
AcDbLine
 10
5677.018777241
 20
4616.6969710307
 30
0.0
 11
5677.018777241
 21
4122.896926971
 31
0.0
  0
LINE
  5
256
330
1F
100
AcDbEntity
  8
0
  6
Continuous
 62
     7
100
AcDbLine
 10
5677.018777241
 20
4122.896926971
 30
0.0
 11
5674.0187562602
 21
4122.896926971
 31
0.0
  0
LINE
  5
257
330
1F
100
AcDbEntity
  8
0
  6
Continuous
 62
     7
100
AcDbLine
 10
5674.0187562602
 20
4122.896926971
 30
0.0
 11
5674.0187562602
 21
4616.6969710307
 31
0.0
  0
LINE
  5
258
330
1F
100
AcDbEntity
  8
0
  6
Continuous
 62
     7
100
AcDbLine
 10
6871.0187829631
 20
4122.896926971
 30
0.0
 11
6871.0187829631
 21
4119.8969059901
 31
0.0
  0
LINE
  5
259
330
1F
100
AcDbEntity
  8
0
  6
Continuous
 62
     7
100
AcDbLine
 10
5677.018777241
 20
4122.896926971
 30
0.0
 11
5677.018777241
 21
4119.8969059901
 31
0.0
  0
LINE
  5
25A
330
1F
100
AcDbEntity
  8
0
  6
Continuous
 62
     7
100
AcDbLine
 10
6871.0187829631
 20
4119.8969059901
 30
0.0
 11
5677.018777241
 21
4119.8969059901
 31
0.0
  0
LINE
  5
25B
330
1F
100
AcDbEntity
  8
0
  6
Continuous
 62
     7
100
AcDbLine
 10
6562.8149814504
 20
4495.7856112437
 30
0.0
 11
6562.8149814504
 21
4494.7560006099
 31
0.0
  0
LINE
  5
25C
330
1F
100
AcDbEntity
  8
0
  6
Continuous
 62
     7
100
AcDbLine
 10
6585.2225280898
 20
4495.7856112437
 30
0.0
 11
6585.2225280898
 21
4494.7560006099
 31
0.0
  0
LINE
  5
25D
330
1F
100
AcDbEntity
  8
0
  6
Continuous
 62
     7
100
AcDbLine
 10
6562.0563931363
 20
4492.0928650813
 30
0.0
 11
6562.0563931363
 21
4491.9722252803
 31
0.0
  0
LINE
  5
25E
330
1F
100
AcDbEntity
  8
0
  6
Continuous
 62
     7
100
AcDbLine
 10
6585.9811164039
 20
4492.0928650813
 30
0.0
 11
6585.9811164039
 21
4491.9722252803
 31
0.0
  0
LINE
  5
25F
330
1F
100
AcDbEntity
  8
0
  6
Continuous
 62
     7
100
AcDbLine
 10
5962.8149725097
 20
4495.7856112437
 30
0.0
 11
5962.8149725097
 21
4494.7560006099
 31
0.0
  0
LINE
  5
260
330
1F
100
AcDbEntity
  8
0
  6
Continuous
 62
     7
100
AcDbLine
 10
5985.2225340503
 20
4495.7856112437
 30
0.0
 11
5985.2225340503
 21
4494.7560006099
 31
0.0
  0
LINE
  5
261
330
1F
100
AcDbEntity
  8
0
  6
Continuous
 62
     7
100
AcDbLine
 10
5962.0563841956
 20
4492.0928650813
 30
0.0
 11
5962.0563841956
 21
4491.9722252803
 31
0.0
  0
LINE
  5
262
330
1F
100
AcDbEntity
  8
0
  6
Continuous
 62
     7
100
AcDbLine
 10
5985.9811223643
 20
4492.0928650813
 30
0.0
 11
5985.9811223643
 21
4491.9722252803
 31
0.0
  0
LWPOLYLINE
  5
263
330
1F
100
AcDbEntity
  8
0
  6
Continuous
 62
     7
100
AcDbPolyline
 90
        3
 70
   128
 43
0.0
 10
5674.015045166
 20
5378.1994487466
 10
5674.0187558809
 20
5380.2789745077
 10
5674.0187555306
 20
5382.1994568528
  0
LWPOLYLINE
  5
264
330
1F
100
AcDbEntity
  8
0
  6
Continuous
 62
     7
100
AcDbPolyline
 90
        3
 70
   128
 43
0.0
 10
6874.0158081055
 20
5382.1994568528
 10
6874.0187446317
 20
5379.8028841657
 10
6874.0187443393
 20
5378.1994487466
  0
LWPOLYLINE
  5
265
330
1F
100
AcDbEntity
  8
0
  6
Continuous
 62
     7
100
AcDbPolyline
 90
        3
 70
   128
 43
0.0
 10
7260.669708252
 20
5378.1994477738
 10
7259.1879673828
 20
5380.278973535
 10
7258.6719828269
 20
5382.19945588
  0
LWPOLYLINE
  5
266
330
1F
100
AcDbEntity
  8
0
  6
Continuous
 62
     7
100
AcDbPolyline
 90
        4
 70
   128
 43
0.0
 10
6556.0493469238
 20
4494.7735243755
 10
6557.6537061998
 20
4491.2185835686
 10
6561.6511731097
 20
4488.6597384346
 10
6574.0187622207
 20
4486.4827567058
  0
LWPOLYLINE
  5
267
330
1F
100
AcDbEntity
  8
0
  6
Continuous
 62
     7
100
AcDbPolyline
 90
        4
 70
   128
 43
0.0
 10
6574.0165710449
 20
4486.4827567058
 10
6586.5030475913
 20
4488.7097095523
 10
6590.4876129275
 20
4491.3275555705
 10
6591.9766433137
 20
4494.9563914256
  0
LWPOLYLINE
  5
268
330
1F
100
AcDbEntity
  8
0
  6
Continuous
 62
     7
100
AcDbPolyline
 90
        4
 70
   128
 43
0.0
 10
5956.0508728027
 20
4494.7735243755
 10
5957.6537031695
 20
4491.2185822979
 10
5961.6511743465
 20
4488.6597385745
 10
5974.0187681811
 20
4486.4827567058
  0
LWPOLYLINE
  5
269
330
1F
100
AcDbEntity
  8
0
  6
Continuous
 62
     7
100
AcDbPolyline
 90
        4
 70
   128
 43
0.0
 10
5974.0180969238
 20
4486.4827567058
 10
5986.5030531777
 20
4488.7097097176
 10
5990.4876076451
 20
4491.3275584448
 10
5991.976634373
 20
4494.9563914256
  0
LWPOLYLINE
  5
26A
330
1F
100
AcDbEntity
  8
0
  6
Continuous
 62
     7
100
AcDbPolyline
 90
        3
 70
   128
 43
0.0
 10
5961.6737365723
 20
4500.2805167155
 10
5962.6864573463
 20
4500.6898920583
 10
5963.6060453551
 20
4500.9924345927
  0
LWPOLYLINE
  5
26B
330
1F
100
AcDbEntity
  8
0
  6
Continuous
 62
     7
100
AcDbPolyline
 90
        3
 70
   128
 43
0.0
 10
6561.6760253906
 20
4500.2805167155
 10
6562.6400711407
 20
4500.6726449813
 10
6563.5187483924
 20
4500.9622746425
  0
LWPOLYLINE
  5
26C
330
1F
100
AcDbEntity
  8
0
  6
Continuous
 62
     7
100
AcDbPolyline
 90
        3
 70
   128
 43
0.0
 10
5674.015045166
 20
4616.6969710307
 10
5674.0187562602
 20
4618.1809607256
 10
5674.0187562602
 20
4618.6969452815
  0
LWPOLYLINE
  5
26D
330
1F
100
AcDbEntity
  8
0
  6
Continuous
 62
     7
100
AcDbPolyline
 90
        3
 70
   128
 43
0.0
 10
6874.0158081055
 20
4618.6969452815
 10
6874.0187443393
 20
4617.9011347012
 10
6874.0187443393
 20
4616.6969710307
  0
LWPOLYLINE
  5
26E
330
1F
100
AcDbEntity
  8
0
  6
Continuous
 62
     7
100
AcDbPolyline
 90
        8
 70
   128
 43
0.0
 10
5991.7602539062
 20
4493.4010678249
 10
5992.1763690613
 20
4495.0506996549
 10
5991.6013884718
 20
4496.7124661448
 10
5984.9169793704
 20
4500.8633062919
 10
5973.6290472898
 20
4502.4030999571
 10
5962.502724179
 20
4500.6590460313
 10
5956.2541938248
 20
4496.3935432086
 10
5956.4099765914
 20
4493.0826598125
  0
LWPOLYLINE
  5
26F
330
1F
100
AcDbEntity
  8
0
  6
Continuous
 62
     7
100
AcDbPolyline
 90
        8
 70
   128
 43
0.0
 10
6591.7625427246
 20
4493.4010678249
 10
6592.1763622783
 20
4495.0507021717
 10
6591.601395969
 20
4496.7124694579
 10
6584.9169769085
 20
4500.8633066863
 10
6573.6290450298
 20
4502.4030996745
 10
6562.5027243568
 20
4500.6590459173
 10
6556.2541865122
 20
4496.3935434853
 10
6556.4099706309
 20
4493.0826598125
  0
ENDSEC
  0
SECTION
  2
OBJECTS
  0
DICTIONARY
  5
C
330
0
100
AcDbDictionary
281
     1
  3
ACAD_GROUP
350
D
  3
ACAD_LAYOUT
350
1A
  3
ACAD_MLINESTYLE
350
17
  3
ACAD_PLOTSETTINGS
350
19
  3
ACAD_PLOTSTYLENAME
350
E
  3
ACAD_SCALELIST
350
47
  3
DWGPROPS
350
270
  0
DICTIONARY
  5
D
102
{ACAD_REACTORS
330
C
102
}
330
C
100
AcDbDictionary
281
     1
  0
DICTIONARY
  5
1A
102
{ACAD_REACTORS
330
C
102
}
330
C
100
AcDbDictionary
281
     1
  3
Layout1
350
1E
  3
Layout2
350
26
  3
Model
350
22
  0
DICTIONARY
  5
17
102
{ACAD_REACTORS
330
C
102
}
330
C
100
AcDbDictionary
281
     1
  3
Standard
350
18
  0
DICTIONARY
  5
19
102
{ACAD_REACTORS
330
C
102
}
330
C
100
AcDbDictionary
281
     1
  0
ACDBDICTIONARYWDFLT
  5
E
102
{ACAD_REACTORS
330
C
102
}
330
C
100
AcDbDictionary
281
     1
  3
Normal
350
F
100
AcDbDictionaryWithDefault
340
F
  0
DICTIONARY
  5
47
102
{ACAD_REACTORS
330
C
102
}
330
C
100
AcDbDictionary
281
     1
  3
A0
350
48
  3
A1
350
49
  3
A2
350
4A
  3
A3
350
4B
  3
A4
350
4C
  3
A5
350
4D
  3
A6
350
4E
  3
A7
350
4F
  3
A8
350
50
  3
A9
350
51
  3
B0
350
52
  3
B1
350
53
  3
B2
350
54
  3
B3
350
55
  3
B4
350
56
  3
B5
350
57
  3
B6
350
58
  3
B7
350
59
  3
B8
350
5A
  3
B9
350
5B
  3
C0
350
5C
  3
C1
350
5D
  3
C2
350
5E
  3
C3
350
5F
  3
C4
350
60
  3
C5
350
61
  3
C6
350
62
  3
C7
350
63
  3
C8
350
64
  3
C9
350
65
  3
D0
350
66
  3
D1
350
67
  3
D2
350
68
  0
XRECORD
  5
270
102
{ACAD_REACTORS
330
C
102
}
330
C
100
AcDbXrecord
280
     1
  1
DWGPROPS COOKIE
  2

  3

  4

  6

  7

  8
radek.stransky
  9

300
=
301
=
302
=
303
=
304
=
305
=
306
=
307
=
308
=
309
=
 40
0.0
 41
2459096.32779603
 42
2459096.327825197
  1

 90
        0
  0
LAYOUT
  5
1E
102
{ACAD_REACTORS
330
1A
102
}
330
1A
100
AcDbPlotSettings
  1

  2
none_device
  4

  6

 40
0.0
 41
0.0
 42
0.0
 43
0.0
 44
0.0
 45
0.0
 46
0.0
 47
0.0
 48
0.0
 49
0.0
140
0.0
141
0.0
142
1.0
143
1.0
 70
   688
 72
     1
 73
     0
 74
     5
  7

 75
    16
147
1.0
148
0.0
149
0.0
100
AcDbLayout
  1
Layout1
 70
     1
 71
     1
 10
0.0
 20
0.0
 11
420.0
 21
297.0
 12
0.0
 22
0.0
 32
0.0
 14
1.0000000000E+20
 24
1.0000000000E+20
 34
1.0000000000E+20
 15
-1.0000000000E+20
 25
-1.0000000000E+20
 35
-1.0000000000E+20
146
0.0
 13
0.0
 23
0.0
 33
0.0
 16
1.0
 26
0.0
 36
0.0
 17
0.0
 27
1.0
 37
0.0
 76
     0
330
1B
  0
LAYOUT
  5
26
102
{ACAD_REACTORS
330
1A
102
}
330
1A
100
AcDbPlotSettings
  1

  2
none_device
  4

  6

 40
0.0
 41
0.0
 42
0.0
 43
0.0
 44
0.0
 45
0.0
 46
0.0
 47
0.0
 48
0.0
 49
0.0
140
0.0
141
0.0
142
1.0
143
1.0
 70
   688
 72
     1
 73
     0
 74
     5
  7

 75
    16
147
1.0
148
0.0
149
0.0
100
AcDbLayout
  1
Layout2
 70
     1
 71
     2
 10
0.0
 20
0.0
 11
0.0
 21
0.0
 12
0.0
 22
0.0
 32
0.0
 14
0.0
 24
0.0
 34
0.0
 15
0.0
 25
0.0
 35
0.0
146
0.0
 13
0.0
 23
0.0
 33
0.0
 16
1.0
 26
0.0
 36
0.0
 17
0.0
 27
1.0
 37
0.0
 76
     0
330
23
  0
LAYOUT
  5
22
102
{ACAD_REACTORS
330
1A
102
}
330
1A
100
AcDbPlotSettings
  1

  2
none_device
  4
ANSI_A_(11.00_x_8.50_Inches)
  6

 40
6.35
 41
19.05
 42
6.35000508
 43
19.05000254
 44
279.4
 45
215.9
 46
-758.2522657093
 47
-544.452291926
 48
0.0
 49
0.0
140
0.0
141
0.0
142
0.0052268898
143
1.0
 70
  1696
 72
     0
 73
     0
 74
     0
  7

 75
     0
147
0.0179189148
148
-1300.4909072572
149
0.0
100
AcDbLayout
  1
Model
 70
     1
 71
     0
 10
0.0
 20
0.0
 11
420.0
 21
297.0
 12
0.0
 22
0.0
 32
0.0
 14
5674.015045166
 24
4119.89690599
 34
0.0
 15
7757.4720221183
 25
5421.1994464816
 35
0.0
146
0.0
 13
0.0
 23
0.0
 33
0.0
 16
1.0
 26
0.0
 36
0.0
 17
0.0
 27
1.0
 37
0.0
 76
     0
330
1F
331
29
  0
MLINESTYLE
  5
18
102
{ACAD_REACTORS
330
17
102
}
330
17
100
AcDbMlineStyle
  2
Standard
 70
     0
  3

 62
   256
 51
90.0
 52
90.0
 71
     2
 49
0.5
 62
   256
  6
BYLAYER
 49
-0.5
 62
   256
  6
BYLAYER
  0
ACDBPLACEHOLDER
  5
F
102
{ACAD_REACTORS
330
E
102
}
330
E
  0
SCALE
  5
48
102
{ACAD_REACTORS
330
47
102
}
330
47
100
AcDbScale
 70
     0
300
1:1
140
1.0
141
1.0
290
     1
  0
SCALE
  5
49
102
{ACAD_REACTORS
330
47
102
}
330
47
100
AcDbScale
 70
     0
300
1:2
140
1.0
141
2.0
290
     0
  0
SCALE
  5
4A
102
{ACAD_REACTORS
330
47
102
}
330
47
100
AcDbScale
 70
     0
300
1:4
140
1.0
141
4.0
290
     0
  0
SCALE
  5
4B
102
{ACAD_REACTORS
330
47
102
}
330
47
100
AcDbScale
 70
     0
300
1:5
140
1.0
141
5.0
290
     0
  0
SCALE
  5
4C
102
{ACAD_REACTORS
330
47
102
}
330
47
100
AcDbScale
 70
     0
300
1:8
140
1.0
141
8.0
290
     0
  0
SCALE
  5
4D
102
{ACAD_REACTORS
330
47
102
}
330
47
100
AcDbScale
 70
     0
300
1:10
140
1.0
141
10.0
290
     0
  0
SCALE
  5
4E
102
{ACAD_REACTORS
330
47
102
}
330
47
100
AcDbScale
 70
     0
300
1:16
140
1.0
141
16.0
290
     0
  0
SCALE
  5
4F
102
{ACAD_REACTORS
330
47
102
}
330
47
100
AcDbScale
 70
     0
300
1:20
140
1.0
141
20.0
290
     0
  0
SCALE
  5
50
102
{ACAD_REACTORS
330
47
102
}
330
47
100
AcDbScale
 70
     0
300
1:30
140
1.0
141
30.0
290
     0
  0
SCALE
  5
51
102
{ACAD_REACTORS
330
47
102
}
330
47
100
AcDbScale
 70
     0
300
1:40
140
1.0
141
40.0
290
     0
  0
SCALE
  5
52
102
{ACAD_REACTORS
330
47
102
}
330
47
100
AcDbScale
 70
     0
300
1:50
140
1.0
141
50.0
290
     0
  0
SCALE
  5
53
102
{ACAD_REACTORS
330
47
102
}
330
47
100
AcDbScale
 70
     0
300
1:100
140
1.0
141
100.0
290
     0
  0
SCALE
  5
54
102
{ACAD_REACTORS
330
47
102
}
330
47
100
AcDbScale
 70
     0
300
2:1
140
2.0
141
1.0
290
     0
  0
SCALE
  5
55
102
{ACAD_REACTORS
330
47
102
}
330
47
100
AcDbScale
 70
     0
300
4:1
140
4.0
141
1.0
290
     0
  0
SCALE
  5
56
102
{ACAD_REACTORS
330
47
102
}
330
47
100
AcDbScale
 70
     0
300
8:1
140
8.0
141
1.0
290
     0
  0
SCALE
  5
57
102
{ACAD_REACTORS
330
47
102
}
330
47
100
AcDbScale
 70
     0
300
10:1
140
10.0
141
1.0
290
     0
  0
SCALE
  5
58
102
{ACAD_REACTORS
330
47
102
}
330
47
100
AcDbScale
 70
     0
300
100:1
140
100.0
141
1.0
290
     0
  0
SCALE
  5
59
102
{ACAD_REACTORS
330
47
102
}
330
47
100
AcDbScale
 70
     0
300
1/128" = 1'-0"
140
0.0078125
141
12.0
290
     0
  0
SCALE
  5
5A
102
{ACAD_REACTORS
330
47
102
}
330
47
100
AcDbScale
 70
     0
300
1/64" = 1'-0"
140
0.015625
141
12.0
290
     0
  0
SCALE
  5
5B
102
{ACAD_REACTORS
330
47
102
}
330
47
100
AcDbScale
 70
     0
300
1/32" = 1'-0"
140
0.03125
141
12.0
290
     0
  0
SCALE
  5
5C
102
{ACAD_REACTORS
330
47
102
}
330
47
100
AcDbScale
 70
     0
300
1/16" = 1'-0"
140
0.0625
141
12.0
290
     0
  0
SCALE
  5
5D
102
{ACAD_REACTORS
330
47
102
}
330
47
100
AcDbScale
 70
     0
300
3/32" = 1'-0"
140
0.09375
141
12.0
290
     0
  0
SCALE
  5
5E
102
{ACAD_REACTORS
330
47
102
}
330
47
100
AcDbScale
 70
     0
300
1/8" = 1'-0"
140
0.125
141
12.0
290
     0
  0
SCALE
  5
5F
102
{ACAD_REACTORS
330
47
102
}
330
47
100
AcDbScale
 70
     0
300
3/16" = 1'-0"
140
0.1875
141
12.0
290
     0
  0
SCALE
  5
60
102
{ACAD_REACTORS
330
47
102
}
330
47
100
AcDbScale
 70
     0
300
1/4" = 1'-0"
140
0.25
141
12.0
290
     0
  0
SCALE
  5
61
102
{ACAD_REACTORS
330
47
102
}
330
47
100
AcDbScale
 70
     0
300
3/8" = 1'-0"
140
0.375
141
12.0
290
     0
  0
SCALE
  5
62
102
{ACAD_REACTORS
330
47
102
}
330
47
100
AcDbScale
 70
     0
300
1/2" = 1'-0"
140
0.5
141
12.0
290
     0
  0
SCALE
  5
63
102
{ACAD_REACTORS
330
47
102
}
330
47
100
AcDbScale
 70
     0
300
3/4" = 1'-0"
140
0.75
141
12.0
290
     0
  0
SCALE
  5
64
102
{ACAD_REACTORS
330
47
102
}
330
47
100
AcDbScale
 70
     0
300
1" = 1'-0"
140
1.0
141
12.0
290
     0
  0
SCALE
  5
65
102
{ACAD_REACTORS
330
47
102
}
330
47
100
AcDbScale
 70
     0
300
1-1/2" = 1'-0"
140
1.5
141
12.0
290
     0
  0
SCALE
  5
66
102
{ACAD_REACTORS
330
47
102
}
330
47
100
AcDbScale
 70
     0
300
3" = 1'-0"
140
3.0
141
12.0
290
     0
  0
SCALE
  5
67
102
{ACAD_REACTORS
330
47
102
}
330
47
100
AcDbScale
 70
     0
300
6" = 1'-0"
140
6.0
141
12.0
290
     0
  0
SCALE
  5
68
102
{ACAD_REACTORS
330
47
102
}
330
47
100
AcDbScale
 70
     0
300
1'-0" = 1'-0"
140
12.0
141
12.0
290
     0
  0
ENDSEC
  0
EOF
