  0
SECTION
  2
HEADER
  9
$ACADVER
  1
AC1015
  9
$ACADMAINTVER
 70
     6
  9
$DWGCODEPAGE
  3
ANSI_1250
  9
$INSBASE
 10
0.0
 20
0.0
 30
0.0
  9
$EXTMIN
 10
0.0
 20
0.0
 30
0.0
  9
$EXTMAX
 10
20000.0
 20
10000.0
 30
0.0
  9
$LIMMIN
 10
0.0
 20
0.0
  9
$LIMMAX
 10
20000.0
 20
10000.0
  9
$ORTHOMODE
 70
     0
  9
$REGENMODE
 70
     1
  9
$FILLMODE
 70
     1
  9
$QTEXTMODE
 70
     0
  9
$MIRRTEXT
 70
     1
  9
$LTSCALE
 40
1.0
  9
$ATTMODE
 70
     1
  9
$TEXTSIZE
 40
2.0
  9
$TRACEWID
 40
1.0
  9
$TEXTSTYLE
  7
Standard
  9
$CLAYER
  8
0
  9
$CELTYPE
  6
ByLayer
  9
$CECOLOR
 62
   256
  9
$CELTSCALE
 40
1.0
  9
$DISPSILH
 70
     0
  9
$DIMSCALE
 40
1.0
  9
$DIMASZ
 40
2.0
  9
$DIMEXO
 40
1.0
  9
$DIMDLI
 40
3.75
  9
$DIMRND
 40
0.0
  9
$DIMDLE
 40
0.0
  9
$DIMEXE
 40
1.0
  9
$DIMTP
 40
0.0
  9
$DIMTM
 40
0.0
  9
$DIMTXT
 40
2.0
  9
$DIMCEN
 40
2.5
  9
$DIMTSZ
 40
0.0
  9
$DIMTOL
 70
     0
  9
$DIMLIM
 70
     0
  9
$DIMTIH
 70
     1
  9
$DIMTOH
 70
     1
  9
$DIMSE1
 70
     0
  9
$DIMSE2
 70
     0
  9
$DIMTAD
 70
     1
  9
$DIMZIN
 70
     0
  9
$DIMBLK
  1

  9
$DIMASO
 70
     1
  9
$DIMSHO
 70
     1
  9
$DIMPOST
  1

  9
$DIMAPOST
  1

  9
$DIMALT
 70
     0
  9
$DIMALTD
 70
     3
  9
$DIMALTF
 40
0.0393700787
  9
$DIMLFAC
 40
1.0
  9
$DIMTOFL
 70
     1
  9
$DIMTVP
 40
0.0
  9
$DIMTIX
 70
     0
  9
$DIMSOXD
 70
     0
  9
$DIMSAH
 70
     0
  9
$DIMBLK1
  1

  9
$DIMBLK2
  1

  9
$DIMSTYLE
  2
ISO-25
  9
$DIMCLRD
 70
     0
  9
$DIMCLRE
 70
     0
  9
$DIMCLRT
 70
     0
  9
$DIMTFAC
 40
1.0
  9
$DIMGAP
 40
1.524
  9
$DIMJUST
 70
     0
  9
$DIMSD1
 70
     0
  9
$DIMSD2
 70
     0
  9
$DIMTOLJ
 70
     0
  9
$DIMTZIN
 70
     0
  9
$DIMALTZ
 70
     0
  9
$DIMALTTZ
 70
     0
  9
$DIMUPT
 70
     0
  9
$DIMDEC
 70
     2
  9
$DIMTDEC
 70
     0
  9
$DIMALTU
 70
     2
  9
$DIMALTTD
 70
     3
  9
$DIMTXSTY
  7
Standard
  9
$DIMAUNIT
 70
     0
  9
$DIMADEC
 70
     2
  9
$DIMALTRND
 40
0.0
  9
$DIMAZIN
 70
     0
  9
$DIMDSEP
 70
    44
  9
$DIMATFIT
 70
     3
  9
$DIMFRAC
 70
     0
  9
$DIMLDRBLK
  1

  9
$DIMLUNIT
 70
     2
  9
$DIMLWD
 70
    -2
  9
$DIMLWE
 70
    -2
  9
$DIMTMOVE
 70
     0
  9
$LUNITS
 70
     2
  9
$LUPREC
 70
     3
  9
$SKETCHINC
 40
1.0
  9
$FILLETRAD
 40
10.0
  9
$AUNITS
 70
     0
  9
$AUPREC
 70
     2
  9
$MENU
  1
.
  9
$ELEVATION
 40
0.0
  9
$PELEVATION
 40
0.0
  9
$THICKNESS
 40
0.0
  9
$LIMCHECK
 70
     0
  9
$CHAMFERA
 40
0.0
  9
$CHAMFERB
 40
0.0
  9
$CHAMFERC
 40
0.0
  9
$CHAMFERD
 40
0.0
  9
$SKPOLY
 70
     0
  9
$TDCREATE
 40
2458701.625734618
  9
$TDUCREATE
 40
2458701.542401285
  9
$TDUPDATE
 40
2458701.625734896
  9
$TDUUPDATE
 40
2458701.542401562
  9
$TDINDWG
 40
0.0000000116
  9
$TDUSRTIMER
 40
0.0000000116
  9
$USRTIMER
 70
     1
  9
$ANGBASE
 50
0.0
  9
$ANGDIR
 70
     0
  9
$PDMODE
 70
     0
  9
$PDSIZE
 40
-1.0
  9
$PLINEWID
 40
0.0
  9
$SPLFRAME
 70
     0
  9
$SPLINETYPE
 70
     6
  9
$SPLINESEGS
 70
     8
  9
$HANDSEED
  5
2C6
  9
$SURFTAB1
 70
     6
  9
$SURFTAB2
 70
     6
  9
$SURFTYPE
 70
     6
  9
$SURFU
 70
     6
  9
$SURFV
 70
     6
  9
$UCSBASE
  2

  9
$UCSNAME
  2

  9
$UCSORG
 10
0.0
 20
0.0
 30
0.0
  9
$UCSXDIR
 10
1.0
 20
0.0
 30
0.0
  9
$UCSYDIR
 10
0.0
 20
1.0
 30
0.0
  9
$UCSORTHOREF
  2

  9
$UCSORTHOVIEW
 70
     0
  9
$UCSORGTOP
 10
0.0
 20
0.0
 30
0.0
  9
$UCSORGBOTTOM
 10
0.0
 20
0.0
 30
0.0
  9
$UCSORGLEFT
 10
0.0
 20
0.0
 30
0.0
  9
$UCSORGRIGHT
 10
0.0
 20
0.0
 30
0.0
  9
$UCSORGFRONT
 10
0.0
 20
0.0
 30
0.0
  9
$UCSORGBACK
 10
0.0
 20
0.0
 30
0.0
  9
$PUCSBASE
  2

  9
$PUCSNAME
  2

  9
$PUCSORG
 10
0.0
 20
0.0
 30
0.0
  9
$PUCSXDIR
 10
1.0
 20
0.0
 30
0.0
  9
$PUCSYDIR
 10
0.0
 20
1.0
 30
0.0
  9
$PUCSORTHOREF
  2

  9
$PUCSORTHOVIEW
 70
     0
  9
$PUCSORGTOP
 10
0.0
 20
0.0
 30
0.0
  9
$PUCSORGBOTTOM
 10
0.0
 20
0.0
 30
0.0
  9
$PUCSORGLEFT
 10
0.0
 20
0.0
 30
0.0
  9
$PUCSORGRIGHT
 10
0.0
 20
0.0
 30
0.0
  9
$PUCSORGFRONT
 10
0.0
 20
0.0
 30
0.0
  9
$PUCSORGBACK
 10
0.0
 20
0.0
 30
0.0
  9
$USERI1
 70
     0
  9
$USERI2
 70
     0
  9
$USERI3
 70
     0
  9
$USERI4
 70
     0
  9
$USERI5
 70
     0
  9
$USERR1
 40
0.0
  9
$USERR2
 40
0.0
  9
$USERR3
 40
0.0
  9
$USERR4
 40
0.0
  9
$USERR5
 40
0.0
  9
$WORLDVIEW
 70
     1
  9
$SHADEDGE
 70
     3
  9
$SHADEDIF
 70
    70
  9
$TILEMODE
 70
     1
  9
$MAXACTVP
 70
    64
  9
$PINSBASE
 10
0.0
 20
0.0
 30
0.0
  9
$PLIMCHECK
 70
     0
  9
$PEXTMIN
 10
1.0000000000E+20
 20
1.0000000000E+20
 30
1.0000000000E+20
  9
$PEXTMAX
 10
-1.0000000000E+20
 20
-1.0000000000E+20
 30
-1.0000000000E+20
  9
$PLIMMIN
 10
0.0
 20
0.0
  9
$PLIMMAX
 10
420.0
 20
297.0
  9
$UNITMODE
 70
     0
  9
$VISRETAIN
 70
     1
  9
$PLINEGEN
 70
     0
  9
$PSLTSCALE
 70
     1
  9
$TREEDEPTH
 70
  3020
  9
$CMLSTYLE
  2
Standard
  9
$CMLJUST
 70
     0
  9
$CMLSCALE
 40
20.0
  9
$PROXYGRAPHICS
 70
     1
  9
$MEASUREMENT
 70
     1
  9
$CELWEIGHT
370
    -1
  9
$ENDCAPS
280
     0
  9
$JOINSTYLE
280
     0
  9
$LWDISPLAY
290
     1
  9
$INSUNITS
 70
     4
  9
$HYPERLINKBASE
  1

  9
$STYLESHEET
  1

  9
$XEDIT
290
     1
  9
$CEPSNTYPE
380
     0
  9
$PSTYLEMODE
290
     1
  9
$FINGERPRINTGUID
  2
{0AC01614-7810-4192-A195-52A8EF8ED01C}
  9
$VERSIONGUID
  2
{FAEB1C32-E019-11D5-929B-00C0DF256EC4}
  9
$EXTNAMES
290
     1
  9
$PSVPSCALE
 40
0.0
  9
$OLESTARTUP
290
     0
  0
ENDSEC
  0
SECTION
  2
CLASSES
  0
CLASS
  1
ACDBDICTIONARYWDFLT
  2
AcDbDictionaryWithDefault
  3
ObjectDBX Classes
 90
        0
280
     0
281
     0
  0
CLASS
  1
VISUALSTYLE
  2
AcDbVisualStyle
  3
ObjectDBX Classes
 90
     4095
280
     0
281
     0
  0
CLASS
  1
MATERIAL
  2
AcDbMaterial
  3
ObjectDBX Classes
 90
     1153
280
     0
281
     0
  0
CLASS
  1
SCALE
  2
AcDbScale
  3
ObjectDBX Classes
 90
     1153
280
     0
281
     0
  0
CLASS
  1
TABLESTYLE
  2
AcDbTableStyle
  3
ObjectDBX Classes
 90
     4095
280
     0
281
     0
  0
CLASS
  1
MLEADERSTYLE
  2
AcDbMLeaderStyle
  3
ACDB_MLEADERSTYLE_CLASS
 90
     4095
280
     0
281
     0
  0
CLASS
  1
SUN
  2
AcDbSun
  3
SCENEOE
 90
     1153
280
     0
281
     0
  0
CLASS
  1
ACDBPLACEHOLDER
  2
AcDbPlaceHolder
  3
ObjectDBX Classes
 90
        0
280
     0
281
     0
  0
CLASS
  1
LAYOUT
  2
AcDbLayout
  3
ObjectDBX Classes
 90
        0
280
     0
281
     0
  0
ENDSEC
  0
SECTION
  2
TABLES
  0
TABLE
  2
VPORT
  5
8
330
0
100
AcDbSymbolTable
 70
     1
  0
VPORT
  5
29
330
8
100
AcDbSymbolTableRecord
100
AcDbViewportTableRecord
  2
*Active
 70
     0
 10
0.0
 20
0.0
 11
1.0
 21
1.0
 12
10000.0
 22
5000.0
 13
0.0
 23
0.0
 14
10.0
 24
10.0
 15
10.0
 25
10.0
 16
0.0
 26
0.0
 36
1.0
 17
0.0
 27
0.0
 37
0.0
 40
10000.0
 41
2.0
 42
50.0
 43
0.0
 44
0.0
 50
0.0
 51
0.0
 71
     0
 72
  2000
 73
     1
 74
     3
 75
     0
 76
     0
 77
     0
 78
     0
281
     0
 65
     1
110
0.0
120
0.0
130
0.0
111
1.0
121
0.0
131
0.0
112
0.0
122
1.0
132
0.0
 79
     0
146
0.0
  0
ENDTAB
  0
TABLE
  2
LTYPE
  5
5
330
0
100
AcDbSymbolTable
 70
     6
  0
LTYPE
  5
14
330
5
100
AcDbSymbolTableRecord
100
AcDbLinetypeTableRecord
  2
ByBlock
 70
     0
  3

 72
    65
 73
     0
 40
0.0
  0
LTYPE
  5
15
330
5
100
AcDbSymbolTableRecord
100
AcDbLinetypeTableRecord
  2
ByLayer
 70
     0
  3

 72
    65
 73
     0
 40
0.0
  0
LTYPE
  5
16
330
5
100
AcDbSymbolTableRecord
100
AcDbLinetypeTableRecord
  2
Continuous
 70
     0
  3
Solid line
 72
    65
 73
     0
 40
0.0
  0
LTYPE
  5
6E
330
5
100
AcDbSymbolTableRecord
100
AcDbLinetypeTableRecord
  2
HIDDEN
 70
     0
  3
Hidden __ __ __ __ __ __ __ __ __ __ __ __ __ __
 72
    65
 73
     2
 40
1.905
 49
1.27
 74
     0
 49
-0.635
 74
     0
  0
LTYPE
  5
6F
330
5
100
AcDbSymbolTableRecord
100
AcDbLinetypeTableRecord
  2
PHANTOM
 70
     0
  3
Phantom ______  __  __  ______  __  __  ______
 72
    65
 73
     6
 40
12.7
 49
6.35
 74
     0
 49
-1.27
 74
     0
 49
1.27
 74
     0
 49
-1.27
 74
     0
 49
1.27
 74
     0
 49
-1.27
 74
     0
  0
LTYPE
  5
70
330
5
100
AcDbSymbolTableRecord
100
AcDbLinetypeTableRecord
  2
CENTER
 70
     0
  3
Center ____ _ ____ _ ____ _ ____ _ ____ _ ____
 72
    65
 73
     4
 40
10.16
 49
6.35
 74
     0
 49
-1.27
 74
     0
 49
1.27
 74
     0
 49
-1.27
 74
     0
  0
LTYPE
  5
71
330
5
100
AcDbSymbolTableRecord
100
AcDbLinetypeTableRecord
  2
CENTERX2
 70
     0
  3
Center (2x) ________  __  ________  __  _____
 72
    65
 73
     4
 40
20.32
 49
12.7
 74
     0
 49
-2.54
 74
     0
 49
2.54
 74
     0
 49
-2.54
 74
     0
  0
LTYPE
  5
72
330
5
100
AcDbSymbolTableRecord
100
AcDbLinetypeTableRecord
  2
DOT2
 70
     0
  3
Dot (.5x) ........................................
 72
    65
 73
     2
 40
0.635
 49
0.0
 74
     0
 49
-0.635
 74
     0
  0
ENDTAB
  0
TABLE
  2
LAYER
  5
2
330
0
100
AcDbSymbolTable
 70
    13
  0
LAYER
  5
10
330
2
100
AcDbSymbolTableRecord
100
AcDbLayerTableRecord
  2
0
 70
     0
 62
     7
  6
Continuous
370
    -3
390
F
  0
LAYER
  5
73
330
2
100
AcDbSymbolTableRecord
100
AcDbLayerTableRecord
  2
FORMAT
 70
     0
 62
     7
  6
Continuous
370
    -3
390
F
  0
LAYER
  5
74
330
2
100
AcDbSymbolTableRecord
100
AcDbLayerTableRecord
  2
OSA
 70
     0
 62
     7
  6
CENTER
370
    -3
390
F
  0
LAYER
  5
75
330
2
100
AcDbSymbolTableRecord
100
AcDbLayerTableRecord
  2
0_35
 70
     0
 62
     7
  6
Continuous
370
    35
390
F
  0
LAYER
  5
76
330
2
100
AcDbSymbolTableRecord
100
AcDbLayerTableRecord
  2
0_5
 70
     0
 62
     7
  6
Continuous
370
    50
390
F
  0
LAYER
  5
77
330
2
100
AcDbSymbolTableRecord
100
AcDbLayerTableRecord
  2
0_25
 70
     0
 62
     7
  6
Continuous
370
    25
390
F
  0
LAYER
  5
78
330
2
100
AcDbSymbolTableRecord
100
AcDbLayerTableRecord
  2
0_18
 70
     0
 62
     7
  6
Continuous
370
    -3
390
F
  0
LAYER
  5
79
330
2
100
AcDbSymbolTableRecord
100
AcDbLayerTableRecord
  2
SLD-0
 70
     0
 62
   179
  6
Continuous
370
    -3
390
F
  0
LAYER
  5
7A
330
2
100
AcDbSymbolTableRecord
100
AcDbLayerTableRecord
  2
KOTY
 70
     0
 62
     7
  6
Continuous
370
    -3
390
F
  0
LAYER
  5
7B
330
2
100
AcDbSymbolTableRecord
100
AcDbLayerTableRecord
  2
SILNA
 70
     0
 62
   179
  6
Continuous
370
    -3
390
F
  0
LAYER
  5
7C
330
2
100
AcDbSymbolTableRecord
100
AcDbLayerTableRecord
  2
0_18_1
 70
     0
 62
   179
  6
Continuous
370
    -3
390
F
  0
LAYER
  5
7D
330
2
100
AcDbSymbolTableRecord
100
AcDbLayerTableRecord
  2
0_35_1
 70
     0
 62
   179
  6
Continuous
370
    35
390
F
  0
LAYER
  5
7E
330
2
100
AcDbSymbolTableRecord
100
AcDbLayerTableRecord
  2
0_5_1
 70
     0
 62
   179
  6
Continuous
370
    50
390
F
  0
ENDTAB
  0
TABLE
  2
STYLE
  5
3
330
0
100
AcDbSymbolTable
 70
     1
  0
STYLE
  5
11
330
3
100
AcDbSymbolTableRecord
100
AcDbTextStyleTableRecord
  2
Standard
 70
     0
 40
0.0
 41
1.0
 50
0.0
 71
     0
 42
2.0
  3
txt
  4

  0
ENDTAB
  0
TABLE
  2
VIEW
  5
6
330
0
100
AcDbSymbolTable
 70
     0
  0
ENDTAB
  0
TABLE
  2
UCS
  5
7
330
0
100
AcDbSymbolTable
 70
     0
  0
ENDTAB
  0
TABLE
  2
APPID
  5
9
330
0
100
AcDbSymbolTable
 70
     1
  0
APPID
  5
12
330
9
100
AcDbSymbolTableRecord
100
AcDbRegAppTableRecord
  2
ACAD
 70
     0
  0
ENDTAB
  0
TABLE
  2
DIMSTYLE
  5
A
330
0
100
AcDbSymbolTable
 70
     1
100
AcDbDimStyleTable
  0
DIMSTYLE
105
27
330
A
100
AcDbSymbolTableRecord
100
AcDbDimStyleTableRecord
  2
ISO-25
 70
     0
 41
2.5
 42
0.625
 43
3.75
 44
1.25
 73
     0
 74
     0
 77
     1
 78
     8
140
2.5
141
2.5
143
0.0393700787
147
0.625
171
     3
172
     1
178
     0
271
     2
272
     2
274
     3
278
    44
283
     0
284
     8
340
11
  0
ENDTAB
  0
TABLE
  2
BLOCK_RECORD
  5
1
330
0
100
AcDbSymbolTable
 70
     1
  0
BLOCK_RECORD
  5
1F
330
1
100
AcDbSymbolTableRecord
100
AcDbBlockTableRecord
  2
*Model_Space
340
22
  0
BLOCK_RECORD
  5
1B
330
1
100
AcDbSymbolTableRecord
100
AcDbBlockTableRecord
  2
*Paper_Space
340
1E
  0
BLOCK_RECORD
  5
23
330
1
100
AcDbSymbolTableRecord
100
AcDbBlockTableRecord
  2
*Paper_Space0
340
26
  0
ENDTAB
  0
ENDSEC
  0
SECTION
  2
BLOCKS
  0
BLOCK
  5
20
330
1F
100
AcDbEntity
  8
0
100
AcDbBlockBegin
  2
*Model_Space
 70
     0
 10
0.0
 20
0.0
 30
0.0
  3
*Model_Space
  1

  0
ENDBLK
  5
21
330
1F
100
AcDbEntity
  8
0
100
AcDbBlockEnd
  0
BLOCK
  5
1C
330
1B
100
AcDbEntity
 67
     1
  8
0
100
AcDbBlockBegin
  2
*Paper_Space
 70
     0
 10
0.0
 20
0.0
 30
0.0
  3
*Paper_Space
  1

  0
ENDBLK
  5
1D
330
1B
100
AcDbEntity
 67
     1
  8
0
100
AcDbBlockEnd
  0
BLOCK
  5
24
330
23
100
AcDbEntity
  8
0
100
AcDbBlockBegin
  2
*Paper_Space0
 70
     0
 10
0.0
 20
0.0
 30
0.0
  3
*Paper_Space0
  1

  0
ENDBLK
  5
25
330
23
100
AcDbEntity
  8
0
100
AcDbBlockEnd
  0
ENDSEC
  0
SECTION
  2
ENTITIES
  0
LINE
  5
7F
330
1F
100
AcDbEntity
  8
0
  6
Continuous
 62
     7
370
    25
100
AcDbLine
 10
5810.1693516153
 20
6172.7582879142
 30
0.0
 11
5810.1860409158
 21
6172.7582879142
 31
0.0
  0
LINE
  5
80
330
1F
100
AcDbEntity
  8
0
  6
Continuous
 62
     7
370
    25
100
AcDbLine
 10
5810.1860409158
 20
6183.2582868413
 30
0.0
 11
5810.1693516153
 21
6183.2582868413
 31
0.0
  0
LINE
  5
81
330
1F
100
AcDbEntity
  8
0
  6
Continuous
 62
     7
370
    25
100
AcDbLine
 10
5809.8482017892
 20
6143.0082835034
 30
0.0
 11
5809.8648910897
 21
6143.0082835034
 31
0.0
  0
LINE
  5
82
330
1F
100
AcDbEntity
  8
0
  6
Continuous
 62
     7
370
    25
100
AcDbLine
 10
5809.8648910897
 20
6213.0082763509
 30
0.0
 11
5809.8482017892
 21
6213.0082763509
 31
0.0
  0
LINE
  5
83
330
1F
100
AcDbEntity
  8
0
  6
Continuous
 62
     7
370
    25
100
AcDbLine
 10
5810.1776962655
 20
6166.5082789735
 30
0.0
 11
5810.1943855661
 21
6166.5082789735
 31
0.0
  0
LINE
  5
84
330
1F
100
AcDbEntity
  8
0
  6
Continuous
 62
     7
370
    25
100
AcDbLine
 10
5810.1943855661
 20
6189.5082808808
 30
0.0
 11
5810.1776962655
 21
6189.5082808808
 31
0.0
  0
LINE
  5
85
330
1F
100
AcDbEntity
  8
0
  6
Continuous
 62
     7
370
    25
100
AcDbLine
 10
6617.311728515
 20
6368.0066360869
 30
0.0
 11
6617.311728515
 21
6370.506636031
 31
0.0
  0
LINE
  5
86
330
1F
100
AcDbEntity
  8
0
  6
Continuous
 62
     7
370
    25
100
AcDbLine
 10
6557.3116665261
 20
6370.506636031
 30
0.0
 11
6557.3116665261
 21
6368.0066360869
 31
0.0
  0
LINE
  5
87
330
1F
100
AcDbEntity
  8
0
  6
Continuous
 62
     7
370
    25
100
AcDbLine
 10
6557.3116665261
 20
6368.0066360869
 30
0.0
 11
6557.8117494958
 21
6367.506636005
 31
0.0
  0
LINE
  5
88
330
1F
100
AcDbEntity
  8
0
  6
Continuous
 62
     7
370
    25
100
AcDbLine
 10
6616.8117647546
 20
6367.506636005
 30
0.0
 11
6617.311728515
 21
6368.0066360869
 31
0.0
  0
LINE
  5
89
330
1F
100
AcDbEntity
  8
0
  6
Continuous
 62
     7
370
    25
100
AcDbLine
 10
6017.3117046731
 20
6368.0066360869
 30
0.0
 11
6017.3117046731
 21
6370.506636031
 31
0.0
  0
LINE
  5
8A
330
1F
100
AcDbEntity
  8
0
  6
Continuous
 62
     7
370
    25
100
AcDbLine
 10
5957.3117618936
 20
6370.506636031
 30
0.0
 11
5957.3117618936
 21
6368.0066360869
 31
0.0
  0
LINE
  5
8B
330
1F
100
AcDbEntity
  8
0
  6
Continuous
 62
     7
370
    25
100
AcDbLine
 10
5957.3117618936
 20
6368.0066360869
 30
0.0
 11
5957.8117256539
 21
6367.506636005
 31
0.0
  0
LINE
  5
8C
330
1F
100
AcDbEntity
  8
0
  6
Continuous
 62
     7
370
    25
100
AcDbLine
 10
6016.8117409127
 20
6367.506636005
 30
0.0
 11
6017.3117046731
 21
6368.0066360869
 31
0.0
  0
LINE
  5
8D
330
1F
100
AcDbEntity
  8
0
  6
Continuous
 62
     7
370
    25
100
AcDbLine
 10
6573.3116989511
 20
6367.506636005
 30
0.0
 11
6573.3116989511
 21
6202.506638296
 31
0.0
  0
LINE
  5
8E
330
1F
100
AcDbEntity
  8
0
  6
Continuous
 62
     7
370
    25
100
AcDbLine
 10
6601.31169609
 20
6202.506638296
 30
0.0
 11
6601.31169609
 21
6367.506636005
 31
0.0
  0
LINE
  5
8F
330
1F
100
AcDbEntity
  8
0
  6
Continuous
 62
     7
370
    25
100
AcDbLine
 10
6573.3116989511
 20
6202.506638296
 30
0.0
 11
6574.3117456811
 21
6201.5066362695
 31
0.0
  0
LINE
  5
90
330
1F
100
AcDbEntity
  8
0
  6
Continuous
 62
     7
370
    25
100
AcDbLine
 10
6600.3117685693
 20
6201.5066362695
 30
0.0
 11
6601.31169609
 21
6202.506638296
 31
0.0
  0
LINE
  5
91
330
1F
100
AcDbEntity
  8
0
  6
Continuous
 62
     7
370
    25
100
AcDbLine
 10
5973.3117943185
 20
6367.506636005
 30
0.0
 11
5973.3117943185
 21
6202.506638296
 31
0.0
  0
LINE
  5
92
330
1F
100
AcDbEntity
  8
0
  6
Continuous
 62
     7
370
    25
100
AcDbLine
 10
6001.3116722482
 20
6202.506638296
 30
0.0
 11
6001.3116722482
 21
6367.506636005
 31
0.0
  0
LINE
  5
93
330
1F
100
AcDbEntity
  8
0
  6
Continuous
 62
     7
370
    25
100
AcDbLine
 10
5973.3117943185
 20
6202.506638296
 30
0.0
 11
5974.3117218393
 21
6201.5066362695
 31
0.0
  0
LINE
  5
94
330
1F
100
AcDbEntity
  8
0
  6
Continuous
 62
     7
370
    25
100
AcDbLine
 10
6000.3117447274
 20
6201.5066362695
 30
0.0
 11
6001.3116722482
 21
6202.506638296
 31
0.0
  0
SPLINE
  5
95
330
1F
100
AcDbEntity
  8
0
  6
Continuous
 62
     7
370
    25
100
AcDbSpline
210
0.0
220
0.0
230
1.0
 70
     8
 71
     3
 72
    10
 73
     6
 74
     0
 42
0.000000001
 43
0.00000001
 40
0.0
 40
0.0
 40
0.0
 40
0.0
 40
0.3597323600234087
 40
0.7302930394723206
 40
1.0
 40
1.0
 40
1.0
 40
1.0
 10
5828.132284201923
 20
6184.585384257214
 30
0.0
 10
5827.416295647598
 20
6184.185666583652
 30
0.0
 10
5825.962766536316
 20
6183.374199317444
 30
0.0
 10
5823.622901447838
 20
6182.418853053541
 30
0.0
 10
5821.958569341356
 20
6181.99781667025
 30
0.0
 10
5821.257484473529
 20
6181.820458896535
 30
0.0
  0
ARC
  5
96
330
1F
100
AcDbEntity
  8
0
  6
Continuous
 62
     7
370
    25
100
AcDbCircle
 10
5810.1678863353
 20
6178.0081704891
 30
0.0
 40
5.250159534328147
100
AcDbArc
 50
283.8226582823
 51
87.3707811749
  0
ARC
  5
97
330
1F
100
AcDbEntity
  8
0
  6
Continuous
 62
     7
370
    25
100
AcDbCircle
 10
6123.4359040916
 20
6208.7062607883
 30
0.0
 40
314.0603350645031
100
AcDbArc
 50
184.6487150043
 51
186.5447244528
  0
ARC
  5
98
330
1F
100
AcDbEntity
  8
0
  6
Continuous
 62
     7
370
    25
100
AcDbCircle
 10
5810.1705442583
 20
6178.0083571004
 30
0.0
 40
5.250125733991624
100
AcDbArc
 50
103.8196849755
 51
267.3711380625
  0
ARC
  5
99
330
1F
100
AcDbEntity
  8
0
  6
Continuous
 62
     7
370
    25
100
AcDbCircle
 10
6123.0269079349
 20
6208.6588962669
 30
0.0
 40
315.1480557246349
100
AcDbArc
 50
184.6506812052
 51
186.5401418329
  0
LINE
  5
9A
330
1F
100
AcDbEntity
  8
0
  6
Continuous
 62
     7
370
    25
100
AcDbLine
 10
5809.9297409433
 20
6172.7637566403
 30
0.0
 11
5808.9164619821
 21
6183.1065036134
 31
0.0
  0
ARC
  5
9B
330
1F
100
AcDbEntity
  8
0
  6
Continuous
 62
     7
370
    25
100
AcDbCircle
 10
5810.1850353758
 20
6178.0087837603
 30
0.0
 40
5.249503177318611
100
AcDbArc
 50
5.5923005266
 51
89.9890250191
  0
ARC
  5
9C
330
1F
100
AcDbEntity
  8
0
  6
Continuous
 62
     7
370
    25
100
AcDbCircle
 10
5810.1850378138
 20
6178.007877009
 30
0.0
 40
5.249589190708991
100
AcDbArc
 50
270.0109481923
 51
5.6021526044
  0
ARC
  5
9D
330
1F
100
AcDbEntity
  8
0
  6
Continuous
 62
     7
370
    25
100
AcDbCircle
 10
5810.1692128289
 20
6178.0068912868
 30
0.0
 40
5.248600547296661
100
AcDbArc
 50
267.3849232479
 51
283.8119334254
  0
ARC
  5
9E
330
1F
100
AcDbEntity
  8
0
  6
Continuous
 62
     7
370
    25
100
AcDbCircle
 10
5810.1690573177
 20
6178.013695978
 30
0.0
 40
5.244586226403782
100
AcDbArc
 50
87.3807913262
 51
103.8178429008
  0
CIRCLE
  5
9F
330
1F
100
AcDbEntity
  8
0
  6
Continuous
 62
     7
370
    25
100
AcDbCircle
 10
5809.8411971991
 20
6178.0080636361
 30
0.0
 40
34.99700511985521
  0
ARC
  5
A0
330
1F
100
AcDbEntity
  8
0
  6
Continuous
 62
     7
370
    25
100
AcDbCircle
 10
5809.8604648864
 20
6178.0140334213
 30
0.0
 40
34.9942432094675
100
AcDbArc
 50
1.7687099047
 51
89.9927530146
  0
ARC
  5
A1
330
1F
100
AcDbEntity
  8
0
  6
Continuous
 62
     7
370
    25
100
AcDbCircle
 10
5809.8598117668
 20
6178.0035056669
 30
0.0
 40
34.99522253210348
100
AcDbArc
 50
270.0083161
 51
1.7859052097
  0
CIRCLE
  5
A2
330
1F
100
AcDbEntity
  8
0
  6
Continuous
 62
     7
370
    25
100
AcDbCircle
 10
5809.8434760962
 20
6178.0070276411
 30
0.0
 40
24.49761735600699
  0
CIRCLE
  5
A3
330
1F
100
AcDbEntity
  8
0
  6
Continuous
 62
     7
370
    25
100
AcDbCircle
 10
5809.8914385096
 20
6178.00852563
 30
0.0
 40
22.49814302853981
  0
ARC
  5
A4
330
1F
100
AcDbEntity
  8
0
  6
Continuous
 62
     7
370
    25
100
AcDbCircle
 10
5810.0441237625
 20
6178.0082873777
 30
0.0
 40
22.5000014382818
100
AcDbArc
 50
90.0126017386
 51
269.9873982614
  0
CIRCLE
  5
A5
330
1F
100
AcDbEntity
  8
0
  6
Continuous
 62
     7
370
    25
100
AcDbCircle
 10
5810.1366745932
 20
6178.0077728572
 30
0.0
 40
21.49809259020285
  0
CIRCLE
  5
A6
330
1F
100
AcDbEntity
  8
0
  6
Continuous
 62
     7
370
    25
100
AcDbCircle
 10
5810.1736688176
 20
6178.0081545514
 30
0.0
 40
19.55136985235781
  0
CIRCLE
  5
A7
330
1F
100
AcDbEntity
  8
0
  6
Continuous
 62
     7
370
    25
100
AcDbCircle
 10
5810.1763184039
 20
6178.0076695051
 30
0.0
 40
6.181559863498631
  0
ARC
  5
A8
330
1F
100
AcDbEntity
  8
0
  6
Continuous
 62
     7
370
    25
100
AcDbCircle
 10
5810.1626708734
 20
6178.0084578767
 30
0.0
 40
19.50936621059112
100
AcDbArc
 50
348.7324789559
 51
14.8202946271
  0
ARC
  5
A9
330
1F
100
AcDbEntity
  8
0
  6
Continuous
 62
     7
370
    25
100
AcDbCircle
 10
5825.1571046484
 20
6181.9757705683
 30
0.0
 40
3.998962792027075
100
AcDbArc
 50
14.8212647556
 51
194.8428159846
  0
ARC
  5
AA
330
1F
100
AcDbEntity
  8
0
  6
Continuous
 62
     7
370
    25
100
AcDbCircle
 10
5810.1692486905
 20
6178.0085333598
 30
0.0
 40
11.50506263644272
100
AcDbArc
 50
348.7312811041
 51
14.8201450573
  0
ARC
  5
AB
330
1F
100
AcDbEntity
  8
0
  6
Continuous
 62
     7
370
    25
100
AcDbCircle
 10
5825.3741191434
 20
6174.9777225183
 30
0.0
 40
3.998933748138816
100
AcDbArc
 50
168.7142835886
 51
348.7346452886
  0
ARC
  5
AC
330
1F
100
AcDbEntity
  8
0
  6
Continuous
 62
     7
370
    25
100
AcDbCircle
 10
5810.1776243414
 20
6178.0188679897
 30
0.0
 40
19.48941471082448
100
AcDbArc
 50
78.7244610672
 51
104.8321943601
  0
ARC
  5
AD
330
1F
100
AcDbEntity
  8
0
  6
Continuous
 62
     7
370
    25
100
AcDbCircle
 10
5806.2127428153
 20
6192.9923048278
 30
0.0
 40
3.99993131338003
100
AcDbArc
 50
104.8359792758
 51
284.812805306
  0
ARC
  5
AE
330
1F
100
AcDbEntity
  8
0
  6
Continuous
 62
     7
370
    25
100
AcDbCircle
 10
5810.1776624582
 20
6178.0146150302
 30
0.0
 40
11.49367332896671
100
AcDbArc
 50
78.7242659071
 51
104.8323812554
  0
ARC
  5
AF
330
1F
100
AcDbEntity
  8
0
  6
Continuous
 62
     7
370
    25
100
AcDbCircle
 10
5813.2058565346
 20
6193.2094324842
 30
0.0
 40
3.999952514415659
100
AcDbArc
 50
258.7430667775
 51
78.7188631021
  0
ARC
  5
B0
330
1F
100
AcDbEntity
  8
0
  6
Continuous
 62
     7
370
    25
100
AcDbCircle
 10
5810.1886558215
 20
6178.0079758808
 30
0.0
 40
19.50540340075972
100
AcDbArc
 50
168.7297821267
 51
194.8229914563
  0
ARC
  5
B1
330
1F
100
AcDbEntity
  8
0
  6
Continuous
 62
     7
370
    25
100
AcDbCircle
 10
5795.1982556162
 20
6174.0409111335
 30
0.0
 40
3.998962770309383
100
AcDbArc
 50
194.8230707195
 51
14.8410100207
  0
ARC
  5
B2
330
1F
100
AcDbEntity
  8
0
  6
Continuous
 62
     7
370
    25
100
AcDbCircle
 10
5810.1885708324
 20
6178.0086200801
 30
0.0
 40
11.50756072160236
100
AcDbArc
 50
168.7367728662
 51
194.8199112914
  0
ARC
  5
B3
330
1F
100
AcDbEntity
  8
0
  6
Continuous
 62
     7
370
    25
100
AcDbCircle
 10
5794.9811922742
 20
6181.0390283844
 30
0.0
 40
3.998816879231329
100
AcDbArc
 50
348.711158053
 51
168.737102882
  0
ARC
  5
B4
330
1F
100
AcDbEntity
  8
0
  6
Continuous
 62
     7
370
    25
100
AcDbCircle
 10
5810.1776700387
 20
6177.9964994756
 30
0.0
 40
19.48822614627492
100
AcDbArc
 50
258.7240586124
 51
284.8326931184
  0
ARC
  5
B5
330
1F
100
AcDbEntity
  8
0
  6
Continuous
 62
     7
370
    25
100
AcDbCircle
 10
5814.1426928425
 20
6163.0242980106
 30
0.0
 40
3.999900784033801
100
AcDbArc
 50
284.8319231262
 51
104.8135599521
  0
ARC
  5
B6
330
1F
100
AcDbEntity
  8
0
  6
Continuous
 62
     7
370
    25
100
AcDbCircle
 10
5810.1777057107
 20
6178.0027294943
 30
0.0
 40
11.49443809098796
100
AcDbArc
 50
258.7251497811
 51
284.8314973814
  0
ARC
  5
B7
330
1F
100
AcDbEntity
  8
0
  6
Continuous
 62
     7
370
    25
100
AcDbCircle
 10
5807.1494805211
 20
6162.807138424
 30
0.0
 40
3.999952502868757
100
AcDbArc
 50
78.7422565216
 51
258.719673358
  0
LINE
  5
B8
330
1F
100
AcDbEntity
  8
0
  6
Continuous
 62
     7
370
    25
100
AcDbLine
 10
5821.4694385904
 20
6175.7603205518
 30
0.0
 11
5821.4525108712
 21
6175.7603205518
 31
0.0
  0
ARC
  5
B9
330
1F
100
AcDbEntity
  8
0
  6
Continuous
 62
     7
370
    25
100
AcDbCircle
 10
5825.391511571
 20
6174.9777941342
 30
0.0
 40
3.99937545865879
100
AcDbArc
 50
168.7165926162
 51
269.9919172894
  0
LINE
  5
BA
330
1F
100
AcDbEntity
  8
0
  6
Continuous
 62
     7
370
    25
100
AcDbLine
 10
5821.3082676309
 20
6180.9513635711
 30
0.0
 11
5821.2915783303
 21
6180.9513635711
 31
0.0
  0
ARC
  5
BB
330
1F
100
AcDbEntity
  8
0
  6
Continuous
 62
     7
370
    25
100
AcDbCircle
 10
5825.1746277171
 20
6181.9753823636
 30
0.0
 40
3.99966933681657
100
AcDbArc
 50
90.0091859129
 51
194.8343808317
  0
ARC
  5
BC
330
1F
100
AcDbEntity
  8
0
  6
Continuous
 62
     7
370
    25
100
AcDbCircle
 10
5810.1834897529
 20
6178.0079391146
 30
0.0
 40
11.50758142984117
100
AcDbArc
 50
348.7367967488
 51
14.8198874089
  0
LINE
  5
BD
330
1F
100
AcDbEntity
  8
0
  6
Continuous
 62
     7
370
    25
100
AcDbLine
 10
5813.1367092508
 20
6166.8912537173
 30
0.0
 11
5813.1200199502
 21
6166.8912537173
 31
0.0
  0
LINE
  5
BE
330
1F
100
AcDbEntity
  8
0
  6
Continuous
 62
     7
370
    25
100
AcDbLine
 10
5813.1367092508
 20
6166.8912537173
 30
0.0
 11
5814.1600017923
 21
6167.0244700984
 31
0.0
  0
LINE
  5
BF
330
1F
100
AcDbEntity
  8
0
  6
Continuous
 62
     7
370
    25
100
AcDbLine
 10
5812.4417190927
 20
6189.286432393
 30
0.0
 11
5812.4250297921
 21
6189.286432393
 31
0.0
  0
LINE
  5
C0
330
1F
100
AcDbEntity
  8
0
  6
Continuous
 62
     7
370
    25
100
AcDbLine
 10
5813.2234936135
 20
6189.2092592791
 30
0.0
 11
5812.4417190927
 21
6189.286432393
 31
0.0
  0
CIRCLE
  5
C1
330
1F
100
AcDbEntity
  8
0
  6
Continuous
 62
     7
370
    25
100
AcDbCircle
 10
5810.1797398091
 20
6178.0077679065
 30
0.0
 40
5.681507257155524
  0
LINE
  5
C2
330
1F
100
AcDbEntity
  8
0
  6
Continuous
 62
     7
370
    25
100
AcDbLine
 10
5806.3837414163
 20
6158.8844574765
 30
0.0
 11
5806.3670521157
 21
6158.8844574765
 31
0.0
  0
ARC
  5
C3
330
1F
100
AcDbEntity
  8
0
  6
Continuous
 62
     7
370
    25
100
AcDbCircle
 10
5810.1944286334
 20
6177.9974258815
 30
0.0
 40
19.48914821932733
100
AcDbArc
 50
258.7243913707
 51
269.9998733872
  0
LINE
  5
C4
330
1F
100
AcDbEntity
  8
0
  6
Continuous
 62
     7
370
    25
100
AcDbLine
 10
5805.2054767984
 20
6196.8588895873
 30
0.0
 11
5805.1885490792
 21
6196.8588895873
 31
0.0
  0
ARC
  5
C5
330
1F
100
AcDbEntity
  8
0
  6
Continuous
 62
     7
370
    25
100
AcDbCircle
 10
5810.1942435923
 20
6178.0212225375
 30
0.0
 40
19.48705965509693
100
AcDbArc
 50
89.9995825692
 51
104.8330897917
  0
ARC
  5
C6
330
1F
100
AcDbEntity
  8
0
  6
Continuous
 62
     7
370
    25
100
AcDbCircle
 10
5810.1941597548
 20
6178.0041638605
 30
0.0
 40
11.49588488923607
100
AcDbArc
 50
270.0011254491
 51
284.8308008804
  0
ARC
  5
C7
330
1F
100
AcDbEntity
  8
0
  6
Continuous
 62
     7
370
    25
100
AcDbCircle
 10
5810.1942731566
 20
6178.0134313471
 30
0.0
 40
11.49484953427455
100
AcDbArc
 50
78.7250353184
 51
89.9994396981
  0
ARC
  5
C8
330
1F
100
AcDbEntity
  8
0
  6
Continuous
 62
     7
370
    25
100
AcDbCircle
 10
5807.1664040252
 20
6162.8072212181
 30
0.0
 40
4.000079515674701
100
AcDbArc
 50
90.016135698
 51
258.7166154883
  0
ARC
  5
C9
330
1F
100
AcDbEntity
  8
0
  6
Continuous
 62
     7
370
    25
100
AcDbCircle
 10
5806.2296043301
 20
6192.9921594571
 30
0.0
 40
4.000054887222237
100
AcDbArc
 50
104.8345294285
 51
269.9880398095
  0
LINE
  5
CA
330
1F
100
AcDbEntity
  8
0
  6
Continuous
 62
     7
370
    25
100
AcDbLine
 10
5791.3490658181
 20
6173.0178363398
 30
0.0
 11
5791.3323765176
 21
6173.0178363398
 31
0.0
  0
ARC
  5
CB
330
1F
100
AcDbEntity
  8
0
  6
Continuous
 62
     7
370
    25
100
AcDbCircle
 10
5795.2152468367
 20
6174.0407118454
 30
0.0
 40
3.999203666754606
100
AcDbArc
 50
194.8192039508
 51
269.9933784835
  0
LINE
  5
CC
330
1F
100
AcDbEntity
  8
0
  6
Continuous
 62
     7
370
    25
100
AcDbLine
 10
5791.0760765451
 20
6181.820041664
 30
0.0
 11
5791.0593872445
 21
6181.820041664
 31
0.0
  0
ARC
  5
CD
330
1F
100
AcDbEntity
  8
0
  6
Continuous
 62
     7
370
    25
100
AcDbCircle
 10
5794.9980479531
 20
6181.0391932962
 30
0.0
 40
3.998947849005435
100
AcDbArc
 50
90.0032122792
 51
168.739885774
  0
ARC
  5
CE
330
1F
100
AcDbEntity
  8
0
  6
Continuous
 62
     7
370
    25
100
AcDbCircle
 10
5810.2053451221
 20
6178.0079758808
 30
0.0
 40
19.50540340075972
100
AcDbArc
 50
168.7297821267
 51
194.8229914563
  0
LINE
  5
CF
330
1F
100
AcDbEntity
  8
0
  6
Continuous
 62
     7
370
    25
100
AcDbLine
 10
6559.6333866494
 20
6368.0066360869
 30
0.0
 11
6617.311728515
 21
6368.0066360869
 31
0.0
  0
LINE
  5
D0
330
1F
100
AcDbEntity
  8
0
  6
Continuous
 62
     7
370
    25
100
AcDbLine
 10
6557.3116665261
 20
6368.0066360869
 30
0.0
 11
6559.6333866494
 21
6368.0066360869
 31
0.0
  0
LINE
  5
D1
330
1F
100
AcDbEntity
  8
0
  6
Continuous
 62
     7
370
    25
100
AcDbLine
 10
6560.0947266
 20
6367.506636005
 30
0.0
 11
6557.8117494958
 21
6367.506636005
 31
0.0
  0
LINE
  5
D2
330
1F
100
AcDbEntity
  8
0
  6
Continuous
 62
     7
370
    25
100
AcDbLine
 10
6616.8117647546
 20
6367.506636005
 30
0.0
 11
6560.0947266
 21
6367.506636005
 31
0.0
  0
LINE
  5
D3
330
1F
100
AcDbEntity
  8
0
  6
Continuous
 62
     7
370
    25
100
AcDbLine
 10
5959.6334820169
 20
6368.0066360869
 30
0.0
 11
6017.3117046731
 21
6368.0066360869
 31
0.0
  0
LINE
  5
D4
330
1F
100
AcDbEntity
  8
0
  6
Continuous
 62
     7
370
    25
100
AcDbLine
 10
5957.3117618936
 20
6368.0066360869
 30
0.0
 11
5959.6334820169
 21
6368.0066360869
 31
0.0
  0
LINE
  5
D5
330
1F
100
AcDbEntity
  8
0
  6
Continuous
 62
     7
370
    25
100
AcDbLine
 10
5960.0945835488
 20
6367.506636005
 30
0.0
 11
5957.8117256539
 21
6367.506636005
 31
0.0
  0
LINE
  5
D6
330
1F
100
AcDbEntity
  8
0
  6
Continuous
 62
     7
370
    25
100
AcDbLine
 10
6016.8117409127
 20
6367.506636005
 30
0.0
 11
5960.0945835488
 21
6367.506636005
 31
0.0
  0
LINE
  5
D7
330
1F
100
AcDbEntity
  8
0
  6
Continuous
 62
     7
370
    25
100
AcDbLine
 10
6573.3116989511
 20
6202.506638296
 30
0.0
 11
6601.31169609
 21
6202.506638296
 31
0.0
  0
LINE
  5
D8
330
1F
100
AcDbEntity
  8
0
  6
Continuous
 62
     7
370
    25
100
AcDbLine
 10
6600.3117685693
 20
6201.5066362695
 30
0.0
 11
6574.3117456811
 21
6201.5066362695
 31
0.0
  0
LINE
  5
D9
330
1F
100
AcDbEntity
  8
0
  6
Continuous
 62
     7
370
    25
100
AcDbLine
 10
5973.3117943185
 20
6202.506638296
 30
0.0
 11
6001.3116722482
 21
6202.506638296
 31
0.0
  0
LINE
  5
DA
330
1F
100
AcDbEntity
  8
0
  6
Continuous
 62
     7
370
    25
100
AcDbLine
 10
6000.3117447274
 20
6201.5066362695
 30
0.0
 11
5974.3117218393
 21
6201.5066362695
 31
0.0
  0
SPLINE
  5
DB
330
1F
100
AcDbEntity
  8
0
  6
Continuous
 62
     7
370
    25
100
AcDbSpline
210
0.0
220
0.0
230
1.0
 70
     8
 71
     3
 72
     9
 73
     5
 74
     0
 42
0.000000001
 43
0.00000001
 40
0.0
 40
0.0
 40
0.0
 40
0.0
 40
0.7519410014168386
 40
1.0
 40
1.0
 40
1.0
 40
1.0
 10
6604.264629401508
 20
6367.506636004971
 30
0.0
 10
6603.580097956082
 20
6366.867408341707
 30
0.0
 10
6602.669745356427
 20
6366.017304860105
 30
0.0
 10
6601.581616295281
 20
6365.420743447491
 30
0.0
 10
6601.311696090045
 20
6365.272761020886
 30
0.0
  0
SPLINE
  5
DC
330
1F
100
AcDbEntity
  8
0
  6
Continuous
 62
     7
370
    25
100
AcDbSpline
210
0.0
220
0.0
230
1.0
 70
     8
 71
     3
 72
     9
 73
     5
 74
     0
 42
0.000000001
 43
0.00000001
 40
0.0
 40
0.0
 40
0.0
 40
0.0
 40
0.0025408567629593
 40
1.0
 40
1.0
 40
1.0
 40
1.0
 10
6573.311698951068
 20
6365.198677104043
 30
0.0
 10
6573.308916995291
 20
6365.200150464912
 30
0.0
 10
6572.214028130731
 20
6365.780018205613
 30
0.0
 10
6571.30765675168
 20
6366.644425272562
 30
0.0
 10
6570.403588332477
 20
6367.506636004971
 30
0.0
  0
SPLINE
  5
DD
330
1F
100
AcDbEntity
  8
0
  6
Continuous
 62
     7
370
    25
100
AcDbSpline
210
0.0
220
0.0
230
1.0
 70
     8
 71
     3
 72
     9
 73
     5
 74
     0
 42
0.000000001
 43
0.00000001
 40
0.0
 40
0.0
 40
0.0
 40
0.0
 40
0.7519740588576465
 40
1.0
 40
1.0
 40
1.0
 40
1.0
 10
6004.264724768939
 20
6367.506636004971
 30
0.0
 10
6003.580093938202
 20
6366.86743718661
 30
0.0
 10
6002.669649192572
 20
6366.017409435211
 30
0.0
 10
6001.581549258412
 20
6365.420748428594
 30
0.0
 10
6001.311672248187
 20
6365.272761020886
 30
0.0
  0
SPLINE
  5
DE
330
1F
100
AcDbEntity
  8
0
  6
Continuous
 62
     7
370
    25
100
AcDbSpline
210
0.0
220
0.0
230
1.0
 70
     8
 71
     3
 72
     9
 73
     5
 74
     0
 42
0.000000001
 43
0.00000001
 40
0.0
 40
0.0
 40
0.0
 40
0.0
 40
0.0025974266330261
 40
1.0
 40
1.0
 40
1.0
 40
1.0
 10
5973.3117943185
 20
6365.198677104043
 30
0.0
 10
5973.308932848864
 20
6365.200150394577
 30
0.0
 10
5972.207277233661
 20
6365.767362001597
 30
0.0
 10
5971.304248086161
 20
6366.638129881125
 30
0.0
 10
5970.403564490619
 20
6367.506636004971
 30
0.0
  0
LINE
  5
DF
330
1F
100
AcDbEntity
  8
0
  6
Continuous
 62
     7
370
    25
100
AcDbLine
 10
6912.3116855996
 20
6415.6656630114
 30
0.0
 11
6910.3117113488
 21
6415.6656630114
 31
0.0
  0
LINE
  5
E0
330
1F
100
AcDbEntity
  8
0
  6
Continuous
 62
     7
370
    25
100
AcDbLine
 10
6912.3116855996
 20
6373.0413186607
 30
0.0
 11
6912.3116855996
 21
6415.6656630114
 31
0.0
  0
LINE
  5
E1
330
1F
100
AcDbEntity
  8
0
  6
Continuous
 62
     7
370
    25
100
AcDbLine
 10
6910.3117113488
 20
6373.0413186607
 30
0.0
 11
6912.3116855996
 21
6373.0413186607
 31
0.0
  0
LINE
  5
E2
330
1F
100
AcDbEntity
  8
0
  6
Continuous
 62
     7
370
    25
100
AcDbLine
 10
6910.3117113488
 20
6373.0413186607
 30
0.0
 11
6910.3117113488
 21
6415.6656630114
 31
0.0
  0
LINE
  5
E3
330
1F
100
AcDbEntity
  8
0
  6
Continuous
 62
     7
370
    25
100
AcDbLine
 10
6907.2116737741
 20
6431.7656636015
 30
0.0
 11
6907.2116737741
 21
6433.7656639294
 31
0.0
  0
LINE
  5
E4
330
1F
100
AcDbEntity
  8
0
  6
Continuous
 62
     7
370
    25
100
AcDbLine
 10
6892.3117046731
 20
6433.7656639294
 30
0.0
 11
6892.3117046731
 21
6431.7656636015
 31
0.0
  0
LINE
  5
E5
330
1F
100
AcDbEntity
  8
0
  6
Continuous
 62
     7
370
    25
100
AcDbLine
 10
6892.3117046731
 20
6433.7656639294
 30
0.0
 11
6907.2116737741
 21
6433.7656639294
 31
0.0
  0
LINE
  5
E6
330
1F
100
AcDbEntity
  8
0
  6
Continuous
 62
     7
370
    25
100
AcDbLine
 10
6892.3117046731
 20
6431.7656636015
 30
0.0
 11
6907.2116737741
 21
6431.7656636015
 31
0.0
  0
LINE
  5
E7
330
1F
100
AcDbEntity
  8
0
  6
Continuous
 62
     7
370
    25
100
AcDbLine
 10
6910.3117113488
 20
6428.6656632797
 30
0.0
 11
6912.3116855996
 21
6428.6656632797
 31
0.0
  0
LINE
  5
E8
330
1F
100
AcDbEntity
  8
0
  6
Continuous
 62
     7
370
    25
100
AcDbLine
 10
6912.3116855996
 20
6428.6656632797
 30
0.0
 11
6912.3116855996
 21
6415.6656630114
 31
0.0
  0
LINE
  5
E9
330
1F
100
AcDbEntity
  8
0
  6
Continuous
 62
     7
370
    25
100
AcDbLine
 10
6910.3117113488
 20
6428.6656632797
 30
0.0
 11
6910.3117113488
 21
6420.1658621208
 31
0.0
  0
ARC
  5
EA
330
1F
100
AcDbEntity
  8
0
  6
Continuous
 62
     7
370
    25
100
AcDbCircle
 10
6907.2117133708
 20
6428.6656617918
 30
0.0
 40
3.099999999999454
100
AcDbArc
 50
0.0
 51
90.0
  0
ARC
  5
EB
330
1F
100
AcDbEntity
  8
0
  6
Continuous
 62
     7
370
    25
100
AcDbCircle
 10
6907.2117133708
 20
6428.6656617918
 30
0.0
 40
5.099999999999454
100
AcDbArc
 50
0.0
 51
90.0
  0
LINE
  5
EC
330
1F
100
AcDbEntity
  8
0
  6
Continuous
 62
     7
370
    25
100
AcDbLine
 10
6910.3117113488
 20
6370.506636031
 30
0.0
 11
6912.3116855996
 21
6370.506636031
 31
0.0
  0
LINE
  5
ED
330
1F
100
AcDbEntity
  8
0
  6
Continuous
 62
     7
370
    25
100
AcDbLine
 10
6912.3116855996
 20
6370.506636031
 30
0.0
 11
6912.3116855996
 21
6373.0413186607
 31
0.0
  0
LINE
  5
EE
330
1F
100
AcDbEntity
  8
0
  6
Continuous
 62
     7
370
    25
100
AcDbLine
 10
6910.3117113488
 20
5940.5066288785
 30
0.0
 11
6912.3116855996
 21
5940.5066288785
 31
0.0
  0
LINE
  5
EF
330
1F
100
AcDbEntity
  8
0
  6
Continuous
 62
     7
370
    25
100
AcDbLine
 10
6912.3116855996
 20
5940.5066288785
 30
0.0
 11
6912.3116855996
 21
6370.506636031
 31
0.0
  0
LINE
  5
F0
330
1F
100
AcDbEntity
  8
0
  6
Continuous
 62
     7
370
    25
100
AcDbLine
 10
6910.3117113488
 20
5940.5066288785
 30
0.0
 11
6910.3117113488
 21
5941.5960527734
 31
0.0
  0
LINE
  5
F1
330
1F
100
AcDbEntity
  8
0
  6
Continuous
 62
     7
370
    25
100
AcDbLine
 10
6910.3117113488
 20
5984.4238079862
 30
0.0
 11
6910.3117113488
 21
6370.506636031
 31
0.0
  0
LINE
  5
F2
330
1F
100
AcDbEntity
  8
0
  6
Continuous
 62
     7
370
    25
100
AcDbLine
 10
6870.4117660897
 20
5940.5066288785
 30
0.0
 11
6909.2117672341
 21
5940.5066288785
 31
0.0
  0
LINE
  5
F3
330
1F
100
AcDbEntity
  8
0
  6
Continuous
 62
     7
370
    25
100
AcDbLine
 10
6909.2117672341
 20
5940.5066288785
 30
0.0
 11
6909.3544607537
 21
5940.5099369363
 31
0.0
  0
LINE
  5
F4
330
1F
100
AcDbEntity
  8
0
  6
Continuous
 62
     7
370
    25
100
AcDbLine
 10
6870.2689533609
 20
5940.5099369363
 30
0.0
 11
6870.4117660897
 21
5940.5066288785
 31
0.0
  0
LINE
  5
F5
330
1F
100
AcDbEntity
  8
0
  6
Continuous
 62
     7
370
    25
100
AcDbLine
 10
5664.3117790597
 20
6418.5164861158
 30
0.0
 11
6910.3117113488
 21
6418.5164861158
 31
0.0
  0
LINE
  5
F6
330
1F
100
AcDbEntity
  8
0
  6
Continuous
 62
     7
370
    25
100
AcDbLine
 10
5664.3117790597
 20
6418.5164861158
 30
0.0
 11
5664.3117790597
 21
6420.1658621208
 31
0.0
  0
LINE
  5
F7
330
1F
100
AcDbEntity
  8
0
  6
Continuous
 62
     7
370
    25
100
AcDbLine
 10
5664.3117790597
 20
6420.5095425025
 30
0.0
 11
6910.3117113488
 21
6420.5095425025
 31
0.0
  0
LINE
  5
F8
330
1F
100
AcDbEntity
  8
0
  6
Continuous
 62
     7
370
    25
100
AcDbLine
 10
6910.3117113488
 20
6418.5164861158
 30
0.0
 11
6910.3117113488
 21
6420.1658621208
 31
0.0
  0
LINE
  5
F9
330
1F
100
AcDbEntity
  8
0
  6
Continuous
 62
     7
370
    25
100
AcDbLine
 10
5664.3117790597
 20
6371.8135817219
 30
0.0
 11
6910.3117113488
 21
6371.8135817219
 31
0.0
  0
LINE
  5
FA
330
1F
100
AcDbEntity
  8
0
  6
Continuous
 62
     7
370
    25
100
AcDbLine
 10
6910.3117113488
 20
6371.8135817219
 30
0.0
 11
6910.3117113488
 21
6418.5164861158
 31
0.0
  0
LINE
  5
FB
330
1F
100
AcDbEntity
  8
0
  6
Continuous
 62
     7
370
    25
100
AcDbLine
 10
5664.3117790597
 20
6371.8135817219
 30
0.0
 11
5664.3117790597
 21
6418.5164861158
 31
0.0
  0
LINE
  5
FC
330
1F
100
AcDbEntity
  8
0
  6
Continuous
 62
     7
370
    25
100
AcDbLine
 10
5664.3117790597
 20
6370.506636031
 30
0.0
 11
6910.3117113488
 21
6370.506636031
 31
0.0
  0
LINE
  5
FD
330
1F
100
AcDbEntity
  8
0
  6
Continuous
 62
     7
370
    25
100
AcDbLine
 10
6910.3117113488
 20
6370.506636031
 30
0.0
 11
6910.3117113488
 21
6371.8135817219
 31
0.0
  0
LINE
  5
FE
330
1F
100
AcDbEntity
  8
0
  6
Continuous
 62
     7
370
    25
100
AcDbLine
 10
5664.3117790597
 20
6370.506636031
 30
0.0
 11
5664.3117790597
 21
6371.8135817219
 31
0.0
  0
LINE
  5
FF
330
1F
100
AcDbEntity
  8
0
  6
Continuous
 62
     7
370
    25
100
AcDbLine
 10
5664.3117790597
 20
5983.8599182443
 30
0.0
 11
6910.3117113488
 21
5983.8599182443
 31
0.0
  0
LINE
  5
100
330
1F
100
AcDbEntity
  8
0
  6
Continuous
 62
     7
370
    25
100
AcDbLine
 10
5664.3117790597
 20
5985.5099238233
 30
0.0
 11
6910.3117113488
 21
5985.5099238233
 31
0.0
  0
LINE
  5
101
330
1F
100
AcDbEntity
  8
0
  6
Continuous
 62
     7
370
    25
100
AcDbLine
 10
6910.3117113488
 20
5983.8599182443
 30
0.0
 11
6910.3117113488
 21
5984.4238079862
 31
0.0
  0
LINE
  5
102
330
1F
100
AcDbEntity
  8
0
  6
Continuous
 62
     7
370
    25
100
AcDbLine
 10
5664.3117790597
 20
5983.8599182443
 30
0.0
 11
5664.3117790597
 21
5984.3999065236
 31
0.0
  0
LINE
  5
103
330
1F
100
AcDbEntity
  8
0
  6
Continuous
 62
     7
370
    25
100
AcDbLine
 10
5664.3117790597
 20
5942.1599127129
 30
0.0
 11
6910.3117113488
 21
5942.1599127129
 31
0.0
  0
LINE
  5
104
330
1F
100
AcDbEntity
  8
0
  6
Continuous
 62
     7
370
    25
100
AcDbLine
 10
6910.3117113488
 20
5942.1599127129
 30
0.0
 11
6910.3117113488
 21
5983.8599182443
 31
0.0
  0
LINE
  5
105
330
1F
100
AcDbEntity
  8
0
  6
Continuous
 62
     7
370
    25
100
AcDbLine
 10
5664.3117790597
 20
5942.1599127129
 30
0.0
 11
5664.3117790597
 21
5983.8599182443
 31
0.0
  0
LINE
  5
106
330
1F
100
AcDbEntity
  8
0
  6
Continuous
 62
     7
370
    25
100
AcDbLine
 10
5664.3117790597
 20
5940.5099369363
 30
0.0
 11
6910.3117113488
 21
5940.5099369363
 31
0.0
  0
LINE
  5
107
330
1F
100
AcDbEntity
  8
0
  6
Continuous
 62
     7
370
    25
100
AcDbLine
 10
6910.3117113488
 20
5941.5960527734
 30
0.0
 11
6910.3117113488
 21
5942.1599127129
 31
0.0
  0
LINE
  5
108
330
1F
100
AcDbEntity
  8
0
  6
Continuous
 62
     7
370
    25
100
AcDbLine
 10
5664.3117790597
 20
5941.6199542359
 30
0.0
 11
5664.3117790597
 21
5942.1599127129
 31
0.0
  0
LINE
  5
109
330
1F
100
AcDbEntity
  8
0
  6
Continuous
 62
     7
370
    25
100
AcDbLine
 10
5664.3117790597
 20
5985.6646872834
 30
0.0
 11
6910.3117113488
 21
5985.6646872834
 31
0.0
  0
LINE
  5
10A
330
1F
100
AcDbEntity
  8
0
  6
Continuous
 62
     7
370
    25
100
AcDbLine
 10
6910.3117113488
 20
6111.0454715566
 30
0.0
 11
5664.3117790597
 21
6111.0454715566
 31
0.0
  0
LINE
  5
10B
330
1F
100
AcDbEntity
  8
0
  6
Continuous
 62
     7
370
    25
100
AcDbLine
 10
5664.3117790597
 20
6111.3406933621
 30
0.0
 11
6910.3117113488
 21
6111.3406933621
 31
0.0
  0
LINE
  5
10C
330
1F
100
AcDbEntity
  8
0
  6
Continuous
 62
     7
370
    25
100
AcDbLine
 10
5682.3116665261
 20
6433.7656639294
 30
0.0
 11
5682.3116665261
 21
6431.7656636015
 31
0.0
  0
LINE
  5
10D
330
1F
100
AcDbEntity
  8
0
  6
Continuous
 62
     7
370
    25
100
AcDbLine
 10
5682.3116665261
 20
6431.7656636015
 30
0.0
 11
5667.4116974252
 21
6431.7656636015
 31
0.0
  0
LINE
  5
10E
330
1F
100
AcDbEntity
  8
0
  6
Continuous
 62
     7
370
    25
100
AcDbLine
 10
5667.4116974252
 20
6431.7656636015
 30
0.0
 11
5667.4116974252
 21
6433.7656639294
 31
0.0
  0
LINE
  5
10F
330
1F
100
AcDbEntity
  8
0
  6
Continuous
 62
     7
370
    25
100
AcDbLine
 10
5682.3116665261
 20
6433.7656639294
 30
0.0
 11
5667.4116974252
 21
6433.7656639294
 31
0.0
  0
LINE
  5
110
330
1F
100
AcDbEntity
  8
0
  6
Continuous
 62
     7
370
    25
100
AcDbLine
 10
5662.3116855996
 20
6415.6656630114
 30
0.0
 11
5664.3117790597
 21
6415.6656630114
 31
0.0
  0
LINE
  5
111
330
1F
100
AcDbEntity
  8
0
  6
Continuous
 62
     7
370
    25
100
AcDbLine
 10
5664.3117790597
 20
6428.6656632797
 30
0.0
 11
5662.3116855996
 21
6428.6656632797
 31
0.0
  0
LINE
  5
112
330
1F
100
AcDbEntity
  8
0
  6
Continuous
 62
     7
370
    25
100
AcDbLine
 10
5662.3116855996
 20
6428.6656632797
 30
0.0
 11
5662.3116855996
 21
6415.6656630114
 31
0.0
  0
LINE
  5
113
330
1F
100
AcDbEntity
  8
0
  6
Continuous
 62
     7
370
    25
100
AcDbLine
 10
5664.3117790597
 20
6428.6656632797
 30
0.0
 11
5664.3117790597
 21
6420.1658621208
 31
0.0
  0
ARC
  5
114
330
1F
100
AcDbEntity
  8
0
  6
Continuous
 62
     7
370
    25
100
AcDbCircle
 10
5667.4117133708
 20
6428.6656617918
 30
0.0
 40
3.099999999999454
100
AcDbArc
 50
90.0
 51
180.0
  0
ARC
  5
115
330
1F
100
AcDbEntity
  8
0
  6
Continuous
 62
     7
370
    25
100
AcDbCircle
 10
5667.4117133708
 20
6428.6656617918
 30
0.0
 40
5.099999999999454
100
AcDbArc
 50
90.0
 51
180.0
  0
LINE
  5
116
330
1F
100
AcDbEntity
  8
0
  6
Continuous
 62
     7
370
    25
100
AcDbLine
 10
5664.3117790597
 20
6373.0413186607
 30
0.0
 11
5662.3116855996
 21
6373.0413186607
 31
0.0
  0
LINE
  5
117
330
1F
100
AcDbEntity
  8
0
  6
Continuous
 62
     7
370
    25
100
AcDbLine
 10
5662.3116855996
 20
6373.0413186607
 30
0.0
 11
5662.3116855996
 21
6415.6656630114
 31
0.0
  0
LINE
  5
118
330
1F
100
AcDbEntity
  8
0
  6
Continuous
 62
     7
370
    25
100
AcDbLine
 10
5664.3117790597
 20
6373.0413186607
 30
0.0
 11
5664.3117790597
 21
6415.6656630114
 31
0.0
  0
LINE
  5
119
330
1F
100
AcDbEntity
  8
0
  6
Continuous
 62
     7
370
    25
100
AcDbLine
 10
5664.3117790597
 20
6370.506636031
 30
0.0
 11
5662.3116855996
 21
6370.506636031
 31
0.0
  0
LINE
  5
11A
330
1F
100
AcDbEntity
  8
0
  6
Continuous
 62
     7
370
    25
100
AcDbLine
 10
5662.3116855996
 20
6370.506636031
 30
0.0
 11
5662.3116855996
 21
6373.0413186607
 31
0.0
  0
LINE
  5
11B
330
1F
100
AcDbEntity
  8
0
  6
Continuous
 62
     7
370
    25
100
AcDbLine
 10
5664.3117790597
 20
5940.5066288785
 30
0.0
 11
5662.3116855996
 21
5940.5066288785
 31
0.0
  0
LINE
  5
11C
330
1F
100
AcDbEntity
  8
0
  6
Continuous
 62
     7
370
    25
100
AcDbLine
 10
5662.3116855996
 20
5940.5066288785
 30
0.0
 11
5662.3116855996
 21
6370.506636031
 31
0.0
  0
LINE
  5
11D
330
1F
100
AcDbEntity
  8
0
  6
Continuous
 62
     7
370
    25
100
AcDbLine
 10
5664.3117790597
 20
5940.5066288785
 30
0.0
 11
5664.3117790597
 21
5941.6199542359
 31
0.0
  0
LINE
  5
11E
330
1F
100
AcDbEntity
  8
0
  6
Continuous
 62
     7
370
    25
100
AcDbLine
 10
5664.3117790597
 20
5984.3999065236
 30
0.0
 11
5664.3117790597
 21
6370.506636031
 31
0.0
  0
LINE
  5
11F
330
1F
100
AcDbEntity
  8
0
  6
Continuous
 62
     7
370
    25
100
AcDbLine
 10
5704.2116051095
 20
5940.5066288785
 30
0.0
 11
5665.4116039651
 21
5940.5066288785
 31
0.0
  0
LINE
  5
120
330
1F
100
AcDbEntity
  8
0
  6
Continuous
 62
     7
370
    25
100
AcDbLine
 10
5704.3544178384
 20
5940.5099369363
 30
0.0
 11
5704.2116051095
 21
5940.5066288785
 31
0.0
  0
LINE
  5
121
330
1F
100
AcDbEntity
  8
0
  6
Continuous
 62
     7
370
    25
100
AcDbLine
 10
5665.4116039651
 20
5940.5066288785
 30
0.0
 11
5665.2690296548
 21
5940.5099369363
 31
0.0
  0
SPLINE
  5
122
330
1F
100
AcDbEntity
  8
0
  6
Continuous
 62
     8
370
    25
100
AcDbSpline
210
0.0
220
0.0
230
1.0
 70
     8
 71
     3
 72
    10
 73
     6
 74
     0
 42
0.000000001
 43
0.00000001
 40
0.0
 40
0.0
 40
0.0
 40
0.0
 40
0.1592437907179386
 40
0.8669341033772617
 40
0.9999999999999999
 40
0.9999999999999999
 40
0.9999999999999999
 40
0.9999999999999999
 10
5795.726192511859
 20
6184.949896462338
 30
0.0
 10
5795.841609131551
 20
6184.834608052335
 30
0.0
 10
5796.469945114113
 20
6184.206970052107
 30
0.0
 10
5797.420688254201
 20
6183.342711373346
 30
0.0
 10
5798.435845551016
 20
6182.658927238326
 30
0.0
 10
5798.596513785663
 20
6182.550705202
 30
0.0
  0
SPLINE
  5
123
330
1F
100
AcDbEntity
  8
0
  6
Continuous
 62
     8
370
    25
100
AcDbSpline
210
0.0
220
0.0
230
1.0
 70
     8
 71
     3
 72
    11
 73
     7
 74
     0
 42
0.000000001
 43
0.00000001
 40
0.0
 40
0.0
 40
0.0
 40
0.0
 40
0.1671525165399873
 40
0.4870022914182502
 40
0.8203528308609859
 40
1.0
 40
1.0
 40
1.0
 40
1.0
 10
5821.520221747698
 20
6178.072474129573
 30
0.0
 10
5822.025732373843
 20
6178.200462711237
 30
0.0
 10
5823.498547969833
 20
6178.573360073695
 30
0.0
 10
5825.727917598218
 20
6179.512054824818
 30
0.0
 10
5827.829633351991
 20
6180.58153585438
 30
0.0
 10
5828.888487615521
 20
6181.320437504386
 30
0.0
 10
5829.259288825336
 20
6181.579194195645
 30
0.0
  0
LINE
  5
124
330
1F
100
AcDbEntity
  8
0
  6
Continuous
 62
     8
370
    25
100
AcDbLine
 10
6909.2117672341
 20
5940.5099369363
 30
0.0
 11
6909.2117672341
 21
5940.5066288785
 31
0.0
  0
LINE
  5
125
330
1F
100
AcDbEntity
  8
0
  6
Continuous
 62
     8
370
    25
100
AcDbLine
 10
6870.4117660897
 20
5940.5099369363
 30
0.0
 11
6870.4117660897
 21
5940.5066288785
 31
0.0
  0
LINE
  5
126
330
1F
100
AcDbEntity
  8
0
  6
Continuous
 62
     8
370
    25
100
AcDbLine
 10
6910.3117113488
 20
6370.3518625883
 30
0.0
 11
6617.311728515
 21
6370.3518625883
 31
0.0
  0
LINE
  5
127
330
1F
100
AcDbEntity
  8
0
  6
Continuous
 62
     8
370
    25
100
AcDbLine
 10
6557.3116665261
 20
6370.3518625883
 30
0.0
 11
6017.3117046731
 21
6370.3518625883
 31
0.0
  0
LINE
  5
128
330
1F
100
AcDbEntity
  8
0
  6
Continuous
 62
     8
370
    25
100
AcDbLine
 10
5957.3117618936
 20
6370.3518625883
 30
0.0
 11
5664.3117790597
 21
6370.3518625883
 31
0.0
  0
LINE
  5
129
330
1F
100
AcDbEntity
  8
0
  6
Continuous
 62
     8
370
    25
100
AcDbLine
 10
5664.3117790597
 20
6244.9711031989
 30
0.0
 11
5973.3117943185
 21
6244.9711031989
 31
0.0
  0
LINE
  5
12A
330
1F
100
AcDbEntity
  8
0
  6
Continuous
 62
     8
370
    25
100
AcDbLine
 10
6001.3116722482
 20
6244.9711031989
 30
0.0
 11
6573.3116989511
 21
6244.9711031989
 31
0.0
  0
LINE
  5
12B
330
1F
100
AcDbEntity
  8
0
  6
Continuous
 62
     8
370
    25
100
AcDbLine
 10
6601.31169609
 20
6244.9711031989
 30
0.0
 11
6910.3117113488
 21
6244.9711031989
 31
0.0
  0
LINE
  5
12C
330
1F
100
AcDbEntity
  8
0
  6
Continuous
 62
     8
370
    25
100
AcDbLine
 10
6910.3117113488
 20
6244.6758664922
 30
0.0
 11
6601.31169609
 21
6244.6758664922
 31
0.0
  0
LINE
  5
12D
330
1F
100
AcDbEntity
  8
0
  6
Continuous
 62
     8
370
    25
100
AcDbLine
 10
6573.3116989511
 20
6244.6758664922
 30
0.0
 11
6001.3116722482
 21
6244.6758664922
 31
0.0
  0
LINE
  5
12E
330
1F
100
AcDbEntity
  8
0
  6
Continuous
 62
     8
370
    25
100
AcDbLine
 10
5973.3117943185
 20
6244.6758664922
 30
0.0
 11
5664.3117790597
 21
6244.6758664922
 31
0.0
  0
LINE
  5
12F
330
1F
100
AcDbEntity
  8
0
  6
Continuous
 62
     8
370
    25
100
AcDbLine
 10
5704.2116051095
 20
5940.5099369363
 30
0.0
 11
5704.2116051095
 21
5940.5066288785
 31
0.0
  0
LINE
  5
130
330
1F
100
AcDbEntity
  8
0
  6
Continuous
 62
     8
370
    25
100
AcDbLine
 10
5665.4116039651
 20
5940.5099369363
 30
0.0
 11
5665.4116039651
 21
5940.5066288785
 31
0.0
  0
LINE
  5
131
330
1F
100
AcDbEntity
  8
0
  6
Continuous
 62
     7
370
    25
100
AcDbLine
 10
5978.0618076699
 20
7721.9978724804
 30
0.0
 11
5978.0618076699
 21
7721.8710486975
 31
0.0
  0
LINE
  5
132
330
1F
100
AcDbEntity
  8
0
  6
Continuous
 62
     7
370
    25
100
AcDbLine
 10
5996.5616588967
 20
7721.8710486975
 30
0.0
 11
5996.5616588967
 21
7721.9978724804
 31
0.0
  0
LINE
  5
133
330
1F
100
AcDbEntity
  8
0
  6
Continuous
 62
     7
370
    25
100
AcDbLine
 10
5994.8116665261
 20
7722.8369717684
 30
0.0
 11
5994.8116665261
 21
7723.0558772769
 31
0.0
  0
LINE
  5
134
330
1F
100
AcDbEntity
  8
0
  6
Continuous
 62
     7
370
    25
100
AcDbLine
 10
5979.8118000405
 20
7723.0567787972
 30
0.0
 11
5979.8118000405
 21
7722.8369717684
 31
0.0
  0
LINE
  5
135
330
1F
100
AcDbEntity
  8
0
  6
Continuous
 62
     7
370
    25
100
AcDbLine
 10
6594.811690368
 20
7722.7890645352
 30
0.0
 11
6594.811690368
 21
7722.9896267143
 31
0.0
  0
LINE
  5
136
330
1F
100
AcDbEntity
  8
0
  6
Continuous
 62
     7
370
    25
100
AcDbLine
 10
6579.8117046731
 20
7723.0567787972
 30
0.0
 11
6579.8117046731
 21
7722.7890645352
 31
0.0
  0
LINE
  5
137
330
1F
100
AcDbEntity
  8
0
  6
Continuous
 62
     7
370
    25
100
AcDbLine
 10
6588.9617329019
 20
7716.2521858898
 30
0.0
 11
6588.9617329019
 21
7716.2546222296
 31
0.0
  0
LINE
  5
138
330
1F
100
AcDbEntity
  8
0
  6
Continuous
 62
     7
370
    25
100
AcDbLine
 10
5988.9618282693
 20
7716.2521858898
 30
0.0
 11
5988.9618282693
 21
7716.2546222296
 31
0.0
  0
LINE
  5
139
330
1F
100
AcDbEntity
  8
0
  6
Continuous
 62
     7
370
    25
100
AcDbLine
 10
6910.3117113488
 20
7840.67703087
 30
0.0
 11
5664.3117790597
 21
7840.67703087
 31
0.0
  0
SPLINE
  5
13A
330
1F
100
AcDbEntity
  8
0
  6
Continuous
 62
     7
370
    25
100
AcDbSpline
210
0.0
220
0.0
230
1.0
 70
     8
 71
     3
 72
     9
 73
     5
 74
     0
 42
0.000000001
 43
0.00000001
 40
0.0
 40
0.0
 40
0.0
 40
0.0
 40
0.5599783645914567
 40
1.0
 40
1.0
 40
1.0
 40
1.0
 10
5726.626050986591
 20
6817.055896410032
 30
0.0
 10
5727.434398421061
 20
6817.331888595781
 30
0.0
 10
5728.877931753033
 20
6817.824750826181
 30
0.0
 10
5730.220825332348
 20
6818.546443096325
 30
0.0
 10
5730.811727561298
 20
6818.864003309293
 30
0.0
  0
SPLINE
  5
13B
330
1F
100
AcDbEntity
  8
0
  6
Continuous
 62
     7
370
    25
100
AcDbSpline
210
0.0
220
0.0
230
1.0
 70
     8
 71
     3
 72
     9
 73
     5
 74
     0
 42
0.000000001
 43
0.00000001
 40
0.0
 40
0.0
 40
0.0
 40
0.0
 40
0.5600441798744706
 40
0.9999999999999999
 40
0.9999999999999999
 40
0.9999999999999999
 40
0.9999999999999999
 10
5721.11166767055
 20
6818.864003309293
 30
0.0
 10
5721.866868469581
 20
6818.464620027791
 30
0.0
 10
5723.215334940923
 20
6817.751491857094
 30
0.0
 10
5724.66138466954
 20
6817.268424642573
 30
0.0
 10
5725.297582663837
 20
6817.055896410032
 30
0.0
  0
SPLINE
  5
13C
330
1F
100
AcDbEntity
  8
0
  6
Continuous
 62
     7
370
    25
100
AcDbSpline
210
0.0
220
0.0
230
1.0
 70
     8
 71
     3
 72
     9
 73
     5
 74
     0
 42
0.000000001
 43
0.00000001
 40
0.0
 40
0.0
 40
0.0
 40
0.0
 40
0.5599653250142396
 40
1.0
 40
1.0
 40
1.0
 40
1.0
 10
6616.625917472186
 20
6817.055896410032
 30
0.0
 10
6617.43426176807
 20
6817.331894861974
 30
0.0
 10
6618.877823109773
 20
6817.824779759686
 30
0.0
 10
6620.22077004015
 20
6818.546445402646
 30
0.0
 10
6620.811713256183
 20
6818.864003309293
 30
0.0
  0
SPLINE
  5
13D
330
1F
100
AcDbEntity
  8
0
  6
Continuous
 62
     7
370
    25
100
AcDbSpline
210
0.0
220
0.0
230
1.0
 70
     8
 71
     3
 72
     9
 73
     5
 74
     0
 42
0.000000001
 43
0.00000001
 40
0.0
 40
0.0
 40
0.0
 40
0.0
 40
0.5600235549502425
 40
1.0
 40
1.0
 40
1.0
 40
1.0
 10
6611.111772574725
 20
6818.864003309293
 30
0.0
 10
6611.866890816584
 20
6818.464614129889
 30
0.0
 10
6613.215259532837
 20
6817.751449164102
 30
0.0
 10
6614.661248197272
 20
6817.268418516996
 30
0.0
 10
6615.297449149431
 20
6817.055896410032
 30
0.0
  0
SPLINE
  5
13E
330
1F
100
AcDbEntity
  8
0
  6
Continuous
 62
     7
370
    25
100
AcDbSpline
210
0.0
220
0.0
230
1.0
 70
     8
 71
     3
 72
     9
 73
     5
 74
     0
 42
0.000000001
 43
0.00000001
 40
0.0
 40
0.0
 40
0.0
 40
0.0
 40
0.5599998693014226
 40
1.0
 40
1.0
 40
1.0
 40
1.0
 10
5956.625831641498
 20
6817.055896410032
 30
0.0
 10
5957.434262625952
 20
6817.331878260332
 30
0.0
 10
5958.877889720835
 20
6817.824703108031
 30
0.0
 10
5960.220845789186
 20
6818.546439293401
 30
0.0
 10
5960.811746634784
 20
6818.864003309293
 30
0.0
  0
SPLINE
  5
13F
330
1F
100
AcDbEntity
  8
0
  6
Continuous
 62
     7
370
    25
100
AcDbSpline
210
0.0
220
0.0
230
1.0
 70
     8
 71
     3
 72
     9
 73
     5
 74
     0
 42
0.000000001
 43
0.00000001
 40
0.0
 40
0.0
 40
0.0
 40
0.0
 40
0.5599960524805365
 40
0.9999999999999999
 40
0.9999999999999999
 40
0.9999999999999999
 40
0.9999999999999999
 10
5951.111686744037
 20
6818.864003309293
 30
0.0
 10
5951.8668022226
 20
6818.464606267051
 30
0.0
 10
5953.21523222531
 20
6817.751392235497
 30
0.0
 10
5954.661318200005
 20
6817.268410347383
 30
0.0
 10
5955.297601737322
 20
6817.055896410032
 30
0.0
  0
SPLINE
  5
140
330
1F
100
AcDbEntity
  8
0
  6
Continuous
 62
     7
370
    25
100
AcDbSpline
210
0.0
220
0.0
230
1.0
 70
     8
 71
     3
 72
     9
 73
     5
 74
     0
 42
0.000000001
 43
0.00000001
 40
0.0
 40
0.0
 40
0.0
 40
0.0
 40
0.5599653250142396
 40
1.0
 40
1.0
 40
1.0
 40
1.0
 10
6846.625936545673
 20
6817.055896410032
 30
0.0
 10
6847.434280841556
 20
6817.331894861974
 30
0.0
 10
6848.877842183259
 20
6817.824779759686
 30
0.0
 10
6850.220789113637
 20
6818.546445402646
 30
0.0
 10
6850.811732329669
 20
6818.864003309293
 30
0.0
  0
SPLINE
  5
141
330
1F
100
AcDbEntity
  8
0
  6
Continuous
 62
     7
370
    25
100
AcDbSpline
210
0.0
220
0.0
230
1.0
 70
     8
 71
     3
 72
     9
 73
     5
 74
     0
 42
0.000000001
 43
0.00000001
 40
0.0
 40
0.0
 40
0.0
 40
0.0
 40
0.5600338676021742
 40
1.0
 40
1.0
 40
1.0
 40
1.0
 10
6841.111672438922
 20
6818.864003309293
 30
0.0
 10
6841.866831959379
 20
6818.464617078752
 30
0.0
 10
6843.215249553642
 20
6817.751470510934
 30
0.0
 10
6844.661268749807
 20
6817.268421579955
 30
0.0
 10
6845.297468222919
 20
6817.055896410032
 30
0.0
  0
ARC
  5
142
330
1F
100
AcDbEntity
  8
0
  6
Continuous
 62
     7
370
    25
100
AcDbCircle
 10
5986.672013231
 20
7747.1324240753
 30
0.0
 40
26.66704104459473
100
AcDbArc
 50
259.5099844498
 51
266.8671044765
  0
LINE
  5
143
330
1F
100
AcDbEntity
  8
0
  6
Continuous
 62
     7
370
    25
100
AcDbLine
 10
5985.2146034616
 20
7720.5052380648
 30
0.0
 11
5985.2146034616
 21
7719.5393149939
 31
0.0
  0
ARC
  5
144
330
1F
100
AcDbEntity
  8
0
  6
Continuous
 62
     7
370
    25
100
AcDbCircle
 10
5987.312483989
 20
7754.7444168723
 30
0.0
 40
35.26755309028385
100
AcDbArc
 50
266.5897634191
 51
271.4549312254
  0
ARC
  5
145
330
1F
100
AcDbEntity
  8
0
  6
Continuous
 62
     7
370
    25
100
AcDbCircle
 10
5987.5399728841
 20
7751.151921639
 30
0.0
 40
30.70502394114637
100
AcDbArc
 50
271.2465457073
 51
278.0975548864
  0
ARC
  5
146
330
1F
100
AcDbEntity
  8
0
  6
Continuous
 62
     7
370
    25
100
AcDbCircle
 10
5989.747639877
 20
7735.8779712841
 30
0.0
 40
16.22577682543209
100
AcDbArc
 50
278.689681837
 51
286.8666418632
  0
LINE
  5
147
330
1F
100
AcDbEntity
  8
0
  6
Continuous
 62
     7
370
    25
100
AcDbLine
 10
5994.455469169
 20
7721.3161071029
 30
0.0
 11
5994.455469169
 21
7720.350184032
 31
0.0
  0
ARC
  5
148
330
1F
100
AcDbEntity
  8
0
  6
Continuous
 62
     7
370
    25
100
AcDbCircle
 10
5992.6889390971
 20
7727.3547900713
 30
0.0
 40
6.291766086537863
100
AcDbArc
 50
286.3060798111
 51
299.7910687764
  0
ARC
  5
149
330
1F
100
AcDbEntity
  8
0
  6
Continuous
 62
     7
370
    25
100
AcDbCircle
 10
5995.8194244385
 20
7721.8685533736
 30
0.0
 40
0.737129435356001
100
AcDbArc
 50
312.8631178515
 51
18.5477095359
  0
LINE
  5
14A
330
1F
100
AcDbEntity
  8
0
  6
Continuous
 62
     7
370
    25
100
AcDbLine
 10
5996.5182667154
 20
7722.3185752716
 30
0.0
 11
5996.5182667154
 21
7722.103029975
 31
0.0
  0
LINE
  5
14B
330
1F
100
AcDbEntity
  8
0
  6
Continuous
 62
     7
370
    25
100
AcDbLine
 10
5978.3026104348
 20
7722.4407498923
 30
0.0
 11
5978.3026104348
 21
7722.4138383952
 31
0.0
  0
ARC
  5
14C
330
1F
100
AcDbEntity
  8
0
  6
Continuous
 62
     7
370
    25
100
AcDbCircle
 10
5978.8040204352
 20
7721.873544353
 30
0.0
 40
0.7371089746317606
100
AcDbArc
 50
132.8622933852
 51
198.548270342
  0
ARC
  5
14D
330
1F
100
AcDbEntity
  8
0
  6
Continuous
 62
     7
370
    25
100
AcDbCircle
 10
5980.9986263065
 20
7725.473394763
 30
0.0
 40
4.194394463421292
100
AcDbArc
 50
234.8956505218
 51
248.4572423917
  0
LINE
  5
14E
330
1F
100
AcDbEntity
  8
0
  6
Continuous
 62
     7
370
    25
100
AcDbLine
 10
5979.4584637063
 20
7721.5720047441
 30
0.0
 11
5979.4584637063
 21
7720.6060742226
 31
0.0
  0
ARC
  5
14F
330
1F
100
AcDbEntity
  8
0
  6
Continuous
 62
     7
370
    25
100
AcDbCircle
 10
5983.6838099141
 20
7731.2722974716
 30
0.0
 40
11.47265745035337
100
AcDbArc
 50
248.3893680949
 51
258.6981851178
  0
LWPOLYLINE
  5
150
330
1F
100
AcDbEntity
  8
0
  6
Continuous
 62
     7
370
    25
100
AcDbPolyline
 90
        5
 70
   128
 43
0.0
 10
5995.561731376
 20
7722.8369717684
 10
5995.5438499826
 20
7722.6965059724
 10
5995.2510719674
 20
7722.2565938917
 10
5994.6113949197
 20
7721.8420435873
 10
5994.0863972085
 20
7721.6184218612
  0
ARC
  5
151
330
1F
100
AcDbEntity
  8
0
  6
Continuous
 62
     7
370
    25
100
AcDbCircle
 10
5981.115733847
 20
7723.7349375686
 30
0.0
 40
2.241707621123155
100
AcDbArc
 50
203.6139556374
 51
263.2379680126
  0
LINE
  5
152
330
1F
100
AcDbEntity
  8
0
  6
Continuous
 62
     7
370
    25
100
AcDbLine
 10
5994.1212063211
 20
7721.4148198452
 30
0.0
 11
5994.455469169
 21
7721.3161071029
 31
0.0
  0
ARC
  5
153
330
1F
100
AcDbEntity
  8
0
  6
Continuous
 62
     7
370
    25
100
AcDbCircle
 10
5989.6077821455
 20
7736.08436603
 30
0.0
 40
15.34817849305177
100
AcDbArc
 50
278.4572141064
 51
287.1017215737
  0
ARC
  5
154
330
1F
100
AcDbEntity
  8
0
  6
Continuous
 62
     7
370
    25
100
AcDbCircle
 10
5987.3127563729
 20
7753.9012896488
 30
0.0
 40
33.32910427123
100
AcDbArc
 50
266.4481896418
 51
271.5965050027
  0
LINE
  5
155
330
1F
100
AcDbEntity
  8
0
  6
Continuous
 62
     7
370
    25
100
AcDbLine
 10
5985.2146034616
 20
7720.5052380648
 30
0.0
 11
5985.2479820626
 21
7720.6362043705
 31
0.0
  0
ARC
  5
156
330
1F
100
AcDbEntity
  8
0
  6
Continuous
 62
     7
370
    25
100
AcDbCircle
 10
5983.8843118143
 20
7731.713589092
 30
0.0
 40
10.83806354249278
100
AcDbArc
 50
248.0877408026
 51
259.0031692989
  0
LINE
  5
157
330
1F
100
AcDbEntity
  8
0
  6
Continuous
 62
     7
370
    25
100
AcDbLine
 10
5979.8396950143
 20
7721.6585059848
 30
0.0
 11
5979.4584637063
 21
7721.5720047441
 31
0.0
  0
ARC
  5
158
330
1F
100
AcDbEntity
  8
0
  6
Continuous
 62
     7
370
    25
100
AcDbCircle
 10
5995.1407046604
 20
7722.9686814779
 30
0.0
 40
0.9476114257181006
100
AcDbArc
 50
315.3572386287
 51
337.2336541393
  0
LINE
  5
159
330
1F
100
AcDbEntity
  8
0
  6
Continuous
 62
     7
370
    25
100
AcDbLine
 10
5994.9687843698
 20
7723.0080818024
 30
0.0
 11
5994.8116665261
 21
7722.9133551207
 31
0.0
  0
LINE
  5
15A
330
1F
100
AcDbEntity
  8
0
  6
Continuous
 62
     7
370
    25
100
AcDbLine
 10
5979.8118000405
 20
7722.9133551207
 30
0.0
 11
5979.6546821969
 21
7723.0080818024
 31
0.0
  0
LINE
  5
15B
330
1F
100
AcDbEntity
  8
0
  6
Continuous
 62
     7
370
    25
100
AcDbLine
 10
5979.8280125039
 20
7722.9646672693
 30
0.0
 11
5979.8675899881
 21
7723.0735202518
 31
0.0
  0
LWPOLYLINE
  5
15C
330
1F
100
AcDbEntity
  8
0
  6
Continuous
 62
     7
370
    25
100
AcDbPolyline
 90
       18
 70
   128
 43
0.0
 10
5994.7558765786
 20
7723.0735202518
 10
5994.8049908059
 20
7722.9194496956
 10
5994.6981792825
 20
7722.5006078568
 10
5994.2461376565
 20
7722.0974941936
 10
5993.469846763
 20
7721.728958675
 10
5992.4055462258
 20
7721.4122344938
 10
5991.1030655282
 20
7721.1621334043
 10
5989.6234398263
 20
7720.9903379169
 10
5988.0355720895
 20
7720.9048946586
 10
5986.4138489144
 20
7720.9097896901
 10
5984.8340874093
 20
7721.0047994938
 10
5983.3704357522
 20
7721.1854760733
 10
5982.0908432382
 20
7721.4433779207
 10
5981.0553913491
 20
7721.7664425459
 10
5980.3124790567
 20
7722.1395676222
 10
5979.8969154733
 20
7722.5452964392
 10
5979.8280125039
 20
7722.9646672693
 10
5979.8280125039
 20
7722.9646672693
  0
LINE
  5
15D
330
1F
100
AcDbEntity
  8
0
  6
Continuous
 62
     7
370
    25
100
AcDbLine
 10
5994.7837715524
 20
7723.0495219317
 30
0.0
 11
5994.8133354562
 21
7723.0562647071
 31
0.0
  0
LINE
  5
15E
330
1F
100
AcDbEntity
  8
0
  6
Continuous
 62
     7
370
    25
100
AcDbLine
 10
5994.6507339852
 20
7723.1042613473
 30
0.0
 11
5994.7837715524
 21
7723.0495219317
 31
0.0
  0
LINE
  5
15F
330
1F
100
AcDbEntity
  8
0
  6
Continuous
 62
     7
370
    25
100
AcDbLine
 10
5978.3026104348
 20
7722.4138383952
 30
0.0
 11
5978.8085346597
 21
7722.4052106228
 31
0.0
  0
ARC
  5
160
330
1F
100
AcDbEntity
  8
0
  6
Continuous
 62
     7
370
    25
100
AcDbCircle
 10
5979.2714145898
 20
7721.8747316405
 30
0.0
 40
0.7040353544817931
100
AcDbArc
 50
131.1069678385
 51
200.3038595489
  0
LINE
  5
161
330
1F
100
AcDbEntity
  8
0
  6
Continuous
 62
     7
370
    25
100
AcDbLine
 10
5978.1051998513
 20
7721.63906742
 30
0.0
 11
5978.6111240762
 21
7721.6304321971
 31
0.0
  0
LINE
  5
162
330
1F
100
AcDbEntity
  8
0
  6
Continuous
 62
     7
370
    25
100
AcDbLine
 10
5978.8085346597
 20
7722.6937567082
 30
0.0
 11
5978.8085346597
 21
7722.4052106228
 31
0.0
  0
LINE
  5
163
330
1F
100
AcDbEntity
  8
0
  6
Continuous
 62
     7
370
    25
100
AcDbLine
 10
5978.6111240762
 20
7722.1116651979
 30
0.0
 11
5978.6111240762
 21
7721.6304321971
 31
0.0
  0
LINE
  5
164
330
1F
100
AcDbEntity
  8
0
  6
Continuous
 62
     7
370
    25
100
AcDbLine
 10
5996.5182667154
 20
7722.103029975
 30
0.0
 11
5996.0121040719
 21
7722.1116651979
 31
0.0
  0
LINE
  5
165
330
1F
100
AcDbEntity
  8
0
  6
Continuous
 62
     7
370
    25
100
AcDbLine
 10
5996.3208561319
 20
7721.3282515493
 30
0.0
 11
5995.814931907
 21
7721.3368867722
 31
0.0
  0
ARC
  5
166
330
1F
100
AcDbEntity
  8
0
  6
Continuous
 62
     7
370
    25
100
AcDbCircle
 10
5995.3527724231
 20
7721.8669792582
 30
0.0
 40
0.7032705256049785
100
AcDbArc
 50
311.0834444016
 51
20.3604983657
  0
LINE
  5
167
330
1F
100
AcDbEntity
  8
0
  6
Continuous
 62
     7
370
    25
100
AcDbLine
 10
5996.0121040719
 20
7722.6030905929
 30
0.0
 11
5996.0121040719
 21
7722.1116651979
 31
0.0
  0
LINE
  5
168
330
1F
100
AcDbEntity
  8
0
  6
Continuous
 62
     7
370
    25
100
AcDbLine
 10
5995.814931907
 20
7722.3028098431
 30
0.0
 11
5995.814931907
 21
7721.3368867722
 31
0.0
  0
LINE
  5
169
330
1F
100
AcDbEntity
  8
0
  6
Continuous
 62
     7
370
    25
100
AcDbLine
 10
5979.8396950143
 20
7721.6585059848
 30
0.0
 11
5979.8396950143
 21
7720.6925754633
 31
0.0
  0
LINE
  5
16A
330
1F
100
AcDbEntity
  8
0
  6
Continuous
 62
     7
370
    25
100
AcDbLine
 10
5979.8396950143
 20
7720.6925754633
 30
0.0
 11
5979.4584637063
 21
7720.6060742226
 31
0.0
  0
ARC
  5
16B
330
1F
100
AcDbEntity
  8
0
  6
Continuous
 62
     7
370
    25
100
AcDbCircle
 10
5983.884403108
 20
7730.7481034172
 30
0.0
 40
10.83851032171775
100
AcDbArc
 50
248.0881706457
 51
259.0031366192
  0
LINE
  5
16C
330
1F
100
AcDbEntity
  8
0
  6
Continuous
 62
     7
370
    25
100
AcDbLine
 10
5981.8169002908
 20
7720.1086138573
 30
0.0
 11
5981.4354305642
 21
7720.0221126166
 31
0.0
  0
LINE
  5
16D
330
1F
100
AcDbEntity
  8
0
  6
Continuous
 62
     7
370
    25
100
AcDbLine
 10
5981.8169002908
 20
7721.0745369282
 30
0.0
 11
5981.8169002908
 21
7720.1086138573
 31
0.0
  0
LINE
  5
16E
330
1F
100
AcDbEntity
  8
0
  6
Continuous
 62
     7
370
    25
100
AcDbLine
 10
5994.1212063211
 20
7721.4148198452
 30
0.0
 11
5994.1212063211
 21
7720.4488893238
 31
0.0
  0
ARC
  5
16F
330
1F
100
AcDbEntity
  8
0
  6
Continuous
 62
     7
370
    25
100
AcDbCircle
 10
5989.6079382374
 20
7735.11796835
 30
0.0
 40
15.34768608855446
100
AcDbArc
 50
278.4568983034
 51
287.1016774724
  0
LINE
  5
170
330
1F
100
AcDbEntity
  8
0
  6
Continuous
 62
     7
370
    25
100
AcDbLine
 10
5991.865051307
 20
7720.9030841675
 30
0.0
 11
5991.865051307
 21
7719.9371610966
 31
0.0
  0
LINE
  5
171
330
1F
100
AcDbEntity
  8
0
  6
Continuous
 62
     7
370
    25
100
AcDbLine
 10
5994.1212063211
 20
7720.4488893238
 30
0.0
 11
5994.455469169
 21
7720.350184032
 31
0.0
  0
LINE
  5
172
330
1F
100
AcDbEntity
  8
0
  6
Continuous
 62
     7
370
    25
100
AcDbLine
 10
5991.865051307
 20
7719.9371610966
 30
0.0
 11
5992.1990757363
 21
7719.8384483543
 31
0.0
  0
LINE
  5
173
330
1F
100
AcDbEntity
  8
0
  6
Continuous
 62
     7
370
    25
100
AcDbLine
 10
5988.2413273233
 20
7720.58512319
 30
0.0
 11
5988.2413273233
 21
7719.6192001191
 31
0.0
  0
ARC
  5
174
330
1F
100
AcDbEntity
  8
0
  6
Continuous
 62
     7
370
    25
100
AcDbCircle
 10
5987.3127000119
 20
7752.9320638315
 30
0.0
 40
33.32580437749255
100
AcDbArc
 50
266.4479345792
 51
271.5967600653
  0
LINE
  5
175
330
1F
100
AcDbEntity
  8
0
  6
Continuous
 62
     7
370
    25
100
AcDbLine
 10
5985.2479820626
 20
7720.6362043705
 30
0.0
 11
5985.2479820626
 21
7719.6702812996
 31
0.0
  0
LINE
  5
176
330
1F
100
AcDbEntity
  8
0
  6
Continuous
 62
     7
370
    25
100
AcDbLine
 10
5985.2146034616
 20
7719.5393149939
 30
0.0
 11
5985.2479820626
 21
7719.6702812996
 31
0.0
  0
LINE
  5
177
330
1F
100
AcDbEntity
  8
0
  6
Continuous
 62
     7
370
    25
100
AcDbLine
 10
5988.2079487222
 20
7719.4882338133
 30
0.0
 11
5988.2413273233
 21
7719.6192001191
 31
0.0
  0
ARC
  5
178
330
1F
100
AcDbEntity
  8
0
  6
Continuous
 62
     7
370
    25
100
AcDbCircle
 10
6585.0297290019
 20
7737.3755670502
 30
0.0
 40
16.82403626268793
100
AcDbArc
 50
252.9344115777
 51
262.0916475673
  0
LINE
  5
179
330
1F
100
AcDbEntity
  8
0
  6
Continuous
 62
     7
370
    25
100
AcDbLine
 10
6582.7149277108
 20
7720.711537191
 30
0.0
 11
6582.7149277108
 21
7719.7456141201
 31
0.0
  0
ARC
  5
17A
330
1F
100
AcDbEntity
  8
0
  6
Continuous
 62
     7
370
    25
100
AcDbCircle
 10
6586.9602732468
 20
7749.0112388947
 30
0.0
 40
29.57194197493211
100
AcDbArc
 50
261.7461039412
 51
267.2190768983
  0
ARC
  5
17B
330
1F
100
AcDbEntity
  8
0
  6
Continuous
 62
     7
370
    25
100
AcDbCircle
 10
6587.3096581804
 20
7755.6384137104
 30
0.0
 40
35.24357373983237
100
AcDbArc
 50
267.3869876812
 51
273.6065894069
  0
ARC
  5
17C
330
1F
100
AcDbEntity
  8
0
  6
Continuous
 62
     7
370
    25
100
AcDbCircle
 10
6587.9080277624
 20
7746.7089929031
 30
0.0
 40
27.25760081961851
100
AcDbArc
 50
273.8478095752
 51
279.6269118571
  0
LINE
  5
17D
330
1F
100
AcDbEntity
  8
0
  6
Continuous
 62
     7
370
    25
100
AcDbLine
 10
6592.4663668054
 20
7720.8011676755
 30
0.0
 11
6592.4663668054
 21
7719.8352446046
 31
0.0
  0
ARC
  5
17E
330
1F
100
AcDbEntity
  8
0
  6
Continuous
 62
     7
370
    25
100
AcDbCircle
 10
6590.3445840705
 20
7734.2511709474
 30
0.0
 40
13.61633394080494
100
AcDbArc
 50
278.9647212134
 51
289.3828051033
  0
ARC
  5
17F
330
1F
100
AcDbEntity
  8
0
  6
Continuous
 62
     7
370
    25
100
AcDbCircle
 10
6594.3479628469
 20
7723.1819522567
 30
0.0
 40
2.734354159032093
100
AcDbArc
 50
291.2436562603
 51
318.2402219842
  0
LINE
  5
180
330
1F
100
AcDbEntity
  8
0
  6
Continuous
 62
     7
370
    25
100
AcDbLine
 10
6596.3876371759
 20
7722.3267783609
 30
0.0
 11
6596.3876371759
 21
7721.3608478394
 31
0.0
  0
LINE
  5
181
330
1F
100
AcDbEntity
  8
0
  6
Continuous
 62
     7
370
    25
100
AcDbLine
 10
6596.4503412622
 20
7722.4186067667
 30
0.0
 11
6596.3876371759
 21
7722.3267783609
 31
0.0
  0
LINE
  5
182
330
1F
100
AcDbEntity
  8
0
  6
Continuous
 62
     7
370
    25
100
AcDbLine
 10
6596.2380295175
 20
7722.4872340646
 30
0.0
 11
6596.2380295175
 21
7722.4509050336
 31
0.0
  0
LINE
  5
183
330
1F
100
AcDbEntity
  8
0
  6
Continuous
 62
     7
370
    25
100
AcDbLine
 10
6596.134913482
 20
7722.5419436779
 30
0.0
 11
6596.2380295175
 21
7722.4509050336
 31
0.0
  0
ARC
  5
184
330
1F
100
AcDbEntity
  8
0
  6
Continuous
 62
     7
370
    25
100
AcDbCircle
 10
6579.480012584
 20
7721.3122915036
 30
0.0
 40
1.579613320806586
100
AcDbArc
 50
128.8809966271
 51
141.9706953036
  0
LINE
  5
185
330
1F
100
AcDbEntity
  8
0
  6
Continuous
 62
     7
370
    25
100
AcDbLine
 10
6578.2357578653
 20
7722.4013512221
 30
0.0
 11
6578.2357578653
 21
7722.2854350892
 31
0.0
  0
LINE
  5
186
330
1F
100
AcDbEntity
  8
0
  6
Continuous
 62
     7
370
    25
100
AcDbLine
 10
6578.3853655236
 20
7722.1613009658
 30
0.0
 11
6578.2716398614
 21
7722.2819780198
 31
0.0
  0
LINE
  5
187
330
1F
100
AcDbEntity
  8
0
  6
Continuous
 62
     7
370
    25
100
AcDbLine
 10
6578.2357578653
 20
7722.3267783609
 30
0.0
 11
6578.1986837762
 21
7722.3786344018
 31
0.0
  0
LINE
  5
188
330
1F
100
AcDbEntity
  8
0
  6
Continuous
 62
     7
370
    25
100
AcDbLine
 10
6578.3853655236
 20
7722.1613009658
 30
0.0
 11
6578.3853655236
 21
7721.1953778949
 31
0.0
  0
ARC
  5
189
330
1F
100
AcDbEntity
  8
0
  6
Continuous
 62
     7
370
    25
100
AcDbCircle
 10
6580.8717880745
 20
7724.1288029926
 30
0.0
 40
3.845423241359948
100
AcDbArc
 50
229.7148049455
 51
251.1773733304
  0
ARC
  5
18A
330
1F
100
AcDbEntity
  8
0
  6
Continuous
 62
     7
370
    25
100
AcDbCircle
 10
6593.9780568167
 20
7723.3926693149
 30
0.0
 40
1.74189035201694
100
AcDbArc
 50
285.1833718007
 51
332.962075672
  0
ARC
  5
18B
330
1F
100
AcDbEntity
  8
0
  6
Continuous
 62
     7
370
    25
100
AcDbCircle
 10
6581.8816855588
 20
7724.860577546
 30
0.0
 40
3.588672527441354
100
AcDbArc
 50
219.0269636689
 51
261.691221661
  0
LINE
  5
18C
330
1F
100
AcDbEntity
  8
0
  6
Continuous
 62
     7
370
    25
100
AcDbLine
 10
6592.2558432
 20
7720.9205706802
 30
0.0
 11
6592.4663668054
 21
7720.8011676755
 31
0.0
  0
ARC
  5
18D
330
1F
100
AcDbEntity
  8
0
  6
Continuous
 62
     7
370
    25
100
AcDbCircle
 10
6587.8738729788
 20
7746.3013648298
 30
0.0
 40
25.75628806101801
100
AcDbArc
 50
273.6792243234
 51
279.7954971089
  0
ARC
  5
18E
330
1F
100
AcDbEntity
  8
0
  6
Continuous
 62
     7
370
    25
100
AcDbCircle
 10
6586.9810699426
 20
7748.4808694221
 30
0.0
 40
27.94710322536489
100
AcDbArc
 50
261.5869840997
 51
267.3786618654
  0
LINE
  5
18F
330
1F
100
AcDbEntity
  8
0
  6
Continuous
 62
     7
370
    25
100
AcDbLine
 10
6582.7149277108
 20
7720.711537191
 30
0.0
 11
6582.8921919244
 21
7720.8345015731
 31
0.0
  0
ARC
  5
190
330
1F
100
AcDbEntity
  8
0
  6
Continuous
 62
     7
370
    25
100
AcDbCircle
 10
6581.2260367276
 20
7724.9603586998
 30
0.0
 40
3.63232830231129
100
AcDbArc
 50
229.077088949
 51
251.8150893269
  0
LINE
  5
191
330
1F
100
AcDbEntity
  8
0
  6
Continuous
 62
     7
370
    25
100
AcDbLine
 10
6578.8467054742
 20
7722.2158019629
 30
0.0
 11
6578.3853655236
 21
7722.1613009658
 31
0.0
  0
LINE
  5
192
330
1F
100
AcDbEntity
  8
0
  6
Continuous
 62
     7
370
    25
100
AcDbLine
 10
6596.3876371759
 20
7722.3267783609
 30
0.0
 11
6595.912588157
 21
7722.3726664868
 31
0.0
  0
ARC
  5
193
330
1F
100
AcDbEntity
  8
0
  6
Continuous
 62
     7
370
    25
100
AcDbCircle
 10
6593.9612336594
 20
7724.0665680159
 30
0.0
 40
2.584005953054119
100
AcDbArc
 50
290.4378677124
 51
319.0399123849
  0
LINE
  5
194
330
1F
100
AcDbEntity
  8
0
  6
Continuous
 62
     7
370
    25
100
AcDbLine
 10
6594.9313764947
 20
7722.9364370194
 30
0.0
 11
6594.811690368
 21
7722.8654478875
 31
0.0
  0
LINE
  5
195
330
1F
100
AcDbEntity
  8
0
  6
Continuous
 62
     7
370
    25
100
AcDbLine
 10
6579.8117046731
 20
7722.8654478875
 30
0.0
 11
6579.6920185464
 21
7722.9364370194
 31
0.0
  0
LWPOLYLINE
  5
196
330
1F
100
AcDbEntity
  8
0
  6
Continuous
 62
     7
370
    25
100
AcDbPolyline
 90
       18
 70
   128
 43
0.0
 10
6594.7628145593
 20
7723.0104436365
 10
6594.8078756707
 20
7722.7265616146
 10
6594.5806627648
 20
7722.3109458771
 10
6594.0135841745
 20
7721.9176967826
 10
6593.1331043618
 20
7721.5651874629
 10
6591.9804697412
 20
7721.2698986021
 10
6590.6095629113
 20
7721.0456510272
 10
6589.0843992608
 20
7720.9029277053
 10
6587.4763851541
 20
7720.8483894554
 10
6585.8606224435
 20
7720.8845992771
 10
6584.312809028
 20
7721.0098658886
 10
6582.9050665277
 20
7721.2183182326
 10
6581.703436889
 20
7721.5002184
 10
6580.7640676873
 20
7721.842386314
 10
6580.1308279412
 20
7722.2288181272
 10
6579.8334007638
 20
7722.6414461818
 10
6579.8856144326
 20
7723.0609734741
 10
6579.8978929895
 20
7723.0824683991
  0
LINE
  5
197
330
1F
100
AcDbEntity
  8
0
  6
Continuous
 62
     7
370
    25
100
AcDbLine
 10
6594.5310717004
 20
7723.138019928
 30
0.0
 11
6594.5310717004
 21
7723.1027637806
 31
0.0
  0
LINE
  5
198
330
1F
100
AcDbEntity
  8
0
  6
Continuous
 62
     7
370
    25
100
AcDbLine
 10
6594.5310717004
 20
7723.1027637806
 30
0.0
 11
6594.619405784
 21
7723.1131945935
 31
0.0
  0
LINE
  5
199
330
1F
100
AcDbEntity
  8
0
  6
Continuous
 62
     7
370
    25
100
AcDbLine
 10
6595.7766895669
 20
7722.3964040366
 30
0.0
 11
6596.2380295175
 21
7722.4509050336
 31
0.0
  0
ARC
  5
19A
330
1F
100
AcDbEntity
  8
0
  6
Continuous
 62
     7
370
    25
100
AcDbCircle
 10
6593.3973091584
 20
7719.6519883395
 30
0.0
 40
3.632253934819194
100
AcDbArc
 50
49.075045747
 51
71.8119085214
  0
LINE
  5
19B
330
1F
100
AcDbEntity
  8
0
  6
Continuous
 62
     7
370
    25
100
AcDbLine
 10
6579.58067707
 20
7722.9842995491
 30
0.0
 11
6579.7598486322
 21
7722.9669918504
 31
0.0
  0
ARC
  5
19C
330
1F
100
AcDbEntity
  8
0
  6
Continuous
 62
     7
370
    25
100
AcDbCircle
 10
6580.6611508672
 20
7720.5474396196
 30
0.0
 40
2.581971865933522
100
AcDbArc
 50
110.4307580362
 51
139.0536698164
  0
LINE
  5
19D
330
1F
100
AcDbEntity
  8
0
  6
Continuous
 62
     7
370
    25
100
AcDbLine
 10
6578.2357578653
 20
7722.2854350892
 30
0.0
 11
6578.7109260934
 21
7722.2395395127
 31
0.0
  0
LINE
  5
19E
330
1F
100
AcDbEntity
  8
0
  6
Continuous
 62
     7
370
    25
100
AcDbLine
 10
6579.7598486322
 20
7723.0409761157
 30
0.0
 11
6579.7598486322
 21
7722.9669918504
 31
0.0
  0
LINE
  5
19F
330
1F
100
AcDbEntity
  8
0
  6
Continuous
 62
     7
370
    25
100
AcDbLine
 10
6596.3876371759
 20
7721.3608478394
 30
0.0
 11
6595.912588157
 21
7721.4067434159
 31
0.0
  0
LINE
  5
1A0
330
1F
100
AcDbEntity
  8
0
  6
Continuous
 62
     7
370
    25
100
AcDbLine
 10
6595.3387146371
 20
7720.6334029522
 30
0.0
 11
6594.863546409
 21
7720.6792910781
 31
0.0
  0
ARC
  5
1A1
330
1F
100
AcDbEntity
  8
0
  6
Continuous
 62
     7
370
    25
100
AcDbCircle
 10
6593.9612842974
 20
7723.1005471217
 30
0.0
 40
2.583903586929724
100
AcDbArc
 50
290.4375152998
 51
319.0408143837
  0
LINE
  5
1A2
330
1F
100
AcDbEntity
  8
0
  6
Continuous
 62
     7
370
    25
100
AcDbLine
 10
6595.912588157
 20
7722.3726664868
 30
0.0
 11
6595.912588157
 21
7721.4067434159
 31
0.0
  0
LINE
  5
1A3
330
1F
100
AcDbEntity
  8
0
  6
Continuous
 62
     7
370
    25
100
AcDbLine
 10
6594.863546409
 20
7721.6452215996
 30
0.0
 11
6594.863546409
 21
7720.6792910781
 31
0.0
  0
LINE
  5
1A4
330
1F
100
AcDbEntity
  8
0
  6
Continuous
 62
     7
370
    25
100
AcDbLine
 10
6578.8467054742
 20
7722.2158019629
 30
0.0
 11
6578.8467054742
 21
7721.249878892
 31
0.0
  0
LINE
  5
1A5
330
1F
100
AcDbEntity
  8
0
  6
Continuous
 62
     7
370
    25
100
AcDbLine
 10
6578.8467054742
 20
7721.249878892
 30
0.0
 11
6578.3853655236
 21
7721.1953778949
 31
0.0
  0
ARC
  5
1A6
330
1F
100
AcDbEntity
  8
0
  6
Continuous
 62
     7
370
    25
100
AcDbCircle
 10
6581.2261556465
 20
7723.9946089547
 30
0.0
 40
3.632537162927584
100
AcDbArc
 50
229.0774624796
 51
251.8141971803
  0
LINE
  5
1A7
330
1F
100
AcDbEntity
  8
0
  6
Continuous
 62
     7
370
    25
100
AcDbLine
 10
6580.09244255
 20
7720.5435191479
 30
0.0
 11
6579.6311025994
 21
7720.4890256014
 31
0.0
  0
LINE
  5
1A8
330
1F
100
AcDbEntity
  8
0
  6
Continuous
 62
     7
370
    25
100
AcDbLine
 10
6580.09244255
 20
7721.5094496694
 30
0.0
 11
6580.09244255
 21
7720.5435191479
 31
0.0
  0
LINE
  5
1A9
330
1F
100
AcDbEntity
  8
0
  6
Continuous
 62
     7
370
    25
100
AcDbLine
 10
6592.2558432
 20
7720.9205706802
 30
0.0
 11
6592.2558432
 21
7719.9546401587
 31
0.0
  0
ARC
  5
1AA
330
1F
100
AcDbEntity
  8
0
  6
Continuous
 62
     7
370
    25
100
AcDbCircle
 10
6587.8735907521
 20
7745.3378233447
 30
0.0
 40
25.75869028445187
100
AcDbArc
 50
273.6795097925
 51
279.7952116398
  0
LINE
  5
1AB
330
1F
100
AcDbEntity
  8
0
  6
Continuous
 62
     7
370
    25
100
AcDbLine
 10
6589.5266657251
 20
7720.598161706
 30
0.0
 11
6589.5266657251
 21
7719.6322311845
 31
0.0
  0
LINE
  5
1AC
330
1F
100
AcDbEntity
  8
0
  6
Continuous
 62
     7
370
    25
100
AcDbLine
 10
6592.2558432
 20
7719.9546401587
 30
0.0
 11
6592.4663668054
 21
7719.8352446046
 31
0.0
  0
LINE
  5
1AD
330
1F
100
AcDbEntity
  8
0
  6
Continuous
 62
     7
370
    25
100
AcDbLine
 10
6589.5266657251
 20
7719.6322311845
 30
0.0
 11
6589.7371893304
 21
7719.5128356305
 31
0.0
  0
LINE
  5
1AE
330
1F
100
AcDbEntity
  8
0
  6
Continuous
 62
     7
370
    25
100
AcDbLine
 10
6585.7029085534
 20
7720.5630098668
 30
0.0
 11
6585.7029085534
 21
7719.5970867959
 31
0.0
  0
ARC
  5
1AF
330
1F
100
AcDbEntity
  8
0
  6
Continuous
 62
     7
370
    25
100
AcDbCircle
 10
6586.9810699426
 20
7747.5149463512
 30
0.0
 40
27.94710322536489
100
AcDbArc
 50
261.5869840997
 51
267.3786618654
  0
LINE
  5
1B0
330
1F
100
AcDbEntity
  8
0
  6
Continuous
 62
     7
370
    25
100
AcDbLine
 10
6582.8921919244
 20
7720.8345015731
 30
0.0
 11
6582.8921919244
 21
7719.8685785022
 31
0.0
  0
LINE
  5
1B1
330
1F
100
AcDbEntity
  8
0
  6
Continuous
 62
     7
370
    25
100
AcDbLine
 10
6582.7149277108
 20
7719.7456141201
 30
0.0
 11
6582.8921919244
 21
7719.8685785022
 31
0.0
  0
LINE
  5
1B2
330
1F
100
AcDbEntity
  8
0
  6
Continuous
 62
     7
370
    25
100
AcDbLine
 10
6585.5255251306
 20
7719.4741224137
 30
0.0
 11
6585.7029085534
 21
7719.5970867959
 31
0.0
  0
CIRCLE
  5
1B3
330
1F
100
AcDbEntity
  8
0
  6
Continuous
 62
     7
370
    25
100
AcDbCircle
 10
6587.3117133708
 20
7730.1570526175
 30
0.0
 40
29.4999999999996
  0
CIRCLE
  5
1B4
330
1F
100
AcDbEntity
  8
0
  6
Continuous
 62
     7
370
    25
100
AcDbCircle
 10
6587.3117133708
 20
7730.1570526175
 30
0.0
 40
29.99999999999956
  0
CIRCLE
  5
1B5
330
1F
100
AcDbEntity
  8
0
  6
Continuous
 62
     7
370
    25
100
AcDbCircle
 10
5987.3117133708
 20
7730.1570526175
 30
0.0
 40
29.4999999999996
  0
CIRCLE
  5
1B6
330
1F
100
AcDbEntity
  8
0
  6
Continuous
 62
     7
370
    25
100
AcDbCircle
 10
5987.3117133708
 20
7730.1570526175
 30
0.0
 40
30.0000000000004
  0
LINE
  5
1B7
330
1F
100
AcDbEntity
  8
0
  6
Continuous
 62
     7
370
    25
100
AcDbLine
 10
6575.1609926599
 20
7725.5352740374
 30
0.0
 11
6599.4624023812
 21
7725.5352740374
 31
0.0
  0
LINE
  5
1B8
330
1F
100
AcDbEntity
  8
0
  6
Continuous
 62
     7
370
    25
100
AcDbLine
 10
6600.4300241845
 20
7725.2673288074
 30
0.0
 11
6599.4624023812
 21
7725.5352740374
 31
0.0
  0
ARC
  5
1B9
330
1F
100
AcDbEntity
  8
0
  6
Continuous
 62
     7
370
    25
100
AcDbCircle
 10
6587.3117133708
 20
7730.1570526175
 30
0.0
 40
13.99999999999974
100
AcDbArc
 50
200.4424420745
 51
339.5575579255
  0
LINE
  5
1BA
330
1F
100
AcDbEntity
  8
0
  6
Continuous
 62
     7
370
    25
100
AcDbLine
 10
6575.1609926599
 20
7725.5352740374
 30
0.0
 11
6574.1933708566
 21
7725.2673288074
 31
0.0
  0
LWPOLYLINE
  5
1BB
330
1F
100
AcDbEntity
  8
0
  6
Continuous
 62
     7
370
    25
100
AcDbPolyline
 90
       34
 70
   128
 43
0.0
 10
6587.3117571252
 20
7723.9500065532
 10
6589.1806011575
 20
7723.9038204041
 10
6590.9818535226
 20
7723.7669308868
 10
6592.6505451577
 20
7723.5442777362
 10
6594.1262369531
 20
7723.24391503
 10
6595.3556423562
 20
7722.8766982642
 10
6596.2942963021
 20
7722.4559043732
 10
6596.9083433526
 20
7721.9967325416
 10
6597.1754913705
 20
7721.5157826629
 10
6597.0862036126
 20
7721.0304369417
 10
6596.6435795205
 20
7720.5582340446
 10
6595.8637123483
 20
7720.1162507024
 10
6594.7747354882
 20
7719.7204535094
 10
6593.4159880059
 20
7719.3851475802
 10
6591.836703338
 20
7719.1224475589
 10
6590.0938635247
 20
7718.9418603864
 10
6588.2504110711
 20
7718.8499053207
 10
6586.37298397
 20
7718.8499053207
 10
6584.5296507257
 20
7718.9418603864
 10
6582.7866917031
 20
7719.1224475589
 10
6581.2074070352
 20
7719.3851475802
 10
6579.8486595529
 20
7719.7204535094
 10
6578.7596826928
 20
7720.1162507024
 10
6577.9798155206
 20
7720.5582340446
 10
6577.5371914285
 20
7721.0304369417
 10
6577.4479036706
 20
7721.5157826629
 10
6577.7150516885
 20
7721.9967325416
 10
6578.329098739
 20
7722.4559043732
 10
6579.2677526849
 20
7722.8766982642
 10
6580.497158088
 20
7723.24391503
 10
6581.9728498834
 20
7723.5442777362
 10
6583.6415415185
 20
7723.7669308868
 10
6585.4429130929
 20
7723.9038204041
 10
6587.3117571252
 20
7723.9500065532
  0
ARC
  5
1BC
330
1F
100
AcDbEntity
  8
0
  6
Continuous
 62
     7
370
    25
100
AcDbCircle
 10
6587.3117133708
 20
7730.1570526175
 30
0.0
 40
13.00000000000028
100
AcDbArc
 50
339.1745965348
 51
200.8254034652
  0
ARC
  5
1BD
330
1F
100
AcDbEntity
  8
0
  6
Continuous
 62
     7
370
    25
100
AcDbCircle
 10
6587.3117133708
 20
7730.1570526175
 30
0.0
 40
13.99999999999974
100
AcDbArc
 50
339.5575579255
 51
200.4424420745
  0
LWPOLYLINE
  5
1BE
330
1F
100
AcDbEntity
  8
0
  6
Continuous
 62
     7
370
    25
100
AcDbPolyline
 90
       19
 70
   128
 43
0.0
 10
6596.5410595315
 20
7722.3031451192
 10
6596.6867332833
 20
7721.8771358219
 10
6596.5066080468
 20
7721.4037631836
 10
6595.9730272668
 20
7720.9485774126
 10
6595.1067333596
 20
7720.5290799227
 10
6593.9408665078
 20
7720.1613863197
 10
6592.520130195
 20
7719.8596303549
 10
6590.8993606942
 20
7719.6354051319
 10
6589.1406660455
 20
7719.4973235217
 10
6587.3117571252
 20
7719.4507052389
 10
6585.4827289956
 20
7719.4973235217
 10
6583.7240343469
 20
7719.6354051319
 10
6582.1032648461
 20
7719.8596303549
 10
6580.6825285333
 20
7720.1613863197
 10
6579.5166616815
 20
7720.5290799227
 10
6578.6503677743
 20
7720.9485774126
 10
6578.1169062036
 20
7721.4037631836
 10
6577.9366617578
 20
7721.8771358219
 10
6578.0823355096
 20
7722.3031451192
  0
LINE
  5
1BF
330
1F
100
AcDbEntity
  8
0
  6
Continuous
 62
     7
370
    25
100
AcDbLine
 10
5975.160968818
 20
7725.5352740374
 30
0.0
 11
5999.4624977487
 21
7725.5352740374
 31
0.0
  0
LINE
  5
1C0
330
1F
100
AcDbEntity
  8
0
  6
Continuous
 62
     7
370
    25
100
AcDbLine
 10
6000.4300003427
 20
7725.2673288074
 30
0.0
 11
5999.4624977487
 21
7725.5352740374
 31
0.0
  0
ARC
  5
1C1
330
1F
100
AcDbEntity
  8
0
  6
Continuous
 62
     7
370
    25
100
AcDbCircle
 10
5987.3117133708
 20
7730.1570526175
 30
0.0
 40
14.00000000000059
100
AcDbArc
 50
200.4424420745
 51
339.5575579255
  0
LINE
  5
1C2
330
1F
100
AcDbEntity
  8
0
  6
Continuous
 62
     7
370
    25
100
AcDbLine
 10
5975.160968818
 20
7725.5352740374
 30
0.0
 11
5974.193466224
 21
7725.2673288074
 31
0.0
  0
LWPOLYLINE
  5
1C3
330
1F
100
AcDbEntity
  8
0
  6
Continuous
 62
     7
370
    25
100
AcDbPolyline
 90
       34
 70
   128
 43
0.0
 10
5987.3117332833
 20
7723.9500065532
 10
5989.1804581063
 20
7723.9038204041
 10
5990.98194889
 20
7723.7669308868
 10
5992.6506405252
 20
7723.5442777362
 10
5994.1262131112
 20
7723.24391503
 10
5995.3557377237
 20
7722.8766982642
 10
5996.2943916696
 20
7722.4559043732
 10
5996.9083195108
 20
7721.9967325416
 10
5997.1755867379
 20
7721.5157826629
 10
5997.0861797708
 20
7721.0304369417
 10
5996.643674888
 20
7720.5582340446
 10
5995.8638077157
 20
7720.1162507024
 10
5994.7747116464
 20
7719.7204535094
 10
5993.4159641641
 20
7719.3851475802
 10
5991.8366794961
 20
7719.1224475589
 10
5990.0938396829
 20
7718.9418603864
 10
5988.2503872293
 20
7718.8499053207
 10
5986.3730793374
 20
7718.8499053207
 10
5984.5296268838
 20
7718.9418603864
 10
5982.7867870706
 20
7719.1224475589
 10
5981.2075024026
 20
7719.3851475802
 10
5979.8487549203
 20
7719.7204535094
 10
5978.759658851
 20
7720.1162507024
 10
5977.9797916787
 20
7720.5582340446
 10
5977.5372867959
 20
7721.0304369417
 10
5977.4478798288
 20
7721.5157826629
 10
5977.7151470559
 20
7721.9967325416
 10
5978.3290748971
 20
7722.4559043732
 10
5979.267728843
 20
7722.8766982642
 10
5980.4972534555
 20
7723.24391503
 10
5981.9728260415
 20
7723.5442777362
 10
5983.6415176767
 20
7723.7669308868
 10
5985.4427700418
 20
7723.9038204041
 10
5987.3117332833
 20
7723.9500065532
  0
ARC
  5
1C4
330
1F
100
AcDbEntity
  8
0
  6
Continuous
 62
     7
370
    25
100
AcDbCircle
 10
5987.3117133708
 20
7730.1570526175
 30
0.0
 40
13.0000000000008
100
AcDbArc
 50
339.1745965348
 51
200.8254034652
  0
ARC
  5
1C5
330
1F
100
AcDbEntity
  8
0
  6
Continuous
 62
     7
370
    25
100
AcDbCircle
 10
5987.3117133708
 20
7730.1570526175
 30
0.0
 40
14.00000000000059
100
AcDbArc
 50
339.5575579255
 51
200.4424420745
  0
LWPOLYLINE
  5
1C6
330
1F
100
AcDbEntity
  8
0
  6
Continuous
 62
     7
370
    25
100
AcDbPolyline
 90
       19
 70
   128
 43
0.0
 10
5996.5411548989
 20
7722.3031525698
 10
5996.6868286508
 20
7721.8771358219
 10
5996.506584205
 20
7721.4037631836
 10
5995.9730034249
 20
7720.9485774126
 10
5995.1068287271
 20
7720.5290799227
 10
5993.9407234567
 20
7720.1613863197
 10
5992.5202255624
 20
7719.8596303549
 10
5990.8994560617
 20
7719.6354051319
 10
5989.1406422036
 20
7719.4973235217
 10
5987.3117332833
 20
7719.4507052389
 10
5985.4828243631
 20
7719.4973235217
 10
5983.724010505
 20
7719.6354051319
 10
5982.1032410043
 20
7719.8596303549
 10
5980.6825046914
 20
7720.1613863197
 10
5979.5166378396
 20
7720.5290799227
 10
5978.6502247232
 20
7720.9485774126
 10
5978.1168823617
 20
7721.4037631836
 10
5977.9366379159
 20
7721.8771358219
 10
5978.0823116677
 20
7722.3031525698
  0
ARC
  5
1C7
330
1F
100
AcDbEntity
  8
0
  6
Continuous
 62
     7
370
    25
100
AcDbCircle
 10
6587.3117133708
 20
7530.1570526175
 30
0.0
 40
20.00000000000053
100
AcDbArc
 50
204.7216586433
 51
335.2783413567
  0
SPLINE
  5
1C8
330
1F
100
AcDbEntity
  8
0
  6
Continuous
 62
     7
370
    25
100
AcDbSpline
210
0.0
220
0.0
230
1.0
 70
     8
 71
     3
 72
    16
 73
    12
 74
     0
 42
0.000000001
 43
0.00000001
 40
0.0
 40
0.0
 40
0.0
 40
0.0
 40
0.1087871703430288
 40
0.2175728665673546
 40
0.3263948239227396
 40
0.4352162334091184
 40
0.5434547942605208
 40
0.6516943498653555
 40
0.7596489668607337
 40
0.8676066740259132
 40
1.0
 40
1.0
 40
1.0
 40
1.0
 10
6569.144738234821
 20
7521.792844423338
 30
0.0
 10
6570.23658029589
 20
7521.909361425897
 30
0.0
 10
6572.420249623043
 20
7522.142393852153
 30
0.0
 10
6576.251841608408
 20
7522.417768275083
 30
0.0
 10
6580.369237629895
 20
7522.616262845115
 30
0.0
 10
6584.685368923218
 20
7522.725115665711
 30
0.0
 10
6589.066987930827
 20
7522.733487017724
 30
0.0
 10
6593.391315926219
 20
7522.646838260792
 30
0.0
 10
6597.525151778798
 20
7522.465297362176
 30
0.0
 10
6601.704060933899
 20
7522.189874728578
 30
0.0
 10
6604.138052616153
 20
7521.933863760957
 30
0.0
 10
6605.478776015582
 20
7521.792844423338
 30
0.0
  0
SPLINE
  5
1C9
330
1F
100
AcDbEntity
  8
0
  6
Continuous
 62
     7
370
    25
100
AcDbSpline
210
0.0
220
0.0
230
1.0
 70
     8
 71
     3
 72
    16
 73
    12
 74
     0
 42
0.000000001
 43
0.00000001
 40
0.0
 40
0.0
 40
0.0
 40
0.0
 40
0.1087895565153814
 40
0.2175753014956201
 40
0.3263972743896116
 40
0.4352158211323628
 40
0.5434544304944613
 40
0.6516969488899782
 40
0.7596488030824418
 40
0.8676065586324433
 40
1.0
 40
1.0
 40
1.0
 40
1.0
 10
6605.478776015582
 20
7538.521275409742
 30
0.0
 10
6604.386890948906
 20
7538.404747268915
 30
0.0
 10
6602.203159070679
 20
7538.171695069925
 30
0.0
 10
6598.371558152287
 20
7537.896312081083
 30
0.0
 10
6594.254191461027
 20
7537.697870900829
 30
0.0
 10
6589.938107533241
 20
7537.588996575916
 30
0.0
 10
6585.556489237007
 20
7537.580646503343
 30
0.0
 10
6581.232148211703
 20
7537.667235283587
 30
0.0
 10
6577.098332663202
 20
7537.848801004956
 30
0.0
 10
6572.919451077427
 20
7538.124207576023
 30
0.0
 10
6570.485461003377
 20
7538.380242725264
 30
0.0
 10
6569.144738234821
 20
7538.521275409742
 30
0.0
  0
SPLINE
  5
1CA
330
1F
100
AcDbEntity
  8
0
  6
Continuous
 62
     7
370
    25
100
AcDbSpline
210
0.0
220
0.0
230
1.0
 70
     8
 71
     3
 72
    14
 73
    10
 74
     0
 42
0.000000001
 43
0.00000001
 40
0.0
 40
0.0
 40
0.0
 40
0.0
 40
0.1430747601971905
 40
0.2859704680871055
 40
0.4305959724584406
 40
0.5751094662810584
 40
0.7004103802111458
 40
0.8258446718324228
 40
1.0
 40
1.0
 40
1.0
 40
1.0
 10
6605.478776015582
 20
7521.792844423338
 30
0.0
 10
6605.785203682336
 20
7522.523229789177
 30
0.0
 10
6606.397675533946
 20
7523.98308647295
 30
0.0
 10
6607.00401367965
 20
7526.382927531326
 30
0.0
 10
6607.325060608126
 20
7528.911870049363
 30
0.0
 10
6607.324028226756
 20
7531.390260327933
 30
0.0
 10
6607.031644237682
 20
7533.700771467089
 30
0.0
 10
6606.481756931986
 20
7536.092029154717
 30
0.0
 10
6605.847485954117
 20
7537.628250205846
 30
0.0
 10
6605.478776015581
 20
7538.521275409742
 30
0.0
  0
SPLINE
  5
1CB
330
1F
100
AcDbEntity
  8
0
  6
Continuous
 62
     7
370
    25
100
AcDbSpline
210
0.0
220
0.0
230
1.0
 70
     8
 71
     3
 72
    14
 73
    10
 74
     0
 42
0.000000001
 43
0.00000001
 40
0.0
 40
0.0
 40
0.0
 40
0.0
 40
0.1430780887050754
 40
0.2859718228645493
 40
0.4305977312594499
 40
0.5751107985652775
 40
0.7004105181078953
 40
0.8258429640368903
 40
1.0
 40
1.0
 40
1.0
 40
1.0
 10
6569.144738234821
 20
7538.521275409742
 30
0.0
 10
6568.838267160704
 20
7537.790882307101
 30
0.0
 10
6568.225719897084
 20
7536.331037205307
 30
0.0
 10
6567.619323136627
 20
7533.931182974357
 30
0.0
 10
6567.298560206354
 20
7531.402222118321
 30
0.0
 10
6567.299254457116
 20
7528.923826268069
 30
0.0
 10
6567.591967160169
 20
7526.613367163643
 30
0.0
 10
6568.141548787154
 20
7524.222050123744
 30
0.0
 10
6568.775949242964
 20
7522.685860516507
 30
0.0
 10
6569.144738234821
 20
7521.792844423338
 30
0.0
  0
LINE
  5
1CC
330
1F
100
AcDbEntity
  8
0
  6
Continuous
 62
     7
370
    25
100
AcDbLine
 10
6594.811690368
 20
7534.4570432988
 30
0.0
 11
6579.8117046731
 21
7534.4570432988
 31
0.0
  0
SPLINE
  5
1CD
330
1F
100
AcDbEntity
  8
0
  6
Continuous
 62
     7
370
    25
100
AcDbSpline
210
0.0
220
0.0
230
1.0
 70
     8
 71
     3
 72
    17
 73
    13
 74
     0
 42
0.000000001
 43
0.00000001
 40
0.0
 40
0.0
 40
0.0
 40
0.0
 40
0.1140821528556888
 40
0.2280240263256883
 40
0.3449311012660995
 40
0.4549402150490673
 40
0.5509088104873788
 40
0.640526902986175
 40
0.7354307334096928
 40
0.8418241358134718
 40
0.9575153173160992
 40
1.0
 40
1.0
 40
1.0
 40
1.0
 10
6579.811704673114
 20
7534.457043298765
 30
0.0
 10
6579.16084354432
 20
7534.388808697284
 30
0.0
 10
6577.85992160823
 20
7534.252423397961
 30
0.0
 10
6576.168272822533
 20
7533.221539137021
 30
0.0
 10
6574.909393661585
 20
7531.708319359808
 30
0.0
 10
6574.279442102952
 20
7529.863402048624
 30
0.0
 10
6574.299348013324
 20
7528.057300252923
 30
0.0
 10
6574.821152533415
 20
7526.462197831868
 30
0.0
 10
6575.788043252331
 20
7525.076498742235
 30
0.0
 10
6577.222695670534
 20
7523.987928961915
 30
0.0
 10
6578.666492125884
 20
7523.503827464928
 30
0.0
 10
6579.569235525922
 20
7523.46696630266
 30
0.0
 10
6579.811704673114
 20
7523.457065710111
 30
0.0
  0
LINE
  5
1CE
330
1F
100
AcDbEntity
  8
0
  6
Continuous
 62
     7
370
    25
100
AcDbLine
 10
6579.8117046731
 20
7523.4570657101
 30
0.0
 11
6594.811690368
 21
7523.4570657101
 31
0.0
  0
SPLINE
  5
1CF
330
1F
100
AcDbEntity
  8
0
  6
Continuous
 62
     7
370
    25
100
AcDbSpline
210
0.0
220
0.0
230
1.0
 70
     8
 71
     3
 72
    17
 73
    13
 74
     0
 42
0.000000001
 43
0.00000001
 40
0.0
 40
0.0
 40
0.0
 40
0.0
 40
0.1140881839798084
 40
0.2280237188010164
 40
0.3449306212788071
 40
0.4549411245192372
 40
0.5509095783836068
 40
0.6405275386767937
 40
0.7354312290971227
 40
0.8418235254282945
 40
0.9575090546005575
 40
1.0
 40
1.0
 40
1.0
 40
1.0
 10
6594.811690367999
 20
7523.457065710111
 30
0.0
 10
6595.46259778685
 20
7523.525291134489
 30
0.0
 10
6596.763541715171
 20
7523.661650698122
 30
0.0
 10
6598.45513484279
 20
7524.692572946078
 30
0.0
 10
6599.714012123462
 20
7526.205764501654
 30
0.0
 10
6600.343948720767
 20
7528.050698996472
 30
0.0
 10
6600.324048496237
 20
7529.856809105014
 30
0.0
 10
6599.802240467702
 20
7531.451908586363
 30
0.0
 10
6598.83536245744
 20
7532.837617051181
 30
0.0
 10
6597.400700791177
 20
7533.926105670875
 30
0.0
 10
6595.956968908024
 20
7534.410303968021
 30
0.0
 10
6595.054200925609
 20
7534.447146334172
 30
0.0
 10
6594.811690367999
 20
7534.457043298765
 30
0.0
  0
ARC
  5
1D0
330
1F
100
AcDbEntity
  8
0
  6
Continuous
 62
     7
370
    25
100
AcDbCircle
 10
6587.3117133708
 20
7530.1570526175
 30
0.0
 40
20.00000000000053
100
AcDbArc
 50
24.7216586433
 51
155.2783413567
  0
ARC
  5
1D1
330
1F
100
AcDbEntity
  8
0
  6
Continuous
 62
     7
370
    25
100
AcDbCircle
 10
5987.3117133708
 20
7530.1570526175
 30
0.0
 40
20.00000000000091
100
AcDbArc
 50
204.7216586433
 51
335.2783413567
  0
SPLINE
  5
1D2
330
1F
100
AcDbEntity
  8
0
  6
Continuous
 62
     7
370
    25
100
AcDbSpline
210
0.0
220
0.0
230
1.0
 70
     8
 71
     3
 72
    16
 73
    12
 74
     0
 42
0.000000001
 43
0.00000001
 40
0.0
 40
0.0
 40
0.0
 40
0.0
 40
0.1087871905272049
 40
0.2175729069354332
 40
0.3263948844814486
 40
0.4352163141583561
 40
0.5434548950921466
 40
0.6516973998135155
 40
0.759649225652986
 40
0.8676043359599225
 40
1.0
 40
1.0
 40
1.0
 40
1.0
 10
5969.144714392963
 20
7521.792844423338
 30
0.0
 10
5970.236556451434
 20
7521.909361423563
 30
0.0
 10
5972.420225773392
 20
7522.142393845149
 30
0.0
 10
5976.251817797723
 20
7522.417768303106
 30
0.0
 10
5980.369213671093
 20
7522.616262739992
 30
0.0
 10
5984.685345516949
 20
7522.725116057273
 30
0.0
 10
5989.067001925549
 20
7522.733485640423
 30
0.0
 10
5993.391338516057
 20
7522.646842435843
 30
0.0
 10
5997.525137155339
 20
7522.465297771234
 30
0.0
 10
6001.703952618873
 20
7522.189866542972
 30
0.0
 10
6004.137982572155
 20
7521.933862557261
 30
0.0
 10
6005.478752173724
 20
7521.792844423338
 30
0.0
  0
SPLINE
  5
1D3
330
1F
100
AcDbEntity
  8
0
  6
Continuous
 62
     7
370
    25
100
AcDbSpline
210
0.0
220
0.0
230
1.0
 70
     8
 71
     3
 72
    16
 73
    12
 74
     0
 42
0.000000001
 43
0.00000001
 40
0.0
 40
0.0
 40
0.0
 40
0.0
 40
0.1087917967778123
 40
0.2175723750404033
 40
0.3263943078102657
 40
0.4352157259446239
 40
0.5434542953976871
 40
0.6516967738827274
 40
0.7596485882718864
 40
0.867608920922546
 40
1.0
 40
1.0
 40
1.0
 40
1.0
 10
6005.478752173724
 20
7538.521275409742
 30
0.0
 10
6004.38681797306
 20
7538.404749108487
 30
0.0
 10
6002.203062171035
 20
7538.171708522064
 30
0.0
 10
5998.37161563982
 20
7537.896303586427
 30
0.0
 10
5994.254243918502
 20
7537.697869852042
 30
0.0
 10
5989.938122811085
 20
7537.588997517907
 30
0.0
 10
5985.556466269089
 20
7537.580646457527
 30
0.0
 10
5981.232120972933
 20
7537.667234601736
 30
0.0
 10
5977.098288125694
 20
7537.848805235223
 30
0.0
 10
5972.919341553181
 20
7538.124198883625
 30
0.0
 10
5970.485390530465
 20
7538.380241341812
 30
0.0
 10
5969.144714392963
 20
7538.521275409742
 30
0.0
  0
SPLINE
  5
1D4
330
1F
100
AcDbEntity
  8
0
  6
Continuous
 62
     7
370
    25
100
AcDbSpline
210
0.0
220
0.0
230
1.0
 70
     8
 71
     3
 72
    14
 73
    10
 74
     0
 42
0.000000001
 43
0.00000001
 40
0.0
 40
0.0
 40
0.0
 40
0.0
 40
0.1430769416198442
 40
0.2859709509666107
 40
0.4305963575314981
 40
0.5751097536234182
 40
0.7004105828157733
 40
0.8258447896091182
 40
1.0
 40
1.0
 40
1.0
 40
1.0
 10
6005.478752173724
 20
7521.792844423338
 30
0.0
 10
6005.785242247171
 20
7522.523223279382
 30
0.0
 10
6006.397830528507
 20
7523.983047159208
 30
0.0
 10
6007.003942969019
 20
7526.382948922562
 30
0.0
 10
6007.325049758399
 20
7528.911866801443
 30
0.0
 10
6007.324001419653
 20
7531.390261069218
 30
0.0
 10
6007.031621131498
 20
7533.700771283177
 30
0.0
 10
6006.481732820816
 20
7536.092029222043
 30
0.0
 10
6005.847462013256
 20
7537.628250230596
 30
0.0
 10
6005.478752173723
 20
7538.521275409742
 30
0.0
  0
SPLINE
  5
1D5
330
1F
100
AcDbEntity
  8
0
  6
Continuous
 62
     7
370
    25
100
AcDbSpline
210
0.0
220
0.0
230
1.0
 70
     8
 71
     3
 72
    14
 73
    10
 74
     0
 42
0.000000001
 43
0.00000001
 40
0.0
 40
0.0
 40
0.0
 40
0.0
 40
0.1430784179063691
 40
0.2859708789187632
 40
0.4305979437501776
 40
0.5751113545705745
 40
0.700410552282301
 40
0.8258447718596151
 40
1.0
 40
1.0
 40
1.0
 40
1.0
 10
5969.144714392963
 20
7538.521275409742
 30
0.0
 10
5968.838225582787
 20
7537.790885769956
 30
0.0
 10
5968.22564630139
 20
7536.331055766943
 30
0.0
 10
5967.619515544507
 20
7533.93115493627
 30
0.0
 10
5967.298419994384
 20
7531.402232160407
 30
0.0
 10
5967.299462632623
 20
7528.923838502067
 30
0.0
 10
5967.591848660162
 20
7526.613339502518
 30
0.0
 10
5968.141733344281
 20
7524.222090535492
 30
0.0
 10
5968.7760044058
 20
7522.685869574713
 30
0.0
 10
5969.144714392963
 20
7521.792844423338
 30
0.0
  0
LINE
  5
1D6
330
1F
100
AcDbEntity
  8
0
  6
Continuous
 62
     7
370
    25
100
AcDbLine
 10
5994.8116665261
 20
7534.4570432988
 30
0.0
 11
5979.8118000405
 21
7534.4570432988
 31
0.0
  0
SPLINE
  5
1D7
330
1F
100
AcDbEntity
  8
0
  6
Continuous
 62
     7
370
    25
100
AcDbSpline
210
0.0
220
0.0
230
1.0
 70
     8
 71
     3
 72
    17
 73
    13
 74
     0
 42
0.000000001
 43
0.00000001
 40
0.0
 40
0.0
 40
0.0
 40
0.0
 40
0.1140931132386525
 40
0.2280227832687324
 40
0.3449323882405696
 40
0.4549401150087186
 40
0.5509075004576081
 40
0.6405224508852118
 40
0.7354323436901203
 40
0.8418194392059729
 40
0.9575032022337727
 40
1.0
 40
1.0
 40
1.0
 40
1.0
 10
5979.811800040546
 20
7534.457043298765
 30
0.0
 10
5979.160841738091
 20
7534.388833666306
 30
0.0
 10
5977.859857658473
 20
7534.252512114567
 30
0.0
 10
5976.168364102431
 20
7533.221429625762
 30
0.0
 10
5974.909351784442
 20
7531.708368385687
 30
0.0
 10
5974.279407124694
 20
7529.863389392764
 30
0.0
 10
5974.299379176292
 20
7528.057336529793
 30
0.0
 10
5974.820931186596
 20
7526.462097749164
 30
0.0
 10
5975.788187593602
 20
7525.076609666789
 30
0.0
 10
5977.222634134088
 20
7523.987910279429
 30
0.0
 10
5978.666436390928
 20
7523.503798737454
 30
0.0
 10
5979.569250070106
 20
7523.466962212769
 30
0.0
 10
5979.811800040546
 20
7523.457065710111
 30
0.0
  0
LINE
  5
1D8
330
1F
100
AcDbEntity
  8
0
  6
Continuous
 62
     7
370
    25
100
AcDbLine
 10
5979.8118000405
 20
7523.4570657101
 30
0.0
 11
5994.8116665261
 21
7523.4570657101
 31
0.0
  0
SPLINE
  5
1D9
330
1F
100
AcDbEntity
  8
0
  6
Continuous
 62
     7
370
    25
100
AcDbSpline
210
0.0
220
0.0
230
1.0
 70
     8
 71
     3
 72
    17
 73
    13
 74
     0
 42
0.000000001
 43
0.00000001
 40
0.0
 40
0.0
 40
0.0
 40
0.0
 40
0.1140813195011599
 40
0.2280215736695106
 40
0.3449317986579459
 40
0.4549416605744658
 40
0.5509095549753089
 40
0.6405290054350881
 40
0.7354321425991003
 40
0.8418188531679969
 40
0.9575156276608975
 40
1.0
 40
1.0
 40
1.0
 40
1.0
 10
5994.811666526141
 20
7523.457065710111
 30
0.0
 10
5995.462528951146
 20
7523.525301053524
 30
0.0
 10
5996.763448988195
 20
7523.661687365086
 30
0.0
 10
5998.455094923593
 20
7524.692567186915
 30
0.0
 10
5999.714124208326
 20
7526.205729662881
 30
0.0
 10
6000.344026747319
 20
7528.050698233429
 30
0.0
 10
6000.324184459591
 20
7529.856832278835
 30
0.0
 10
5999.802185067354
 20
7531.451890073725
 30
0.0
 10
5998.835349082292
 20
7532.837579048284
 30
0.0
 10
5997.400752216236
 20
7533.926196179646
 30
0.0
 10
5995.956912611373
 20
7534.410277159648
 30
0.0
 10
5995.054134994594
 20
7534.447142095632
 30
0.0
 10
5994.811666526141
 20
7534.457043298765
 30
0.0
  0
ARC
  5
1DA
330
1F
100
AcDbEntity
  8
0
  6
Continuous
 62
     7
370
    25
100
AcDbCircle
 10
5987.3117133708
 20
7530.1570526175
 30
0.0
 40
20.00000000000053
100
AcDbArc
 50
24.7216586433
 51
155.2783413567
  0
SPLINE
  5
1DB
330
1F
100
AcDbEntity
  8
0
  6
Continuous
 62
     7
370
    25
100
AcDbSpline
210
0.0
220
0.0
230
1.0
 70
     8
 71
     3
 72
    17
 73
    13
 74
     0
 42
0.000000001
 43
0.00000001
 40
0.0
 40
0.0
 40
0.0
 40
0.0
 40
0.1142600569079495
 40
0.2283829856743181
 40
0.3451746553592199
 40
0.4549568008461343
 40
0.551071701427018
 40
0.641055922756276
 40
0.7361872415470928
 40
0.8425308916193955
 40
0.9580483066173385
 40
1.0
 40
1.0
 40
1.0
 40
1.0
 10
6579.761755980792
 20
7523.707047590299
 30
0.0
 10
6579.134098889097
 20
7523.772847596746
 30
0.0
 10
6577.879537982511
 20
7523.904368640372
 30
0.0
 10
6576.247952762305
 20
7524.899692148399
 30
0.0
 10
6575.03581133446
 20
7526.359646479543
 30
0.0
 10
6574.430414653576
 20
7528.136623819328
 30
0.0
 10
6574.449946770646
 20
7529.877710471614
 30
0.0
 10
6574.955642331165
 20
7531.418352131666
 30
0.0
 10
6575.892177651803
 20
7532.755024399481
 30
0.0
 10
6577.27805599669
 20
7533.801137215172
 30
0.0
 10
6578.666025700517
 20
7534.262915978592
 30
0.0
 10
6579.53124973299
 20
7534.297764214577
 30
0.0
 10
6579.761755980792
 20
7534.307048210188
 30
0.0
  0
LINE
  5
1DC
330
1F
100
AcDbEntity
  8
0
  6
Continuous
 62
     7
370
    25
100
AcDbLine
 10
6594.8617582696
 20
7534.3070482102
 30
0.0
 11
6579.7617559808
 21
7534.3070482102
 31
0.0
  0
SPLINE
  5
1DD
330
1F
100
AcDbEntity
  8
0
  6
Continuous
 62
     7
370
    25
100
AcDbSpline
210
0.0
220
0.0
230
1.0
 70
     8
 71
     3
 72
    18
 73
    14
 74
     0
 42
0.000000001
 43
0.00000001
 40
0.0
 40
0.0
 40
0.0
 40
0.0
 40
0.0277154925267458
 40
0.1359331066454768
 40
0.2504577353215597
 40
0.3668605635203595
 40
0.4741450782636838
 40
0.5682042577513702
 40
0.6583874452020161
 40
0.7553658565772114
 40
0.8638613513752084
 40
0.980164350139222
 40
1.0
 40
1.0
 40
1.0
 40
1.0
 10
6594.861758269611
 20
7534.307048210188
 30
0.0
 10
6595.014152317319
 20
7534.302925828085
 30
0.0
 10
6595.761582525151
 20
7534.282707237146
 30
0.0
 10
6597.101099914978
 20
7533.921801584911
 30
0.0
 10
6598.642732716969
 20
7532.881521623303
 30
0.0
 10
6599.751723844935
 20
7531.332010168358
 30
0.0
 10
6600.233435196696
 20
7529.539283009652
 30
0.0
 10
6600.111796561181
 20
7527.830715069229
 30
0.0
 10
6599.525342903182
 20
7526.328619598271
 30
0.0
 10
6598.504983073822
 20
7525.035475340916
 30
0.0
 10
6597.037461290215
 20
7524.060546923834
 30
0.0
 10
6595.719700732353
 20
7523.723924589963
 30
0.0
 10
6594.970865003585
 20
7523.709193881447
 30
0.0
 10
6594.861758269611
 20
7523.707047590299
 30
0.0
  0
LINE
  5
1DE
330
1F
100
AcDbEntity
  8
0
  6
Continuous
 62
     7
370
    25
100
AcDbLine
 10
6594.8617582696
 20
7523.7070475903
 30
0.0
 11
6579.7617559808
 21
7523.7070475903
 31
0.0
  0
SPLINE
  5
1DF
330
1F
100
AcDbEntity
  8
0
  6
Continuous
 62
     7
370
    25
100
AcDbSpline
210
0.0
220
0.0
230
1.0
 70
     8
 71
     3
 72
    17
 73
    13
 74
     0
 42
0.000000001
 43
0.00000001
 40
0.0
 40
0.0
 40
0.0
 40
0.0
 40
0.1142605726835649
 40
0.2283784256887591
 40
0.3451747793995965
 40
0.45495742044861
 40
0.5510727548969653
 40
0.6410594793419926
 40
0.7361874461028135
 40
0.842536745468327
 40
0.9580546819176626
 40
1.0
 40
1.0
 40
1.0
 40
1.0
 10
5979.761732138934
 20
7523.707047590299
 30
0.0
 10
5979.134067444271
 20
7523.772839571442
 30
0.0
 10
5977.87952205332
 20
7523.904341354807
 30
0.0
 10
5976.248051890461
 20
7524.8997623571
 30
0.0
 10
5975.035763002579
 20
7526.359605112089
 30
0.0
 10
5974.43041271434
 20
7528.136622538455
 30
0.0
 10
5974.44987234275
 20
7529.877740090245
 30
0.0
 10
5974.955797227864
 20
7531.418288803324
 30
0.0
 10
5975.892122810351
 20
7532.755101961441
 30
0.0
 10
5977.278160404006
 20
7533.801096232054
 30
0.0
 10
5978.666092099535
 20
7534.262905682775
 30
0.0
 10
5979.531265768537
 20
7534.29776289046
 30
0.0
 10
5979.761732138933
 20
7534.307048210188
 30
0.0
  0
LINE
  5
1E0
330
1F
100
AcDbEntity
  8
0
  6
Continuous
 62
     7
370
    25
100
AcDbLine
 10
5994.8617344278
 20
7534.3070482102
 30
0.0
 11
5979.7617321389
 21
7534.3070482102
 31
0.0
  0
SPLINE
  5
1E1
330
1F
100
AcDbEntity
  8
0
  6
Continuous
 62
     7
370
    25
100
AcDbSpline
210
0.0
220
0.0
230
1.0
 70
     8
 71
     3
 72
    18
 73
    14
 74
     0
 42
0.000000001
 43
0.00000001
 40
0.0
 40
0.0
 40
0.0
 40
0.0
 40
0.0277154929095499
 40
0.1359331085229737
 40
0.2504577387808614
 40
0.3668643889978157
 40
0.4741471613765127
 40
0.5682068221322077
 40
0.6583875738436981
 40
0.7553700513777175
 40
0.8638547604486896
 40
0.9801577608190707
 40
1.0
 40
1.0
 40
1.0
 40
1.0
 10
5994.861734427753
 20
7534.307048210188
 30
0.0
 10
5995.01412838948
 20
7534.302925773624
 30
0.0
 10
5995.76155817561
 20
7534.282706915576
 30
0.0
 10
5997.101086220881
 20
7533.921808012599
 30
0.0
 10
5998.642687089959
 20
7532.881485105875
 30
0.0
 10
5999.751860290884
 20
7531.332071168253
 30
0.0
 10
6000.233435773231
 20
7529.539247737416
 30
0.0
 10
6000.111578009505
 20
7527.830757985607
 30
0.0
 10
5999.52538333348
 20
7526.328547097419
 30
0.0
 10
5998.504820442929
 20
7525.035591213687
 30
0.0
 10
5997.037549260773
 20
7524.060476869262
 30
0.0
 10
5995.719777704187
 20
7523.723915711512
 30
0.0
 10
5994.970881008344
 20
7523.709193283649
 30
0.0
 10
5994.861734427753
 20
7523.707047590299
 30
0.0
  0
LINE
  5
1E2
330
1F
100
AcDbEntity
  8
0
  6
Continuous
 62
     7
370
    25
100
AcDbLine
 10
5994.8617344278
 20
7523.7070475903
 30
0.0
 11
5979.7617321389
 21
7523.7070475903
 31
0.0
  0
LINE
  5
1E3
330
1F
100
AcDbEntity
  8
0
  6
Continuous
 62
     7
370
    25
100
AcDbLine
 10
5721.961629905
 20
6819.1552316037
 30
0.0
 11
5721.961629905
 21
6818.8640033093
 31
0.0
  0
LINE
  5
1E4
330
1F
100
AcDbEntity
  8
0
  6
Continuous
 62
     7
370
    25
100
AcDbLine
 10
5721.961629905
 20
6818.8640033093
 30
0.0
 11
5715.961826362
 21
6818.8640033093
 31
0.0
  0
LINE
  5
1E5
330
1F
100
AcDbEntity
  8
0
  6
Continuous
 62
     7
370
    25
100
AcDbLine
 10
5715.961826362
 20
6819.1552316037
 30
0.0
 11
5715.961826362
 21
6818.8640033093
 31
0.0
  0
LINE
  5
1E6
330
1F
100
AcDbEntity
  8
0
  6
Continuous
 62
     7
370
    25
100
AcDbLine
 10
5959.9617844003
 20
6818.8640033093
 30
0.0
 11
5959.9617844003
 21
6819.1568409291
 31
0.0
  0
LINE
  5
1E7
330
1F
100
AcDbEntity
  8
0
  6
Continuous
 62
     7
370
    25
100
AcDbLine
 10
5959.9617844003
 20
6818.8640033093
 30
0.0
 11
5721.961629905
 21
6818.8640033093
 31
0.0
  0
LINE
  5
1E8
330
1F
100
AcDbEntity
  8
0
  6
Continuous
 62
     7
370
    25
100
AcDbLine
 10
5965.961826362
 20
6819.1569005337
 30
0.0
 11
5965.961826362
 21
6818.8640033093
 31
0.0
  0
LINE
  5
1E9
330
1F
100
AcDbEntity
  8
0
  6
Continuous
 62
     7
370
    25
100
AcDbLine
 10
5959.9617844003
 20
6818.8640033093
 30
0.0
 11
5965.961826362
 21
6818.8640033093
 31
0.0
  0
LINE
  5
1EA
330
1F
100
AcDbEntity
  8
0
  6
Continuous
 62
     7
370
    25
100
AcDbLine
 10
6855.9616928476
 20
6819.1629802075
 30
0.0
 11
6855.9616928476
 21
6818.8640033093
 31
0.0
  0
LINE
  5
1EB
330
1F
100
AcDbEntity
  8
0
  6
Continuous
 62
     7
370
    25
100
AcDbLine
 10
6849.9617700952
 20
6818.8640033093
 30
0.0
 11
6849.9617700952
 21
6819.1629206028
 31
0.0
  0
LINE
  5
1EC
330
1F
100
AcDbEntity
  8
0
  6
Continuous
 62
     7
370
    25
100
AcDbLine
 10
6849.9617700952
 20
6818.8640033093
 30
0.0
 11
6855.9616928476
 21
6818.8640033093
 31
0.0
  0
LINE
  5
1ED
330
1F
100
AcDbEntity
  8
0
  6
Continuous
 62
     7
370
    25
100
AcDbLine
 10
6611.9617348092
 20
6819.1613112774
 30
0.0
 11
6611.9617348092
 21
6818.8640033093
 31
0.0
  0
LINE
  5
1EE
330
1F
100
AcDbEntity
  8
0
  6
Continuous
 62
     7
370
    25
100
AcDbLine
 10
6605.9616928476
 20
6819.1612516728
 30
0.0
 11
6605.9616928476
 21
6818.8640033093
 31
0.0
  0
LINE
  5
1EF
330
1F
100
AcDbEntity
  8
0
  6
Continuous
 62
     7
370
    25
100
AcDbLine
 10
6611.9617348092
 20
6818.8640033093
 30
0.0
 11
6605.9616928476
 21
6818.8640033093
 31
0.0
  0
LINE
  5
1F0
330
1F
100
AcDbEntity
  8
0
  6
Continuous
 62
     7
370
    25
100
AcDbLine
 10
6849.9617700952
 20
6818.8640033093
 30
0.0
 11
6611.9617348092
 21
6818.8640033093
 31
0.0
  0
LINE
  5
1F1
330
1F
100
AcDbEntity
  8
0
  6
Continuous
 62
     7
370
    25
100
AcDbLine
 10
6910.3117113488
 20
7397.0639859524
 30
0.0
 11
6910.3117113488
 21
7420.0639878598
 31
0.0
  0
LINE
  5
1F2
330
1F
100
AcDbEntity
  8
0
  6
Continuous
 62
     7
370
    25
100
AcDbLine
 10
6910.3117113488
 20
7420.0639878598
 30
0.0
 11
6912.3116855996
 21
7420.0639878598
 31
0.0
  0
LINE
  5
1F3
330
1F
100
AcDbEntity
  8
0
  6
Continuous
 62
     7
370
    25
100
AcDbLine
 10
6910.3117113488
 20
7397.0639859524
 30
0.0
 11
6912.3116855996
 21
7397.0639859524
 31
0.0
  0
LINE
  5
1F4
330
1F
100
AcDbEntity
  8
0
  6
Continuous
 62
     7
370
    25
100
AcDbLine
 10
6912.3116855996
 20
7397.0639859524
 30
0.0
 11
6912.3116855996
 21
7420.0639878598
 31
0.0
  0
LINE
  5
1F5
330
1F
100
AcDbEntity
  8
0
  6
Continuous
 62
     7
370
    25
100
AcDbLine
 10
6909.2117672341
 20
7395.0639818993
 30
0.0
 11
6909.2117672341
 21
6820.0640236226
 31
0.0
  0
LINE
  5
1F6
330
1F
100
AcDbEntity
  8
0
  6
Continuous
 62
     7
370
    25
100
AcDbLine
 10
6909.2117672341
 20
7395.0639818993
 30
0.0
 11
6912.3116855996
 21
7395.0639818993
 31
0.0
  0
LINE
  5
1F7
330
1F
100
AcDbEntity
  8
0
  6
Continuous
 62
     7
370
    25
100
AcDbLine
 10
6909.2117672341
 20
6820.0640236226
 30
0.0
 11
6912.3116855996
 21
6820.0640236226
 31
0.0
  0
LINE
  5
1F8
330
1F
100
AcDbEntity
  8
0
  6
Continuous
 62
     7
370
    25
100
AcDbLine
 10
6912.3116855996
 20
7395.0639818993
 30
0.0
 11
6912.3116855996
 21
6820.0640236226
 31
0.0
  0
LINE
  5
1F9
330
1F
100
AcDbEntity
  8
0
  6
Continuous
 62
     7
370
    25
100
AcDbLine
 10
6870.4117660897
 20
6820.0640236226
 30
0.0
 11
6870.4117660897
 21
7395.0639818993
 31
0.0
  0
LINE
  5
1FA
330
1F
100
AcDbEntity
  8
0
  6
Continuous
 62
     7
370
    25
100
AcDbLine
 10
6870.4117660897
 20
7395.0639818993
 30
0.0
 11
6909.2117672341
 21
7395.0639818993
 31
0.0
  0
LINE
  5
1FB
330
1F
100
AcDbEntity
  8
0
  6
Continuous
 62
     7
370
    25
100
AcDbLine
 10
6870.4117660897
 20
6820.0640236226
 30
0.0
 11
6909.2117672341
 21
6820.0640236226
 31
0.0
  0
LINE
  5
1FC
330
1F
100
AcDbEntity
  8
0
  6
Continuous
 62
     7
370
    25
100
AcDbLine
 10
6867.311728515
 20
6820.0640236226
 30
0.0
 11
6867.311728515
 21
6920.8630477276
 31
0.0
  0
LINE
  5
1FD
330
1F
100
AcDbEntity
  8
0
  6
Continuous
 62
     7
370
    25
100
AcDbLine
 10
6867.311728515
 20
7230.4665004101
 30
0.0
 11
6867.311728515
 21
7395.0639818993
 31
0.0
  0
LINE
  5
1FE
330
1F
100
AcDbEntity
  8
0
  6
Continuous
 62
     7
370
    25
100
AcDbLine
 10
6867.311728515
 20
7395.0639818993
 30
0.0
 11
6870.4117660897
 21
7395.0639818993
 31
0.0
  0
LINE
  5
1FF
330
1F
100
AcDbEntity
  8
0
  6
Continuous
 62
     7
370
    25
100
AcDbLine
 10
6867.311728515
 20
6820.0640236226
 30
0.0
 11
6870.4117660897
 21
6820.0640236226
 31
0.0
  0
LINE
  5
200
330
1F
100
AcDbEntity
  8
0
  6
Continuous
 62
     7
370
    25
100
AcDbLine
 10
6910.3117113488
 20
7395.0639818993
 30
0.0
 11
6910.3117113488
 21
7395.1633428421
 31
0.0
  0
LINE
  5
201
330
1F
100
AcDbEntity
  8
0
  6
Continuous
 62
     7
370
    25
100
AcDbLine
 10
6912.3116855996
 20
7395.0639818993
 30
0.0
 11
6912.3116855996
 21
7397.0639859524
 31
0.0
  0
LINE
  5
202
330
1F
100
AcDbEntity
  8
0
  6
Continuous
 62
     7
370
    25
100
AcDbLine
 10
6910.3117113488
 20
7827.844858655
 30
0.0
 11
6912.3116855996
 21
7827.844858655
 31
0.0
  0
LINE
  5
203
330
1F
100
AcDbEntity
  8
0
  6
Continuous
 62
     7
370
    25
100
AcDbLine
 10
6910.3117113488
 20
7420.1633488026
 30
0.0
 11
6910.3117113488
 21
7827.844858655
 31
0.0
  0
LINE
  5
204
330
1F
100
AcDbEntity
  8
0
  6
Continuous
 62
     7
370
    25
100
AcDbLine
 10
6912.3116855996
 20
7420.0639878598
 30
0.0
 11
6912.3116855996
 21
7827.844858655
 31
0.0
  0
LINE
  5
205
330
1F
100
AcDbEntity
  8
0
  6
Continuous
 62
     7
370
    25
100
AcDbLine
 10
6910.3117113488
 20
7830.9749295202
 30
0.0
 11
6912.3116855996
 21
7830.9749295202
 31
0.0
  0
LINE
  5
206
330
1F
100
AcDbEntity
  8
0
  6
Continuous
 62
     7
370
    25
100
AcDbLine
 10
6912.3116855996
 20
7827.844858655
 30
0.0
 11
6912.3116855996
 21
7830.9749295202
 31
0.0
  0
LINE
  5
207
330
1F
100
AcDbEntity
  8
0
  6
Continuous
 62
     7
370
    25
100
AcDbLine
 10
6912.3116855996
 20
7840.03501434
 30
0.0
 11
6910.3117113488
 21
7840.03501434
 31
0.0
  0
LINE
  5
208
330
1F
100
AcDbEntity
  8
0
  6
Continuous
 62
     7
370
    25
100
AcDbLine
 10
6910.3117113488
 20
7830.9749295202
 30
0.0
 11
6910.3117113488
 21
7840.03501434
 31
0.0
  0
LINE
  5
209
330
1F
100
AcDbEntity
  8
0
  6
Continuous
 62
     7
370
    25
100
AcDbLine
 10
6912.3116855996
 20
7830.9749295202
 30
0.0
 11
6912.3116855996
 21
7840.03501434
 31
0.0
  0
LINE
  5
20A
330
1F
100
AcDbEntity
  8
0
  6
Continuous
 62
     7
370
    25
100
AcDbLine
 10
5664.3117790597
 20
7418.5048495617
 30
0.0
 11
6910.3117113488
 21
7418.5133432236
 31
0.0
  0
LINE
  5
20B
330
1F
100
AcDbEntity
  8
0
  6
Continuous
 62
     7
370
    25
100
AcDbLine
 10
5664.3117790597
 20
7420.1548551407
 30
0.0
 11
6910.3117113488
 21
7420.1633488026
 31
0.0
  0
LINE
  5
20C
330
1F
100
AcDbEntity
  8
0
  6
Continuous
 62
     7
370
    25
100
AcDbLine
 10
6910.3117113488
 20
7420.0639878598
 30
0.0
 11
6910.3117113488
 21
7420.1633488026
 31
0.0
  0
LINE
  5
20D
330
1F
100
AcDbEntity
  8
0
  6
Continuous
 62
     7
370
    25
100
AcDbLine
 10
5664.3117790597
 20
7420.0639878598
 30
0.0
 11
5664.3117790597
 21
7420.1548551407
 31
0.0
  0
LINE
  5
20E
330
1F
100
AcDbEntity
  8
0
  6
Continuous
 62
     7
370
    25
100
AcDbLine
 10
5664.3117790597
 20
7395.1548491803
 30
0.0
 11
6910.3117113488
 21
7395.1633428421
 31
0.0
  0
LINE
  5
20F
330
1F
100
AcDbEntity
  8
0
  6
Continuous
 62
     7
370
    25
100
AcDbLine
 10
6910.3117113488
 20
7395.1633428421
 30
0.0
 11
6910.3117113488
 21
7397.0639859524
 31
0.0
  0
LINE
  5
210
330
1F
100
AcDbEntity
  8
0
  6
Continuous
 62
     7
370
    25
100
AcDbLine
 10
5664.3117790597
 20
7395.1548491803
 30
0.0
 11
5664.3117790597
 21
7397.0639859524
 31
0.0
  0
LINE
  5
211
330
1F
100
AcDbEntity
  8
0
  6
Continuous
 62
     7
370
    25
100
AcDbLine
 10
5707.3120003122
 20
7201.411441454
 30
0.0
 11
5707.3117618936
 21
7201.411441454
 31
0.0
  0
LINE
  5
212
330
1F
100
AcDbEntity
  8
0
  6
Continuous
 62
     7
370
    25
100
AcDbLine
 10
5664.3117790597
 20
7829.1000225779
 30
0.0
 11
6910.3117113488
 21
7829.1000225779
 31
0.0
  0
LINE
  5
213
330
1F
100
AcDbEntity
  8
0
  6
Continuous
 62
     7
370
    25
100
AcDbLine
 10
6910.3117113488
 20
7420.1633488026
 30
0.0
 11
6910.3117113488
 21
7829.1000225779
 31
0.0
  0
LINE
  5
214
330
1F
100
AcDbEntity
  8
0
  6
Continuous
 62
     7
370
    25
100
AcDbLine
 10
5664.3117790597
 20
7420.1548551407
 30
0.0
 11
5664.3117790597
 21
7829.1000225779
 31
0.0
  0
LINE
  5
215
330
1F
100
AcDbEntity
  8
0
  6
Continuous
 62
     7
370
    25
100
AcDbLine
 10
5664.3117790597
 20
7830.7139654842
 30
0.0
 11
6910.3117113488
 21
7830.7139654842
 31
0.0
  0
LINE
  5
216
330
1F
100
AcDbEntity
  8
0
  6
Continuous
 62
     7
370
    25
100
AcDbLine
 10
6910.3117113488
 20
7829.1000225779
 30
0.0
 11
6910.3117113488
 21
7830.7139654842
 31
0.0
  0
LINE
  5
217
330
1F
100
AcDbEntity
  8
0
  6
Continuous
 62
     7
370
    25
100
AcDbLine
 10
5664.3117790597
 20
7829.1000225779
 30
0.0
 11
5664.3117790597
 21
7830.7139654842
 31
0.0
  0
LINE
  5
218
330
1F
100
AcDbEntity
  8
0
  6
Continuous
 62
     7
370
    25
100
AcDbLine
 10
5664.3117790597
 20
7840.6409775105
 30
0.0
 11
6910.3117113488
 21
7840.6409775105
 31
0.0
  0
LINE
  5
219
330
1F
100
AcDbEntity
  8
0
  6
Continuous
 62
     7
370
    25
100
AcDbLine
 10
6910.3117113488
 20
7830.7139654842
 30
0.0
 11
6910.3117113488
 21
7840.6409775105
 31
0.0
  0
LINE
  5
21A
330
1F
100
AcDbEntity
  8
0
  6
Continuous
 62
     7
370
    25
100
AcDbLine
 10
5664.3117790597
 20
7830.7139654842
 30
0.0
 11
5664.3117790597
 21
7840.6409775105
 31
0.0
  0
LINE
  5
21B
330
1F
100
AcDbEntity
  8
0
  6
Continuous
 62
     7
370
    25
100
AcDbLine
 10
6910.3117113488
 20
7840.6409775105
 30
0.0
 11
6910.3117113488
 21
7840.67703087
 31
0.0
  0
LINE
  5
21C
330
1F
100
AcDbEntity
  8
0
  6
Continuous
 62
     7
370
    25
100
AcDbLine
 10
5664.3117790597
 20
7840.6409775105
 30
0.0
 11
5664.3117790597
 21
7840.67703087
 31
0.0
  0
SPLINE
  5
21D
330
1F
100
AcDbEntity
  8
0
  6
Continuous
 62
     7
370
    25
100
AcDbSpline
210
0.0
220
0.0
230
1.0
 70
     8
 71
     3
 72
    10
 73
     6
 74
     0
 42
0.000000001
 43
0.00000001
 40
0.0
 40
0.0
 40
0.0
 40
0.0
 40
0.4947959538720444
 40
0.9997584541815407
 40
1.0
 40
1.0
 40
1.0
 40
1.0
 10
5726.711643256488
 20
6818.063989767118
 30
0.0
 10
5726.711643256454
 20
6817.863510194069
 30
0.0
 10
5726.711643256389
 20
6817.458431804728
 30
0.0
 10
5726.711643256728
 20
6816.99957759928
 30
0.0
 10
5726.711643256487
 20
6817.082738344396
 30
0.0
 10
5726.711643256488
 20
6817.082778104826
 30
0.0
  0
LINE
  5
21E
330
1F
100
AcDbEntity
  8
0
  6
Continuous
 62
     7
370
    25
100
AcDbLine
 10
5726.7116432565
 20
6818.0639897671
 30
0.0
 11
5725.2117519754
 21
6818.0639897671
 31
0.0
  0
SPLINE
  5
21F
330
1F
100
AcDbEntity
  8
0
  6
Continuous
 62
     7
370
    25
100
AcDbSpline
210
0.0
220
0.0
230
1.0
 70
    24
 71
     3
 72
    10
 73
     6
 74
     0
 42
0.000000001
 43
0.00000001
 40
0.0
 40
0.0
 40
0.0
 40
0.0
 40
0.032635649499493
 40
0.5073580417050074
 40
1.0
 40
1.0
 40
1.0
 40
1.0
 10
5725.21175197536
 20
6817.101613172575
 30
0.0
 10
5725.21175197536
 20
6817.095670894757
 30
0.0
 10
5725.211751975357
 20
6817.003291472764
 30
0.0
 10
5725.21175197536
 20
6817.476652442167
 30
0.0
 10
5725.21175197536
 20
6817.865807739958
 30
0.0
 10
5725.21175197536
 20
6818.063989767118
 30
0.0
  0
SPLINE
  5
220
330
1F
100
AcDbEntity
  8
0
  6
Continuous
 62
     7
370
    25
100
AcDbSpline
210
0.0
220
0.0
230
1.0
 70
     8
 71
     3
 72
    10
 73
     6
 74
     0
 42
0.000000001
 43
0.00000001
 40
0.0
 40
0.0
 40
0.0
 40
0.0
 40
0.4947959538720444
 40
0.9997584541815407
 40
1.0
 40
1.0
 40
1.0
 40
1.0
 10
6616.711748160663
 20
6818.063989767118
 30
0.0
 10
6616.711748160604
 20
6817.863510194069
 30
0.0
 10
6616.711748160486
 20
6817.458431804728
 30
0.0
 10
6616.711748161086
 20
6816.99957759928
 30
0.0
 10
6616.711748160662
 20
6817.082738344396
 30
0.0
 10
6616.711748160663
 20
6817.082778104826
 30
0.0
  0
LINE
  5
221
330
1F
100
AcDbEntity
  8
0
  6
Continuous
 62
     7
370
    25
100
AcDbLine
 10
6616.7117481607
 20
6818.0639897671
 30
0.0
 11
6615.2117376702
 21
6818.0639897671
 31
0.0
  0
SPLINE
  5
222
330
1F
100
AcDbEntity
  8
0
  6
Continuous
 62
     7
370
    25
100
AcDbSpline
210
0.0
220
0.0
230
1.0
 70
    24
 71
     3
 72
    10
 73
     6
 74
     0
 42
0.000000001
 43
0.00000001
 40
0.0
 40
0.0
 40
0.0
 40
0.0
 40
0.032635649499493
 40
0.5073580417050074
 40
1.0
 40
1.0
 40
1.0
 40
1.0
 10
6615.211737670245
 20
6817.101613172575
 30
0.0
 10
6615.211737670244
 20
6817.095670894757
 30
0.0
 10
6615.211737670244
 20
6817.003291472764
 30
0.0
 10
6615.211737670245
 20
6817.476652442167
 30
0.0
 10
6615.211737670245
 20
6817.865807739958
 30
0.0
 10
6615.211737670245
 20
6818.063989767118
 30
0.0
  0
SPLINE
  5
223
330
1F
100
AcDbEntity
  8
0
  6
Continuous
 62
     7
370
    25
100
AcDbSpline
210
0.0
220
0.0
230
1.0
 70
     8
 71
     3
 72
    10
 73
     6
 74
     0
 42
0.000000001
 43
0.00000001
 40
0.0
 40
0.0
 40
0.0
 40
0.0
 40
0.4947959538720444
 40
0.9997584541815407
 40
1.0
 40
1.0
 40
1.0
 40
1.0
 10
5956.711662329974
 20
6818.063989767118
 30
0.0
 10
5956.711662329881
 20
6817.863510194069
 30
0.0
 10
5956.711662329695
 20
6817.458431804728
 30
0.0
 10
5956.711662330641
 20
6816.99957759928
 30
0.0
 10
5956.711662329973
 20
6817.082738344396
 30
0.0
 10
5956.711662329974
 20
6817.082778104826
 30
0.0
  0
LINE
  5
224
330
1F
100
AcDbEntity
  8
0
  6
Continuous
 62
     7
370
    25
100
AcDbLine
 10
5956.71166233
 20
6818.0639897671
 30
0.0
 11
5955.2117710488
 21
6818.0639897671
 31
0.0
  0
SPLINE
  5
225
330
1F
100
AcDbEntity
  8
0
  6
Continuous
 62
     7
370
    25
100
AcDbSpline
210
0.0
220
0.0
230
1.0
 70
    24
 71
     3
 72
    10
 73
     6
 74
     0
 42
0.000000001
 43
0.00000001
 40
0.0
 40
0.0
 40
0.0
 40
0.0
 40
0.032635649499493
 40
0.5073580417050074
 40
1.0
 40
1.0
 40
1.0
 40
1.0
 10
5955.211771048846
 20
6817.101613172575
 30
0.0
 10
5955.211771048846
 20
6817.095670894757
 30
0.0
 10
5955.211771048841
 20
6817.003291472764
 30
0.0
 10
5955.211771048848
 20
6817.476652442167
 30
0.0
 10
5955.211771048846
 20
6817.865807739958
 30
0.0
 10
5955.211771048846
 20
6818.063989767118
 30
0.0
  0
SPLINE
  5
226
330
1F
100
AcDbEntity
  8
0
  6
Continuous
 62
     7
370
    25
100
AcDbSpline
210
0.0
220
0.0
230
1.0
 70
     8
 71
     3
 72
    10
 73
     6
 74
     0
 42
0.000000001
 43
0.00000001
 40
0.0
 40
0.0
 40
0.0
 40
0.0
 40
0.4947959538720444
 40
0.9997584541815407
 40
1.0
 40
1.0
 40
1.0
 40
1.0
 10
6846.711767234149
 20
6818.063989767118
 30
0.0
 10
6846.711767234127
 20
6817.863510194069
 30
0.0
 10
6846.711767234086
 20
6817.458431804728
 30
0.0
 10
6846.711767234302
 20
6816.99957759928
 30
0.0
 10
6846.711767234149
 20
6817.082738344396
 30
0.0
 10
6846.711767234149
 20
6817.082778104826
 30
0.0
  0
LINE
  5
227
330
1F
100
AcDbEntity
  8
0
  6
Continuous
 62
     7
370
    25
100
AcDbLine
 10
6846.7117672341
 20
6818.0639897671
 30
0.0
 11
6845.2117567437
 21
6818.0639897671
 31
0.0
  0
SPLINE
  5
228
330
1F
100
AcDbEntity
  8
0
  6
Continuous
 62
     7
370
    25
100
AcDbSpline
210
0.0
220
0.0
230
1.0
 70
    24
 71
     3
 72
    10
 73
     6
 74
     0
 42
0.000000001
 43
0.00000001
 40
0.0
 40
0.0
 40
0.0
 40
0.0
 40
0.032635649499493
 40
0.5073580417050074
 40
1.0
 40
1.0
 40
1.0
 40
1.0
 10
6845.211756743732
 20
6817.101613172575
 30
0.0
 10
6845.211756743732
 20
6817.095670894757
 30
0.0
 10
6845.211756743729
 20
6817.003291472764
 30
0.0
 10
6845.211756743732
 20
6817.476652442167
 30
0.0
 10
6845.211756743732
 20
6817.865807739958
 30
0.0
 10
6845.211756743732
 20
6818.063989767118
 30
0.0
  0
LINE
  5
229
330
1F
100
AcDbEntity
  8
0
  6
Continuous
 62
     7
370
    25
100
AcDbLine
 10
6867.311728515
 20
6835.0640093174
 30
0.0
 11
6866.0644417184
 21
6835.0640093174
 31
0.0
  0
LINE
  5
22A
330
1F
100
AcDbEntity
  8
0
  6
Continuous
 62
     7
370
    25
100
AcDbLine
 10
5708.5644131082
 20
6835.0640093174
 30
0.0
 11
5707.3117618936
 21
6835.0640093174
 31
0.0
  0
LINE
  5
22B
330
1F
100
AcDbEntity
  8
0
  6
Continuous
 62
     7
370
    25
100
AcDbLine
 10
6867.311728515
 20
6820.0640236226
 30
0.0
 11
6866.0645609277
 21
6820.0640236226
 31
0.0
  0
LINE
  5
22C
330
1F
100
AcDbEntity
  8
0
  6
Continuous
 62
     7
370
    25
100
AcDbLine
 10
5708.5644131082
 20
6820.0640236226
 30
0.0
 11
5707.3117618936
 21
6820.0640236226
 31
0.0
  0
LINE
  5
22D
330
1F
100
AcDbEntity
  8
0
  6
Continuous
 62
     7
370
    25
100
AcDbLine
 10
6866.0644417184
 20
6821.2130223599
 30
0.0
 11
6866.063845672
 21
6921.2130462017
 31
0.0
  0
LINE
  5
22E
330
1F
100
AcDbEntity
  8
0
  6
Continuous
 62
     7
370
    25
100
AcDbLine
 10
5708.5644131082
 20
6821.2051545468
 30
0.0
 11
6866.0644417184
 21
6821.2130223599
 31
0.0
  0
LINE
  5
22F
330
1F
100
AcDbEntity
  8
0
  6
Continuous
 62
     7
370
    25
100
AcDbLine
 10
5708.5644131082
 20
6821.2051545468
 30
0.0
 11
5708.563936271
 21
6921.2051783886
 31
0.0
  0
LINE
  5
230
330
1F
100
AcDbEntity
  8
0
  6
Continuous
 62
     7
370
    25
100
AcDbLine
 10
6867.3138742822
 20
6920.8630477276
 30
0.0
 11
6867.3105364221
 21
7395.1630448189
 31
0.0
  0
LINE
  5
231
330
1F
100
AcDbEntity
  8
0
  6
Continuous
 62
     7
370
    25
100
AcDbLine
 10
6867.2648792642
 20
6920.925573
 30
0.0
 11
6867.3138742822
 21
6920.8630477276
 31
0.0
  0
SPLINE
  5
232
330
1F
100
AcDbEntity
  8
0
  6
Continuous
 62
     7
370
    25
100
AcDbSpline
210
0.0
220
0.0
230
1.0
 70
     8
 71
     3
 72
    10
 73
     6
 74
     0
 42
0.000000001
 43
0.00000001
 40
0.0
 40
0.0
 40
0.0
 40
0.0
 40
0.2639743999722215
 40
0.7455492349056746
 40
1.0
 40
1.0
 40
1.0
 40
1.0
 10
6867.264879264178
 20
6920.925572999998
 30
0.0
 10
6867.260017244527
 20
6920.947407015255
 30
0.0
 10
6867.246285325708
 20
6921.009073348697
 30
0.0
 10
6867.232148134651
 20
6921.109679253516
 30
0.0
 10
6867.230515395247
 20
6921.186491505455
 30
0.0
 10
6867.22995094234
 20
6921.213046201749
 30
0.0
  0
LINE
  5
233
330
1F
100
AcDbEntity
  8
0
  6
Continuous
 62
     7
370
    25
100
AcDbLine
 10
6867.2299509423
 20
6921.2130462017
 30
0.0
 11
6866.063845672
 21
6921.2130462017
 31
0.0
  0
LINE
  5
234
330
1F
100
AcDbEntity
  8
0
  6
Continuous
 62
     7
370
    25
100
AcDbLine
 10
5707.3139076608
 20
6920.8551203099
 30
0.0
 11
5707.3627834695
 21
6920.9177051869
 31
0.0
  0
LINE
  5
235
330
1F
100
AcDbEntity
  8
0
  6
Continuous
 62
     7
370
    25
100
AcDbLine
 10
5707.3105698007
 20
7395.1551472035
 30
0.0
 11
5707.3139076608
 21
6920.8551203099
 31
0.0
  0
LWPOLYLINE
  5
236
330
1F
100
AcDbEntity
  8
0
  6
Continuous
 62
     7
370
    25
100
AcDbPolyline
 90
        9
 70
   128
 43
0.0
 10
5708.563936271
 20
6921.2051783886
 10
5708.3765392678
 20
6921.2051783886
 10
5708.1936722177
 20
6921.2051783886
 10
5708.0191498178
 20
6921.2051783886
 10
5707.8567867654
 20
6921.2051783886
 10
5707.7103977578
 20
6921.2051783886
 10
5707.5830822366
 20
6921.2051783886
 10
5707.4781780618
 20
6921.205118784
 10
5707.397592582
 20
6921.205118784
  0
SPLINE
  5
237
330
1F
100
AcDbEntity
  8
0
  6
Continuous
 62
     7
370
    25
100
AcDbSpline
210
0.0
220
0.0
230
1.0
 70
     8
 71
     3
 72
    10
 73
     6
 74
     0
 42
0.000000001
 43
0.00000001
 40
0.0
 40
0.0
 40
0.0
 40
0.0
 40
0.2648973063704355
 40
0.7344297616538293
 40
1.0
 40
1.0
 40
1.0
 40
1.0
 10
5707.39759258205
 20
6921.205118783994
 30
0.0
 10
5707.397021488569
 20
6921.177473590447
 30
0.0
 10
5707.395438127628
 20
6921.100827084726
 30
0.0
 10
5707.381269549556
 20
6921.000475313523
 30
0.0
 10
5707.367689520748
 20
6920.939671687186
 30
0.0
 10
5707.362783469501
 20
6920.917705186887
 30
0.0
  0
LINE
  5
238
330
1F
100
AcDbEntity
  8
0
  6
Continuous
 62
     7
370
    25
100
AcDbLine
 10
6866.0645609277
 20
6819.1630398121
 30
0.0
 11
5708.5644131082
 21
6819.155171999
 31
0.0
  0
LINE
  5
239
330
1F
100
AcDbEntity
  8
0
  6
Continuous
 62
     7
370
    25
100
AcDbLine
 10
5708.5644131082
 20
6819.155171999
 30
0.0
 11
5708.5644131082
 21
6821.2051545468
 31
0.0
  0
LWPOLYLINE
  5
23A
330
1F
100
AcDbEntity
  8
0
  6
Continuous
 62
     7
370
    25
100
AcDbPolyline
 90
        9
 70
   128
 43
0.0
 10
6866.0644417184
 20
6821.2130223599
 10
6866.0645609277
 20
6820.8130751934
 10
6866.0645609277
 20
6820.4285060254
 10
6866.0645609277
 20
6820.0740968075
 10
6866.0645609277
 20
6819.763437399
 10
6866.0645609277
 20
6819.5085083332
 10
6866.0645609277
 20
6819.3190847722
 10
6866.0645609277
 20
6819.2024384823
 10
6866.0645609277
 20
6819.1630398121
  0
SPLINE
  5
23B
330
1F
100
AcDbEntity
  8
0
  6
Continuous
 62
     7
370
    25
100
AcDbSpline
210
0.0
220
0.0
230
1.0
 70
    24
 71
     3
 72
    14
 73
    10
 74
     0
 42
0.000000001
 43
0.00000001
 40
0.0
 40
0.0
 40
0.0
 40
0.0
 40
0.205809277784566
 40
0.3087803525400481
 40
0.4116082382424004
 40
0.6175503877533648
 40
0.7203782734557169
 40
0.8233493482111991
 40
1.0
 40
1.0
 40
1.0
 40
1.0
 10
6867.264879264178
 20
6920.925572999998
 30
0.0
 10
6867.212151715516
 20
6920.925572999998
 30
0.0
 10
6867.133043371908
 20
6920.925572999998
 30
0.0
 10
6867.027566669494
 20
6920.925572999998
 30
0.0
 10
6866.922084624944
 20
6920.925572999998
 30
0.0
 10
6866.816601040773
 20
6920.925572999998
 30
0.0
 10
6866.711119047722
 20
6920.925572999999
 30
0.0
 10
6866.613114183878
 20
6920.925572999998
 30
0.0
 10
6866.54147544355
 20
6920.925572999998
 30
0.0
 10
6866.496217765155
 20
6920.925572999998
 30
0.0
  0
SPLINE
  5
23C
330
1F
100
AcDbEntity
  8
0
  6
Continuous
 62
     7
370
    25
100
AcDbSpline
210
0.0
220
0.0
230
1.0
 70
     8
 71
     3
 72
    10
 73
     6
 74
     0
 42
0.000000001
 43
0.00000001
 40
0.0
 40
0.0
 40
0.0
 40
0.0
 40
0.2832556485053426
 40
0.5664397843498867
 40
1.0
 40
1.0
 40
1.0
 40
1.0
 10
6866.496217765154
 20
6920.925572999998
 30
0.0
 10
6866.494119567877
 20
6920.952117926319
 30
0.0
 10
6866.489923703046
 20
6921.005201077247
 30
0.0
 10
6866.484875164987
 20
6921.101418559856
 30
0.0
 10
6866.484143422421
 20
6921.170972731928
 30
0.0
 10
6866.483700789751
 20
6921.213046201749
 30
0.0
  0
SPLINE
  5
23D
330
1F
100
AcDbEntity
  8
0
  6
Continuous
 62
     7
370
    25
100
AcDbSpline
210
0.0
220
0.0
230
1.0
 70
     8
 71
     3
 72
    10
 73
     6
 74
     0
 42
0.000000001
 43
0.00000001
 40
0.0
 40
0.0
 40
0.0
 40
0.0
 40
0.2840529628336644
 40
0.5679866439979662
 40
1.0
 40
1.0
 40
1.0
 40
1.0
 10
5708.144081153217
 20
6921.205178388639
 30
0.0
 10
5708.143809681626
 20
6921.17762792207
 30
0.0
 10
5708.143266852448
 20
6921.12253855813
 30
0.0
 10
5708.139652493921
 20
6921.025825048358
 30
0.0
 10
5708.134533716719
 20
6920.958394068214
 30
0.0
 10
5708.131444968524
 20
6920.917705186887
 30
0.0
  0
SPLINE
  5
23E
330
1F
100
AcDbEntity
  8
0
  6
Continuous
 62
     7
370
    25
100
AcDbSpline
210
0.0
220
0.0
230
1.0
 70
    24
 71
     3
 72
    14
 73
    10
 74
     0
 42
0.000000001
 43
0.00000001
 40
0.0
 40
0.0
 40
0.0
 40
0.0
 40
0.2062801200531595
 40
0.3095685247074625
 40
0.4128466157548413
 40
0.6194131083545147
 40
0.7227015130088177
 40
0.825693233723141
 40
0.9999999999999999
 40
0.9999999999999999
 40
0.9999999999999999
 40
0.9999999999999999
 10
5707.362783469501
 20
6920.917705186887
 30
0.0
 10
5707.41563224339
 20
6920.917705186887
 30
0.0
 10
5707.49494340998
 20
6920.917705186887
 30
0.0
 10
5707.600720434393
 20
6920.917705186887
 30
0.0
 10
5707.706587906207
 20
6920.917705186887
 30
0.0
 10
5707.812441947608
 20
6920.917705186887
 30
0.0
 10
5707.918226319608
 20
6920.917705186887
 30
0.0
 10
5708.015718379442
 20
6920.917705186887
 30
0.0
 10
5708.086777800972
 20
6920.917705186888
 30
0.0
 10
5708.131444968524
 20
6920.917705186887
 30
0.0
  0
LINE
  5
23F
330
1F
100
AcDbEntity
  8
0
  6
Continuous
 62
     7
370
    25
100
AcDbLine
 10
6866.4962177652
 20
6920.925573
 30
0.0
 11
6866.51386074
 21
6920.8630477276
 31
0.0
  0
LINE
  5
240
330
1F
100
AcDbEntity
  8
0
  6
Continuous
 62
     7
370
    25
100
AcDbLine
 10
5708.1138019937
 20
6920.8551799145
 30
0.0
 11
5708.1314449685
 21
6920.9177051869
 31
0.0
  0
LINE
  5
241
330
1F
100
AcDbEntity
  8
0
  6
Continuous
 62
     7
370
    25
100
AcDbLine
 10
6866.51386074
 20
6920.8630477276
 30
0.0
 11
6867.3138742822
 21
6920.8630477276
 31
0.0
  0
LINE
  5
242
330
1F
100
AcDbEntity
  8
0
  6
Continuous
 62
     7
370
    25
100
AcDbLine
 10
5707.5168018716
 20
6920.8551203099
 30
0.0
 11
5707.3139076608
 21
6920.8551203099
 31
0.0
  0
LINE
  5
243
330
1F
100
AcDbEntity
  8
0
  6
Continuous
 62
     7
370
    25
100
AcDbLine
 10
5664.3117790597
 20
7420.0639878598
 30
0.0
 11
5662.3116855996
 21
7420.0639878598
 31
0.0
  0
LINE
  5
244
330
1F
100
AcDbEntity
  8
0
  6
Continuous
 62
     7
370
    25
100
AcDbLine
 10
5664.3117790597
 20
7397.0639859524
 30
0.0
 11
5664.3117790597
 21
7420.0639878598
 31
0.0
  0
LINE
  5
245
330
1F
100
AcDbEntity
  8
0
  6
Continuous
 62
     7
370
    25
100
AcDbLine
 10
5664.3117790597
 20
7397.0639859524
 30
0.0
 11
5662.3116855996
 21
7397.0639859524
 31
0.0
  0
LINE
  5
246
330
1F
100
AcDbEntity
  8
0
  6
Continuous
 62
     7
370
    25
100
AcDbLine
 10
5662.3116855996
 20
7397.0639859524
 30
0.0
 11
5662.3116855996
 21
7420.0639878598
 31
0.0
  0
LINE
  5
247
330
1F
100
AcDbEntity
  8
0
  6
Continuous
 62
     7
370
    25
100
AcDbLine
 10
5665.4116039651
 20
7395.0639818993
 30
0.0
 11
5662.3116855996
 21
7395.0639818993
 31
0.0
  0
LINE
  5
248
330
1F
100
AcDbEntity
  8
0
  6
Continuous
 62
     7
370
    25
100
AcDbLine
 10
5665.4116039651
 20
7395.0639818993
 30
0.0
 11
5665.4116039651
 21
6820.0640236226
 31
0.0
  0
LINE
  5
249
330
1F
100
AcDbEntity
  8
0
  6
Continuous
 62
     7
370
    25
100
AcDbLine
 10
5665.4116039651
 20
6820.0640236226
 30
0.0
 11
5662.3116855996
 21
6820.0640236226
 31
0.0
  0
LINE
  5
24A
330
1F
100
AcDbEntity
  8
0
  6
Continuous
 62
     7
370
    25
100
AcDbLine
 10
5662.3116855996
 20
7395.0639818993
 30
0.0
 11
5662.3116855996
 21
6820.0640236226
 31
0.0
  0
LINE
  5
24B
330
1F
100
AcDbEntity
  8
0
  6
Continuous
 62
     7
370
    25
100
AcDbLine
 10
5704.2116051095
 20
7395.0639818993
 30
0.0
 11
5665.4116039651
 21
7395.0639818993
 31
0.0
  0
LINE
  5
24C
330
1F
100
AcDbEntity
  8
0
  6
Continuous
 62
     7
370
    25
100
AcDbLine
 10
5704.2116051095
 20
6820.0640236226
 30
0.0
 11
5704.2116051095
 21
7395.0639818993
 31
0.0
  0
LINE
  5
24D
330
1F
100
AcDbEntity
  8
0
  6
Continuous
 62
     7
370
    25
100
AcDbLine
 10
5704.2116051095
 20
6820.0640236226
 30
0.0
 11
5665.4116039651
 21
6820.0640236226
 31
0.0
  0
LINE
  5
24E
330
1F
100
AcDbEntity
  8
0
  6
Continuous
 62
     7
370
    25
100
AcDbLine
 10
5707.3105698007
 20
7395.0639818993
 30
0.0
 11
5704.2116051095
 21
7395.0639818993
 31
0.0
  0
LINE
  5
24F
330
1F
100
AcDbEntity
  8
0
  6
Continuous
 62
     7
370
    25
100
AcDbLine
 10
5707.3117618936
 20
6820.0640236226
 30
0.0
 11
5707.3117618936
 21
7230.4625665036
 31
0.0
  0
LINE
  5
250
330
1F
100
AcDbEntity
  8
0
  6
Continuous
 62
     7
370
    25
100
AcDbLine
 10
5707.3117618936
 20
6820.0640236226
 30
0.0
 11
5704.2116051095
 21
6820.0640236226
 31
0.0
  0
LINE
  5
251
330
1F
100
AcDbEntity
  8
0
  6
Continuous
 62
     7
370
    25
100
AcDbLine
 10
5664.3117790597
 20
7395.0639818993
 30
0.0
 11
5664.3117790597
 21
7395.1548491803
 31
0.0
  0
LINE
  5
252
330
1F
100
AcDbEntity
  8
0
  6
Continuous
 62
     7
370
    25
100
AcDbLine
 10
5662.3116855996
 20
7395.0639818993
 30
0.0
 11
5662.3116855996
 21
7397.0639859524
 31
0.0
  0
LINE
  5
253
330
1F
100
AcDbEntity
  8
0
  6
Continuous
 62
     7
370
    25
100
AcDbLine
 10
5664.3117790597
 20
7827.844858655
 30
0.0
 11
5662.3116855996
 21
7827.844858655
 31
0.0
  0
LINE
  5
254
330
1F
100
AcDbEntity
  8
0
  6
Continuous
 62
     7
370
    25
100
AcDbLine
 10
5664.3117790597
 20
7420.1548551407
 30
0.0
 11
5664.3117790597
 21
7827.844858655
 31
0.0
  0
LINE
  5
255
330
1F
100
AcDbEntity
  8
0
  6
Continuous
 62
     7
370
    25
100
AcDbLine
 10
5662.3116855996
 20
7420.0639878598
 30
0.0
 11
5662.3116855996
 21
7827.844858655
 31
0.0
  0
LINE
  5
256
330
1F
100
AcDbEntity
  8
0
  6
Continuous
 62
     7
370
    25
100
AcDbLine
 10
5664.3117790597
 20
7830.9749295202
 30
0.0
 11
5662.3116855996
 21
7830.9749295202
 31
0.0
  0
LINE
  5
257
330
1F
100
AcDbEntity
  8
0
  6
Continuous
 62
     7
370
    25
100
AcDbLine
 10
5662.3116855996
 20
7827.844858655
 30
0.0
 11
5662.3116855996
 21
7830.9749295202
 31
0.0
  0
LINE
  5
258
330
1F
100
AcDbEntity
  8
0
  6
Continuous
 62
     7
370
    25
100
AcDbLine
 10
5662.3116855996
 20
7840.03501434
 30
0.0
 11
5664.3117790597
 21
7840.03501434
 31
0.0
  0
LINE
  5
259
330
1F
100
AcDbEntity
  8
0
  6
Continuous
 62
     7
370
    25
100
AcDbLine
 10
5664.3117790597
 20
7830.9749295202
 30
0.0
 11
5664.3117790597
 21
7840.03501434
 31
0.0
  0
LINE
  5
25A
330
1F
100
AcDbEntity
  8
0
  6
Continuous
 62
     7
370
    25
100
AcDbLine
 10
5662.3116855996
 20
7830.9749295202
 30
0.0
 11
5662.3116855996
 21
7840.03501434
 31
0.0
  0
LINE
  5
25B
330
1F
100
AcDbEntity
  8
0
  6
Continuous
 62
     8
370
    25
100
AcDbLine
 10
6867.3110132592
 20
7339.7918199387
 30
0.0
 11
6867.311728515
 21
7339.7918199387
 31
0.0
  0
LINE
  5
25C
330
1F
100
AcDbEntity
  8
0
  6
Continuous
 62
     8
370
    25
100
AcDbLine
 10
6867.311728515
 20
7338.5462020722
 30
0.0
 11
6867.3110132592
 21
7338.5462020722
 31
0.0
  0
LINE
  5
25D
330
1F
100
AcDbEntity
  8
0
  6
Continuous
 62
     8
370
    25
100
AcDbLine
 10
5707.3117618936
 20
7201.8162762013
 30
0.0
 11
5707.3120003122
 21
7201.8162762013
 31
0.0
  0
LINE
  5
25E
330
1F
100
AcDbEntity
  8
0
  6
Continuous
 62
     8
370
    25
100
AcDbLine
 10
6867.311728515
 20
6821.7139993992
 30
0.0
 11
6866.0644417184
 21
6821.7139993992
 31
0.0
  0
LINE
  5
25F
330
1F
100
AcDbEntity
  8
0
  6
Continuous
 62
     8
370
    25
100
AcDbLine
 10
5708.5644131082
 20
6821.7139993992
 30
0.0
 11
5707.3117618936
 21
6821.7139993992
 31
0.0
  0
LINE
  5
260
330
1F
100
AcDbEntity
  8
0
  6
Continuous
 62
     8
370
    25
100
AcDbLine
 10
5708.5605984109
 20
7395.1551472035
 30
0.0
 11
5708.563936271
 21
6921.2051783886
 31
0.0
  0
LINE
  5
261
330
1F
100
AcDbEntity
  8
0
  6
Continuous
 62
     8
370
    25
100
AcDbLine
 10
6866.063845672
 20
6921.2130462017
 30
0.0
 11
6866.0606270211
 21
7395.1630448189
 31
0.0
  0
LINE
  5
262
330
1F
100
AcDbEntity
  8
0
  6
Continuous
 62
     7
370
    25
100
AcDbLine
 10
7368.0326144603
 20
7760.157052913
 30
0.0
 11
7365.5326145161
 21
7760.157052913
 31
0.0
  0
LINE
  5
263
330
1F
100
AcDbEntity
  8
0
  6
Continuous
 62
     7
370
    25
100
AcDbLine
 10
7365.5326145161
 20
7700.1570542541
 30
0.0
 11
7368.0326144603
 21
7700.1570542541
 31
0.0
  0
LINE
  5
264
330
1F
100
AcDbEntity
  8
0
  6
Continuous
 62
     7
370
    25
100
AcDbLine
 10
7368.0326144603
 20
7700.1570542541
 30
0.0
 11
7368.5326145422
 21
7700.6570552674
 31
0.0
  0
LINE
  5
265
330
1F
100
AcDbEntity
  8
0
  6
Continuous
 62
     7
370
    25
100
AcDbLine
 10
7368.5326145422
 20
7759.6570518997
 30
0.0
 11
7368.0326144603
 21
7760.157052913
 31
0.0
  0
LINE
  5
266
330
1F
100
AcDbEntity
  8
0
  6
Continuous
 62
     7
370
    25
100
AcDbLine
 10
7377.1826142837
 20
7716.1570494261
 30
0.0
 11
7499.532617854
 21
7716.1570494261
 31
0.0
  0
LINE
  5
267
330
1F
100
AcDbEntity
  8
0
  6
Continuous
 62
     7
370
    25
100
AcDbLine
 10
7368.5326145422
 20
7716.1570494261
 30
0.0
 11
7373.9033036326
 21
7716.1570494261
 31
0.0
  0
LINE
  5
268
330
1F
100
AcDbEntity
  8
0
  6
Continuous
 62
     7
370
    25
100
AcDbLine
 10
7533.5326122512
 20
7744.1570540157
 30
0.0
 11
7368.5326145422
 21
7744.1570540157
 31
0.0
  0
LINE
  5
269
330
1F
100
AcDbEntity
  8
0
  6
Continuous
 62
     7
370
    25
100
AcDbLine
 10
7534.5326142777
 20
7743.1570519891
 30
0.0
 11
7533.5326122512
 21
7744.1570540157
 31
0.0
  0
LINE
  5
26A
330
1F
100
AcDbEntity
  8
0
  6
Continuous
 62
     7
370
    25
100
AcDbLine
 10
7365.5326145161
 20
7510.1570640889
 30
0.0
 11
7367.5326146111
 21
7510.1570640889
 31
0.0
  0
LINE
  5
26B
330
1F
100
AcDbEntity
  8
0
  6
Continuous
 62
     7
370
    25
100
AcDbLine
 10
7367.5326146111
 20
7550.1570557442
 30
0.0
 11
7365.5326145161
 21
7550.1570557442
 31
0.0
  0
LINE
  5
26C
330
1F
100
AcDbEntity
  8
0
  6
Continuous
 62
     7
370
    25
100
AcDbLine
 10
7374.9326143805
 20
7534.4570432988
 30
0.0
 11
7374.9326143805
 21
7537.5994299736
 31
0.0
  0
LINE
  5
26D
330
1F
100
AcDbEntity
  8
0
  6
Continuous
 62
     7
370
    25
100
AcDbLine
 10
7374.9326143805
 20
7522.7146898594
 30
0.0
 11
7374.9326143805
 21
7523.4570657101
 31
0.0
  0
ARC
  5
26E
330
1F
100
AcDbEntity
  8
0
  6
Continuous
 62
     7
370
    25
100
AcDbCircle
 10
7347.9366965739
 20
7530.1570526175
 30
0.0
 40
28.00000000000004
100
AcDbArc
 50
15.4643502915
 51
45.5846914028
  0
ARC
  5
26F
330
1F
100
AcDbEntity
  8
0
  6
Continuous
 62
     7
370
    25
100
AcDbCircle
 10
7347.9366965739
 20
7530.1570526175
 30
0.0
 40
28.00000000000037
100
AcDbArc
 50
314.4153085972
 51
344.5317933461
  0
LINE
  5
270
330
1F
100
AcDbEntity
  8
0
  6
Continuous
 62
     7
370
    25
100
AcDbLine
 10
7375.0326142107
 20
7523.7070475903
 30
0.0
 11
7375.0326142107
 21
7534.3070482102
 31
0.0
  0
LINE
  5
271
330
1F
100
AcDbEntity
  8
0
  6
Continuous
 62
     7
370
    25
100
AcDbLine
 10
7690.7721238602
 20
6818.0477773037
 30
0.0
 11
7692.3826115598
 21
6818.8640033093
 31
0.0
  0
LINE
  5
272
330
1F
100
AcDbEntity
  8
0
  6
Continuous
 62
     7
370
    25
100
AcDbLine
 10
7682.6826112737
 20
6818.8640033093
 30
0.0
 11
7684.3037980069
 21
6818.0689965573
 31
0.0
  0
LINE
  5
273
330
1F
100
AcDbEntity
  8
0
  6
Continuous
 62
     7
370
    25
100
AcDbLine
 10
7460.7721345891
 20
6818.0477773037
 30
0.0
 11
7462.382614838
 21
6818.8640033093
 31
0.0
  0
LINE
  5
274
330
1F
100
AcDbEntity
  8
0
  6
Continuous
 62
     7
370
    25
100
AcDbLine
 10
7452.6826145519
 20
6818.8640033093
 30
0.0
 11
7454.303786384
 21
6818.0689965573
 31
0.0
  0
LINE
  5
275
330
1F
100
AcDbEntity
  8
0
  6
Continuous
 62
     7
370
    25
100
AcDbLine
 10
7368.0326144603
 20
7741.729010382
 30
0.0
 11
7368.0326144603
 21
7760.157052913
 31
0.0
  0
LINE
  5
276
330
1F
100
AcDbEntity
  8
0
  6
Continuous
 62
     7
370
    25
100
AcDbLine
 10
7368.0326144603
 20
7700.1570542541
 30
0.0
 11
7368.0326144603
 21
7741.729010382
 31
0.0
  0
LINE
  5
277
330
1F
100
AcDbEntity
  8
0
  6
Continuous
 62
     7
370
    25
100
AcDbLine
 10
7368.5326145422
 20
7741.5361446526
 30
0.0
 11
7368.5326145422
 21
7700.6570552674
 31
0.0
  0
LINE
  5
278
330
1F
100
AcDbEntity
  8
0
  6
Continuous
 62
     7
370
    25
100
AcDbLine
 10
7368.5326145422
 20
7759.6570518997
 30
0.0
 11
7368.5326145422
 21
7741.5361446526
 31
0.0
  0
LINE
  5
279
330
1F
100
AcDbEntity
  8
0
  6
Continuous
 62
     7
370
    25
100
AcDbLine
 10
7533.5326122512
 20
7725.2673288074
 30
0.0
 11
7533.5326122512
 21
7744.1570540157
 31
0.0
  0
LWPOLYLINE
  5
27A
330
1F
100
AcDbEntity
  8
0
  6
Continuous
 62
     7
370
    25
100
AcDbPolyline
 90
       16
 70
   128
 43
0.0
 10
7499.532617854
 20
7716.1570494261
 10
7499.703638481
 20
7716.2028779474
 10
7500.2156125773
 20
7716.3400580373
 10
7501.0651575793
 20
7716.5676956263
 10
7502.2467451562
 20
7716.8843005982
 10
7503.7526118029
 20
7717.287794241
 10
7505.5729078521
 20
7717.7755464998
 10
7507.6957123746
 20
7718.3443461743
 10
7510.1071374883
 20
7718.990490326
 10
7512.7914028634
 20
7719.7097321239
 10
7515.7309102286
 20
7720.4973702517
 10
7518.906437086
 20
7721.3482563582
 10
7522.2971814145
 20
7722.2568025079
 10
7525.8809553851
 20
7723.2170705882
 10
7529.6342896689
 20
7724.2227723089
 10
7533.5326122512
 20
7725.2673288074
  0
ARC
  5
27B
330
1F
100
AcDbEntity
  8
0
  6
Continuous
 62
     7
370
    25
100
AcDbCircle
 10
7375.5326590426
 20
7702.2092706694
 30
0.0
 40
14.0450305995855
100
AcDbArc
 50
83.2535373183
 51
96.6618484398
  0
LINE
  5
27C
330
1F
100
AcDbEntity
  8
0
  6
Continuous
 62
     7
370
    25
100
AcDbLine
 10
7534.5326142777
 20
7743.1570519891
 30
0.0
 11
7534.5326142777
 21
7725.5352740374
 31
0.0
  0
LINE
  5
27D
330
1F
100
AcDbEntity
  8
0
  6
Continuous
 62
     7
370
    25
100
AcDbLine
 10
7534.5326142777
 20
7725.5352740374
 30
0.0
 11
7533.5326122512
 21
7725.2673288074
 31
0.0
  0
LINE
  5
27E
330
1F
100
AcDbEntity
  8
0
  6
Continuous
 62
     7
370
    25
100
AcDbLine
 10
7367.5326146111
 20
7521.7928444233
 30
0.0
 11
7367.5326146111
 21
7510.1570640889
 31
0.0
  0
LINE
  5
27F
330
1F
100
AcDbEntity
  8
0
  6
Continuous
 62
     7
370
    25
100
AcDbLine
 10
7367.5326146111
 20
7550.1570557442
 30
0.0
 11
7367.5326146111
 21
7538.5212754097
 31
0.0
  0
SPLINE
  5
280
330
1F
100
AcDbEntity
  8
0
  6
Continuous
 62
     7
370
    25
100
AcDbSpline
210
0.0
220
0.0
230
1.0
 70
     8
 71
     3
 72
    14
 73
    10
 74
     0
 42
0.000000001
 43
0.00000001
 40
0.0
 40
0.0
 40
0.0
 40
0.0
 40
0.1430784179063691
 40
0.2859708789187632
 40
0.4305979437501776
 40
0.5751113545705745
 40
0.700410552282301
 40
0.8258447718596151
 40
1.0
 40
1.0
 40
1.0
 40
1.0
 10
7367.532614611143
 20
7538.521275409742
 30
0.0
 10
7367.223362031257
 20
7537.790885769956
 30
0.0
 10
7366.60525880247
 20
7536.331055766943
 30
0.0
 10
7365.911981974483
 20
7533.93115493627
 30
0.0
 10
7365.533467793597
 20
7531.402232160407
 30
0.0
 10
7365.530838646549
 20
7528.923838502067
 30
0.0
 10
7365.88023569194
 20
7526.613339502518
 30
0.0
 10
7366.513134661444
 20
7524.222090535492
 30
0.0
 10
7367.157839395141
 20
7522.685869574713
 30
0.0
 10
7367.532614611143
 20
7521.792844423338
 30
0.0
  0
SPLINE
  5
281
330
1F
100
AcDbEntity
  8
0
  6
Continuous
 62
     7
370
    25
100
AcDbSpline
210
0.0
220
0.0
230
1.0
 70
     8
 71
     3
 72
    12
 73
     8
 74
     0
 42
0.000000001
 43
0.00000001
 40
0.0
 40
0.0
 40
0.0
 40
0.0
 40
0.0837195463864042
 40
0.3033368554190816
 40
0.5162135877756033
 40
0.7352044941260775
 40
1.0
 40
1.0
 40
1.0
 40
1.0
 10
7374.848011175224
 20
7537.599429973646
 30
0.0
 10
7374.869273815569
 20
7537.596574761158
 30
0.0
 10
7374.946313679476
 20
7537.586229612207
 30
0.0
 10
7374.321124938945
 20
7537.670104065747
 30
0.0
 10
7372.97972551593
 20
7537.846089149617
 30
0.0
 10
7370.823283494944
 20
7538.123101500008
 30
0.0
 10
7368.696621262497
 20
7538.380429552656
 30
0.0
 10
7367.532614611143
 20
7538.521275409742
 30
0.0
  0
SPLINE
  5
282
330
1F
100
AcDbEntity
  8
0
  6
Continuous
 62
     7
370
    25
100
AcDbSpline
210
0.0
220
0.0
230
1.0
 70
     8
 71
     3
 72
    12
 73
     8
 74
     0
 42
0.000000001
 43
0.00000001
 40
0.0
 40
0.0
 40
0.0
 40
0.0
 40
0.214459386570713
 40
0.4351067006665588
 40
0.6495928032709885
 40
0.8703552123412536
 40
1.0
 40
1.0
 40
1.0
 40
1.0
 10
7367.532614611143
 20
7521.792844423338
 30
0.0
 10
7368.485772722218
 20
7521.907821743328
 30
0.0
 10
7370.41959099688
 20
7522.14109389407
 30
0.0
 10
7372.577932174301
 20
7522.415916955222
 30
0.0
 10
7374.093039575876
 20
7522.613686356784
 30
0.0
 10
7374.876376612132
 20
7522.718491758417
 30
0.0
 10
7374.855671660264
 20
7522.715716615707
 30
0.0
 10
7374.848011175224
 20
7522.714689859434
 30
0.0
  0
LINE
  5
283
330
1F
100
AcDbEntity
  8
0
  6
Continuous
 62
     7
370
    25
100
AcDbLine
 10
7374.9326143805
 20
7534.4570432988
 30
0.0
 11
7373.8273933922
 21
7534.4570432988
 31
0.0
  0
SPLINE
  5
284
330
1F
100
AcDbEntity
  8
0
  6
Continuous
 62
     7
370
    25
100
AcDbSpline
210
0.0
220
0.0
230
1.0
 70
     8
 71
     3
 72
    17
 73
    13
 74
     0
 42
0.000000001
 43
0.00000001
 40
0.0
 40
0.0
 40
0.0
 40
0.0
 40
0.1140931132386525
 40
0.2280227832687324
 40
0.3449323882405696
 40
0.4549401150087186
 40
0.5509075004576081
 40
0.6405224508852118
 40
0.7354323436901203
 40
0.8418194392059729
 40
0.9575032022337727
 40
1.0
 40
1.0
 40
1.0
 40
1.0
 10
7373.827393392155
 20
7534.457043298765
 30
0.0
 10
7373.614373207711
 20
7534.388833666306
 30
0.0
 10
7373.188637999244
 20
7534.252512114567
 30
0.0
 10
7372.441196052581
 20
7533.221429625762
 30
0.0
 10
7371.793108973312
 20
7531.708368385687
 30
0.0
 10
7371.430579588685
 20
7529.863389392764
 30
0.0
 10
7371.442667467892
 20
7528.057336529793
 30
0.0
 10
7371.740546005642
 20
7526.462097749164
 30
0.0
 10
7372.251985292922
 20
7525.076609666789
 30
0.0
 10
7372.917443060552
 20
7523.987910279429
 30
0.0
 10
7373.471218316465
 20
7523.503798737454
 30
0.0
 10
7373.751967343747
 20
7523.466962212769
 30
0.0
 10
7373.827393392155
 20
7523.457065710111
 30
0.0
  0
LINE
  5
285
330
1F
100
AcDbEntity
  8
0
  6
Continuous
 62
     7
370
    25
100
AcDbLine
 10
7373.8273933922
 20
7523.4570657101
 30
0.0
 11
7374.9326143805
 21
7523.4570657101
 31
0.0
  0
LINE
  5
286
330
1F
100
AcDbEntity
  8
0
  6
Continuous
 62
     7
370
    25
100
AcDbLine
 10
7373.9122750629
 20
7534.3070482102
 30
0.0
 11
7373.5388864223
 21
7534.3070482102
 31
0.0
  0
SPLINE
  5
287
330
1F
100
AcDbEntity
  8
0
  6
Continuous
 62
     7
370
    25
100
AcDbSpline
210
0.0
220
0.0
230
1.0
 70
     8
 71
     3
 72
    17
 73
    13
 74
     0
 42
0.000000001
 43
0.00000001
 40
0.0
 40
0.0
 40
0.0
 40
0.0
 40
0.1142605726835649
 40
0.2283784256887591
 40
0.3451747793995965
 40
0.45495742044861
 40
0.5510727548969653
 40
0.6410594793419926
 40
0.7361874461028135
 40
0.842536745468327
 40
0.9580546819176626
 40
1.0
 40
1.0
 40
1.0
 40
1.0
 10
7373.912275062928
 20
7523.707047590299
 30
0.0
 10
7373.706040040651
 20
7523.772839571442
 30
0.0
 10
7373.293827598482
 20
7523.904341354807
 30
0.0
 10
7372.577496406612
 20
7524.8997623571
 30
0.0
 10
7371.960471849486
 20
7526.359605112089
 30
0.0
 10
7371.617305814598
 20
7528.136622538455
 30
0.0
 10
7371.629058075695
 20
7529.877740090245
 30
0.0
 10
7371.913324168032
 20
7531.418288803324
 30
0.0
 10
7372.402406291847
 20
7532.755101961441
 30
0.0
 10
7373.039050285894
 20
7533.801096232054
 30
0.0
 10
7373.569543478475
 20
7534.262905682775
 30
0.0
 10
7373.840181947078
 20
7534.29776289046
 30
0.0
 10
7373.912275062928
 20
7534.307048210188
 30
0.0
  0
LINE
  5
288
330
1F
100
AcDbEntity
  8
0
  6
Continuous
 62
     7
370
    25
100
AcDbLine
 10
7373.9122750629
 20
7523.7070475903
 30
0.0
 11
7373.3604673688
 21
7523.7070475903
 31
0.0
  0
LINE
  5
289
330
1F
100
AcDbEntity
  8
0
  6
Continuous
 62
     7
370
    25
100
AcDbLine
 10
7375.0326142107
 20
7534.3070482102
 30
0.0
 11
7373.9122750629
 21
7534.3070482102
 31
0.0
  0
LINE
  5
28A
330
1F
100
AcDbEntity
  8
0
  6
Continuous
 62
     7
370
    25
100
AcDbLine
 10
7375.0326142107
 20
7523.7070475903
 30
0.0
 11
7373.9122750629
 21
7523.7070475903
 31
0.0
  0
LINE
  5
28B
330
1F
100
AcDbEntity
  8
0
  6
Continuous
 62
     7
370
    25
100
AcDbLine
 10
7691.5326195229
 20
6820.0640236226
 30
0.0
 11
7691.5326195229
 21
6818.8640033093
 31
0.0
  0
LINE
  5
28C
330
1F
100
AcDbEntity
  8
0
  6
Continuous
 62
     7
370
    25
100
AcDbLine
 10
7691.5326195229
 20
6818.8640033093
 30
0.0
 11
7453.5326140393
 21
6818.8640033093
 31
0.0
  0
LINE
  5
28D
330
1F
100
AcDbEntity
  8
0
  6
Continuous
 62
     7
370
    25
100
AcDbLine
 10
7453.5326140393
 20
6820.0640236226
 30
0.0
 11
7453.5326140393
 21
6818.8640033093
 31
0.0
  0
LINE
  5
28E
330
1F
100
AcDbEntity
  8
0
  6
Continuous
 62
     7
370
    25
100
AcDbLine
 10
7447.5326167811
 20
6820.0640236226
 30
0.0
 11
7447.5326167811
 21
6818.8640033093
 31
0.0
  0
LINE
  5
28F
330
1F
100
AcDbEntity
  8
0
  6
Continuous
 62
     7
370
    25
100
AcDbLine
 10
7453.5326140393
 20
6818.8640033093
 30
0.0
 11
7447.5326167811
 21
6818.8640033093
 31
0.0
  0
LINE
  5
290
330
1F
100
AcDbEntity
  8
0
  6
Continuous
 62
     7
370
    25
100
AcDbLine
 10
7697.53260188
 20
6820.0640236226
 30
0.0
 11
7697.53260188
 21
6818.8640033093
 31
0.0
  0
LINE
  5
291
330
1F
100
AcDbEntity
  8
0
  6
Continuous
 62
     7
370
    25
100
AcDbLine
 10
7697.53260188
 20
6818.8640033093
 30
0.0
 11
7691.5326195229
 21
6818.8640033093
 31
0.0
  0
LINE
  5
292
330
1F
100
AcDbEntity
  8
0
  6
Continuous
 62
     7
370
    25
100
AcDbLine
 10
7364.2256688253
 20
7830.7139654842
 30
0.0
 11
7362.9979318865
 21
7830.9749295202
 31
0.0
  0
LINE
  5
293
330
1F
100
AcDbEntity
  8
0
  6
Continuous
 62
     7
370
    25
100
AcDbLine
 10
7320.3735875357
 20
7840.03501434
 30
0.0
 11
7317.5227644314
 21
7840.6409775105
 31
0.0
  0
ARC
  5
294
330
1F
100
AcDbEntity
  8
0
  6
Continuous
 62
     7
370
    25
100
AcDbCircle
 10
7363.8826145161
 20
7829.1000231386
 30
0.0
 40
1.650000000000737
100
AcDbArc
 50
0.0
 51
78.0
  0
LINE
  5
295
330
1F
100
AcDbEntity
  8
0
  6
Continuous
 62
     7
370
    25
100
AcDbLine
 10
7365.5326145161
 20
7827.844858655
 30
0.0
 11
7365.5326145161
 21
7829.1000225779
 31
0.0
  0
ARC
  5
296
330
1F
100
AcDbEntity
  8
0
  6
Continuous
 62
     7
370
    25
100
AcDbCircle
 10
7752.1793238908
 20
7418.5048540779
 30
0.0
 40
1.650000000038744
100
AcDbArc
 50
90.0
 51
109.1026428798
  0
LINE
  5
297
330
1F
100
AcDbEntity
  8
0
  6
Continuous
 62
     7
370
    25
100
AcDbLine
 10
7793.8793378342
 20
7420.1548551407
 30
0.0
 11
7752.1793323029
 21
7420.1548551407
 31
0.0
  0
ARC
  5
298
330
1F
100
AcDbEntity
  8
0
  6
Continuous
 62
     7
370
    25
100
AcDbCircle
 10
7793.8793238908
 20
7418.5048540779
 30
0.0
 40
1.650000000037835
100
AcDbArc
 50
70.8973571203
 51
90.0
  0
LINE
  5
299
330
1F
100
AcDbEntity
  8
0
  6
Continuous
 62
     7
370
    25
100
AcDbLine
 10
7795.5293136109
 20
7395.1548491803
 30
0.0
 11
7795.5293136109
 21
7397.0639859524
 31
0.0
  0
LINE
  5
29A
330
1F
100
AcDbEntity
  8
0
  6
Continuous
 62
     7
370
    25
100
AcDbLine
 10
7795.5293136109
 20
7395.1548491803
 30
0.0
 11
7794.3293231
 21
7395.1548491803
 31
0.0
  0
LINE
  5
29B
330
1F
100
AcDbEntity
  8
0
  6
Continuous
 62
     7
370
    25
100
AcDbLine
 10
7794.3293231
 20
7397.0639859524
 30
0.0
 11
7794.3293231
 21
7395.1548491803
 31
0.0
  0
ARC
  5
29C
330
1F
100
AcDbEntity
  8
0
  6
Continuous
 62
     7
370
    25
100
AcDbCircle
 10
7317.1797091666
 20
7839.0270321197
 30
0.0
 40
1.649999999999908
100
AcDbArc
 50
78.0
 51
142.3455278777
  0
LINE
  5
29D
330
1F
100
AcDbEntity
  8
0
  6
Continuous
 62
     7
370
    25
100
AcDbLine
 10
7752.1793323029
 20
7420.1548551407
 30
0.0
 11
7752.1793323029
 21
7420.1633488026
 31
0.0
  0
ARC
  5
29E
330
1F
100
AcDbEntity
  8
0
  6
Continuous
 62
     7
370
    25
100
AcDbCircle
 10
7752.1793238908
 20
7418.5133351243
 30
0.0
 40
1.650000000037835
100
AcDbArc
 50
90.0
 51
109.9830451629
  0
LINE
  5
29F
330
1F
100
AcDbEntity
  8
0
  6
Continuous
 62
     7
370
    25
100
AcDbLine
 10
7793.8793378342
 20
7420.1548551407
 30
0.0
 11
7793.8793378342
 21
7420.1633488026
 31
0.0
  0
ARC
  5
2A0
330
1F
100
AcDbEntity
  8
0
  6
Continuous
 62
     7
370
    25
100
AcDbCircle
 10
7793.8793238908
 20
7418.5133351243
 30
0.0
 40
1.650000000037835
100
AcDbArc
 50
70.0169548371
 51
90.0
  0
LINE
  5
2A1
330
1F
100
AcDbEntity
  8
0
  6
Continuous
 62
     7
370
    25
100
AcDbLine
 10
7793.8793378342
 20
7420.1633488026
 30
0.0
 11
7752.1793323029
 21
7420.1633488026
 31
0.0
  0
LINE
  5
2A2
330
1F
100
AcDbEntity
  8
0
  6
Continuous
 62
     7
370
    25
100
AcDbLine
 10
7690.74196391
 20
6818.0639897671
 30
0.0
 11
7690.8284204472
 21
6818.0639897671
 31
0.0
  0
SPLINE
  5
2A3
330
1F
100
AcDbEntity
  8
0
  6
Continuous
 62
     7
370
    25
100
AcDbSpline
210
0.0
220
0.0
230
1.0
 70
     8
 71
     3
 72
    11
 73
     7
 74
     0
 42
0.000000001
 43
0.00000001
 40
0.0
 40
0.0
 40
0.0
 40
0.0
 40
0.3408549047031912
 40
0.5163019294533608
 40
0.7536709259811815
 40
1.0
 40
1.0
 40
1.0
 40
1.0
 10
7684.32325892342
 20
6818.063989767118
 30
0.0
 10
7685.026477557452
 20
6817.764587083213
 30
0.0
 10
7686.091661401278
 20
6817.311073927757
 30
0.0
 10
7687.78627256933
 20
6816.969950691639
 30
0.0
 10
7689.234973749361
 20
6817.442312576572
 30
0.0
 10
7690.233468447067
 20
6817.85422062658
 30
0.0
 10
7690.741963909993
 20
6818.063989767118
 30
0.0
  0
LINE
  5
2A4
330
1F
100
AcDbEntity
  8
0
  6
Continuous
 62
     7
370
    25
100
AcDbLine
 10
7684.3232589234
 20
6818.0639897671
 30
0.0
 11
7684.2368023862
 21
6818.0639897671
 31
0.0
  0
LINE
  5
2A5
330
1F
100
AcDbEntity
  8
0
  6
Continuous
 62
     7
370
    25
100
AcDbLine
 10
7460.7419597377
 20
6818.0639897671
 30
0.0
 11
7460.8284311761
 21
6818.0639897671
 31
0.0
  0
SPLINE
  5
2A6
330
1F
100
AcDbEntity
  8
0
  6
Continuous
 62
     7
370
    25
100
AcDbSpline
210
0.0
220
0.0
230
1.0
 70
     8
 71
     3
 72
    11
 73
     7
 74
     0
 42
0.000000001
 43
0.00000001
 40
0.0
 40
0.0
 40
0.0
 40
0.0
 40
0.3408546167933864
 40
0.5162998394986951
 40
0.7536693571925741
 40
1.0
 40
1.0
 40
1.0
 40
1.0
 10
7454.323269652256
 20
6818.063989767118
 30
0.0
 10
7455.026485785993
 20
6817.764587300562
 30
0.0
 10
7456.0916624305
 20
6817.311075927054
 30
0.0
 10
7457.78626569507
 20
6816.969950381682
 30
0.0
 10
7459.234964119517
 20
6817.442314524716
 30
0.0
 10
7460.233461743275
 20
6817.854220999301
 30
0.0
 10
7460.741959737667
 20
6818.063989767118
 30
0.0
  0
LINE
  5
2A7
330
1F
100
AcDbEntity
  8
0
  6
Continuous
 62
     7
370
    25
100
AcDbLine
 10
7454.3232696523
 20
6818.0639897671
 30
0.0
 11
7454.2367982138
 21
6818.0639897671
 31
0.0
  0
LINE
  5
2A8
330
1F
100
AcDbEntity
  8
0
  6
Continuous
 62
     7
370
    25
100
AcDbLine
 10
7794.3293231
 20
7395.1548491803
 30
0.0
 11
7794.3293231
 21
7395.0639818993
 31
0.0
  0
ARC
  5
2A9
330
1F
100
AcDbEntity
  8
0
  6
Continuous
 62
     7
370
    25
100
AcDbCircle
 10
7792.2793238908
 20
6821.205155275
 30
0.0
 40
1.250000000000762
100
AcDbArc
 50
270.0
 51
294.0867869618
  0
LINE
  5
2AA
330
1F
100
AcDbEntity
  8
0
  6
Continuous
 62
     7
370
    25
100
AcDbLine
 10
7792.2793107499
 20
6819.9630533543
 30
0.0
 11
7792.2793107499
 21
6819.9551259366
 31
0.0
  0
ARC
  5
2AB
330
1F
100
AcDbEntity
  8
0
  6
Continuous
 62
     7
370
    25
100
AcDbCircle
 10
7792.2793238908
 20
6821.2130339365
 30
0.0
 40
1.250000000000088
100
AcDbArc
 50
270.0
 51
293.186046902
  0
ARC
  5
2AC
330
1F
100
AcDbEntity
  8
0
  6
Continuous
 62
     7
370
    25
100
AcDbCircle
 10
7792.2793238908
 20
6821.205155275
 30
0.0
 40
2.050000000000682
100
AcDbArc
 50
270.0
 51
326.1746233633
  0
LINE
  5
2AD
330
1F
100
AcDbEntity
  8
0
  6
Continuous
 62
     7
370
    25
100
AcDbLine
 10
7792.2793107499
 20
6819.9551259366
 30
0.0
 11
7792.2793107499
 21
6819.155171999
 31
0.0
  0
LINE
  5
2AE
330
1F
100
AcDbEntity
  8
0
  6
Continuous
 62
     7
370
    25
100
AcDbLine
 10
7777.329333352
 20
6819.9551259366
 30
0.0
 11
7792.2793107499
 21
6819.9551259366
 31
0.0
  0
LINE
  5
2AF
330
1F
100
AcDbEntity
  8
0
  6
Continuous
 62
     7
370
    25
100
AcDbLine
 10
7777.329333352
 20
6819.9630533543
 30
0.0
 11
7777.329333352
 21
6819.9551259366
 31
0.0
  0
LINE
  5
2B0
330
1F
100
AcDbEntity
  8
0
  6
Continuous
 62
     7
370
    25
100
AcDbLine
 10
7792.2793107499
 20
6819.9630533543
 30
0.0
 11
7777.329333352
 21
6819.9630533543
 31
0.0
  0
LINE
  5
2B1
330
1F
100
AcDbEntity
  8
0
  6
Continuous
 62
     7
370
    25
100
AcDbLine
 10
7777.329333352
 20
6819.155171999
 30
0.0
 11
7792.2793107499
 21
6819.155171999
 31
0.0
  0
LINE
  5
2B2
330
1F
100
AcDbEntity
  8
0
  6
Continuous
 62
     7
370
    25
100
AcDbLine
 10
7777.329333352
 20
6819.155171999
 30
0.0
 11
7777.329333352
 21
6819.9551259366
 31
0.0
  0
LINE
  5
2B3
330
1F
100
AcDbEntity
  8
0
  6
Continuous
 62
     7
370
    25
100
AcDbLine
 10
7307.3735872675
 20
7840.03501434
 30
0.0
 11
7320.3735875357
 21
7840.03501434
 31
0.0
  0
LINE
  5
2B4
330
1F
100
AcDbEntity
  8
0
  6
Continuous
 62
     7
370
    25
100
AcDbLine
 10
7362.9979318865
 20
7830.9749295202
 30
0.0
 11
7320.3735875357
 21
7840.03501434
 31
0.0
  0
ARC
  5
2B5
330
1F
100
AcDbEntity
  8
0
  6
Continuous
 62
     7
370
    25
100
AcDbCircle
 10
7362.3326145161
 20
7827.8448578872
 30
0.0
 40
3.200000000001637
100
AcDbArc
 50
0.0
 51
78.0
  0
LINE
  5
2B6
330
1F
100
AcDbEntity
  8
0
  6
Continuous
 62
     7
370
    25
100
AcDbLine
 10
7795.5326216687
 20
7420.0639878598
 30
0.0
 11
7365.5326145161
 21
7420.0639878598
 31
0.0
  0
LINE
  5
2B7
330
1F
100
AcDbEntity
  8
0
  6
Continuous
 62
     7
370
    25
100
AcDbLine
 10
7795.5326216687
 20
7397.0639859524
 30
0.0
 11
7795.5326216687
 21
7420.0639878598
 31
0.0
  0
LINE
  5
2B8
330
1F
100
AcDbEntity
  8
0
  6
Continuous
 62
     7
370
    25
100
AcDbLine
 10
7792.4226003159
 20
7397.0639859524
 30
0.0
 11
7795.5326216687
 21
7397.0639859524
 31
0.0
  0
LINE
  5
2B9
330
1F
100
AcDbEntity
  8
0
  6
Continuous
 62
     7
370
    25
100
AcDbLine
 10
7792.4226003159
 20
7395.0639818993
 30
0.0
 11
7792.4226003159
 21
7397.0639859524
 31
0.0
  0
LINE
  5
2BA
330
1F
100
AcDbEntity
  8
0
  6
Continuous
 62
     7
370
    25
100
AcDbLine
 10
7792.4226003159
 20
7395.0639818993
 30
0.0
 11
7792.4326138963
 21
7395.0639818993
 31
0.0
  0
LINE
  5
2BB
330
1F
100
AcDbEntity
  8
0
  6
Continuous
 62
     7
370
    25
100
AcDbLine
 10
7792.4326138963
 20
7395.0639818993
 30
0.0
 11
7792.4326138963
 21
6820.0640236226
 31
0.0
  0
LINE
  5
2BC
330
1F
100
AcDbEntity
  8
0
  6
Continuous
 62
     7
370
    25
100
AcDbLine
 10
7792.4326138963
 20
6820.0640236226
 30
0.0
 11
7307.3735872675
 21
6820.0640236226
 31
0.0
  0
LINE
  5
2BD
330
1F
100
AcDbEntity
  8
0
  6
Continuous
 62
     7
370
    25
100
AcDbLine
 10
7307.3735872675
 20
7840.03501434
 30
0.0
 11
7307.3735872675
 21
6820.0640236226
 31
0.0
  0
LINE
  5
2BE
330
1F
100
AcDbEntity
  8
0
  6
Continuous
 62
     7
370
    25
100
AcDbLine
 10
7365.5326145161
 20
7420.0639878598
 30
0.0
 11
7365.5326145161
 21
7827.844858655
 31
0.0
  0
LINE
  5
2BF
330
1F
100
AcDbEntity
  8
0
  6
Continuous
 62
     7
370
    25
100
AcDbLine
 10
7302.2735866178
 20
7840.03501434
 30
0.0
 11
7307.3735872675
 21
7840.03501434
 31
0.0
  0
LINE
  5
2C0
330
1F
100
AcDbEntity
  8
0
  6
Continuous
 62
     7
370
    25
100
AcDbLine
 10
7302.2735866178
 20
6820.0640236226
 30
0.0
 11
7302.2735866178
 21
7840.03501434
 31
0.0
  0
LINE
  5
2C1
330
1F
100
AcDbEntity
  8
0
  6
Continuous
 62
     7
370
    25
100
AcDbLine
 10
7307.3735872675
 20
6820.0640236226
 30
0.0
 11
7302.2735866178
 21
6820.0640236226
 31
0.0
  0
LINE
  5
2C2
330
1F
100
AcDbEntity
  8
0
  6
Continuous
 62
     7
370
    25
100
AcDbLine
 10
7795.5326216687
 20
7395.0639818993
 30
0.0
 11
7792.4326138963
 21
7395.0639818993
 31
0.0
  0
LINE
  5
2C3
330
1F
100
AcDbEntity
  8
0
  6
Continuous
 62
     7
370
    25
100
AcDbLine
 10
7795.5326216687
 20
7395.0639818993
 30
0.0
 11
7795.5326216687
 21
6820.0640236226
 31
0.0
  0
LINE
  5
2C4
330
1F
100
AcDbEntity
  8
0
  6
Continuous
 62
     7
370
    25
100
AcDbLine
 10
7795.5326216687
 20
6820.0640236226
 30
0.0
 11
7792.4326138963
 21
6820.0640236226
 31
0.0
  0
LINE
  5
2C5
330
1F
100
AcDbEntity
  8
0
  6
Continuous
 62
     8
370
    25
100
AcDbLine
 10
7793.0793242921
 20
7397.0639859524
 30
0.0
 11
7793.0793242921
 21
7395.0639818993
 31
0.0
  0
ENDSEC
  0
SECTION
  2
OBJECTS
  0
DICTIONARY
  5
C
330
0
100
AcDbDictionary
281
     1
  3
ACAD_GROUP
350
D
  3
ACAD_LAYOUT
350
1A
  3
ACAD_MLINESTYLE
350
17
  3
ACAD_PLOTSETTINGS
350
19
  3
ACAD_PLOTSTYLENAME
350
E
  3
ACAD_SCALELIST
350
47
  0
DICTIONARY
  5
D
102
{ACAD_REACTORS
330
C
102
}
330
C
100
AcDbDictionary
281
     1
  0
DICTIONARY
  5
1A
102
{ACAD_REACTORS
330
C
102
}
330
C
100
AcDbDictionary
281
     1
  3
Layout1
350
1E
  3
Layout2
350
26
  3
Model
350
22
  0
DICTIONARY
  5
17
102
{ACAD_REACTORS
330
C
102
}
330
C
100
AcDbDictionary
281
     1
  3
Standard
350
18
  0
DICTIONARY
  5
19
102
{ACAD_REACTORS
330
C
102
}
330
C
100
AcDbDictionary
281
     1
  0
ACDBDICTIONARYWDFLT
  5
E
102
{ACAD_REACTORS
330
C
102
}
330
C
100
AcDbDictionary
281
     1
  3
Normal
350
F
100
AcDbDictionaryWithDefault
340
F
  0
DICTIONARY
  5
47
102
{ACAD_REACTORS
330
C
102
}
330
C
100
AcDbDictionary
281
     1
  3
A0
350
48
  3
A1
350
49
  3
A2
350
4A
  3
A3
350
4B
  3
A4
350
4C
  3
A5
350
4D
  3
A6
350
4E
  3
A7
350
4F
  3
A8
350
50
  3
A9
350
51
  3
B0
350
52
  3
B1
350
53
  3
B2
350
54
  3
B3
350
55
  3
B4
350
56
  3
B5
350
57
  3
B6
350
58
  3
B7
350
59
  3
B8
350
5A
  3
B9
350
5B
  3
C0
350
5C
  3
C1
350
5D
  3
C2
350
5E
  3
C3
350
5F
  3
C4
350
60
  3
C5
350
61
  3
C6
350
62
  3
C7
350
63
  3
C8
350
64
  3
C9
350
65
  3
D0
350
66
  3
D1
350
67
  3
D2
350
68
  0
LAYOUT
  5
1E
102
{ACAD_REACTORS
330
1A
102
}
330
1A
100
AcDbPlotSettings
  1

  2
none_device
  4

  6

 40
0.0
 41
0.0
 42
0.0
 43
0.0
 44
0.0
 45
0.0
 46
0.0
 47
0.0
 48
0.0
 49
0.0
140
0.0
141
0.0
142
1.0
143
1.0
 70
   688
 72
     1
 73
     0
 74
     5
  7

 75
    16
147
1.0
148
0.0
149
0.0
100
AcDbLayout
  1
Layout1
 70
     1
 71
     1
 10
0.0
 20
0.0
 11
420.0
 21
297.0
 12
0.0
 22
0.0
 32
0.0
 14
1.0000000000E+20
 24
1.0000000000E+20
 34
1.0000000000E+20
 15
-1.0000000000E+20
 25
-1.0000000000E+20
 35
-1.0000000000E+20
146
0.0
 13
0.0
 23
0.0
 33
0.0
 16
1.0
 26
0.0
 36
0.0
 17
0.0
 27
1.0
 37
0.0
 76
     0
330
1B
  0
LAYOUT
  5
26
102
{ACAD_REACTORS
330
1A
102
}
330
1A
100
AcDbPlotSettings
  1

  2
none_device
  4

  6

 40
0.0
 41
0.0
 42
0.0
 43
0.0
 44
0.0
 45
0.0
 46
0.0
 47
0.0
 48
0.0
 49
0.0
140
0.0
141
0.0
142
1.0
143
1.0
 70
   688
 72
     1
 73
     0
 74
     5
  7

 75
    16
147
1.0
148
0.0
149
0.0
100
AcDbLayout
  1
Layout2
 70
     1
 71
     2
 10
0.0
 20
0.0
 11
0.0
 21
0.0
 12
0.0
 22
0.0
 32
0.0
 14
0.0
 24
0.0
 34
0.0
 15
0.0
 25
0.0
 35
0.0
146
0.0
 13
0.0
 23
0.0
 33
0.0
 16
1.0
 26
0.0
 36
0.0
 17
0.0
 27
1.0
 37
0.0
 76
     0
330
23
  0
LAYOUT
  5
22
102
{ACAD_REACTORS
330
1A
102
}
330
1A
100
AcDbPlotSettings
  1

  2
none_device
  4
Letter_(8.50_x_11.00_Inches)
  6

 40
6.35
 41
6.35
 42
6.35000508
 43
6.35000508
 44
215.9
 45
279.4
 46
0.0
 47
0.0
 48
0.0
 49
0.0
140
0.0
141
0.0
142
1.0
143
1.0
 70
  1712
 72
     1
 73
     0
 74
     0
  7

 75
     0
147
1.0
148
0.0
149
0.0
100
AcDbLayout
  1
Model
 70
     1
 71
     0
 10
0.0
 20
0.0
 11
20000.0
 21
10000.0
 12
0.0
 22
0.0
 32
0.0
 14
0.0
 24
0.0
 34
0.0
 15
20000.0
 25
10000.0
 35
0.0
146
0.0
 13
0.0
 23
0.0
 33
0.0
 16
1.0
 26
0.0
 36
0.0
 17
0.0
 27
1.0
 37
0.0
 76
     0
330
1F
331
29
  0
MLINESTYLE
  5
18
102
{ACAD_REACTORS
330
17
102
}
330
17
100
AcDbMlineStyle
  2
Standard
 70
     0
  3

 62
   256
 51
90.0
 52
90.0
 71
     2
 49
0.5
 62
   256
  6
BYLAYER
 49
-0.5
 62
   256
  6
BYLAYER
  0
ACDBPLACEHOLDER
  5
F
102
{ACAD_REACTORS
330
E
102
}
330
E
  0
SCALE
  5
48
102
{ACAD_REACTORS
330
47
102
}
330
47
100
AcDbScale
 70
     0
300
1:1
140
1.0
141
1.0
290
     1
  0
SCALE
  5
49
102
{ACAD_REACTORS
330
47
102
}
330
47
100
AcDbScale
 70
     0
300
1:2
140
1.0
141
2.0
290
     0
  0
SCALE
  5
4A
102
{ACAD_REACTORS
330
47
102
}
330
47
100
AcDbScale
 70
     0
300
1:4
140
1.0
141
4.0
290
     0
  0
SCALE
  5
4B
102
{ACAD_REACTORS
330
47
102
}
330
47
100
AcDbScale
 70
     0
300
1:5
140
1.0
141
5.0
290
     0
  0
SCALE
  5
4C
102
{ACAD_REACTORS
330
47
102
}
330
47
100
AcDbScale
 70
     0
300
1:8
140
1.0
141
8.0
290
     0
  0
SCALE
  5
4D
102
{ACAD_REACTORS
330
47
102
}
330
47
100
AcDbScale
 70
     0
300
1:10
140
1.0
141
10.0
290
     0
  0
SCALE
  5
4E
102
{ACAD_REACTORS
330
47
102
}
330
47
100
AcDbScale
 70
     0
300
1:16
140
1.0
141
16.0
290
     0
  0
SCALE
  5
4F
102
{ACAD_REACTORS
330
47
102
}
330
47
100
AcDbScale
 70
     0
300
1:20
140
1.0
141
20.0
290
     0
  0
SCALE
  5
50
102
{ACAD_REACTORS
330
47
102
}
330
47
100
AcDbScale
 70
     0
300
1:30
140
1.0
141
30.0
290
     0
  0
SCALE
  5
51
102
{ACAD_REACTORS
330
47
102
}
330
47
100
AcDbScale
 70
     0
300
1:40
140
1.0
141
40.0
290
     0
  0
SCALE
  5
52
102
{ACAD_REACTORS
330
47
102
}
330
47
100
AcDbScale
 70
     0
300
1:50
140
1.0
141
50.0
290
     0
  0
SCALE
  5
53
102
{ACAD_REACTORS
330
47
102
}
330
47
100
AcDbScale
 70
     0
300
1:100
140
1.0
141
100.0
290
     0
  0
SCALE
  5
54
102
{ACAD_REACTORS
330
47
102
}
330
47
100
AcDbScale
 70
     0
300
2:1
140
2.0
141
1.0
290
     0
  0
SCALE
  5
55
102
{ACAD_REACTORS
330
47
102
}
330
47
100
AcDbScale
 70
     0
300
4:1
140
4.0
141
1.0
290
     0
  0
SCALE
  5
56
102
{ACAD_REACTORS
330
47
102
}
330
47
100
AcDbScale
 70
     0
300
8:1
140
8.0
141
1.0
290
     0
  0
SCALE
  5
57
102
{ACAD_REACTORS
330
47
102
}
330
47
100
AcDbScale
 70
     0
300
10:1
140
10.0
141
1.0
290
     0
  0
SCALE
  5
58
102
{ACAD_REACTORS
330
47
102
}
330
47
100
AcDbScale
 70
     0
300
100:1
140
100.0
141
1.0
290
     0
  0
SCALE
  5
59
102
{ACAD_REACTORS
330
47
102
}
330
47
100
AcDbScale
 70
     0
300
1/128" = 1'-0"
140
0.0078125
141
12.0
290
     0
  0
SCALE
  5
5A
102
{ACAD_REACTORS
330
47
102
}
330
47
100
AcDbScale
 70
     0
300
1/64" = 1'-0"
140
0.015625
141
12.0
290
     0
  0
SCALE
  5
5B
102
{ACAD_REACTORS
330
47
102
}
330
47
100
AcDbScale
 70
     0
300
1/32" = 1'-0"
140
0.03125
141
12.0
290
     0
  0
SCALE
  5
5C
102
{ACAD_REACTORS
330
47
102
}
330
47
100
AcDbScale
 70
     0
300
1/16" = 1'-0"
140
0.0625
141
12.0
290
     0
  0
SCALE
  5
5D
102
{ACAD_REACTORS
330
47
102
}
330
47
100
AcDbScale
 70
     0
300
3/32" = 1'-0"
140
0.09375
141
12.0
290
     0
  0
SCALE
  5
5E
102
{ACAD_REACTORS
330
47
102
}
330
47
100
AcDbScale
 70
     0
300
1/8" = 1'-0"
140
0.125
141
12.0
290
     0
  0
SCALE
  5
5F
102
{ACAD_REACTORS
330
47
102
}
330
47
100
AcDbScale
 70
     0
300
3/16" = 1'-0"
140
0.1875
141
12.0
290
     0
  0
SCALE
  5
60
102
{ACAD_REACTORS
330
47
102
}
330
47
100
AcDbScale
 70
     0
300
1/4" = 1'-0"
140
0.25
141
12.0
290
     0
  0
SCALE
  5
61
102
{ACAD_REACTORS
330
47
102
}
330
47
100
AcDbScale
 70
     0
300
3/8" = 1'-0"
140
0.375
141
12.0
290
     0
  0
SCALE
  5
62
102
{ACAD_REACTORS
330
47
102
}
330
47
100
AcDbScale
 70
     0
300
1/2" = 1'-0"
140
0.5
141
12.0
290
     0
  0
SCALE
  5
63
102
{ACAD_REACTORS
330
47
102
}
330
47
100
AcDbScale
 70
     0
300
3/4" = 1'-0"
140
0.75
141
12.0
290
     0
  0
SCALE
  5
64
102
{ACAD_REACTORS
330
47
102
}
330
47
100
AcDbScale
 70
     0
300
1" = 1'-0"
140
1.0
141
12.0
290
     0
  0
SCALE
  5
65
102
{ACAD_REACTORS
330
47
102
}
330
47
100
AcDbScale
 70
     0
300
1-1/2" = 1'-0"
140
1.5
141
12.0
290
     0
  0
SCALE
  5
66
102
{ACAD_REACTORS
330
47
102
}
330
47
100
AcDbScale
 70
     0
300
3" = 1'-0"
140
3.0
141
12.0
290
     0
  0
SCALE
  5
67
102
{ACAD_REACTORS
330
47
102
}
330
47
100
AcDbScale
 70
     0
300
6" = 1'-0"
140
6.0
141
12.0
290
     0
  0
SCALE
  5
68
102
{ACAD_REACTORS
330
47
102
}
330
47
100
AcDbScale
 70
     0
300
1'-0" = 1'-0"
140
12.0
141
12.0
290
     0
  0
ENDSEC
  0
EOF
