  0
SECTION
  2
HEADER
  9
$ACADVER
  1
AC1015
  9
$ACADMAINTVER
 70
     6
  9
$DWGCODEPAGE
  3
ANSI_1250
  9
$INSBASE
 10
0.0
 20
0.0
 30
0.0
  9
$EXTMIN
 10
0.0
 20
0.0
 30
0.0
  9
$EXTMAX
 10
20000.0
 20
10000.0
 30
0.0
  9
$LIMMIN
 10
0.0
 20
0.0
  9
$LIMMAX
 10
20000.0
 20
10000.0
  9
$ORTHOMODE
 70
     0
  9
$REGENMODE
 70
     1
  9
$FILLMODE
 70
     1
  9
$QTEXTMODE
 70
     0
  9
$MIRRTEXT
 70
     1
  9
$LTSCALE
 40
1.0
  9
$ATTMODE
 70
     1
  9
$TEXTSIZE
 40
2.0
  9
$TRACEWID
 40
1.0
  9
$TEXTSTYLE
  7
Standard
  9
$CLAYER
  8
0
  9
$CELTYPE
  6
ByLayer
  9
$CECOLOR
 62
   256
  9
$CELTSCALE
 40
1.0
  9
$DISPSILH
 70
     0
  9
$DIMSCALE
 40
1.0
  9
$DIMASZ
 40
2.0
  9
$DIMEXO
 40
1.0
  9
$DIMDLI
 40
3.75
  9
$DIMRND
 40
0.0
  9
$DIMDLE
 40
0.0
  9
$DIMEXE
 40
1.0
  9
$DIMTP
 40
0.0
  9
$DIMTM
 40
0.0
  9
$DIMTXT
 40
2.0
  9
$DIMCEN
 40
2.5
  9
$DIMTSZ
 40
0.0
  9
$DIMTOL
 70
     0
  9
$DIMLIM
 70
     0
  9
$DIMTIH
 70
     1
  9
$DIMTOH
 70
     1
  9
$DIMSE1
 70
     0
  9
$DIMSE2
 70
     0
  9
$DIMTAD
 70
     1
  9
$DIMZIN
 70
     0
  9
$DIMBLK
  1

  9
$DIMASO
 70
     1
  9
$DIMSHO
 70
     1
  9
$DIMPOST
  1

  9
$DIMAPOST
  1

  9
$DIMALT
 70
     0
  9
$DIMALTD
 70
     3
  9
$DIMALTF
 40
0.0393700787
  9
$DIMLFAC
 40
1.0
  9
$DIMTOFL
 70
     1
  9
$DIMTVP
 40
0.0
  9
$DIMTIX
 70
     0
  9
$DIMSOXD
 70
     0
  9
$DIMSAH
 70
     0
  9
$DIMBLK1
  1

  9
$DIMBLK2
  1

  9
$DIMSTYLE
  2
ISO-25
  9
$DIMCLRD
 70
     0
  9
$DIMCLRE
 70
     0
  9
$DIMCLRT
 70
     0
  9
$DIMTFAC
 40
1.0
  9
$DIMGAP
 40
1.524
  9
$DIMJUST
 70
     0
  9
$DIMSD1
 70
     0
  9
$DIMSD2
 70
     0
  9
$DIMTOLJ
 70
     0
  9
$DIMTZIN
 70
     0
  9
$DIMALTZ
 70
     0
  9
$DIMALTTZ
 70
     0
  9
$DIMUPT
 70
     0
  9
$DIMDEC
 70
     2
  9
$DIMTDEC
 70
     0
  9
$DIMALTU
 70
     2
  9
$DIMALTTD
 70
     3
  9
$DIMTXSTY
  7
Standard
  9
$DIMAUNIT
 70
     0
  9
$DIMADEC
 70
     2
  9
$DIMALTRND
 40
0.0
  9
$DIMAZIN
 70
     0
  9
$DIMDSEP
 70
    44
  9
$DIMATFIT
 70
     3
  9
$DIMFRAC
 70
     0
  9
$DIMLDRBLK
  1

  9
$DIMLUNIT
 70
     2
  9
$DIMLWD
 70
    -2
  9
$DIMLWE
 70
    -2
  9
$DIMTMOVE
 70
     0
  9
$LUNITS
 70
     2
  9
$LUPREC
 70
     3
  9
$SKETCHINC
 40
1.0
  9
$FILLETRAD
 40
10.0
  9
$AUNITS
 70
     0
  9
$AUPREC
 70
     2
  9
$MENU
  1
.
  9
$ELEVATION
 40
0.0
  9
$PELEVATION
 40
0.0
  9
$THICKNESS
 40
0.0
  9
$LIMCHECK
 70
     0
  9
$CHAMFERA
 40
0.0
  9
$CHAMFERB
 40
0.0
  9
$CHAMFERC
 40
0.0
  9
$CHAMFERD
 40
0.0
  9
$SKPOLY
 70
     0
  9
$TDCREATE
 40
2458677.469631389
  9
$TDUCREATE
 40
2458677.386298056
  9
$TDUPDATE
 40
2458677.469631632
  9
$TDUUPDATE
 40
2458677.386298299
  9
$TDINDWG
 40
0.0000000116
  9
$TDUSRTIMER
 40
0.0000000116
  9
$USRTIMER
 70
     1
  9
$ANGBASE
 50
0.0
  9
$ANGDIR
 70
     0
  9
$PDMODE
 70
     0
  9
$PDSIZE
 40
-1.0
  9
$PLINEWID
 40
0.0
  9
$SPLFRAME
 70
     0
  9
$SPLINETYPE
 70
     6
  9
$SPLINESEGS
 70
     8
  9
$HANDSEED
  5
192
  9
$SURFTAB1
 70
     6
  9
$SURFTAB2
 70
     6
  9
$SURFTYPE
 70
     6
  9
$SURFU
 70
     6
  9
$SURFV
 70
     6
  9
$UCSBASE
  2

  9
$UCSNAME
  2

  9
$UCSORG
 10
0.0
 20
0.0
 30
0.0
  9
$UCSXDIR
 10
1.0
 20
0.0
 30
0.0
  9
$UCSYDIR
 10
0.0
 20
1.0
 30
0.0
  9
$UCSORTHOREF
  2

  9
$UCSORTHOVIEW
 70
     0
  9
$UCSORGTOP
 10
0.0
 20
0.0
 30
0.0
  9
$UCSORGBOTTOM
 10
0.0
 20
0.0
 30
0.0
  9
$UCSORGLEFT
 10
0.0
 20
0.0
 30
0.0
  9
$UCSORGRIGHT
 10
0.0
 20
0.0
 30
0.0
  9
$UCSORGFRONT
 10
0.0
 20
0.0
 30
0.0
  9
$UCSORGBACK
 10
0.0
 20
0.0
 30
0.0
  9
$PUCSBASE
  2

  9
$PUCSNAME
  2

  9
$PUCSORG
 10
0.0
 20
0.0
 30
0.0
  9
$PUCSXDIR
 10
1.0
 20
0.0
 30
0.0
  9
$PUCSYDIR
 10
0.0
 20
1.0
 30
0.0
  9
$PUCSORTHOREF
  2

  9
$PUCSORTHOVIEW
 70
     0
  9
$PUCSORGTOP
 10
0.0
 20
0.0
 30
0.0
  9
$PUCSORGBOTTOM
 10
0.0
 20
0.0
 30
0.0
  9
$PUCSORGLEFT
 10
0.0
 20
0.0
 30
0.0
  9
$PUCSORGRIGHT
 10
0.0
 20
0.0
 30
0.0
  9
$PUCSORGFRONT
 10
0.0
 20
0.0
 30
0.0
  9
$PUCSORGBACK
 10
0.0
 20
0.0
 30
0.0
  9
$USERI1
 70
     0
  9
$USERI2
 70
     0
  9
$USERI3
 70
     0
  9
$USERI4
 70
     0
  9
$USERI5
 70
     0
  9
$USERR1
 40
0.0
  9
$USERR2
 40
0.0
  9
$USERR3
 40
0.0
  9
$USERR4
 40
0.0
  9
$USERR5
 40
0.0
  9
$WORLDVIEW
 70
     1
  9
$SHADEDGE
 70
     3
  9
$SHADEDIF
 70
    70
  9
$TILEMODE
 70
     1
  9
$MAXACTVP
 70
    64
  9
$PINSBASE
 10
0.0
 20
0.0
 30
0.0
  9
$PLIMCHECK
 70
     0
  9
$PEXTMIN
 10
1.0000000000E+20
 20
1.0000000000E+20
 30
1.0000000000E+20
  9
$PEXTMAX
 10
-1.0000000000E+20
 20
-1.0000000000E+20
 30
-1.0000000000E+20
  9
$PLIMMIN
 10
0.0
 20
0.0
  9
$PLIMMAX
 10
420.0
 20
297.0
  9
$UNITMODE
 70
     0
  9
$VISRETAIN
 70
     1
  9
$PLINEGEN
 70
     0
  9
$PSLTSCALE
 70
     1
  9
$TREEDEPTH
 70
  3020
  9
$CMLSTYLE
  2
Standard
  9
$CMLJUST
 70
     0
  9
$CMLSCALE
 40
20.0
  9
$PROXYGRAPHICS
 70
     1
  9
$MEASUREMENT
 70
     1
  9
$CELWEIGHT
370
    -1
  9
$ENDCAPS
280
     0
  9
$JOINSTYLE
280
     0
  9
$LWDISPLAY
290
     1
  9
$INSUNITS
 70
     4
  9
$HYPERLINKBASE
  1

  9
$STYLESHEET
  1

  9
$XEDIT
290
     1
  9
$CEPSNTYPE
380
     0
  9
$PSTYLEMODE
290
     1
  9
$FINGERPRINTGUID
  2
{1F0C0B37-AAAD-437F-A272-DE747F3D2140}
  9
$VERSIONGUID
  2
{FAEB1C32-E019-11D5-929B-00C0DF256EC4}
  9
$EXTNAMES
290
     1
  9
$PSVPSCALE
 40
0.0
  9
$OLESTARTUP
290
     0
  0
ENDSEC
  0
SECTION
  2
CLASSES
  0
CLASS
  1
ACDBDICTIONARYWDFLT
  2
AcDbDictionaryWithDefault
  3
ObjectDBX Classes
 90
        0
280
     0
281
     0
  0
CLASS
  1
VISUALSTYLE
  2
AcDbVisualStyle
  3
ObjectDBX Classes
 90
     4095
280
     0
281
     0
  0
CLASS
  1
MATERIAL
  2
AcDbMaterial
  3
ObjectDBX Classes
 90
     1153
280
     0
281
     0
  0
CLASS
  1
SCALE
  2
AcDbScale
  3
ObjectDBX Classes
 90
     1153
280
     0
281
     0
  0
CLASS
  1
TABLESTYLE
  2
AcDbTableStyle
  3
ObjectDBX Classes
 90
     4095
280
     0
281
     0
  0
CLASS
  1
MLEADERSTYLE
  2
AcDbMLeaderStyle
  3
ACDB_MLEADERSTYLE_CLASS
 90
     4095
280
     0
281
     0
  0
CLASS
  1
SUN
  2
AcDbSun
  3
SCENEOE
 90
     1153
280
     0
281
     0
  0
CLASS
  1
ACDBPLACEHOLDER
  2
AcDbPlaceHolder
  3
ObjectDBX Classes
 90
        0
280
     0
281
     0
  0
CLASS
  1
LAYOUT
  2
AcDbLayout
  3
ObjectDBX Classes
 90
        0
280
     0
281
     0
  0
ENDSEC
  0
SECTION
  2
TABLES
  0
TABLE
  2
VPORT
  5
8
330
0
100
AcDbSymbolTable
 70
     1
  0
VPORT
  5
29
330
8
100
AcDbSymbolTableRecord
100
AcDbViewportTableRecord
  2
*Active
 70
     0
 10
0.0
 20
0.0
 11
1.0
 21
1.0
 12
10000.0
 22
5000.0
 13
0.0
 23
0.0
 14
10.0
 24
10.0
 15
10.0
 25
10.0
 16
0.0
 26
0.0
 36
1.0
 17
0.0
 27
0.0
 37
0.0
 40
10000.0
 41
2.0
 42
50.0
 43
0.0
 44
0.0
 50
0.0
 51
0.0
 71
     0
 72
  2000
 73
     1
 74
     3
 75
     0
 76
     0
 77
     0
 78
     0
281
     0
 65
     1
110
0.0
120
0.0
130
0.0
111
1.0
121
0.0
131
0.0
112
0.0
122
1.0
132
0.0
 79
     0
146
0.0
  0
ENDTAB
  0
TABLE
  2
LTYPE
  5
5
330
0
100
AcDbSymbolTable
 70
     6
  0
LTYPE
  5
14
330
5
100
AcDbSymbolTableRecord
100
AcDbLinetypeTableRecord
  2
ByBlock
 70
     0
  3

 72
    65
 73
     0
 40
0.0
  0
LTYPE
  5
15
330
5
100
AcDbSymbolTableRecord
100
AcDbLinetypeTableRecord
  2
ByLayer
 70
     0
  3

 72
    65
 73
     0
 40
0.0
  0
LTYPE
  5
16
330
5
100
AcDbSymbolTableRecord
100
AcDbLinetypeTableRecord
  2
Continuous
 70
     0
  3
Solid line
 72
    65
 73
     0
 40
0.0
  0
LTYPE
  5
6E
330
5
100
AcDbSymbolTableRecord
100
AcDbLinetypeTableRecord
  2
HIDDEN
 70
     0
  3
Hidden __ __ __ __ __ __ __ __ __ __ __ __ __ __
 72
    65
 73
     2
 40
1.905
 49
1.27
 74
     0
 49
-0.635
 74
     0
  0
LTYPE
  5
6F
330
5
100
AcDbSymbolTableRecord
100
AcDbLinetypeTableRecord
  2
PHANTOM
 70
     0
  3
Phantom ______  __  __  ______  __  __  ______
 72
    65
 73
     6
 40
12.7
 49
6.35
 74
     0
 49
-1.27
 74
     0
 49
1.27
 74
     0
 49
-1.27
 74
     0
 49
1.27
 74
     0
 49
-1.27
 74
     0
  0
LTYPE
  5
70
330
5
100
AcDbSymbolTableRecord
100
AcDbLinetypeTableRecord
  2
CENTER
 70
     0
  3
Center ____ _ ____ _ ____ _ ____ _ ____ _ ____
 72
    65
 73
     4
 40
10.16
 49
6.35
 74
     0
 49
-1.27
 74
     0
 49
1.27
 74
     0
 49
-1.27
 74
     0
  0
LTYPE
  5
71
330
5
100
AcDbSymbolTableRecord
100
AcDbLinetypeTableRecord
  2
CENTERX2
 70
     0
  3
Center (2x) ________  __  ________  __  _____
 72
    65
 73
     4
 40
20.32
 49
12.7
 74
     0
 49
-2.54
 74
     0
 49
2.54
 74
     0
 49
-2.54
 74
     0
  0
LTYPE
  5
72
330
5
100
AcDbSymbolTableRecord
100
AcDbLinetypeTableRecord
  2
DOT2
 70
     0
  3
Dot (.5x) ........................................
 72
    65
 73
     2
 40
0.635
 49
0.0
 74
     0
 49
-0.635
 74
     0
  0
ENDTAB
  0
TABLE
  2
LAYER
  5
2
330
0
100
AcDbSymbolTable
 70
    13
  0
LAYER
  5
10
330
2
100
AcDbSymbolTableRecord
100
AcDbLayerTableRecord
  2
0
 70
     0
 62
     7
  6
Continuous
370
    -3
390
F
  0
LAYER
  5
73
330
2
100
AcDbSymbolTableRecord
100
AcDbLayerTableRecord
  2
FORMAT
 70
     0
 62
     7
  6
Continuous
370
    -3
390
F
  0
LAYER
  5
74
330
2
100
AcDbSymbolTableRecord
100
AcDbLayerTableRecord
  2
OSA
 70
     0
 62
     7
  6
CENTER
370
    -3
390
F
  0
LAYER
  5
75
330
2
100
AcDbSymbolTableRecord
100
AcDbLayerTableRecord
  2
0_35
 70
     0
 62
     7
  6
Continuous
370
    35
390
F
  0
LAYER
  5
76
330
2
100
AcDbSymbolTableRecord
100
AcDbLayerTableRecord
  2
0_5
 70
     0
 62
     7
  6
Continuous
370
    50
390
F
  0
LAYER
  5
77
330
2
100
AcDbSymbolTableRecord
100
AcDbLayerTableRecord
  2
0_25
 70
     0
 62
     7
  6
Continuous
370
    25
390
F
  0
LAYER
  5
78
330
2
100
AcDbSymbolTableRecord
100
AcDbLayerTableRecord
  2
0_18
 70
     0
 62
     7
  6
Continuous
370
    -3
390
F
  0
LAYER
  5
79
330
2
100
AcDbSymbolTableRecord
100
AcDbLayerTableRecord
  2
SLD-0
 70
     0
 62
   179
  6
Continuous
370
    -3
390
F
  0
LAYER
  5
7A
330
2
100
AcDbSymbolTableRecord
100
AcDbLayerTableRecord
  2
KOTY
 70
     0
 62
     7
  6
Continuous
370
    -3
390
F
  0
LAYER
  5
7B
330
2
100
AcDbSymbolTableRecord
100
AcDbLayerTableRecord
  2
SILNA
 70
     0
 62
   179
  6
Continuous
370
    -3
390
F
  0
LAYER
  5
7C
330
2
100
AcDbSymbolTableRecord
100
AcDbLayerTableRecord
  2
0_18_1
 70
     0
 62
   179
  6
Continuous
370
    -3
390
F
  0
LAYER
  5
7D
330
2
100
AcDbSymbolTableRecord
100
AcDbLayerTableRecord
  2
0_35_1
 70
     0
 62
   179
  6
Continuous
370
    35
390
F
  0
LAYER
  5
7E
330
2
100
AcDbSymbolTableRecord
100
AcDbLayerTableRecord
  2
0_5_1
 70
     0
 62
   179
  6
Continuous
370
    50
390
F
  0
ENDTAB
  0
TABLE
  2
STYLE
  5
3
330
0
100
AcDbSymbolTable
 70
     1
  0
STYLE
  5
11
330
3
100
AcDbSymbolTableRecord
100
AcDbTextStyleTableRecord
  2
Standard
 70
     0
 40
0.0
 41
1.0
 50
0.0
 71
     0
 42
2.0
  3
txt
  4

  0
ENDTAB
  0
TABLE
  2
VIEW
  5
6
330
0
100
AcDbSymbolTable
 70
     0
  0
ENDTAB
  0
TABLE
  2
UCS
  5
7
330
0
100
AcDbSymbolTable
 70
     0
  0
ENDTAB
  0
TABLE
  2
APPID
  5
9
330
0
100
AcDbSymbolTable
 70
     1
  0
APPID
  5
12
330
9
100
AcDbSymbolTableRecord
100
AcDbRegAppTableRecord
  2
ACAD
 70
     0
  0
ENDTAB
  0
TABLE
  2
DIMSTYLE
  5
A
330
0
100
AcDbSymbolTable
 70
     1
100
AcDbDimStyleTable
  0
DIMSTYLE
105
27
330
A
100
AcDbSymbolTableRecord
100
AcDbDimStyleTableRecord
  2
ISO-25
 70
     0
 41
2.5
 42
0.625
 43
3.75
 44
1.25
 73
     0
 74
     0
 77
     1
 78
     8
140
2.5
141
2.5
143
0.0393700787
147
0.625
171
     3
172
     1
178
     0
271
     2
272
     2
274
     3
278
    44
283
     0
284
     8
340
11
  0
ENDTAB
  0
TABLE
  2
BLOCK_RECORD
  5
1
330
0
100
AcDbSymbolTable
 70
     1
  0
BLOCK_RECORD
  5
1F
330
1
100
AcDbSymbolTableRecord
100
AcDbBlockTableRecord
  2
*Model_Space
340
22
  0
BLOCK_RECORD
  5
1B
330
1
100
AcDbSymbolTableRecord
100
AcDbBlockTableRecord
  2
*Paper_Space
340
1E
  0
BLOCK_RECORD
  5
23
330
1
100
AcDbSymbolTableRecord
100
AcDbBlockTableRecord
  2
*Paper_Space0
340
26
  0
ENDTAB
  0
ENDSEC
  0
SECTION
  2
BLOCKS
  0
BLOCK
  5
20
330
1F
100
AcDbEntity
  8
0
100
AcDbBlockBegin
  2
*Model_Space
 70
     0
 10
0.0
 20
0.0
 30
0.0
  3
*Model_Space
  1

  0
ENDBLK
  5
21
330
1F
100
AcDbEntity
  8
0
100
AcDbBlockEnd
  0
BLOCK
  5
1C
330
1B
100
AcDbEntity
 67
     1
  8
0
100
AcDbBlockBegin
  2
*Paper_Space
 70
     0
 10
0.0
 20
0.0
 30
0.0
  3
*Paper_Space
  1

  0
ENDBLK
  5
1D
330
1B
100
AcDbEntity
 67
     1
  8
0
100
AcDbBlockEnd
  0
BLOCK
  5
24
330
23
100
AcDbEntity
  8
0
100
AcDbBlockBegin
  2
*Paper_Space0
 70
     0
 10
0.0
 20
0.0
 30
0.0
  3
*Paper_Space0
  1

  0
ENDBLK
  5
25
330
23
100
AcDbEntity
  8
0
100
AcDbBlockEnd
  0
ENDSEC
  0
SECTION
  2
ENTITIES
  0
LINE
  5
7F
330
1F
100
AcDbEntity
  8
0
  6
Continuous
 62
     7
370
    25
100
AcDbLine
 10
6212.8327836048
 20
5244.1166245827
 30
0.0
 11
6215.8327836048
 21
5237.1166245827
 31
0.0
  0
LINE
  5
80
330
1F
100
AcDbEntity
  8
0
  6
Continuous
 62
     7
370
    25
100
AcDbLine
 10
6279.8327836048
 20
5237.1166245827
 30
0.0
 11
6282.8327836048
 21
5244.1166245827
 31
0.0
  0
LINE
  5
81
330
1F
100
AcDbEntity
  8
0
  6
Continuous
 62
     7
370
    25
100
AcDbLine
 10
6215.8327836048
 20
5237.1166245827
 30
0.0
 11
6220.3437445303
 21
5232.6056636572
 31
0.0
  0
LINE
  5
82
330
1F
100
AcDbEntity
  8
0
  6
Continuous
 62
     7
370
    25
100
AcDbLine
 10
6274.3327836048
 20
5231.6166245827
 30
0.0
 11
6279.8327836048
 21
5237.1166245827
 31
0.0
  0
LINE
  5
83
330
1F
100
AcDbEntity
  8
0
  6
Continuous
 62
     7
370
    25
100
AcDbLine
 10
6218.3327836048
 20
5207.1166245827
 30
0.0
 11
6218.3327836048
 21
5204.1166245827
 31
0.0
  0
LINE
  5
84
330
1F
100
AcDbEntity
  8
0
  6
Continuous
 62
     7
370
    25
100
AcDbLine
 10
6277.3327836048
 20
5204.1166245827
 30
0.0
 11
6277.3327836048
 21
5207.1166245827
 31
0.0
  0
LINE
  5
85
330
1F
100
AcDbEntity
  8
0
  6
Continuous
 62
     7
370
    25
100
AcDbLine
 10
6221.3327836048
 20
5207.6545902953
 30
0.0
 11
6221.3327836048
 21
5207.1166245827
 31
0.0
  0
LINE
  5
86
330
1F
100
AcDbEntity
  8
0
  6
Continuous
 62
     7
370
    25
100
AcDbLine
 10
6274.3327836048
 20
5207.1166245827
 30
0.0
 11
6274.3327836048
 21
5231.6166245827
 31
0.0
  0
LINE
  5
87
330
1F
100
AcDbEntity
  8
0
  6
Continuous
 62
     7
370
    25
100
AcDbLine
 10
6078.1927240758
 20
5343.9300764559
 30
0.0
 11
6081.0118019382
 21
5344.9561368858
 31
0.0
  0
LINE
  5
88
330
1F
100
AcDbEntity
  8
0
  6
Continuous
 62
     7
370
    25
100
AcDbLine
 10
6075.7571247147
 20
5346.2361241032
 30
0.0
 11
6078.1927240758
 21
5343.9300764559
 31
0.0
  0
LINE
  5
89
330
1F
100
AcDbEntity
  8
0
  6
Continuous
 62
     7
370
    25
100
AcDbLine
 10
6073.4078931627
 20
5345.3810737449
 30
0.0
 11
6075.7571247147
 21
5346.2361241032
 31
0.0
  0
LINE
  5
8A
330
1F
100
AcDbEntity
  8
0
  6
Continuous
 62
     7
370
    25
100
AcDbLine
 10
6062.6674847906
 20
5379.7822846027
 30
0.0
 11
6061.095168003
 21
5379.2100080932
 31
0.0
  0
LINE
  5
8B
330
1F
100
AcDbEntity
  8
0
  6
Continuous
 62
     7
370
    25
100
AcDbLine
 10
6059.3194060378
 20
5316.8413727911
 30
0.0
 11
6088.8958472214
 21
5235.5807684914
 31
0.0
  0
LINE
  5
8C
330
1F
100
AcDbEntity
  8
0
  6
Continuous
 62
     7
370
    25
100
AcDbLine
 10
6112.388162741
 20
5244.1312720745
 30
0.0
 11
6082.8117215574
 21
5325.3918763743
 31
0.0
  0
ARC
  5
8D
330
1F
100
AcDbEntity
  8
0
  6
Continuous
 62
     7
370
    25
100
AcDbCircle
 10
6128.8327836048
 20
5250.1166245827
 30
0.0
 40
17.50000000000136
100
AcDbArc
 50
200.0
 51
270.0
  0
ARC
  5
8E
330
1F
100
AcDbEntity
  8
0
  6
Continuous
 62
     7
370
    25
100
AcDbCircle
 10
6128.8327836048
 20
5250.1166245827
 30
0.0
 40
42.50000000000126
100
AcDbArc
 50
200.0
 51
270.0
  0
LINE
  5
8F
330
1F
100
AcDbEntity
  8
0
  6
Continuous
 62
     7
370
    25
100
AcDbLine
 10
6220.3456772545
 20
5232.6166245827
 30
0.0
 11
6128.8327836048
 21
5232.6166245827
 31
0.0
  0
LINE
  5
90
330
1F
100
AcDbEntity
  8
0
  6
Continuous
 62
     7
370
    25
100
AcDbLine
 10
6128.8327836048
 20
5207.6166245827
 30
0.0
 11
6221.3506705376
 21
5207.6166245827
 31
0.0
  0
LINE
  5
91
330
1F
100
AcDbEntity
  8
0
  6
Continuous
 62
     7
370
    25
100
AcDbLine
 10
6080.9323363159
 20
5324.7078360876
 30
0.0
 11
6073.4078931627
 21
5345.3810737449
 31
0.0
  0
LINE
  5
92
330
1F
100
AcDbEntity
  8
0
  6
Continuous
 62
     7
370
    25
100
AcDbLine
 10
6053.6743481262
 20
5338.1986507351
 30
0.0
 11
6061.1987912794
 21
5317.5254130778
 31
0.0
  0
ARC
  5
93
330
1F
100
AcDbEntity
  8
0
  6
Continuous
 62
     7
370
    25
100
AcDbCircle
 10
6435.8327836048
 20
5385.7822846027
 30
0.0
 40
2.0
100
AcDbArc
 50
0.0
 51
90.0
  0
ARC
  5
94
330
1F
100
AcDbEntity
  8
0
  6
Continuous
 62
     7
370
    25
100
AcDbCircle
 10
6059.8327836048
 20
5385.7822846027
 30
0.0
 40
2.0
100
AcDbArc
 50
90.0
 51
180.0
  0
LINE
  5
95
330
1F
100
AcDbEntity
  8
0
  6
Continuous
 62
     7
370
    25
100
AcDbLine
 10
6437.8327836048
 20
5379.7822846027
 30
0.0
 11
6437.8327836048
 21
5385.7822846027
 31
0.0
  0
LINE
  5
96
330
1F
100
AcDbEntity
  8
0
  6
Continuous
 62
     7
370
    25
100
AcDbLine
 10
6057.8327836048
 20
5385.7822846027
 30
0.0
 11
6057.8327836048
 21
5379.7822846027
 31
0.0
  0
ARC
  5
97
330
1F
100
AcDbEntity
  8
0
  6
Continuous
 62
     7
370
    25
100
AcDbCircle
 10
6247.8327836048
 20
5426.1618432112
 30
0.0
 40
185.3792373095733
100
AcDbArc
 50
280.8828877476
 51
345.5113952337
  0
ARC
  5
98
330
1F
100
AcDbEntity
  8
0
  6
Continuous
 62
     7
370
    25
100
AcDbCircle
 10
6247.8327836048
 20
5426.1618432112
 30
0.0
 40
185.3792373095727
100
AcDbArc
 50
205.4720526689
 51
259.1171122524
  0
LINE
  5
99
330
1F
100
AcDbEntity
  8
0
  6
Continuous
 62
     7
370
    25
100
AcDbLine
 10
6058.5486147165
 20
5365.1364139892
 30
0.0
 11
6029.5262326232
 21
5355.3950689235
 31
0.0
  0
LINE
  5
9A
330
1F
100
AcDbEntity
  8
0
  6
Continuous
 62
     7
370
    25
100
AcDbLine
 10
6031.4354517809
 20
5349.7069337099
 30
0.0
 11
6057.3293672935
 21
5358.3982108525
 31
0.0
  0
LINE
  5
9B
330
1F
100
AcDbEntity
  8
0
  6
Continuous
 62
     7
370
    25
100
AcDbLine
 10
6035.2047270674
 20
5187.6166245827
 30
0.0
 11
6020.2047270674
 21
5187.6166245827
 31
0.0
  0
LINE
  5
9C
330
1F
100
AcDbEntity
  8
0
  6
Continuous
 62
     7
370
    25
100
AcDbLine
 10
6020.2047270674
 20
5107.6166245827
 30
0.0
 11
6035.2047270674
 21
5107.6166245827
 31
0.0
  0
ARC
  5
9D
330
1F
100
AcDbEntity
  8
0
  6
Continuous
 62
     7
370
    25
100
AcDbCircle
 10
6035.2047270674
 20
5167.6166245827
 30
0.0
 40
20.00000000000091
100
AcDbArc
 50
0.0
 51
90.0
  0
ARC
  5
9E
330
1F
100
AcDbEntity
  8
0
  6
Continuous
 62
     7
370
    25
100
AcDbCircle
 10
6035.2047270674
 20
5127.6166245827
 30
0.0
 40
20.00000000000091
100
AcDbArc
 50
270.0
 51
0.0
  0
LINE
  5
9F
330
1F
100
AcDbEntity
  8
0
  6
Continuous
 62
     7
370
    25
100
AcDbLine
 10
6020.2047270674
 20
5167.6166245827
 30
0.0
 11
6010.2047270674
 21
5167.6166245827
 31
0.0
  0
LINE
  5
A0
330
1F
100
AcDbEntity
  8
0
  6
Continuous
 62
     7
370
    25
100
AcDbLine
 10
6010.2047270674
 20
5127.6166245827
 30
0.0
 11
6020.2047270674
 21
5127.6166245827
 31
0.0
  0
LINE
  5
A1
330
1F
100
AcDbEntity
  8
0
  6
Continuous
 62
     7
370
    25
100
AcDbLine
 10
6187.8327836048
 20
5167.6166245827
 30
0.0
 11
6055.2047270674
 21
5167.6166245827
 31
0.0
  0
LINE
  5
A2
330
1F
100
AcDbEntity
  8
0
  6
Continuous
 62
     7
370
    25
100
AcDbLine
 10
6055.2047270674
 20
5127.6166245827
 30
0.0
 11
6187.8327836048
 21
5127.6166245827
 31
0.0
  0
LINE
  5
A3
330
1F
100
AcDbEntity
  8
0
  6
Continuous
 62
     7
370
    25
100
AcDbLine
 10
6217.8327836048
 20
5204.1166245827
 30
0.0
 11
6219.8327836048
 21
5200.1166245827
 31
0.0
  0
LINE
  5
A4
330
1F
100
AcDbEntity
  8
0
  6
Continuous
 62
     7
370
    25
100
AcDbLine
 10
6275.8327836048
 20
5200.1166245827
 30
0.0
 11
6277.8327836048
 21
5204.1166245827
 31
0.0
  0
LINE
  5
A5
330
1F
100
AcDbEntity
  8
0
  6
Continuous
 62
     7
370
    25
100
AcDbLine
 10
6219.8327836048
 20
5200.1166245827
 30
0.0
 11
6219.8327836048
 21
5193.1166245827
 31
0.0
  0
LINE
  5
A6
330
1F
100
AcDbEntity
  8
0
  6
Continuous
 62
     7
370
    25
100
AcDbLine
 10
6275.8327836048
 20
5193.1166245827
 30
0.0
 11
6275.8327836048
 21
5200.1166245827
 31
0.0
  0
ARC
  5
A7
330
1F
100
AcDbEntity
  8
0
  6
Continuous
 62
     7
370
    25
100
AcDbCircle
 10
6222.8327836048
 20
5193.1166245827
 30
0.0
 40
3.0
100
AcDbArc
 50
180.0
 51
270.0
  0
ARC
  5
A8
330
1F
100
AcDbEntity
  8
0
  6
Continuous
 62
     7
370
    25
100
AcDbCircle
 10
6272.8327836048
 20
5193.1166245827
 30
0.0
 40
3.0
100
AcDbArc
 50
270.0
 51
0.0
  0
LINE
  5
A9
330
1F
100
AcDbEntity
  8
0
  6
Continuous
 62
     7
370
    25
100
AcDbLine
 10
6231.8327836048
 20
5190.1166245827
 30
0.0
 11
6231.8327836048
 21
5186.1166245827
 31
0.0
  0
LINE
  5
AA
330
1F
100
AcDbEntity
  8
0
  6
Continuous
 62
     7
370
    25
100
AcDbLine
 10
6231.8327836048
 20
5172.1166245827
 30
0.0
 11
6231.8327836048
 21
5169.6166245827
 31
0.0
  0
LINE
  5
AB
330
1F
100
AcDbEntity
  8
0
  6
Continuous
 62
     7
370
    25
100
AcDbLine
 10
6263.8327836048
 20
5169.6166245827
 30
0.0
 11
6263.8327836048
 21
5172.1166245827
 31
0.0
  0
LINE
  5
AC
330
1F
100
AcDbEntity
  8
0
  6
Continuous
 62
     7
370
    25
100
AcDbLine
 10
6263.8327836048
 20
5186.1166245827
 30
0.0
 11
6263.8327836048
 21
5190.1166245827
 31
0.0
  0
LINE
  5
AD
330
1F
100
AcDbEntity
  8
0
  6
Continuous
 62
     7
370
    25
100
AcDbLine
 10
6281.8327836048
 20
5109.6166245827
 30
0.0
 11
6275.14222536
 21
5166.9642666814
 31
0.0
  0
LINE
  5
AE
330
1F
100
AcDbEntity
  8
0
  6
Continuous
 62
     7
370
    25
100
AcDbLine
 10
6215.7038852399
 20
5125.6546385977
 30
0.0
 11
6213.8327836048
 21
5109.6166245827
 31
0.0
  0
LINE
  5
AF
330
1F
100
AcDbEntity
  8
0
  6
Continuous
 62
     7
370
    25
100
AcDbLine
 10
6213.8327836048
 20
5109.6166245827
 30
0.0
 11
6220.7265693247
 21
5042.3109487213
 31
0.0
  0
LINE
  5
B0
330
1F
100
AcDbEntity
  8
0
  6
Continuous
 62
     7
370
    25
100
AcDbLine
 10
6274.9389978849
 20
5042.3109487213
 30
0.0
 11
6281.8327836048
 21
5109.6166245827
 31
0.0
  0
LINE
  5
B1
330
1F
100
AcDbEntity
  8
0
  6
Continuous
 62
     7
370
    25
100
AcDbLine
 10
6203.8327836048
 20
5175.1166245827
 30
0.0
 11
6199.8327836048
 21
5173.6166245827
 31
0.0
  0
LINE
  5
B2
330
1F
100
AcDbEntity
  8
0
  6
Continuous
 62
     7
370
    25
100
AcDbLine
 10
6199.8327836048
 20
5121.6166245827
 30
0.0
 11
6203.8327836048
 21
5120.1166245827
 31
0.0
  0
ARC
  5
B3
330
1F
100
AcDbEntity
  8
0
  6
Continuous
 62
     7
370
    25
100
AcDbCircle
 10
6272.1624359427
 20
5166.6166245827
 30
0.0
 40
3.000000000000701
100
AcDbArc
 50
6.654425046
 51
90.0
  0
ARC
  5
B4
330
1F
100
AcDbEntity
  8
0
  6
Continuous
 62
     7
370
    25
100
AcDbCircle
 10
6223.7109557386
 20
5042.6166245827
 30
0.0
 40
2.999999999999519
100
AcDbArc
 50
185.8481280262
 51
270.0
  0
ARC
  5
B5
330
1F
100
AcDbEntity
  8
0
  6
Continuous
 62
     7
370
    25
100
AcDbCircle
 10
6271.954611471
 20
5042.6166245827
 30
0.0
 40
3.000000000000424
100
AcDbArc
 50
270.0
 51
354.1518719738
  0
LINE
  5
B6
330
1F
100
AcDbEntity
  8
0
  6
Continuous
 62
     7
370
    25
100
AcDbLine
 10
6199.8327836048
 20
5173.6166245827
 30
0.0
 11
6190.8327836048
 21
5173.6166245827
 31
0.0
  0
LINE
  5
B7
330
1F
100
AcDbEntity
  8
0
  6
Continuous
 62
     7
370
    25
100
AcDbLine
 10
6190.8327836048
 20
5121.6166245827
 30
0.0
 11
6199.8327836048
 21
5121.6166245827
 31
0.0
  0
ARC
  5
B8
330
1F
100
AcDbEntity
  8
0
  6
Continuous
 62
     7
370
    25
100
AcDbCircle
 10
6190.8327836048
 20
5170.6166245827
 30
0.0
 40
3.0
100
AcDbArc
 50
90.0
 51
180.0
  0
ARC
  5
B9
330
1F
100
AcDbEntity
  8
0
  6
Continuous
 62
     7
370
    25
100
AcDbCircle
 10
6190.8327836048
 20
5124.6166245827
 30
0.0
 40
3.0
100
AcDbArc
 50
180.0
 51
270.0
  0
LINE
  5
BA
330
1F
100
AcDbEntity
  8
0
  6
Continuous
 62
     7
370
    25
100
AcDbLine
 10
6272.8327836048
 20
5172.1166245827
 30
0.0
 11
6270.8327836048
 21
5176.1166245827
 31
0.0
  0
LINE
  5
BB
330
1F
100
AcDbEntity
  8
0
  6
Continuous
 62
     7
370
    25
100
AcDbLine
 10
6224.8327836048
 20
5176.1166245827
 30
0.0
 11
6222.8327836048
 21
5172.1166245827
 31
0.0
  0
ARC
  5
BC
330
1F
100
AcDbEntity
  8
0
  6
Continuous
 62
     7
370
    25
100
AcDbCircle
 10
6227.8327836048
 20
5183.1166245827
 30
0.0
 40
3.0
100
AcDbArc
 50
90.0
 51
180.0
  0
ARC
  5
BD
330
1F
100
AcDbEntity
  8
0
  6
Continuous
 62
     7
370
    25
100
AcDbCircle
 10
6267.8327836048
 20
5183.1166245827
 30
0.0
 40
3.0
100
AcDbArc
 50
0.0
 51
90.0
  0
LINE
  5
BE
330
1F
100
AcDbEntity
  8
0
  6
Continuous
 62
     7
370
    25
100
AcDbLine
 10
6224.8327836048
 20
5183.1166245827
 30
0.0
 11
6224.8327836048
 21
5176.1166245827
 31
0.0
  0
LINE
  5
BF
330
1F
100
AcDbEntity
  8
0
  6
Continuous
 62
     7
370
    25
100
AcDbLine
 10
6270.8327836048
 20
5176.1166245827
 30
0.0
 11
6270.8327836048
 21
5183.1166245827
 31
0.0
  0
LINE
  5
C0
330
1F
100
AcDbEntity
  8
0
  6
Continuous
 62
     7
370
    25
100
AcDbLine
 10
6203.8327836048
 20
5125.6166245827
 30
0.0
 11
6215.7276287666
 21
5125.6166245827
 31
0.0
  0
LINE
  5
C1
330
1F
100
AcDbEntity
  8
0
  6
Continuous
 62
     7
370
    25
100
AcDbLine
 10
6220.8327836048
 20
5169.6166245827
 30
0.0
 11
6203.8327836048
 21
5169.6166245827
 31
0.0
  0
LINE
  5
C2
330
1F
100
AcDbEntity
  8
0
  6
Continuous
 62
     7
370
    25
100
AcDbLine
 10
6231.8327836048
 20
5172.1166245827
 30
0.0
 11
6231.8327836048
 21
5169.6166245827
 31
0.0
  0
LINE
  5
C3
330
1F
100
AcDbEntity
  8
0
  6
Continuous
 62
     7
370
    25
100
AcDbLine
 10
6263.8327836048
 20
5169.6166245827
 30
0.0
 11
6263.8327836048
 21
5172.1166245827
 31
0.0
  0
LINE
  5
C4
330
1F
100
AcDbEntity
  8
0
  6
Continuous
 62
     7
370
    25
100
AcDbLine
 10
6247.8327836048
 20
5244.1166245827
 30
0.0
 11
6282.8327836048
 21
5244.1166245827
 31
0.0
  0
LINE
  5
C5
330
1F
100
AcDbEntity
  8
0
  6
Continuous
 62
     7
370
    25
100
AcDbLine
 10
6212.8327836048
 20
5244.1166245827
 30
0.0
 11
6247.8327836048
 21
5244.1166245827
 31
0.0
  0
LINE
  5
C6
330
1F
100
AcDbEntity
  8
0
  6
Continuous
 62
     7
370
    25
100
AcDbLine
 10
6247.8327836048
 20
5237.1166245827
 30
0.0
 11
6279.8327836048
 21
5237.1166245827
 31
0.0
  0
LINE
  5
C7
330
1F
100
AcDbEntity
  8
0
  6
Continuous
 62
     7
370
    25
100
AcDbLine
 10
6215.8327836048
 20
5237.1166245827
 30
0.0
 11
6247.8327836048
 21
5237.1166245827
 31
0.0
  0
SPLINE
  5
C8
330
1F
100
AcDbEntity
  8
0
  6
Continuous
 62
     7
370
    25
100
AcDbSpline
210
0.0
220
0.0
230
1.0
 70
     8
 71
     3
 72
    10
 73
     6
 74
     0
 42
0.000000001
 43
0.00000001
 40
0.0
 40
0.0
 40
0.0
 40
0.0
 40
0.4575030543493545
 40
0.9222007526202891
 40
1.0
 40
1.0
 40
1.0
 40
1.0
 10
6220.345776042574
 20
5232.607695169445
 30
0.0
 10
6220.408336689015
 20
5232.564671429631
 30
0.0
 10
6220.534441803904
 20
5232.47794736329
 30
0.0
 10
6221.257748819054
 20
5231.981147236158
 30
0.0
 10
6221.722850318032
 20
5231.662344012247
 30
0.0
 10
6221.789550318587
 20
5231.616624582705
 30
0.0
  0
LINE
  5
C9
330
1F
100
AcDbEntity
  8
0
  6
Continuous
 62
     7
370
    25
100
AcDbLine
 10
6221.7895503186
 20
5231.6166245827
 30
0.0
 11
6274.3327836048
 21
5231.6166245827
 31
0.0
  0
LINE
  5
CA
330
1F
100
AcDbEntity
  8
0
  6
Continuous
 62
     7
370
    25
100
AcDbLine
 10
6247.8327836048
 20
5207.1166245827
 30
0.0
 11
6277.3327836048
 21
5207.1166245827
 31
0.0
  0
LINE
  5
CB
330
1F
100
AcDbEntity
  8
0
  6
Continuous
 62
     7
370
    25
100
AcDbLine
 10
6218.3327836048
 20
5207.1166245827
 30
0.0
 11
6247.8327836048
 21
5207.1166245827
 31
0.0
  0
SPLINE
  5
CC
330
1F
100
AcDbEntity
  8
0
  6
Continuous
 62
     7
370
    25
100
AcDbSpline
210
0.0
220
0.0
230
1.0
 70
     8
 71
     3
 72
    14
 73
    10
 74
     0
 42
0.000000001
 43
0.00000001
 40
0.0
 40
0.0
 40
0.0
 40
0.0
 40
0.1533532004492792
 40
0.3112237015158252
 40
0.4645392318064773
 40
0.6224054285958048
 40
0.772938480168078
 40
0.9287239189072575
 40
1.0
 40
1.0
 40
1.0
 40
1.0
 10
6223.832783604798
 20
5214.639399007654
 30
0.0
 10
6223.676567361152
 20
5214.016585697927
 30
0.0
 10
6223.359533237038
 20
5212.752612966748
 30
0.0
 10
6222.811841755998
 20
5211.139221925677
 30
0.0
 10
6222.282961321818
 20
5209.760812032246
 30
0.0
 10
6221.828414353675
 20
5208.696254083236
 30
0.0
 10
6221.501379871645
 20
5207.974708917009
 30
0.0
 10
6221.337853581268
 20
5207.627368164354
 30
0.0
 10
6221.347608527994
 20
5207.648086633684
 30
0.0
 10
6221.350670668926
 20
5207.654590295339
 30
0.0
  0
SPLINE
  5
CD
330
1F
100
AcDbEntity
  8
0
  6
Continuous
 62
     7
370
    25
100
AcDbSpline
210
0.0
220
0.0
230
1.0
 70
     8
 71
     3
 72
    10
 73
     6
 74
     0
 42
0.000000001
 43
0.00000001
 40
0.0
 40
0.0
 40
0.0
 40
0.0
 40
0.1883898901716111
 40
0.6332747442565548
 40
1.0
 40
1.0
 40
1.0
 40
1.0
 10
6221.789550318587
 20
5231.616624582705
 30
0.0
 10
6221.894981312147
 20
5231.373428585639
 30
0.0
 10
6222.249388788164
 20
5230.555922493846
 30
0.0
 10
6223.034579498124
 20
5228.62066121372
 30
0.0
 10
6223.584364000577
 20
5226.535863858625
 30
0.0
 10
6223.832783604798
 20
5225.593850157758
 30
0.0
  0
LINE
  5
CE
330
1F
100
AcDbEntity
  8
0
  6
Continuous
 62
     7
370
    25
100
AcDbLine
 10
6078.1927240758
 20
5343.9300764559
 30
0.0
 11
6065.1435874777
 21
5379.7822846027
 31
0.0
  0
LINE
  5
CF
330
1F
100
AcDbEntity
  8
0
  6
Continuous
 62
     7
370
    25
100
AcDbLine
 10
6081.0118019382
 20
5344.9561368858
 30
0.0
 11
6068.3361207951
 21
5379.7822846027
 31
0.0
  0
LINE
  5
D0
330
1F
100
AcDbEntity
  8
0
  6
Continuous
 62
     7
370
    25
100
AcDbLine
 10
6075.7571247147
 20
5346.2361241032
 30
0.0
 11
6063.5473208189
 21
5379.7822846027
 31
0.0
  0
LWPOLYLINE
  5
D1
330
1F
100
AcDbEntity
  8
0
  6
Continuous
 62
     7
370
    25
100
AcDbPolyline
 90
       16
 70
   128
 43
0.0
 10
6073.4078931627
 20
5345.3810737449
 10
6072.8484135434
 20
5345.4783449187
 10
6071.2951980262
 20
5345.7032598762
 10
6068.7930201533
 20
5345.8980963792
 10
6067.156849223
 20
5345.885985627
 10
6065.336267386
 20
5345.7098586639
 10
6062.4926696371
 20
5345.0044993052
 10
6059.8310177115
 20
5343.7502689778
 10
6057.6052924219
 20
5342.1826838355
 10
6055.606720601
 20
5340.347677774
 10
6054.783924508
 20
5339.4762139329
 10
6054.1595027217
 20
5338.7713767753
 10
6053.8098537238
 20
5338.3607836349
 10
6053.674858034
 20
5338.199263961
 10
6053.6743481262
 20
5338.1986507351
 10
6053.6743481262
 20
5338.1986507351
  0
LINE
  5
D2
330
1F
100
AcDbEntity
  8
0
  6
Continuous
 62
     7
370
    25
100
AcDbLine
 10
6053.6743481262
 20
5338.1986507351
 30
0.0
 11
6061.095168003
 21
5379.2100080932
 31
0.0
  0
LINE
  5
D3
330
1F
100
AcDbEntity
  8
0
  6
Continuous
 62
     7
370
    25
100
AcDbLine
 10
6059.3194060378
 20
5316.8413727911
 30
0.0
 11
6082.8117215574
 21
5325.3918763743
 31
0.0
  0
LINE
  5
D4
330
1F
100
AcDbEntity
  8
0
  6
Continuous
 62
     7
370
    25
100
AcDbLine
 10
6223.8327836048
 20
5214.6393990077
 30
0.0
 11
6223.8327836048
 21
5225.5938501578
 31
0.0
  0
LINE
  5
D5
330
1F
100
AcDbEntity
  8
0
  6
Continuous
 62
     7
370
    25
100
AcDbLine
 10
6435.8327836048
 20
5387.7822846027
 30
0.0
 11
6059.8327836048
 21
5387.7822846027
 31
0.0
  0
LINE
  5
D6
330
1F
100
AcDbEntity
  8
0
  6
Continuous
 62
     7
370
    25
100
AcDbLine
 10
6437.8327836048
 20
5379.7822846027
 30
0.0
 11
6057.8327836048
 21
5379.7822846027
 31
0.0
  0
LINE
  5
D7
330
1F
100
AcDbEntity
  8
0
  6
Continuous
 62
     7
370
    25
100
AcDbLine
 10
6029.5262326232
 20
5355.3950689235
 30
0.0
 11
6031.4354517809
 21
5349.7069337099
 31
0.0
  0
LINE
  5
D8
330
1F
100
AcDbEntity
  8
0
  6
Continuous
 62
     7
370
    25
100
AcDbLine
 10
6020.2047270674
 20
5187.6166245827
 30
0.0
 11
6020.2047270674
 21
5107.6166245827
 31
0.0
  0
LINE
  5
D9
330
1F
100
AcDbEntity
  8
0
  6
Continuous
 62
     7
370
    25
100
AcDbLine
 10
6055.2047270674
 20
5167.6166245827
 30
0.0
 11
6055.2047270674
 21
5127.6166245827
 31
0.0
  0
LINE
  5
DA
330
1F
100
AcDbEntity
  8
0
  6
Continuous
 62
     7
370
    25
100
AcDbLine
 10
6010.2047270674
 20
5167.6166245827
 30
0.0
 11
6010.2047270674
 21
5127.6166245827
 31
0.0
  0
LINE
  5
DB
330
1F
100
AcDbEntity
  8
0
  6
Continuous
 62
     7
370
    25
100
AcDbLine
 10
6247.8327836048
 20
5204.1166245827
 30
0.0
 11
6277.8327836048
 21
5204.1166245827
 31
0.0
  0
LINE
  5
DC
330
1F
100
AcDbEntity
  8
0
  6
Continuous
 62
     7
370
    25
100
AcDbLine
 10
6217.8327836048
 20
5204.1166245827
 30
0.0
 11
6247.8327836048
 21
5204.1166245827
 31
0.0
  0
LINE
  5
DD
330
1F
100
AcDbEntity
  8
0
  6
Continuous
 62
     7
370
    25
100
AcDbLine
 10
6247.8327836048
 20
5200.1166245827
 30
0.0
 11
6275.8327836048
 21
5200.1166245827
 31
0.0
  0
LINE
  5
DE
330
1F
100
AcDbEntity
  8
0
  6
Continuous
 62
     7
370
    25
100
AcDbLine
 10
6219.8327836048
 20
5200.1166245827
 30
0.0
 11
6247.8327836048
 21
5200.1166245827
 31
0.0
  0
LINE
  5
DF
330
1F
100
AcDbEntity
  8
0
  6
Continuous
 62
     7
370
    25
100
AcDbLine
 10
6247.8327836048
 20
5190.1166245827
 30
0.0
 11
6272.8327836048
 21
5190.1166245827
 31
0.0
  0
LINE
  5
E0
330
1F
100
AcDbEntity
  8
0
  6
Continuous
 62
     7
370
    25
100
AcDbLine
 10
6222.8327836048
 20
5190.1166245827
 30
0.0
 11
6247.8327836048
 21
5190.1166245827
 31
0.0
  0
SPLINE
  5
E1
330
1F
100
AcDbEntity
  8
0
  6
Continuous
 62
     7
370
    25
100
AcDbSpline
210
0.0
220
0.0
230
1.0
 70
     8
 71
     3
 72
    26
 73
    22
 74
     0
 42
0.000000001
 43
0.00000001
 40
0.0
 40
0.0
 40
0.0
 40
0.0
 40
0.0518150172945308
 40
0.1113808078124133
 40
0.1722817355657413
 40
0.2246887683321156
 40
0.2783592031179694
 40
0.3194181051080695
 40
0.3616214636267116
 40
0.4027069642412919
 40
0.4449491661733344
 40
0.5015057252198594
 40
0.5596412612698725
 40
0.6344161126990256
 40
0.7113477101488601
 40
0.7733911371889508
 40
0.837063086983506
 40
0.8877153279750318
 40
0.9397479072163278
 40
0.990452047006796
 40
1.0
 40
1.0
 40
1.0
 40
1.0
 10
6222.611029824445
 20
5166.964266681386
 30
0.0
 10
6222.938143315851
 20
5166.44624676386
 30
0.0
 10
6223.641301720912
 20
5165.332718680888
 30
0.0
 10
6224.900878982799
 20
5163.138623469719
 30
0.0
 10
6226.162781922588
 20
5160.602821581553
 30
0.0
 10
6227.26220558483
 20
5157.830155458111
 30
0.0
 10
6228.004428957614
 20
5155.132321890823
 30
0.0
 10
6228.380445675319
 20
5152.445427510697
 30
0.0
 10
6228.404186549623
 20
5149.914769558
 30
0.0
 10
6228.084239547379
 20
5147.349579424745
 30
0.0
 10
6227.384835170546
 20
5144.561391047421
 30
0.0
 10
6226.249091662115
 20
5141.592557684678
 30
0.0
 10
6224.588200431348
 20
5138.278535435903
 30
0.0
 10
6222.574847621358
 20
5134.949001233551
 30
0.0
 10
6220.534656834048
 20
5131.967566084002
 30
0.0
 10
6218.762117350919
 20
5129.548566928527
 30
0.0
 10
6217.44586161859
 20
5127.827551537767
 30
0.0
 10
6216.479286178284
 20
5126.594719682171
 30
0.0
 10
6215.914907865694
 20
5125.885360960048
 30
0.0
 10
6215.662493226837
 20
5125.570455921955
 30
0.0
 10
6215.718747431258
 20
5125.640728752923
 30
0.0
 10
6215.727661851898
 20
5125.651864659673
 30
0.0
  0
LINE
  5
E2
330
1F
100
AcDbEntity
  8
0
  6
Continuous
 62
     7
370
    25
100
AcDbLine
 10
6213.8327836048
 20
5109.6166245827
 30
0.0
 11
6281.8327836048
 21
5109.6166245827
 31
0.0
  0
LINE
  5
E3
330
1F
100
AcDbEntity
  8
0
  6
Continuous
 62
     7
370
    25
100
AcDbLine
 10
6203.8327836048
 20
5175.1166245827
 30
0.0
 11
6203.8327836048
 21
5120.1166245827
 31
0.0
  0
LINE
  5
E4
330
1F
100
AcDbEntity
  8
0
  6
Continuous
 62
     7
370
    25
100
AcDbLine
 10
6199.8327836048
 20
5173.6166245827
 30
0.0
 11
6199.8327836048
 21
5121.6166245827
 31
0.0
  0
ARC
  5
E5
330
1F
100
AcDbEntity
  8
0
  6
Continuous
 62
     7
370
    25
100
AcDbCircle
 10
6225.4640384885
 20
5166.7579497395
 30
0.0
 40
2.860458899836388
100
AcDbArc
 50
92.0237024968
 51
175.863823239
  0
LINE
  5
E6
330
1F
100
AcDbEntity
  8
0
  6
Continuous
 62
     7
370
    25
100
AcDbLine
 10
6225.3630273084
 20
5169.6166245827
 30
0.0
 11
6272.1624359427
 21
5169.6166245827
 31
0.0
  0
LINE
  5
E7
330
1F
100
AcDbEntity
  8
0
  6
Continuous
 62
     7
370
    25
100
AcDbLine
 10
6223.7109557386
 20
5039.6166245827
 30
0.0
 11
6271.9546114567
 21
5039.6166245827
 31
0.0
  0
LINE
  5
E8
330
1F
100
AcDbEntity
  8
0
  6
Continuous
 62
     7
370
    25
100
AcDbLine
 10
6187.8327836048
 20
5170.6166245827
 30
0.0
 11
6187.8327836048
 21
5124.6166245827
 31
0.0
  0
LINE
  5
E9
330
1F
100
AcDbEntity
  8
0
  6
Continuous
 62
     7
370
    25
100
AcDbLine
 10
6224.8327836048
 20
5176.1166245827
 30
0.0
 11
6270.8327836048
 21
5176.1166245827
 31
0.0
  0
LINE
  5
EA
330
1F
100
AcDbEntity
  8
0
  6
Continuous
 62
     7
370
    25
100
AcDbLine
 10
6222.8327836048
 20
5172.1166245827
 30
0.0
 11
6272.8327836048
 21
5172.1166245827
 31
0.0
  0
LINE
  5
EB
330
1F
100
AcDbEntity
  8
0
  6
Continuous
 62
     7
370
    25
100
AcDbLine
 10
6227.8327836048
 20
5186.1166245827
 30
0.0
 11
6267.8327834309
 21
5186.1166245827
 31
0.0
  0
SPLINE
  5
EC
330
1F
100
AcDbEntity
  8
0
  6
Continuous
 62
     7
370
    25
100
AcDbSpline
210
0.0
220
0.0
230
1.0
 70
     8
 71
     3
 72
    11
 73
     7
 74
     0
 42
0.000000001
 43
0.00000001
 40
0.0
 40
0.0
 40
0.0
 40
0.0
 40
0.1561474091523022
 40
0.4307960512583157
 40
0.7130079383195165
 40
1.0
 40
1.0
 40
1.0
 40
1.0
 10
6220.832783604798
 20
5169.616624582706
 30
0.0
 10
6220.842250320975
 20
5169.603107868253
 30
0.0
 10
6220.868368102687
 20
5169.565816521286
 30
0.0
 10
6221.152189308533
 20
5169.15703524833
 30
0.0
 10
6221.735437890433
 20
5168.308533136833
 30
0.0
 10
6222.317536358843
 20
5167.414857196643
 30
0.0
 10
6222.611029824445
 20
5166.964266681386
 30
0.0
  0
SPLINE
  5
ED
330
1F
100
AcDbEntity
  8
0
  6
Continuous
 62
     7
370
    25
100
AcDbSpline
210
0.0
220
0.0
230
1.0
 70
    24
 71
     3
 72
    12
 73
     8
 74
     0
 42
0.000000001
 43
0.00000001
 40
0.0
 40
0.0
 40
0.0
 40
0.0
 40
0.0026572740835311
 40
0.0516700043743781
 40
0.3670805910300619
 40
0.7311420885359103
 40
1.0
 40
1.0
 40
1.0
 40
1.0
 10
6220.832783604798
 20
5169.616624582706
 30
0.0
 10
6220.836179626329
 20
5169.616624582706
 30
0.0
 10
6220.902214382931
 20
5169.616624582706
 30
0.0
 10
6221.382559712376
 20
5169.616624582705
 30
0.0
 10
6222.469942981817
 20
5169.616624582706
 30
0.0
 10
6224.063167750369
 20
5169.616624582706
 30
0.0
 10
6224.975484266427
 20
5169.616624582706
 30
0.0
 10
6225.36302730844
 20
5169.616624582706
 30
0.0
  0
LINE
  5
EE
330
1F
100
AcDbEntity
  8
0
  6
Continuous
 62
     8
370
    25
100
AcDbLine
 10
6088.8958472214
 20
5235.5807684914
 30
0.0
 11
6112.388162741
 21
5244.1312720745
 31
0.0
  0
LINE
  5
EF
330
1F
100
AcDbEntity
  8
0
  6
Continuous
 62
     8
370
    25
100
AcDbLine
 10
6128.8327836048
 20
5207.6166245827
 30
0.0
 11
6128.8327836048
 21
5232.6166245827
 31
0.0
  0
LINE
  5
F0
330
1F
100
AcDbEntity
  8
0
  6
Continuous
 62
     8
370
    25
100
AcDbLine
 10
6437.8327836048
 20
5385.7822846027
 30
0.0
 11
6057.8327836048
 21
5385.7822846027
 31
0.0
  0
LINE
  5
F1
330
1F
100
AcDbEntity
  8
0
  6
Continuous
 62
     8
370
    25
100
AcDbLine
 10
6035.2047270674
 20
5187.6166245827
 30
0.0
 11
6035.2047270674
 21
5107.6166245827
 31
0.0
  0
LINE
  5
F2
330
1F
100
AcDbEntity
  8
0
  6
Continuous
 62
     8
370
    25
100
AcDbLine
 10
6247.8327836048
 20
5193.1166245827
 30
0.0
 11
6275.8327836048
 21
5193.1166245827
 31
0.0
  0
LINE
  5
F3
330
1F
100
AcDbEntity
  8
0
  6
Continuous
 62
     8
370
    25
100
AcDbLine
 10
6219.8327836048
 20
5193.1166245827
 30
0.0
 11
6247.8327836048
 21
5193.1166245827
 31
0.0
  0
LINE
  5
F4
330
1F
100
AcDbEntity
  8
0
  6
Continuous
 62
     8
370
    25
100
AcDbLine
 10
6275.14222536
 20
5166.9642666814
 30
0.0
 11
6222.6110298244
 21
5166.9642666814
 31
0.0
  0
LINE
  5
F5
330
1F
100
AcDbEntity
  8
0
  6
Continuous
 62
     8
370
    25
100
AcDbLine
 10
6220.7265693247
 20
5042.3109487213
 30
0.0
 11
6274.9389978849
 21
5042.3109487213
 31
0.0
  0
LINE
  5
F6
330
1F
100
AcDbEntity
  8
0
  6
Continuous
 62
     8
370
    25
100
AcDbLine
 10
6190.8327836048
 20
5173.6166245827
 30
0.0
 11
6190.8327836048
 21
5121.6166245827
 31
0.0
  0
LINE
  5
F7
330
1F
100
AcDbEntity
  8
0
  6
Continuous
 62
     8
370
    25
100
AcDbLine
 10
6224.8327836048
 20
5183.1166245827
 30
0.0
 11
6270.8327836048
 21
5183.1166245827
 31
0.0
  0
LINE
  5
F8
330
1F
100
AcDbEntity
  8
0
  6
Continuous
 62
     7
370
    25
100
AcDbLine
 10
5413.4797935089
 20
5244.1166245827
 30
0.0
 11
5416.4797935089
 21
5237.1166245827
 31
0.0
  0
LINE
  5
F9
330
1F
100
AcDbEntity
  8
0
  6
Continuous
 62
     7
370
    25
100
AcDbLine
 10
5480.4797935089
 20
5237.1166245827
 30
0.0
 11
5483.4797935089
 21
5244.1166245827
 31
0.0
  0
LINE
  5
FA
330
1F
100
AcDbEntity
  8
0
  6
Continuous
 62
     7
370
    25
100
AcDbLine
 10
5416.4797935089
 20
5237.1166245827
 30
0.0
 11
5421.9797935089
 21
5231.6166245827
 31
0.0
  0
LINE
  5
FB
330
1F
100
AcDbEntity
  8
0
  6
Continuous
 62
     7
370
    25
100
AcDbLine
 10
5474.9797935089
 20
5231.6166245827
 30
0.0
 11
5480.4797935089
 21
5237.1166245827
 31
0.0
  0
LINE
  5
FC
330
1F
100
AcDbEntity
  8
0
  6
Continuous
 62
     7
370
    25
100
AcDbLine
 10
5418.9797935089
 20
5207.1166245827
 30
0.0
 11
5418.9797935089
 21
5204.1166245827
 31
0.0
  0
LINE
  5
FD
330
1F
100
AcDbEntity
  8
0
  6
Continuous
 62
     7
370
    25
100
AcDbLine
 10
5477.9797935089
 20
5204.1166245827
 30
0.0
 11
5477.9797935089
 21
5207.1166245827
 31
0.0
  0
LINE
  5
FE
330
1F
100
AcDbEntity
  8
0
  6
Continuous
 62
     7
370
    25
100
AcDbLine
 10
5421.9797935089
 20
5231.6166245827
 30
0.0
 11
5421.9797935089
 21
5207.1166245827
 31
0.0
  0
LINE
  5
FF
330
1F
100
AcDbEntity
  8
0
  6
Continuous
 62
     7
370
    25
100
AcDbLine
 10
5474.9797935089
 20
5207.1166245827
 30
0.0
 11
5474.9797935089
 21
5231.6166245827
 31
0.0
  0
ARC
  5
100
330
1F
100
AcDbEntity
  8
0
  6
Continuous
 62
     7
370
    25
100
AcDbCircle
 10
5636.4797935089
 20
5385.7822846027
 30
0.0
 40
2.000000000000909
100
AcDbArc
 50
0.0
 51
90.0
  0
ARC
  5
101
330
1F
100
AcDbEntity
  8
0
  6
Continuous
 62
     7
370
    25
100
AcDbCircle
 10
5260.4797935089
 20
5385.7822846027
 30
0.0
 40
2.0
100
AcDbArc
 50
90.0
 51
180.0
  0
LINE
  5
102
330
1F
100
AcDbEntity
  8
0
  6
Continuous
 62
     7
370
    25
100
AcDbLine
 10
5638.4797935089
 20
5379.7822846027
 30
0.0
 11
5638.4797935089
 21
5385.7822846027
 31
0.0
  0
LINE
  5
103
330
1F
100
AcDbEntity
  8
0
  6
Continuous
 62
     7
370
    25
100
AcDbLine
 10
5258.4797935089
 20
5385.7822846027
 30
0.0
 11
5258.4797935089
 21
5379.7822846027
 31
0.0
  0
ARC
  5
104
330
1F
100
AcDbEntity
  8
0
  6
Continuous
 62
     7
370
    25
100
AcDbCircle
 10
5448.4797935089
 20
5426.1618432112
 30
0.0
 40
185.3792373095727
100
AcDbArc
 50
280.8828877476
 51
345.5113952337
  0
ARC
  5
105
330
1F
100
AcDbEntity
  8
0
  6
Continuous
 62
     7
370
    25
100
AcDbCircle
 10
5448.4797935089
 20
5426.1618432112
 30
0.0
 40
185.3792373095727
100
AcDbArc
 50
194.4886047663
 51
259.1171122524
  0
LINE
  5
106
330
1F
100
AcDbEntity
  8
0
  6
Continuous
 62
     7
370
    25
100
AcDbLine
 10
5418.4797935089
 20
5204.1166245827
 30
0.0
 11
5420.4797935089
 21
5200.1166245827
 31
0.0
  0
LINE
  5
107
330
1F
100
AcDbEntity
  8
0
  6
Continuous
 62
     7
370
    25
100
AcDbLine
 10
5476.4797935089
 20
5200.1166245827
 30
0.0
 11
5478.4797935089
 21
5204.1166245827
 31
0.0
  0
ARC
  5
108
330
1F
100
AcDbEntity
  8
0
  6
Continuous
 62
     7
370
    25
100
AcDbCircle
 10
5423.4797935089
 20
5193.1166245827
 30
0.0
 40
3.0
100
AcDbArc
 50
180.0
 51
270.0
  0
ARC
  5
109
330
1F
100
AcDbEntity
  8
0
  6
Continuous
 62
     7
370
    25
100
AcDbCircle
 10
5473.4797935089
 20
5193.1166245827
 30
0.0
 40
2.999999999999091
100
AcDbArc
 50
270.0
 51
0.0
  0
LINE
  5
10A
330
1F
100
AcDbEntity
  8
0
  6
Continuous
 62
     7
370
    25
100
AcDbLine
 10
5420.4797935089
 20
5200.1166245827
 30
0.0
 11
5420.4797935089
 21
5193.1166245827
 31
0.0
  0
LINE
  5
10B
330
1F
100
AcDbEntity
  8
0
  6
Continuous
 62
     7
370
    25
100
AcDbLine
 10
5476.4797935089
 20
5193.1166245827
 30
0.0
 11
5476.4797935089
 21
5200.1166245827
 31
0.0
  0
LINE
  5
10C
330
1F
100
AcDbEntity
  8
0
  6
Continuous
 62
     7
370
    25
100
AcDbLine
 10
5432.4797935089
 20
5190.1166245827
 30
0.0
 11
5432.4797935089
 21
5186.1166245827
 31
0.0
  0
LINE
  5
10D
330
1F
100
AcDbEntity
  8
0
  6
Continuous
 62
     7
370
    25
100
AcDbLine
 10
5432.4797935089
 20
5172.1166245827
 30
0.0
 11
5432.4797935089
 21
5169.6166245827
 31
0.0
  0
LINE
  5
10E
330
1F
100
AcDbEntity
  8
0
  6
Continuous
 62
     7
370
    25
100
AcDbLine
 10
5464.4797935089
 20
5169.6166245827
 30
0.0
 11
5464.4797935089
 21
5172.1166245827
 31
0.0
  0
LINE
  5
10F
330
1F
100
AcDbEntity
  8
0
  6
Continuous
 62
     7
370
    25
100
AcDbLine
 10
5464.4797935089
 20
5186.1166245827
 30
0.0
 11
5464.4797935089
 21
5190.1166245827
 31
0.0
  0
LINE
  5
110
330
1F
100
AcDbEntity
  8
0
  6
Continuous
 62
     7
370
    25
100
AcDbLine
 10
5482.4797935089
 20
5109.6166245827
 30
0.0
 11
5475.7892352641
 21
5166.9642666814
 31
0.0
  0
LINE
  5
111
330
1F
100
AcDbEntity
  8
0
  6
Continuous
 62
     7
370
    25
100
AcDbLine
 10
5421.1703517537
 20
5166.9642666814
 30
0.0
 11
5414.4797935089
 21
5109.6166245827
 31
0.0
  0
LINE
  5
112
330
1F
100
AcDbEntity
  8
0
  6
Continuous
 62
     7
370
    25
100
AcDbLine
 10
5414.4797935089
 20
5109.6166245827
 30
0.0
 11
5421.3735792288
 21
5042.3109487213
 31
0.0
  0
LINE
  5
113
330
1F
100
AcDbEntity
  8
0
  6
Continuous
 62
     7
370
    25
100
AcDbLine
 10
5475.586007789
 20
5042.3109487213
 30
0.0
 11
5482.4797935089
 21
5109.6166245827
 31
0.0
  0
ARC
  5
114
330
1F
100
AcDbEntity
  8
0
  6
Continuous
 62
     7
370
    25
100
AcDbCircle
 10
5424.150141171
 20
5166.6166245827
 30
0.0
 40
3.0
100
AcDbArc
 50
90.0
 51
173.345574954
  0
ARC
  5
115
330
1F
100
AcDbEntity
  8
0
  6
Continuous
 62
     7
370
    25
100
AcDbCircle
 10
5472.8094458468
 20
5166.6166245827
 30
0.0
 40
3.0
100
AcDbArc
 50
6.654425046
 51
90.0
  0
ARC
  5
116
330
1F
100
AcDbEntity
  8
0
  6
Continuous
 62
     7
370
    25
100
AcDbCircle
 10
5424.3579656427
 20
5042.6166245827
 30
0.0
 40
3.000000000000424
100
AcDbArc
 50
185.8481280262
 51
270.0
  0
ARC
  5
117
330
1F
100
AcDbEntity
  8
0
  6
Continuous
 62
     7
370
    25
100
AcDbCircle
 10
5472.6016213751
 20
5042.6166245827
 30
0.0
 40
3.000000000000424
100
AcDbArc
 50
270.0
 51
354.1518719738
  0
LINE
  5
118
330
1F
100
AcDbEntity
  8
0
  6
Continuous
 62
     7
370
    25
100
AcDbLine
 10
5473.4797935089
 20
5172.1166245827
 30
0.0
 11
5471.4797935089
 21
5176.1166245827
 31
0.0
  0
LINE
  5
119
330
1F
100
AcDbEntity
  8
0
  6
Continuous
 62
     7
370
    25
100
AcDbLine
 10
5425.4797935089
 20
5176.1166245827
 30
0.0
 11
5423.4797935089
 21
5172.1166245827
 31
0.0
  0
ARC
  5
11A
330
1F
100
AcDbEntity
  8
0
  6
Continuous
 62
     7
370
    25
100
AcDbCircle
 10
5428.4797935089
 20
5183.1166245827
 30
0.0
 40
3.0
100
AcDbArc
 50
90.0
 51
180.0
  0
ARC
  5
11B
330
1F
100
AcDbEntity
  8
0
  6
Continuous
 62
     7
370
    25
100
AcDbCircle
 10
5468.4797935089
 20
5183.1166245827
 30
0.0
 40
3.0
100
AcDbArc
 50
0.0
 51
90.0
  0
LINE
  5
11C
330
1F
100
AcDbEntity
  8
0
  6
Continuous
 62
     7
370
    25
100
AcDbLine
 10
5425.4797935089
 20
5183.1166245827
 30
0.0
 11
5425.4797935089
 21
5176.1166245827
 31
0.0
  0
LINE
  5
11D
330
1F
100
AcDbEntity
  8
0
  6
Continuous
 62
     7
370
    25
100
AcDbLine
 10
5471.4797935089
 20
5176.1166245827
 30
0.0
 11
5471.4797935089
 21
5183.1166245827
 31
0.0
  0
LINE
  5
11E
330
1F
100
AcDbEntity
  8
0
  6
Continuous
 62
     7
370
    25
100
AcDbLine
 10
5432.4797935089
 20
5172.1166245827
 30
0.0
 11
5432.4797935089
 21
5169.6166245827
 31
0.0
  0
LINE
  5
11F
330
1F
100
AcDbEntity
  8
0
  6
Continuous
 62
     7
370
    25
100
AcDbLine
 10
5464.4797935089
 20
5169.6166245827
 30
0.0
 11
5464.4797935089
 21
5172.1166245827
 31
0.0
  0
LINE
  5
120
330
1F
100
AcDbEntity
  8
0
  6
Continuous
 62
     7
370
    25
100
AcDbLine
 10
5413.4797935089
 20
5244.1166245827
 30
0.0
 11
5483.4797935089
 21
5244.1166245827
 31
0.0
  0
LINE
  5
121
330
1F
100
AcDbEntity
  8
0
  6
Continuous
 62
     7
370
    25
100
AcDbLine
 10
5416.4797935089
 20
5237.1166245827
 30
0.0
 11
5480.4797935089
 21
5237.1166245827
 31
0.0
  0
LINE
  5
122
330
1F
100
AcDbEntity
  8
0
  6
Continuous
 62
     7
370
    25
100
AcDbLine
 10
5421.9797935089
 20
5231.6166245827
 30
0.0
 11
5474.9797935089
 21
5231.6166245827
 31
0.0
  0
LINE
  5
123
330
1F
100
AcDbEntity
  8
0
  6
Continuous
 62
     7
370
    25
100
AcDbLine
 10
5418.9797935089
 20
5207.1166245827
 30
0.0
 11
5477.9797935089
 21
5207.1166245827
 31
0.0
  0
LINE
  5
124
330
1F
100
AcDbEntity
  8
0
  6
Continuous
 62
     7
370
    25
100
AcDbLine
 10
5636.4797935089
 20
5387.7822846027
 30
0.0
 11
5260.4797935095
 21
5387.7822846027
 31
0.0
  0
LINE
  5
125
330
1F
100
AcDbEntity
  8
0
  6
Continuous
 62
     7
370
    25
100
AcDbLine
 10
5638.4797935089
 20
5379.7822846027
 30
0.0
 11
5258.4797935089
 21
5379.7822846027
 31
0.0
  0
ARC
  5
126
330
1F
100
AcDbEntity
  8
0
  6
Continuous
 62
     7
370
    25
100
AcDbCircle
 10
5448.4797935089
 20
5147.6166245827
 30
0.0
 40
40.00000000000048
100
AcDbArc
 50
0.0
 51
54.9003678046
  0
ARC
  5
127
330
1F
100
AcDbEntity
  8
0
  6
Continuous
 62
     7
370
    25
100
AcDbCircle
 10
5448.4797935089
 20
5147.6166245827
 30
0.0
 40
40.00000000000026
100
AcDbArc
 50
125.0996321954
 51
216.1070114058
  0
ARC
  5
128
330
1F
100
AcDbEntity
  8
0
  6
Continuous
 62
     7
370
    25
100
AcDbCircle
 10
5448.4797935089
 20
5147.6166245827
 30
0.0
 40
40.0
100
AcDbArc
 50
323.8929885942
 51
0.0
  0
LINE
  5
129
330
1F
100
AcDbEntity
  8
0
  6
Continuous
 62
     7
370
    25
100
AcDbLine
 10
5420.4797935089
 20
5200.1166245827
 30
0.0
 11
5476.4797935089
 21
5200.1166245827
 31
0.0
  0
LINE
  5
12A
330
1F
100
AcDbEntity
  8
0
  6
Continuous
 62
     7
370
    25
100
AcDbLine
 10
5418.4797935089
 20
5204.1166245827
 30
0.0
 11
5478.4797935089
 21
5204.1166245827
 31
0.0
  0
LINE
  5
12B
330
1F
100
AcDbEntity
  8
0
  6
Continuous
 62
     7
370
    25
100
AcDbLine
 10
5423.4797935089
 20
5190.1166245827
 30
0.0
 11
5473.4797933817
 21
5190.1166245827
 31
0.0
  0
LINE
  5
12C
330
1F
100
AcDbEntity
  8
0
  6
Continuous
 62
     7
370
    25
100
AcDbLine
 10
5414.4797935089
 20
5109.6166245827
 30
0.0
 11
5482.4797935089
 21
5109.6166245827
 31
0.0
  0
LINE
  5
12D
330
1F
100
AcDbEntity
  8
0
  6
Continuous
 62
     7
370
    25
100
AcDbLine
 10
5424.150141171
 20
5169.6166245827
 30
0.0
 11
5472.8094458468
 21
5169.6166245827
 31
0.0
  0
LINE
  5
12E
330
1F
100
AcDbEntity
  8
0
  6
Continuous
 62
     7
370
    25
100
AcDbLine
 10
5424.3579656427
 20
5039.6166245827
 30
0.0
 11
5472.6016213751
 21
5039.6166245827
 31
0.0
  0
LINE
  5
12F
330
1F
100
AcDbEntity
  8
0
  6
Continuous
 62
     7
370
    25
100
AcDbLine
 10
5425.4797935089
 20
5176.1166245827
 30
0.0
 11
5471.4797935089
 21
5176.1166245827
 31
0.0
  0
LINE
  5
130
330
1F
100
AcDbEntity
  8
0
  6
Continuous
 62
     7
370
    25
100
AcDbLine
 10
5423.4797935089
 20
5172.1166245827
 30
0.0
 11
5473.4797935089
 21
5172.1166245827
 31
0.0
  0
LINE
  5
131
330
1F
100
AcDbEntity
  8
0
  6
Continuous
 62
     7
370
    25
100
AcDbLine
 10
5428.4797935089
 20
5186.1166245827
 30
0.0
 11
5468.4797935089
 21
5186.1166245827
 31
0.0
  0
LINE
  5
132
330
1F
100
AcDbEntity
  8
0
  6
Continuous
 62
     7
370
    25
100
AcDbLine
 10
5464.9797935089
 20
5169.6166245827
 30
0.0
 11
5464.4797935089
 21
5169.9828938291
 31
0.0
  0
LINE
  5
133
330
1F
100
AcDbEntity
  8
0
  6
Continuous
 62
     7
370
    25
100
AcDbLine
 10
5432.4797935089
 20
5169.9828938291
 30
0.0
 11
5431.9797935089
 21
5169.6166245827
 31
0.0
  0
LINE
  5
134
330
1F
100
AcDbEntity
  8
0
  6
Continuous
 62
     8
370
    25
100
AcDbLine
 10
5638.4797935089
 20
5385.7822846027
 30
0.0
 11
5258.4797935089
 21
5385.7822846027
 31
0.0
  0
LINE
  5
135
330
1F
100
AcDbEntity
  8
0
  6
Continuous
 62
     8
370
    25
100
AcDbLine
 10
5420.4797935089
 20
5193.1166245827
 30
0.0
 11
5476.4797935089
 21
5193.1166245827
 31
0.0
  0
LINE
  5
136
330
1F
100
AcDbEntity
  8
0
  6
Continuous
 62
     8
370
    25
100
AcDbLine
 10
5475.7892352641
 20
5166.9642666814
 30
0.0
 11
5421.1703517537
 21
5166.9642666814
 31
0.0
  0
LINE
  5
137
330
1F
100
AcDbEntity
  8
0
  6
Continuous
 62
     8
370
    25
100
AcDbLine
 10
5421.3735792288
 20
5042.3109487213
 30
0.0
 11
5475.586007789
 21
5042.3109487213
 31
0.0
  0
LINE
  5
138
330
1F
100
AcDbEntity
  8
0
  6
Continuous
 62
     8
370
    25
100
AcDbLine
 10
5425.4797935089
 20
5183.1166245827
 30
0.0
 11
5471.4797935089
 21
5183.1166245827
 31
0.0
  0
LINE
  5
139
330
1F
100
AcDbEntity
  8
0
  6
Continuous
 62
     7
370
    25
100
AcDbLine
 10
5430.4797935089
 20
4616.1397413356
 30
0.0
 11
5430.4797935089
 21
4614.837162476
 31
0.0
  0
LINE
  5
13A
330
1F
100
AcDbEntity
  8
0
  6
Continuous
 62
     7
370
    25
100
AcDbLine
 10
5466.4797935089
 20
4614.837162476
 30
0.0
 11
5466.4797935089
 21
4616.1397413356
 31
0.0
  0
SPLINE
  5
13B
330
1F
100
AcDbEntity
  8
0
  6
Continuous
 62
     7
370
    25
100
AcDbSpline
210
0.0
220
0.0
230
1.0
 70
     8
 71
     3
 72
    20
 73
    16
 74
     0
 42
0.000000001
 43
0.00000001
 40
0.0
 40
0.0
 40
0.0
 40
0.0
 40
0.0320264745421802
 40
0.1003051593296683
 40
0.1697500605436081
 40
0.2460545348180209
 40
0.3315613600922664
 40
0.4224279543995633
 40
0.5127274505609983
 40
0.6015306141923875
 40
0.689233035325235
 40
0.7762258553321356
 40
0.8627800108165382
 40
0.9490810315607813
 40
1.0
 40
1.0
 40
1.0
 40
1.0
 10
5430.522271932156
 20
4599.488080104171
 30
0.0
 10
5430.513841007782
 20
4599.331839944051
 30
0.0
 10
5430.487435815678
 20
4598.842504343475
 30
0.0
 10
5430.786948772512
 20
4598.051514041663
 30
0.0
 10
5431.339424219689
 20
4597.18726485023
 30
0.0
 10
5432.164938524978
 20
4596.390098035765
 30
0.0
 10
5433.279639078053
 20
4595.637644985296
 30
0.0
 10
5434.70190342466
 20
4594.944109500091
 30
0.0
 10
5436.384986550544
 20
4594.333928781314
 30
0.0
 10
5438.26707501264
 20
4593.820705060506
 30
0.0
 10
5440.310902234404
 20
4593.405812477302
 30
0.0
 10
5442.485524902115
 20
4593.08950161764
 30
0.0
 10
5444.757113014415
 20
4592.875425868946
 30
0.0
 10
5446.772296825451
 20
4592.774135743093
 30
0.0
 10
5448.017667159138
 20
4592.764444115698
 30
0.0
 10
5448.479793508903
 20
4592.760847790757
 30
0.0
  0
SPLINE
  5
13C
330
1F
100
AcDbEntity
  8
0
  6
Continuous
 62
     7
370
    25
100
AcDbSpline
210
0.0
220
0.0
230
1.0
 70
     8
 71
     3
 72
    20
 73
    16
 74
     0
 42
0.000000001
 43
0.00000001
 40
0.0
 40
0.0
 40
0.0
 40
0.0
 40
0.045079039393348
 40
0.1308241386980321
 40
0.2167017767419751
 40
0.3027841115771585
 40
0.3892231938055229
 40
0.476231793593316
 40
0.5641279609580885
 40
0.6533922014482257
 40
0.7446428419059893
 40
0.8256889393436307
 40
0.8973612979065692
 40
0.9634584973906772
 40
1.0
 40
1.0
 40
1.0
 40
1.0
 10
5448.479793508903
 20
4592.760847790757
 30
0.0
 10
5448.89077372097
 20
4592.763713260787
 30
0.0
 10
5450.083481750894
 20
4592.772029157791
 30
0.0
 10
5452.04650211999
 20
4592.864582970968
 30
0.0
 10
5454.31560408093
 20
4593.071056228536
 30
0.0
 10
5456.485568457322
 20
4593.378246915322
 30
0.0
 10
5458.520958715666
 20
4593.781289057446
 30
0.0
 10
5460.39116136812
 20
4594.27804428456
 30
0.0
 10
5462.070575842388
 20
4594.868117955518
 30
0.0
 10
5463.540078280386
 20
4595.557494284748
 30
0.0
 10
5464.724255579337
 20
4596.328314038566
 30
0.0
 10
5465.60832622681
 20
4597.166875297527
 30
0.0
 10
5466.176402553836
 20
4598.055440904414
 30
0.0
 10
5466.475896152635
 20
4598.872652326488
 30
0.0
 10
5466.447294614574
 20
4599.375918199882
 30
0.0
 10
5466.43711187496
 20
4599.555091268623
 30
0.0
  0
LINE
  5
13D
330
1F
100
AcDbEntity
  8
0
  6
Continuous
 62
     7
370
    25
100
AcDbLine
 10
5453.7297935089
 20
4597.3498828801
 30
0.0
 11
5453.7297935089
 21
4598.013498655
 31
0.0
  0
LINE
  5
13E
330
1F
100
AcDbEntity
  8
0
  6
Continuous
 62
     7
370
    25
100
AcDbLine
 10
5443.2297935089
 20
4598.013498655
 30
0.0
 11
5443.2297935089
 21
4597.3498828801
 31
0.0
  0
LINE
  5
13F
330
1F
100
AcDbEntity
  8
0
  6
Continuous
 62
     7
370
    25
100
AcDbLine
 10
5452.7514305968
 20
4598.9847023723
 30
0.0
 11
5452.6389469574
 21
4599.0347959947
 31
0.0
  0
LINE
  5
140
330
1F
100
AcDbEntity
  8
0
  6
Continuous
 62
     7
370
    25
100
AcDbLine
 10
5444.3206400604
 20
4599.0347959947
 30
0.0
 11
5444.208156421
 21
4598.9847023723
 31
0.0
  0
LINE
  5
141
330
1F
100
AcDbEntity
  8
0
  6
Continuous
 62
     7
370
    25
100
AcDbLine
 10
5451.4797935089
 20
4615.6680301085
 30
0.0
 11
5451.4797935089
 21
4643.0436571982
 31
0.0
  0
LINE
  5
142
330
1F
100
AcDbEntity
  8
0
  6
Continuous
 62
     7
370
    25
100
AcDbLine
 10
5445.4797935089
 20
4643.0436571982
 30
0.0
 11
5445.4797935089
 21
4615.6680301085
 31
0.0
  0
ARC
  5
143
330
1F
100
AcDbEntity
  8
0
  6
Continuous
 62
     7
370
    25
100
AcDbCircle
 10
5448.4797935089
 20
4603.7506275284
 30
0.0
 40
8.552641741590307
100
AcDbArc
 50
236.3779605213
 51
303.6220394787
  0
LINE
  5
144
330
1F
100
AcDbEntity
  8
0
  6
Continuous
 62
     7
370
    25
100
AcDbLine
 10
5488.4797935089
 20
4638.3197723328
 30
0.0
 11
5488.4797935089
 21
4653.3197723328
 31
0.0
  0
LINE
  5
145
330
1F
100
AcDbEntity
  8
0
  6
Continuous
 62
     7
370
    25
100
AcDbLine
 10
5408.4797935089
 20
4653.3197723328
 30
0.0
 11
5408.4797935089
 21
4638.3197723328
 31
0.0
  0
ARC
  5
146
330
1F
100
AcDbEntity
  8
0
  6
Continuous
 62
     7
370
    25
100
AcDbCircle
 10
5468.4797935089
 20
4638.3197723328
 30
0.0
 40
20.0
100
AcDbArc
 50
270.0
 51
0.0
  0
ARC
  5
147
330
1F
100
AcDbEntity
  8
0
  6
Continuous
 62
     7
370
    25
100
AcDbCircle
 10
5428.4797935089
 20
4638.3197723328
 30
0.0
 40
20.0
100
AcDbArc
 50
180.0
 51
270.0
  0
LINE
  5
148
330
1F
100
AcDbEntity
  8
0
  6
Continuous
 62
     7
370
    25
100
AcDbLine
 10
5468.4797935089
 20
4653.3197723328
 30
0.0
 11
5468.4797935089
 21
4663.3197723328
 31
0.0
  0
LINE
  5
149
330
1F
100
AcDbEntity
  8
0
  6
Continuous
 62
     7
370
    25
100
AcDbLine
 10
5428.4797935089
 20
4663.3197723328
 30
0.0
 11
5428.4797935089
 21
4653.3197723328
 31
0.0
  0
LINE
  5
14A
330
1F
100
AcDbEntity
  8
0
  6
Continuous
 62
     7
370
    25
100
AcDbLine
 10
5468.4797935089
 20
4614.6361520723
 30
0.0
 11
5468.4797935089
 21
4618.3197723328
 31
0.0
  0
LINE
  5
14B
330
1F
100
AcDbEntity
  8
0
  6
Continuous
 62
     7
370
    25
100
AcDbLine
 10
5428.4797935089
 20
4618.3197723328
 30
0.0
 11
5428.4797935089
 21
4614.6361520723
 31
0.0
  0
ELLIPSE
  5
14C
330
1F
100
AcDbEntity
  8
0
  6
Continuous
 62
     7
370
    25
100
AcDbEllipse
 10
5448.4797935089
 20
4616.1397413356
 30
0.0
 11
18.0
 21
0.0
 31
0.0
210
0.0
220
0.0
230
1.0
 40
0.2061338855
 41
1.738244406014573
 42
3.474153486394744
  0
ELLIPSE
  5
14D
330
1F
100
AcDbEntity
  8
0
  6
Continuous
 62
     7
370
    25
100
AcDbEllipse
 10
5448.4797935089
 20
4616.1397413356
 30
0.0
 11
18.0
 21
0.0
 31
0.0
210
0.0
220
0.0
230
1.0
 40
0.2061338855
 41
5.950624474374756
 42
7.686533554754806
  0
LINE
  5
14E
330
1F
100
AcDbEntity
  8
0
  6
Continuous
 62
     7
370
    25
100
AcDbLine
 10
5437.2540462142
 20
4599.8387807532
 30
0.0
 11
5437.2760171975
 21
4599.8432475121
 31
0.0
  0
ARC
  5
14F
330
1F
100
AcDbEntity
  8
0
  6
Continuous
 62
     7
370
    25
100
AcDbCircle
 10
5448.4797935089
 20
4543.7564333334
 30
0.0
 40
57.19488900555618
100
AcDbArc
 50
78.7034137103
 51
101.2965862897
  0
LINE
  5
150
330
1F
100
AcDbEntity
  8
0
  6
Continuous
 62
     7
370
    25
100
AcDbLine
 10
5459.6835698203
 20
4599.8432475121
 30
0.0
 11
5459.7055408036
 21
4599.8387807532
 31
0.0
  0
LWPOLYLINE
  5
151
330
1F
100
AcDbEntity
  8
0
  6
Continuous
 62
     7
370
    25
100
AcDbPolyline
 90
       16
 70
   128
 43
0.0
 10
5437.2540462143
 20
4597.1176090925
 10
5437.304490962
 20
4597.0852110581
 10
5438.4144695959
 20
4596.5086686845
 10
5439.8152907014
 20
4596.0002778998
 10
5441.4664768653
 20
4595.574728905
 10
5443.3203162536
 20
4595.2443181471
 10
5445.3232412679
 20
4595.018593007
 10
5447.4173764075
 20
4594.9040759233
 10
5449.5422106103
 20
4594.9040759233
 10
5451.6363457499
 20
4595.018593007
 10
5453.6392707642
 20
4595.2443181471
 10
5455.4931101525
 20
4595.574728905
 10
5457.1442963164
 20
4596.0002778998
 10
5458.5451174219
 20
4596.5086686845
 10
5459.6550960559
 20
4597.0852110581
 10
5459.7055408035
 20
4597.1176090925
  0
LWPOLYLINE
  5
152
330
1F
100
AcDbEntity
  8
0
  6
Continuous
 62
     7
370
    25
100
AcDbPolyline
 90
       44
 70
   128
 43
0.0
 10
5448.4797935089
 20
4592.8388139874
 10
5450.8822127765
 20
4592.8947650634
 10
5453.2334286484
 20
4593.0614257914
 10
5455.4833290404
 20
4593.3352440874
 10
5457.5839612316
 20
4593.7103839897
 10
5459.4905538941
 20
4594.1788500427
 10
5461.1624713152
 20
4594.7306577057
 10
5462.564079478
 20
4595.3540461564
 10
5463.6655055378
 20
4596.0357289523
 10
5464.4432745104
 20
4596.7611772081
 10
5464.8808096004
 20
4597.5149292537
 10
5464.968785507
 20
4598.2809201729
 10
5464.7053271766
 20
4599.0428241991
 10
5464.096049766
 20
4599.7844026709
 10
5463.1539389655
 20
4600.4898501304
 10
5461.899074231
 20
4601.14413119
 10
5460.3582008259
 20
4601.7333009847
 10
5458.5641597915
 20
4602.2448023834
 10
5456.5551879978
 20
4602.6677336216
 10
5454.3741031906
 20
4602.9930806543
 10
5452.067391406
 20
4603.2139092744
 10
5449.6842162008
 20
4603.3255129033
 10
5447.275370817
 20
4603.3255129033
 10
5444.8921956118
 20
4603.2139092744
 10
5442.5854838272
 20
4602.9930806543
 10
5440.40439902
 20
4602.6677336216
 10
5438.3954272263
 20
4602.2448023834
 10
5436.6013861919
 20
4601.7333009847
 10
5435.0605127868
 20
4601.14413119
 10
5433.8056480523
 20
4600.4898501304
 10
5432.8635372518
 20
4599.7844026709
 10
5432.2542598412
 20
4599.0428241991
 10
5431.9908015108
 20
4598.2809201729
 10
5432.0787774174
 20
4597.5149292537
 10
5432.5163125075
 20
4596.7611772081
 10
5433.29408148
 20
4596.0357289523
 10
5434.3955075398
 20
4595.3540461564
 10
5435.7971157026
 20
4594.7306577057
 10
5437.4690331237
 20
4594.1788500427
 10
5439.3756257862
 20
4593.7103839897
 10
5441.4762579775
 20
4593.3352440874
 10
5443.7261583694
 20
4593.0614257914
 10
5446.0773742413
 20
4592.8947650634
 10
5448.4797935089
 20
4592.8388139874
  0
LWPOLYLINE
  5
153
330
1F
100
AcDbEntity
  8
0
  6
Continuous
 62
     7
370
    25
100
AcDbPolyline
 90
       24
 70
   128
 43
0.0
 10
5466.4796124015
 20
4599.5368939461
 10
5466.3811876255
 20
4600.1099037083
 10
5465.9451165819
 20
4600.8968462278
 10
5465.1691028911
 20
4601.6568187288
 10
5464.068250777
 20
4602.3750292111
 10
5462.6639870738
 20
4603.0374985246
 10
5460.9836441772
 20
4603.6313324577
 10
5459.0599280502
 20
4604.1449727083
 10
5456.930281639
 20
4604.5684218532
 10
5454.6361560888
 20
4604.8934379365
 10
5452.2222039436
 20
4605.1136948898
 10
5449.7354100363
 20
4605.224905662
 10
5447.2241769815
 20
4605.224905662
 10
5444.7373830742
 20
4605.1136948898
 10
5442.323430929
 20
4604.8934379365
 10
5440.0293053788
 20
4604.5684218532
 10
5437.8996589676
 20
4604.1449727083
 10
5435.9759428406
 20
4603.6313324577
 10
5434.295599944
 20
4603.0374985246
 10
5432.8913362408
 20
4602.3750292111
 10
5431.7904841267
 20
4601.6568187288
 10
5431.0144704359
 20
4600.8968462278
 10
5430.5783993923
 20
4600.1099037083
 10
5430.47983656
 20
4599.4986734633
  0
LWPOLYLINE
  5
154
330
1F
100
AcDbEntity
  8
0
  6
Continuous
 62
     7
370
    25
100
AcDbPolyline
 90
       16
 70
   128
 43
0.0
 10
5460.4421588413
 20
4599.2431442999
 10
5459.6550960559
 20
4599.8711787876
 10
5458.5451174219
 20
4600.4477211612
 10
5457.1442963164
 20
4600.9561119459
 10
5455.4931101525
 20
4601.3816609407
 10
5453.6392707642
 20
4601.7120716986
 10
5451.6363457499
 20
4601.9377968387
 10
5449.5422106103
 20
4602.0523139224
 10
5447.4173764075
 20
4602.0523139224
 10
5445.3232412679
 20
4601.9377968387
 10
5443.3203162536
 20
4601.7120716986
 10
5441.4664768653
 20
4601.3816609407
 10
5439.8152907014
 20
4600.9561119459
 10
5438.4144695959
 20
4600.4477211612
 10
5437.304490962
 20
4599.8711787876
 10
5436.5174281765
 20
4599.2431442999
  0
LWPOLYLINE
  5
155
330
1F
100
AcDbEntity
  8
0
  6
Continuous
 62
     7
370
    25
100
AcDbPolyline
 90
        9
 70
   128
 43
0.0
 10
5436.5174281765
 20
4599.2431442999
 10
5436.4959657893
 20
4599.1948986538
 10
5436.5213972721
 20
4599.1468487165
 10
5436.5913372585
 20
4599.1035013706
 10
5436.6992256711
 20
4599.0689224153
 10
5436.8349430293
 20
4599.0463552118
 10
5436.9857596138
 20
4599.0379164689
 10
5437.1375294617
 20
4599.0443977055
 10
5437.2760171975
 20
4599.0651910087
  0
ARC
  5
156
330
1F
100
AcDbEntity
  8
0
  6
Continuous
 62
     7
370
    25
100
AcDbCircle
 10
5448.4797935089
 20
4542.9783768299
 30
0.0
 40
57.19488900555618
100
AcDbArc
 50
78.7034137103
 51
101.2965862897
  0
LWPOLYLINE
  5
157
330
1F
100
AcDbEntity
  8
0
  6
Continuous
 62
     7
370
    25
100
AcDbPolyline
 90
        9
 70
   128
 43
0.0
 10
5459.6835698203
 20
4599.0651910087
 10
5459.8220575561
 20
4599.0443977055
 10
5459.973827404
 20
4599.0379164689
 10
5460.1246439885
 20
4599.0463552118
 10
5460.2603613467
 20
4599.0689224153
 10
5460.3682497593
 20
4599.1035013706
 10
5460.4381897457
 20
4599.1468487165
 10
5460.4636212285
 20
4599.1948986538
 10
5460.4421588413
 20
4599.2431442999
  0
LWPOLYLINE
  5
158
330
1F
100
AcDbEntity
  8
0
  6
Continuous
 62
     7
370
    25
100
AcDbPolyline
 90
        9
 70
   128
 43
0.0
 10
5437.2760171975
 20
4597.1131423336
 10
5437.1375294617
 20
4597.1339356368
 10
5436.9857596138
 20
4597.1404168733
 10
5436.8349430293
 20
4597.1319781305
 10
5436.6992256711
 20
4597.1094109269
 10
5436.5913372585
 20
4597.0748319717
 10
5436.5213972721
 20
4597.0314846258
 10
5436.4959657893
 20
4596.9834346885
 10
5436.5174281765
 20
4596.9351890424
  0
LWPOLYLINE
  5
159
330
1F
100
AcDbEntity
  8
0
  6
Continuous
 62
     7
370
    25
100
AcDbPolyline
 90
       16
 70
   128
 43
0.0
 10
5436.5174281765
 20
4596.9351890424
 10
5437.304490962
 20
4596.3071545546
 10
5438.4144695959
 20
4595.7306121811
 10
5439.8152907014
 20
4595.2222213964
 10
5441.4664768653
 20
4594.7966724016
 10
5443.3203162536
 20
4594.4662616437
 10
5445.3232412679
 20
4594.2405365035
 10
5447.4173764075
 20
4594.1260194198
 10
5449.5422106103
 20
4594.1260194198
 10
5451.6363457499
 20
4594.2405365035
 10
5453.6392707642
 20
4594.4662616437
 10
5455.4931101525
 20
4594.7966724016
 10
5457.1442963164
 20
4595.2222213964
 10
5458.5451174219
 20
4595.7306121811
 10
5459.6550960559
 20
4596.3071545546
 10
5460.4421588413
 20
4596.9351890424
  0
LWPOLYLINE
  5
15A
330
1F
100
AcDbEntity
  8
0
  6
Continuous
 62
     7
370
    25
100
AcDbPolyline
 90
        9
 70
   128
 43
0.0
 10
5460.4421588413
 20
4596.9351890424
 10
5460.4636212285
 20
4596.9834346885
 10
5460.4381897457
 20
4597.0314846258
 10
5460.3682497593
 20
4597.0748319717
 10
5460.2603613467
 20
4597.1094109269
 10
5460.1246439885
 20
4597.1319781305
 10
5459.973827404
 20
4597.1404168733
 10
5459.8220575561
 20
4597.1339356368
 10
5459.6835698203
 20
4597.1131423336
  0
ARC
  5
15B
330
1F
100
AcDbEntity
  8
0
  6
Continuous
 62
     7
370
    25
100
AcDbCircle
 10
5449.3889993462
 20
4646.6406055493
 30
0.0
 40
50.58604346879654
100
AcDbArc
 50
273.3997328038
 51
281.7420639025
  0
ARC
  5
15C
330
1F
100
AcDbEntity
  8
0
  6
Continuous
 62
     7
370
    25
100
AcDbCircle
 10
5447.5705876716
 20
4646.6406055493
 30
0.0
 40
50.58604346879671
100
AcDbArc
 50
258.2579360975
 51
266.6002671962
  0
CIRCLE
  5
15D
330
1F
100
AcDbEntity
  8
0
  6
Continuous
 62
     7
370
    25
100
AcDbCircle
 10
5448.4797935089
 20
4425.6917157954
 30
0.0
 40
188.0
  0
CIRCLE
  5
15E
330
1F
100
AcDbEntity
  8
0
  6
Continuous
 62
     7
370
    25
100
AcDbCircle
 10
5448.4797935089
 20
4425.6917157954
 30
0.0
 40
190.0000000000009
  0
CIRCLE
  5
15F
330
1F
100
AcDbEntity
  8
0
  6
Continuous
 62
     7
370
    25
100
AcDbCircle
 10
5448.4797935089
 20
4425.6917157954
 30
0.0
 40
181.9524975005479
  0
CIRCLE
  5
160
330
1F
100
AcDbEntity
  8
0
  6
Continuous
 62
     7
370
    25
100
AcDbCircle
 10
5448.4797935089
 20
4425.6917157954
 30
0.0
 40
180.0
  0
ARC
  5
161
330
1F
100
AcDbEntity
  8
0
  6
Continuous
 62
     7
370
    25
100
AcDbCircle
 10
5448.4797935089
 20
4425.6917157954
 30
0.0
 40
5.250000000000233
100
AcDbArc
 50
4.6489969208
 51
168.2225755173
  0
LINE
  5
162
330
1F
100
AcDbEntity
  8
0
  6
Continuous
 62
     7
370
    25
100
AcDbLine
 10
5453.7125206481
 20
4426.1172351095
 30
0.0
 11
5443.3403170984
 21
4426.7632951092
 31
0.0
  0
ARC
  5
163
330
1F
100
AcDbEntity
  8
0
  6
Continuous
 62
     7
370
    25
100
AcDbCircle
 10
5448.4797935089
 20
4425.6917157954
 30
0.0
 40
5.250000000000233
100
AcDbArc
 50
184.6489969208
 51
348.2225755173
  0
LINE
  5
164
330
1F
100
AcDbEntity
  8
0
  6
Continuous
 62
     7
370
    25
100
AcDbLine
 10
5443.2470663697
 20
4425.2661964813
 30
0.0
 11
5453.6192699194
 21
4424.6201364816
 31
0.0
  0
ARC
  5
165
330
1F
100
AcDbEntity
  8
0
  6
Continuous
 62
     7
370
    25
100
AcDbCircle
 10
5448.4797935089
 20
4425.6917157954
 30
0.0
 40
5.250000000000233
100
AcDbArc
 50
348.2225755173
 51
4.6489969208
  0
ARC
  5
166
330
1F
100
AcDbEntity
  8
0
  6
Continuous
 62
     7
370
    25
100
AcDbCircle
 10
5448.4797935089
 20
4425.6917157954
 30
0.0
 40
5.250000000000233
100
AcDbArc
 50
168.2225755173
 51
184.6489969208
  0
LWPOLYLINE
  5
167
330
1F
100
AcDbEntity
  8
0
  6
Continuous
 62
     7
370
    25
100
AcDbPolyline
 90
       12
 70
   128
 43
0.0
 10
5453.7291715749
 20
4597.3755962193
 10
5453.5326273862
 20
4597.8034055804
 10
5452.997635533
 20
4598.2008371967
 10
5452.1600307068
 20
4598.5412704021
 10
5451.0759171461
 20
4598.8019023842
 10
5449.8179106764
 20
4598.9652755564
 10
5448.4702747748
 20
4599.0204468973
 10
5447.1232764546
 20
4598.9637209338
 10
5445.867140023
 20
4598.7988972705
 10
5444.7860036987
 20
4598.5370160849
 10
5443.9522838866
 20
4598.1956186377
 10
5443.4218246001
 20
4597.7975723279
  0
ARC
  5
168
330
1F
100
AcDbEntity
  8
0
  6
Continuous
 62
     7
370
    25
100
AcDbCircle
 10
5448.8655357953
 20
4604.671154299
 30
0.0
 40
8.768130969049917
100
AcDbArc
 50
231.6216250222
 51
303.6896890681
  0
LWPOLYLINE
  5
169
330
1F
100
AcDbEntity
  8
0
  6
Continuous
 62
     7
370
    25
100
AcDbPolyline
 90
        8
 70
   128
 43
0.0
 10
5449.149725559
 20
4599.6704084096
 10
5447.7792064829
 20
4599.6691242038
 10
5446.4564312547
 20
4599.5550118529
 10
5445.2715448205
 20
4599.3358479251
 10
5444.3052952325
 20
4599.0265680798
 10
5443.6235308033
 20
4598.6482492274
 10
5443.2727126522
 20
4598.2266731724
 10
5443.2297935089
 20
4598.013498655
  0
LWPOLYLINE
  5
16A
330
1F
100
AcDbEntity
  8
0
  6
Continuous
 62
     7
370
    25
100
AcDbPolyline
 90
        7
 70
   128
 43
0.0
 10
5453.7297935089
 20
4598.013498655
 10
5453.6828385615
 20
4598.2364276836
 10
5453.3242238354
 20
4598.6573389848
 10
5452.6354691884
 20
4599.0343736314
 10
5451.6635121115
 20
4599.3418373355
 10
5450.4745898731
 20
4599.5587769537
 10
5449.149725559
 20
4599.6704084096
  0
LWPOLYLINE
  5
16B
330
1F
100
AcDbEntity
  8
0
  6
Continuous
 62
     7
370
    25
100
AcDbPolyline
 90
        3
 70
   128
 43
0.0
 10
5443.2304154429
 20
4597.3241695409
 10
5443.4269596316
 20
4596.8963601797
 10
5443.7440939916
 20
4596.6287716718
  0
LINE
  5
16C
330
1F
100
AcDbEntity
  8
0
  6
Continuous
 62
     7
370
    25
100
AcDbLine
 10
5453.2154930262
 20
4596.6287716718
 30
0.0
 11
5453.5377624177
 21
4596.9021934323
 31
0.0
  0
ARC
  5
16D
330
1F
100
AcDbEntity
  8
0
  6
Continuous
 62
     7
370
    25
100
AcDbCircle
 10
5453.055562424
 20
4597.3725567943
 30
0.0
 40
0.673616008032078
100
AcDbArc
 50
315.7119254943
 51
0.2585253525
  0
ARC
  5
16E
330
1F
100
AcDbEntity
  8
0
  6
Continuous
 62
     7
370
    25
100
AcDbCircle
 10
5443.9040245938
 20
4597.3272089659
 30
0.0
 40
0.6736160080375674
100
AcDbArc
 50
135.7119254946
 51
180.2585253523
  0
LWPOLYLINE
  5
16F
330
1F
100
AcDbEntity
  8
0
  6
Continuous
 62
     7
370
    25
100
AcDbPolyline
 90
        6
 70
   128
 43
0.0
 10
5448.8626118232
 20
4643.9904627722
 10
5447.8218527449
 20
4643.9750262546
 10
5446.8604510329
 20
4643.8472528832
 10
5446.0943659224
 20
4643.6225540124
 10
5445.615998584
 20
4643.3280316421
 10
5445.4797935089
 20
4643.0436571982
  0
LWPOLYLINE
  5
170
330
1F
100
AcDbEntity
  8
0
  6
Continuous
 62
     7
370
    25
100
AcDbPolyline
 90
        6
 70
   128
 43
0.0
 10
5451.4797935089
 20
4643.0436571982
 10
5451.4765398391
 20
4643.0881048793
 10
5451.2480394098
 20
4643.4115659581
 10
5450.6856476698
 20
4643.6906518106
 10
5449.8571973631
 20
4643.8917005643
 10
5448.8626118232
 20
4643.9904627722
  0
LINE
  5
171
330
1F
100
AcDbEntity
  8
0
  6
Continuous
 62
     7
370
    25
100
AcDbLine
 10
5453.5377624177
 20
4596.9021934323
 30
0.0
 11
5452.9986023624
 21
4596.9242662957
 31
0.0
  0
LINE
  5
172
330
1F
100
AcDbEntity
  8
0
  6
Continuous
 62
     7
370
    25
100
AcDbLine
 10
5444.1523938126
 20
4597.2864243436
 30
0.0
 11
5443.2304154429
 21
4597.3241695409
 31
0.0
  0
ARC
  5
173
330
1F
100
AcDbEntity
  8
0
  6
Continuous
 62
     7
370
    25
100
AcDbCircle
 10
5448.6741266382
 20
4604.197751512
 30
0.0
 40
8.768130969053438
100
AcDbArc
 50
231.6216250222
 51
303.6896890681
  0
LINE
  5
174
330
1F
100
AcDbEntity
  8
0
  6
Continuous
 62
     7
370
    25
100
AcDbLine
 10
5488.4797935089
 20
4653.3197723328
 30
0.0
 11
5408.4797935089
 21
4653.3197723328
 31
0.0
  0
LINE
  5
175
330
1F
100
AcDbEntity
  8
0
  6
Continuous
 62
     7
370
    25
100
AcDbLine
 10
5468.4797935089
 20
4618.3197723328
 30
0.0
 11
5463.0452467657
 21
4618.3197723328
 31
0.0
  0
LINE
  5
176
330
1F
100
AcDbEntity
  8
0
  6
Continuous
 62
     7
370
    25
100
AcDbLine
 10
5433.9143402521
 20
4618.3197723328
 30
0.0
 11
5428.4797936828
 21
4618.3197723328
 31
0.0
  0
LINE
  5
177
330
1F
100
AcDbEntity
  8
0
  6
Continuous
 62
     7
370
    25
100
AcDbLine
 10
5468.4797935089
 20
4663.3197723328
 30
0.0
 11
5428.4797935089
 21
4663.3197723328
 31
0.0
  0
ARC
  5
178
330
1F
100
AcDbEntity
  8
0
  6
Continuous
 62
     7
370
    25
100
AcDbCircle
 10
5448.4797935089
 20
4425.6917157954
 30
0.0
 40
15.00000000000013
100
AcDbArc
 50
180.0
 51
199.4629509463
  0
ARC
  5
179
330
1F
100
AcDbEntity
  8
0
  6
Continuous
 62
     7
370
    25
100
AcDbCircle
 10
5448.4797935089
 20
4425.6917157954
 30
0.0
 40
15.00000000000026
100
AcDbArc
 50
220.5370490537
 51
259.4629509463
  0
ARC
  5
17A
330
1F
100
AcDbEntity
  8
0
  6
Continuous
 62
     7
370
    25
100
AcDbCircle
 10
5448.4797935089
 20
4425.6917157954
 30
0.0
 40
15.00000000000057
100
AcDbArc
 50
280.5370490537
 51
319.4629509463
  0
ARC
  5
17B
330
1F
100
AcDbEntity
  8
0
  6
Continuous
 62
     7
370
    25
100
AcDbCircle
 10
5448.4797935089
 20
4425.6917157954
 30
0.0
 40
14.99999999999982
100
AcDbArc
 50
340.5370490537
 51
19.4629509463
  0
ARC
  5
17C
330
1F
100
AcDbEntity
  8
0
  6
Continuous
 62
     7
370
    25
100
AcDbCircle
 10
5448.4797935089
 20
4425.6917157954
 30
0.0
 40
15.00000000000057
100
AcDbArc
 50
40.5370490537
 51
79.4629509463
  0
ARC
  5
17D
330
1F
100
AcDbEntity
  8
0
  6
Continuous
 62
     7
370
    25
100
AcDbCircle
 10
5448.4797935089
 20
4425.6917157954
 30
0.0
 40
14.99999999999937
100
AcDbArc
 50
100.5370490537
 51
139.4629509463
  0
ARC
  5
17E
330
1F
100
AcDbEntity
  8
0
  6
Continuous
 62
     7
370
    25
100
AcDbCircle
 10
5448.4797935089
 20
4425.6917157954
 30
0.0
 40
15.00000000000038
100
AcDbArc
 50
160.5370490537
 51
180.0
  0
CIRCLE
  5
17F
330
1F
100
AcDbEntity
  8
0
  6
Continuous
 62
     7
370
    25
100
AcDbCircle
 10
5448.4797935089
 20
4425.6917157954
 30
0.0
 40
35.0
  0
CIRCLE
  5
180
330
1F
100
AcDbEntity
  8
0
  6
Continuous
 62
     7
370
    25
100
AcDbCircle
 10
5448.4797935089
 20
4425.6917157954
 30
0.0
 40
35.16921944985916
  0
CIRCLE
  5
181
330
1F
100
AcDbEntity
  8
0
  6
Continuous
 62
     7
370
    25
100
AcDbCircle
 10
5448.4797935089
 20
4425.6917157954
 30
0.0
 40
24.96512544439429
  0
CIRCLE
  5
182
330
1F
100
AcDbEntity
  8
0
  6
Continuous
 62
     7
370
    25
100
AcDbCircle
 10
5448.4797935089
 20
4425.6917157954
 30
0.0
 40
22.0
  0
CIRCLE
  5
183
330
1F
100
AcDbEntity
  8
0
  6
Continuous
 62
     7
370
    25
100
AcDbCircle
 10
5448.4797935089
 20
4425.6917157954
 30
0.0
 40
20.5
  0
CIRCLE
  5
184
330
1F
100
AcDbEntity
  8
0
  6
Continuous
 62
     7
370
    25
100
AcDbCircle
 10
5448.4797935089
 20
4425.6917157954
 30
0.0
 40
19.48700763430406
  0
CIRCLE
  5
185
330
1F
100
AcDbEntity
  8
0
  6
Continuous
 62
     7
370
    25
100
AcDbCircle
 10
5448.4797935089
 20
4425.6917157954
 30
0.0
 40
5.699999999999818
  0
CIRCLE
  5
186
330
1F
100
AcDbEntity
  8
0
  6
Continuous
 62
     7
370
    25
100
AcDbCircle
 10
5462.4797935089
 20
4425.6917157954
 30
0.0
 40
4.999999999999091
  0
CIRCLE
  5
187
330
1F
100
AcDbEntity
  8
0
  6
Continuous
 62
     7
370
    25
100
AcDbCircle
 10
5455.4797935089
 20
4413.5673601424
 30
0.0
 40
5.0
  0
CIRCLE
  5
188
330
1F
100
AcDbEntity
  8
0
  6
Continuous
 62
     7
370
    25
100
AcDbCircle
 10
5441.4797935089
 20
4413.5673601424
 30
0.0
 40
5.0
  0
CIRCLE
  5
189
330
1F
100
AcDbEntity
  8
0
  6
Continuous
 62
     7
370
    25
100
AcDbCircle
 10
5434.4797935089
 20
4425.6917157954
 30
0.0
 40
5.0
  0
CIRCLE
  5
18A
330
1F
100
AcDbEntity
  8
0
  6
Continuous
 62
     7
370
    25
100
AcDbCircle
 10
5441.4797935089
 20
4437.8160714484
 30
0.0
 40
5.0
  0
CIRCLE
  5
18B
330
1F
100
AcDbEntity
  8
0
  6
Continuous
 62
     7
370
    25
100
AcDbCircle
 10
5455.4797935089
 20
4437.8160714484
 30
0.0
 40
5.0
  0
LINE
  5
18C
330
1F
100
AcDbEntity
  8
0
  6
Continuous
 62
     8
370
    25
100
AcDbLine
 10
5437.2760171975
 20
4599.0651910087
 30
0.0
 11
5437.2760171975
 21
4599.8529826807
 31
0.0
  0
LINE
  5
18D
330
1F
100
AcDbEntity
  8
0
  6
Continuous
 62
     8
370
    25
100
AcDbLine
 10
5459.6835698203
 20
4599.0651910087
 30
0.0
 11
5459.6835698203
 21
4599.8529826807
 31
0.0
  0
LINE
  5
18E
330
1F
100
AcDbEntity
  8
0
  6
Continuous
 62
     8
370
    25
100
AcDbLine
 10
5460.4421588413
 20
4597.0275072527
 30
0.0
 11
5460.4421588413
 21
4596.9351890424
 31
0.0
  0
LINE
  5
18F
330
1F
100
AcDbEntity
  8
0
  6
Continuous
 62
     8
370
    25
100
AcDbLine
 10
5436.5174281765
 20
4597.0275072527
 30
0.0
 11
5436.5174281765
 21
4596.9351890424
 31
0.0
  0
LINE
  5
190
330
1F
100
AcDbEntity
  8
0
  6
Continuous
 62
     8
370
    25
100
AcDbLine
 10
5488.4797935089
 20
4638.3197723328
 30
0.0
 11
5451.4797935089
 21
4638.3197723328
 31
0.0
  0
LINE
  5
191
330
1F
100
AcDbEntity
  8
0
  6
Continuous
 62
     8
370
    25
100
AcDbLine
 10
5445.4797935089
 20
4638.3197723328
 30
0.0
 11
5408.4797935089
 21
4638.3197723328
 31
0.0
  0
ENDSEC
  0
SECTION
  2
OBJECTS
  0
DICTIONARY
  5
C
330
0
100
AcDbDictionary
281
     1
  3
ACAD_GROUP
350
D
  3
ACAD_LAYOUT
350
1A
  3
ACAD_MLINESTYLE
350
17
  3
ACAD_PLOTSETTINGS
350
19
  3
ACAD_PLOTSTYLENAME
350
E
  3
ACAD_SCALELIST
350
47
  0
DICTIONARY
  5
D
102
{ACAD_REACTORS
330
C
102
}
330
C
100
AcDbDictionary
281
     1
  0
DICTIONARY
  5
1A
102
{ACAD_REACTORS
330
C
102
}
330
C
100
AcDbDictionary
281
     1
  3
Layout1
350
1E
  3
Layout2
350
26
  3
Model
350
22
  0
DICTIONARY
  5
17
102
{ACAD_REACTORS
330
C
102
}
330
C
100
AcDbDictionary
281
     1
  3
Standard
350
18
  0
DICTIONARY
  5
19
102
{ACAD_REACTORS
330
C
102
}
330
C
100
AcDbDictionary
281
     1
  0
ACDBDICTIONARYWDFLT
  5
E
102
{ACAD_REACTORS
330
C
102
}
330
C
100
AcDbDictionary
281
     1
  3
Normal
350
F
100
AcDbDictionaryWithDefault
340
F
  0
DICTIONARY
  5
47
102
{ACAD_REACTORS
330
C
102
}
330
C
100
AcDbDictionary
281
     1
  3
A0
350
48
  3
A1
350
49
  3
A2
350
4A
  3
A3
350
4B
  3
A4
350
4C
  3
A5
350
4D
  3
A6
350
4E
  3
A7
350
4F
  3
A8
350
50
  3
A9
350
51
  3
B0
350
52
  3
B1
350
53
  3
B2
350
54
  3
B3
350
55
  3
B4
350
56
  3
B5
350
57
  3
B6
350
58
  3
B7
350
59
  3
B8
350
5A
  3
B9
350
5B
  3
C0
350
5C
  3
C1
350
5D
  3
C2
350
5E
  3
C3
350
5F
  3
C4
350
60
  3
C5
350
61
  3
C6
350
62
  3
C7
350
63
  3
C8
350
64
  3
C9
350
65
  3
D0
350
66
  3
D1
350
67
  3
D2
350
68
  0
LAYOUT
  5
1E
102
{ACAD_REACTORS
330
1A
102
}
330
1A
100
AcDbPlotSettings
  1

  2
none_device
  4

  6

 40
0.0
 41
0.0
 42
0.0
 43
0.0
 44
0.0
 45
0.0
 46
0.0
 47
0.0
 48
0.0
 49
0.0
140
0.0
141
0.0
142
1.0
143
1.0
 70
   688
 72
     1
 73
     0
 74
     5
  7

 75
    16
147
1.0
148
0.0
149
0.0
100
AcDbLayout
  1
Layout1
 70
     1
 71
     1
 10
0.0
 20
0.0
 11
420.0
 21
297.0
 12
0.0
 22
0.0
 32
0.0
 14
1.0000000000E+20
 24
1.0000000000E+20
 34
1.0000000000E+20
 15
-1.0000000000E+20
 25
-1.0000000000E+20
 35
-1.0000000000E+20
146
0.0
 13
0.0
 23
0.0
 33
0.0
 16
1.0
 26
0.0
 36
0.0
 17
0.0
 27
1.0
 37
0.0
 76
     0
330
1B
  0
LAYOUT
  5
26
102
{ACAD_REACTORS
330
1A
102
}
330
1A
100
AcDbPlotSettings
  1

  2
none_device
  4

  6

 40
0.0
 41
0.0
 42
0.0
 43
0.0
 44
0.0
 45
0.0
 46
0.0
 47
0.0
 48
0.0
 49
0.0
140
0.0
141
0.0
142
1.0
143
1.0
 70
   688
 72
     1
 73
     0
 74
     5
  7

 75
    16
147
1.0
148
0.0
149
0.0
100
AcDbLayout
  1
Layout2
 70
     1
 71
     2
 10
0.0
 20
0.0
 11
0.0
 21
0.0
 12
0.0
 22
0.0
 32
0.0
 14
0.0
 24
0.0
 34
0.0
 15
0.0
 25
0.0
 35
0.0
146
0.0
 13
0.0
 23
0.0
 33
0.0
 16
1.0
 26
0.0
 36
0.0
 17
0.0
 27
1.0
 37
0.0
 76
     0
330
23
  0
LAYOUT
  5
22
102
{ACAD_REACTORS
330
1A
102
}
330
1A
100
AcDbPlotSettings
  1

  2
none_device
  4
Letter_(8.50_x_11.00_Inches)
  6

 40
6.35
 41
6.35
 42
6.35000508
 43
6.35000508
 44
215.9
 45
279.4
 46
0.0
 47
0.0
 48
0.0
 49
0.0
140
0.0
141
0.0
142
1.0
143
1.0
 70
  1712
 72
     1
 73
     0
 74
     0
  7

 75
     0
147
1.0
148
0.0
149
0.0
100
AcDbLayout
  1
Model
 70
     1
 71
     0
 10
0.0
 20
0.0
 11
20000.0
 21
10000.0
 12
0.0
 22
0.0
 32
0.0
 14
0.0
 24
0.0
 34
0.0
 15
20000.0
 25
10000.0
 35
0.0
146
0.0
 13
0.0
 23
0.0
 33
0.0
 16
1.0
 26
0.0
 36
0.0
 17
0.0
 27
1.0
 37
0.0
 76
     0
330
1F
331
29
  0
MLINESTYLE
  5
18
102
{ACAD_REACTORS
330
17
102
}
330
17
100
AcDbMlineStyle
  2
Standard
 70
     0
  3

 62
   256
 51
90.0
 52
90.0
 71
     2
 49
0.5
 62
   256
  6
BYLAYER
 49
-0.5
 62
   256
  6
BYLAYER
  0
ACDBPLACEHOLDER
  5
F
102
{ACAD_REACTORS
330
E
102
}
330
E
  0
SCALE
  5
48
102
{ACAD_REACTORS
330
47
102
}
330
47
100
AcDbScale
 70
     0
300
1:1
140
1.0
141
1.0
290
     1
  0
SCALE
  5
49
102
{ACAD_REACTORS
330
47
102
}
330
47
100
AcDbScale
 70
     0
300
1:2
140
1.0
141
2.0
290
     0
  0
SCALE
  5
4A
102
{ACAD_REACTORS
330
47
102
}
330
47
100
AcDbScale
 70
     0
300
1:4
140
1.0
141
4.0
290
     0
  0
SCALE
  5
4B
102
{ACAD_REACTORS
330
47
102
}
330
47
100
AcDbScale
 70
     0
300
1:5
140
1.0
141
5.0
290
     0
  0
SCALE
  5
4C
102
{ACAD_REACTORS
330
47
102
}
330
47
100
AcDbScale
 70
     0
300
1:8
140
1.0
141
8.0
290
     0
  0
SCALE
  5
4D
102
{ACAD_REACTORS
330
47
102
}
330
47
100
AcDbScale
 70
     0
300
1:10
140
1.0
141
10.0
290
     0
  0
SCALE
  5
4E
102
{ACAD_REACTORS
330
47
102
}
330
47
100
AcDbScale
 70
     0
300
1:16
140
1.0
141
16.0
290
     0
  0
SCALE
  5
4F
102
{ACAD_REACTORS
330
47
102
}
330
47
100
AcDbScale
 70
     0
300
1:20
140
1.0
141
20.0
290
     0
  0
SCALE
  5
50
102
{ACAD_REACTORS
330
47
102
}
330
47
100
AcDbScale
 70
     0
300
1:30
140
1.0
141
30.0
290
     0
  0
SCALE
  5
51
102
{ACAD_REACTORS
330
47
102
}
330
47
100
AcDbScale
 70
     0
300
1:40
140
1.0
141
40.0
290
     0
  0
SCALE
  5
52
102
{ACAD_REACTORS
330
47
102
}
330
47
100
AcDbScale
 70
     0
300
1:50
140
1.0
141
50.0
290
     0
  0
SCALE
  5
53
102
{ACAD_REACTORS
330
47
102
}
330
47
100
AcDbScale
 70
     0
300
1:100
140
1.0
141
100.0
290
     0
  0
SCALE
  5
54
102
{ACAD_REACTORS
330
47
102
}
330
47
100
AcDbScale
 70
     0
300
2:1
140
2.0
141
1.0
290
     0
  0
SCALE
  5
55
102
{ACAD_REACTORS
330
47
102
}
330
47
100
AcDbScale
 70
     0
300
4:1
140
4.0
141
1.0
290
     0
  0
SCALE
  5
56
102
{ACAD_REACTORS
330
47
102
}
330
47
100
AcDbScale
 70
     0
300
8:1
140
8.0
141
1.0
290
     0
  0
SCALE
  5
57
102
{ACAD_REACTORS
330
47
102
}
330
47
100
AcDbScale
 70
     0
300
10:1
140
10.0
141
1.0
290
     0
  0
SCALE
  5
58
102
{ACAD_REACTORS
330
47
102
}
330
47
100
AcDbScale
 70
     0
300
100:1
140
100.0
141
1.0
290
     0
  0
SCALE
  5
59
102
{ACAD_REACTORS
330
47
102
}
330
47
100
AcDbScale
 70
     0
300
1/128" = 1'-0"
140
0.0078125
141
12.0
290
     0
  0
SCALE
  5
5A
102
{ACAD_REACTORS
330
47
102
}
330
47
100
AcDbScale
 70
     0
300
1/64" = 1'-0"
140
0.015625
141
12.0
290
     0
  0
SCALE
  5
5B
102
{ACAD_REACTORS
330
47
102
}
330
47
100
AcDbScale
 70
     0
300
1/32" = 1'-0"
140
0.03125
141
12.0
290
     0
  0
SCALE
  5
5C
102
{ACAD_REACTORS
330
47
102
}
330
47
100
AcDbScale
 70
     0
300
1/16" = 1'-0"
140
0.0625
141
12.0
290
     0
  0
SCALE
  5
5D
102
{ACAD_REACTORS
330
47
102
}
330
47
100
AcDbScale
 70
     0
300
3/32" = 1'-0"
140
0.09375
141
12.0
290
     0
  0
SCALE
  5
5E
102
{ACAD_REACTORS
330
47
102
}
330
47
100
AcDbScale
 70
     0
300
1/8" = 1'-0"
140
0.125
141
12.0
290
     0
  0
SCALE
  5
5F
102
{ACAD_REACTORS
330
47
102
}
330
47
100
AcDbScale
 70
     0
300
3/16" = 1'-0"
140
0.1875
141
12.0
290
     0
  0
SCALE
  5
60
102
{ACAD_REACTORS
330
47
102
}
330
47
100
AcDbScale
 70
     0
300
1/4" = 1'-0"
140
0.25
141
12.0
290
     0
  0
SCALE
  5
61
102
{ACAD_REACTORS
330
47
102
}
330
47
100
AcDbScale
 70
     0
300
3/8" = 1'-0"
140
0.375
141
12.0
290
     0
  0
SCALE
  5
62
102
{ACAD_REACTORS
330
47
102
}
330
47
100
AcDbScale
 70
     0
300
1/2" = 1'-0"
140
0.5
141
12.0
290
     0
  0
SCALE
  5
63
102
{ACAD_REACTORS
330
47
102
}
330
47
100
AcDbScale
 70
     0
300
3/4" = 1'-0"
140
0.75
141
12.0
290
     0
  0
SCALE
  5
64
102
{ACAD_REACTORS
330
47
102
}
330
47
100
AcDbScale
 70
     0
300
1" = 1'-0"
140
1.0
141
12.0
290
     0
  0
SCALE
  5
65
102
{ACAD_REACTORS
330
47
102
}
330
47
100
AcDbScale
 70
     0
300
1-1/2" = 1'-0"
140
1.5
141
12.0
290
     0
  0
SCALE
  5
66
102
{ACAD_REACTORS
330
47
102
}
330
47
100
AcDbScale
 70
     0
300
3" = 1'-0"
140
3.0
141
12.0
290
     0
  0
SCALE
  5
67
102
{ACAD_REACTORS
330
47
102
}
330
47
100
AcDbScale
 70
     0
300
6" = 1'-0"
140
6.0
141
12.0
290
     0
  0
SCALE
  5
68
102
{ACAD_REACTORS
330
47
102
}
330
47
100
AcDbScale
 70
     0
300
1'-0" = 1'-0"
140
12.0
141
12.0
290
     0
  0
ENDSEC
  0
EOF
