  0
SECTION
  2
HEADER
  9
$ACADVER
  1
AC1015
  9
$ACADMAINTVER
 70
     6
  9
$DWGCODEPAGE
  3
ANSI_1250
  9
$INSBASE
 10
0.0
 20
0.0
 30
0.0
  9
$EXTMIN
 10
4774.0187553361
 20
3909.8430701274
 30
0.0
  9
$EXTMAX
 10
8663.9560696988
 20
5622.4490113816
 30
0.0
  9
$LIMMIN
 10
0.0
 20
0.0
  9
$LIMMAX
 10
420.0
 20
297.0
  9
$ORTHOMODE
 70
     0
  9
$REGENMODE
 70
     1
  9
$FILLMODE
 70
     1
  9
$QTEXTMODE
 70
     0
  9
$MIRRTEXT
 70
     1
  9
$LTSCALE
 40
1.0
  9
$ATTMODE
 70
     1
  9
$TEXTSIZE
 40
3.5
  9
$TRACEWID
 40
1.0
  9
$TEXTSTYLE
  7
Standard
  9
$CLAYER
  8
0
  9
$CELTYPE
  6
ByLayer
  9
$CECOLOR
 62
   256
  9
$CELTSCALE
 40
1.0
  9
$DISPSILH
 70
     0
  9
$DIMSCALE
 40
1.0
  9
$DIMASZ
 40
3.302
  9
$DIMEXO
 40
0.0
  9
$DIMDLI
 40
3.75
  9
$DIMRND
 40
0.0
  9
$DIMDLE
 40
0.0
  9
$DIMEXE
 40
1.0
  9
$DIMTP
 40
0.0
  9
$DIMTM
 40
0.0
  9
$DIMTXT
 40
3.5
  9
$DIMCEN
 40
2.5
  9
$DIMTSZ
 40
0.0
  9
$DIMTOL
 70
     0
  9
$DIMLIM
 70
     0
  9
$DIMTIH
 70
     1
  9
$DIMTOH
 70
     1
  9
$DIMSE1
 70
     0
  9
$DIMSE2
 70
     0
  9
$DIMTAD
 70
     1
  9
$DIMZIN
 70
     0
  9
$DIMBLK
  1

  9
$DIMASO
 70
     1
  9
$DIMSHO
 70
     1
  9
$DIMPOST
  1

  9
$DIMAPOST
  1

  9
$DIMALT
 70
     0
  9
$DIMALTD
 70
     3
  9
$DIMALTF
 40
0.0393700787
  9
$DIMLFAC
 40
1.0
  9
$DIMTOFL
 70
     1
  9
$DIMTVP
 40
0.0
  9
$DIMTIX
 70
     0
  9
$DIMSOXD
 70
     0
  9
$DIMSAH
 70
     0
  9
$DIMBLK1
  1

  9
$DIMBLK2
  1

  9
$DIMSTYLE
  2
ISO-25
  9
$DIMCLRD
 70
     0
  9
$DIMCLRE
 70
     0
  9
$DIMCLRT
 70
     0
  9
$DIMTFAC
 40
1.0
  9
$DIMGAP
 40
1.524
  9
$DIMJUST
 70
     0
  9
$DIMSD1
 70
     0
  9
$DIMSD2
 70
     0
  9
$DIMTOLJ
 70
     0
  9
$DIMTZIN
 70
     0
  9
$DIMALTZ
 70
     0
  9
$DIMALTTZ
 70
     0
  9
$DIMUPT
 70
     0
  9
$DIMDEC
 70
     2
  9
$DIMTDEC
 70
     2
  9
$DIMALTU
 70
     2
  9
$DIMALTTD
 70
     3
  9
$DIMTXSTY
  7
Standard
  9
$DIMAUNIT
 70
     0
  9
$DIMADEC
 70
     2
  9
$DIMALTRND
 40
0.0
  9
$DIMAZIN
 70
     0
  9
$DIMDSEP
 70
    44
  9
$DIMATFIT
 70
     3
  9
$DIMFRAC
 70
     0
  9
$DIMLDRBLK
  1

  9
$DIMLUNIT
 70
     2
  9
$DIMLWD
 70
    -2
  9
$DIMLWE
 70
    -2
  9
$DIMTMOVE
 70
     0
  9
$LUNITS
 70
     2
  9
$LUPREC
 70
     2
  9
$SKETCHINC
 40
1.0
  9
$FILLETRAD
 40
10.0
  9
$AUNITS
 70
     0
  9
$AUPREC
 70
     2
  9
$MENU
  1
.
  9
$ELEVATION
 40
0.0
  9
$PELEVATION
 40
0.0
  9
$THICKNESS
 40
0.0
  9
$LIMCHECK
 70
     0
  9
$CHAMFERA
 40
0.0
  9
$CHAMFERB
 40
0.0
  9
$CHAMFERC
 40
0.0
  9
$CHAMFERD
 40
0.0
  9
$SKPOLY
 70
     0
  9
$TDCREATE
 40
2459097.323321864
  9
$TDUCREATE
 40
2459097.23998853
  9
$TDUPDATE
 40
2459097.323353935
  9
$TDUUPDATE
 40
2459097.240020602
  9
$TDINDWG
 40
0.0000000116
  9
$TDUSRTIMER
 40
0.0000000116
  9
$USRTIMER
 70
     1
  9
$ANGBASE
 50
0.0
  9
$ANGDIR
 70
     0
  9
$PDMODE
 70
     0
  9
$PDSIZE
 40
-1.0
  9
$PLINEWID
 40
0.0
  9
$SPLFRAME
 70
     0
  9
$SPLINETYPE
 70
     6
  9
$SPLINESEGS
 70
     8
  9
$HANDSEED
  5
652
  9
$SURFTAB1
 70
     6
  9
$SURFTAB2
 70
     6
  9
$SURFTYPE
 70
     6
  9
$SURFU
 70
     6
  9
$SURFV
 70
     6
  9
$UCSBASE
  2

  9
$UCSNAME
  2

  9
$UCSORG
 10
0.0
 20
0.0
 30
0.0
  9
$UCSXDIR
 10
1.0
 20
0.0
 30
0.0
  9
$UCSYDIR
 10
0.0
 20
1.0
 30
0.0
  9
$UCSORTHOREF
  2

  9
$UCSORTHOVIEW
 70
     0
  9
$UCSORGTOP
 10
0.0
 20
0.0
 30
0.0
  9
$UCSORGBOTTOM
 10
0.0
 20
0.0
 30
0.0
  9
$UCSORGLEFT
 10
0.0
 20
0.0
 30
0.0
  9
$UCSORGRIGHT
 10
0.0
 20
0.0
 30
0.0
  9
$UCSORGFRONT
 10
0.0
 20
0.0
 30
0.0
  9
$UCSORGBACK
 10
0.0
 20
0.0
 30
0.0
  9
$PUCSBASE
  2

  9
$PUCSNAME
  2

  9
$PUCSORG
 10
0.0
 20
0.0
 30
0.0
  9
$PUCSXDIR
 10
1.0
 20
0.0
 30
0.0
  9
$PUCSYDIR
 10
0.0
 20
1.0
 30
0.0
  9
$PUCSORTHOREF
  2

  9
$PUCSORTHOVIEW
 70
     0
  9
$PUCSORGTOP
 10
0.0
 20
0.0
 30
0.0
  9
$PUCSORGBOTTOM
 10
0.0
 20
0.0
 30
0.0
  9
$PUCSORGLEFT
 10
0.0
 20
0.0
 30
0.0
  9
$PUCSORGRIGHT
 10
0.0
 20
0.0
 30
0.0
  9
$PUCSORGFRONT
 10
0.0
 20
0.0
 30
0.0
  9
$PUCSORGBACK
 10
0.0
 20
0.0
 30
0.0
  9
$USERI1
 70
     0
  9
$USERI2
 70
     0
  9
$USERI3
 70
     0
  9
$USERI4
 70
     0
  9
$USERI5
 70
     0
  9
$USERR1
 40
0.0
  9
$USERR2
 40
0.0
  9
$USERR3
 40
0.0
  9
$USERR4
 40
0.0
  9
$USERR5
 40
0.0
  9
$WORLDVIEW
 70
     1
  9
$SHADEDGE
 70
     3
  9
$SHADEDIF
 70
    70
  9
$TILEMODE
 70
     1
  9
$MAXACTVP
 70
    64
  9
$PINSBASE
 10
0.0
 20
0.0
 30
0.0
  9
$PLIMCHECK
 70
     0
  9
$PEXTMIN
 10
1.0000000000E+20
 20
1.0000000000E+20
 30
1.0000000000E+20
  9
$PEXTMAX
 10
-1.0000000000E+20
 20
-1.0000000000E+20
 30
-1.0000000000E+20
  9
$PLIMMIN
 10
0.0
 20
0.0
  9
$PLIMMAX
 10
420.0
 20
297.0
  9
$UNITMODE
 70
     0
  9
$VISRETAIN
 70
     1
  9
$PLINEGEN
 70
     0
  9
$PSLTSCALE
 70
     1
  9
$TREEDEPTH
 70
  3020
  9
$CMLSTYLE
  2
Standard
  9
$CMLJUST
 70
     0
  9
$CMLSCALE
 40
20.0
  9
$PROXYGRAPHICS
 70
     1
  9
$MEASUREMENT
 70
     1
  9
$CELWEIGHT
370
    -1
  9
$ENDCAPS
280
     0
  9
$JOINSTYLE
280
     0
  9
$LWDISPLAY
290
     1
  9
$INSUNITS
 70
     4
  9
$HYPERLINKBASE
  1

  9
$STYLESHEET
  1

  9
$XEDIT
290
     1
  9
$CEPSNTYPE
380
     0
  9
$PSTYLEMODE
290
     1
  9
$FINGERPRINTGUID
  2
{341a2190-4a34-4a2d-bc18-de038af53027}
  9
$VERSIONGUID
  2
{FAEB1C32-E019-11D5-929B-00C0DF256EC4}
  9
$EXTNAMES
290
     1
  9
$PSVPSCALE
 40
0.0
  9
$OLESTARTUP
290
     0
  0
ENDSEC
  0
SECTION
  2
CLASSES
  0
CLASS
  1
ACDBDICTIONARYWDFLT
  2
AcDbDictionaryWithDefault
  3
ObjectDBX Classes
 90
        0
280
     0
281
     0
  0
CLASS
  1
VISUALSTYLE
  2
AcDbVisualStyle
  3
ObjectDBX Classes
 90
     4095
280
     0
281
     0
  0
CLASS
  1
MATERIAL
  2
AcDbMaterial
  3
ObjectDBX Classes
 90
     1153
280
     0
281
     0
  0
CLASS
  1
SCALE
  2
AcDbScale
  3
ObjectDBX Classes
 90
     1153
280
     0
281
     0
  0
CLASS
  1
TABLESTYLE
  2
AcDbTableStyle
  3
ObjectDBX Classes
 90
     4095
280
     0
281
     0
  0
CLASS
  1
MLEADERSTYLE
  2
AcDbMLeaderStyle
  3
ACDB_MLEADERSTYLE_CLASS
 90
     4095
280
     0
281
     0
  0
CLASS
  1
SUN
  2
AcDbSun
  3
SCENEOE
 90
     1153
280
     0
281
     0
  0
CLASS
  1
ACDBPLACEHOLDER
  2
AcDbPlaceHolder
  3
ObjectDBX Classes
 90
        0
280
     0
281
     0
  0
CLASS
  1
LAYOUT
  2
AcDbLayout
  3
ObjectDBX Classes
 90
        0
280
     0
281
     0
  0
ENDSEC
  0
SECTION
  2
TABLES
  0
TABLE
  2
VPORT
  5
8
330
0
100
AcDbSymbolTable
 70
     1
  0
VPORT
  5
29
330
8
100
AcDbSymbolTableRecord
100
AcDbViewportTableRecord
  2
*Active
 70
     0
 10
0.0
 20
0.0
 11
1.0
 21
1.0
 12
6718.9874125175
 22
4766.1460407545
 13
0.0
 23
0.0
 14
10.0
 24
10.0
 15
10.0
 25
10.0
 16
0.0
 26
0.0
 36
1.0
 17
0.0
 27
0.0
 37
0.0
 40
1746.8580600793
 41
2.2713557279
 42
50.0
 43
0.0
 44
0.0
 50
0.0
 51
0.0
 71
     0
 72
   100
 73
     1
 74
     3
 75
     0
 76
     0
 77
     0
 78
     0
281
     0
 65
     1
110
0.0
120
0.0
130
0.0
111
1.0
121
0.0
131
0.0
112
0.0
122
1.0
132
0.0
 79
     0
146
0.0
  0
ENDTAB
  0
TABLE
  2
LTYPE
  5
5
330
0
100
AcDbSymbolTable
 70
     6
  0
LTYPE
  5
14
330
5
100
AcDbSymbolTableRecord
100
AcDbLinetypeTableRecord
  2
ByBlock
 70
     0
  3

 72
    65
 73
     0
 40
0.0
  0
LTYPE
  5
15
330
5
100
AcDbSymbolTableRecord
100
AcDbLinetypeTableRecord
  2
ByLayer
 70
     0
  3

 72
    65
 73
     0
 40
0.0
  0
LTYPE
  5
16
330
5
100
AcDbSymbolTableRecord
100
AcDbLinetypeTableRecord
  2
Continuous
 70
     0
  3
Solid line
 72
    65
 73
     0
 40
0.0
  0
LTYPE
  5
6E
330
5
100
AcDbSymbolTableRecord
100
AcDbLinetypeTableRecord
  2
HIDDEN
 70
     0
  3
Hidden __ __ __ __ __ __ __ __ __ __ __ __ __ __
 72
    65
 73
     2
 40
1.905
 49
1.27
 74
     0
 49
-0.635
 74
     0
  0
LTYPE
  5
6F
330
5
100
AcDbSymbolTableRecord
100
AcDbLinetypeTableRecord
  2
PHANTOM
 70
     0
  3
Phantom ______  __  __  ______  __  __  ______
 72
    65
 73
     6
 40
12.7
 49
6.35
 74
     0
 49
-1.27
 74
     0
 49
1.27
 74
     0
 49
-1.27
 74
     0
 49
1.27
 74
     0
 49
-1.27
 74
     0
  0
LTYPE
  5
70
330
5
100
AcDbSymbolTableRecord
100
AcDbLinetypeTableRecord
  2
CENTER
 70
     0
  3
Center ____ _ ____ _ ____ _ ____ _ ____ _ ____
 72
    65
 73
     4
 40
10.16
 49
6.35
 74
     0
 49
-1.27
 74
     0
 49
1.27
 74
     0
 49
-1.27
 74
     0
  0
LTYPE
  5
71
330
5
100
AcDbSymbolTableRecord
100
AcDbLinetypeTableRecord
  2
CENTERX2
 70
     0
  3
Center (2x) ________  __  ________  __  _____
 72
    65
 73
     4
 40
20.32
 49
12.7
 74
     0
 49
-2.54
 74
     0
 49
2.54
 74
     0
 49
-2.54
 74
     0
  0
LTYPE
  5
72
330
5
100
AcDbSymbolTableRecord
100
AcDbLinetypeTableRecord
  2
DOT2
 70
     0
  3
Dot (.5x) ........................................
 72
    65
 73
     2
 40
0.635
 49
0.0
 74
     0
 49
-0.635
 74
     0
  0
ENDTAB
  0
TABLE
  2
LAYER
  5
2
330
0
100
AcDbSymbolTable
 70
     1
  0
LAYER
  5
10
330
2
100
AcDbSymbolTableRecord
100
AcDbLayerTableRecord
  2
0
 70
     0
 62
     7
  6
Continuous
370
    -3
390
F
  0
ENDTAB
  0
TABLE
  2
STYLE
  5
3
330
0
100
AcDbSymbolTable
 70
     1
  0
STYLE
  5
11
330
3
100
AcDbSymbolTableRecord
100
AcDbTextStyleTableRecord
  2
Standard
 70
     0
 40
0.0
 41
1.0
 50
0.0
 71
     0
 42
3.5
  3
txt
  4

  0
ENDTAB
  0
TABLE
  2
VIEW
  5
6
330
0
100
AcDbSymbolTable
 70
     0
  0
ENDTAB
  0
TABLE
  2
UCS
  5
7
330
0
100
AcDbSymbolTable
 70
     0
  0
ENDTAB
  0
TABLE
  2
APPID
  5
9
330
0
100
AcDbSymbolTable
 70
     1
  0
APPID
  5
12
330
9
100
AcDbSymbolTableRecord
100
AcDbRegAppTableRecord
  2
ACAD
 70
     0
  0
ENDTAB
  0
TABLE
  2
DIMSTYLE
  5
A
330
0
100
AcDbSymbolTable
 70
     1
100
AcDbDimStyleTable
  0
DIMSTYLE
105
27
330
A
100
AcDbSymbolTableRecord
100
AcDbDimStyleTableRecord
  2
ISO-25
 70
     0
 41
2.5
 42
0.625
 43
3.75
 44
1.25
 73
     0
 74
     0
 77
     1
 78
     8
140
2.5
141
2.5
143
0.0393700787
147
0.625
171
     3
172
     1
178
     0
271
     2
272
     2
274
     3
278
    44
283
     0
284
     8
340
11
  0
ENDTAB
  0
TABLE
  2
BLOCK_RECORD
  5
1
330
0
100
AcDbSymbolTable
 70
     1
  0
BLOCK_RECORD
  5
1F
330
1
100
AcDbSymbolTableRecord
100
AcDbBlockTableRecord
  2
*Model_Space
340
22
  0
BLOCK_RECORD
  5
1B
330
1
100
AcDbSymbolTableRecord
100
AcDbBlockTableRecord
  2
*Paper_Space
340
1E
  0
BLOCK_RECORD
  5
23
330
1
100
AcDbSymbolTableRecord
100
AcDbBlockTableRecord
  2
*Paper_Space0
340
26
  0
ENDTAB
  0
ENDSEC
  0
SECTION
  2
BLOCKS
  0
BLOCK
  5
20
330
1F
100
AcDbEntity
  8
0
100
AcDbBlockBegin
  2
*Model_Space
 70
     0
 10
0.0
 20
0.0
 30
0.0
  3
*Model_Space
  1

  0
ENDBLK
  5
21
330
1F
100
AcDbEntity
  8
0
100
AcDbBlockEnd
  0
BLOCK
  5
1C
330
1B
100
AcDbEntity
 67
     1
  8
0
100
AcDbBlockBegin
  2
*Paper_Space
 70
     0
 10
0.0
 20
0.0
 30
0.0
  3
*Paper_Space
  1

  0
ENDBLK
  5
1D
330
1B
100
AcDbEntity
 67
     1
  8
0
100
AcDbBlockEnd
  0
BLOCK
  5
24
330
23
100
AcDbEntity
  8
0
100
AcDbBlockBegin
  2
*Paper_Space0
 70
     0
 10
0.0
 20
0.0
 30
0.0
  3
*Paper_Space0
  1

  0
ENDBLK
  5
25
330
23
100
AcDbEntity
  8
0
100
AcDbBlockEnd
  0
ENDSEC
  0
SECTION
  2
ENTITIES
  0
ARC
  5
73
330
1F
100
AcDbEntity
  8
0
  6
Continuous
 62
     7
100
AcDbCircle
 10
4902.1891591458
 20
4931.9657900893
 30
0.0
 40
3.00000000000055
100
AcDbArc
 50
90.000625557
 51
173.3453670336
  0
ARC
  5
74
330
1F
100
AcDbEntity
  8
0
  6
Continuous
 62
     7
100
AcDbCircle
 10
4950.8484182836
 20
4931.9657900893
 30
0.0
 40
2.999999999998725
100
AcDbArc
 50
6.6546329664
 51
89.9993744431
  0
ARC
  5
75
330
1F
100
AcDbEntity
  8
0
  6
Continuous
 62
     7
100
AcDbCircle
 10
4906.6390612011
 20
4948.6709156595
 30
0.0
 40
3.000000000000987
100
AcDbArc
 50
89.9994507205
 51
153.8444272347
  0
ARC
  5
76
330
1F
100
AcDbEntity
  8
0
  6
Continuous
 62
     7
100
AcDbCircle
 10
4946.3984494899
 20
4948.6709156596
 30
0.0
 40
3.000000000000284
100
AcDbArc
 50
26.1555690837
 51
89.9992746696
  0
ARC
  5
77
330
1F
100
AcDbEntity
  8
0
  6
Continuous
 62
     7
100
AcDbCircle
 10
4902.3968915105
 20
4807.9498804173
 30
0.0
 40
3.000000000000512
100
AcDbArc
 50
185.8478511548
 51
270.0003184282
  0
ARC
  5
78
330
1F
100
AcDbEntity
  8
0
  6
Continuous
 62
     7
100
AcDbCircle
 10
4950.6405667096
 20
4807.9498804173
 30
0.0
 40
3.000000000000512
100
AcDbArc
 50
269.9996815718
 51
354.1521488452
  0
ARC
  5
79
330
1F
100
AcDbEntity
  8
0
  6
Continuous
 62
     7
100
AcDbCircle
 10
4906.5187868068
 20
4948.4499386187
 30
0.0
 40
3.00000000000076
100
AcDbArc
 50
149.0380313079
 51
180.0011070104
  0
ARC
  5
7A
330
1F
100
AcDbEntity
  8
0
  6
Continuous
 62
     7
100
AcDbCircle
 10
4946.5187906225
 20
4948.4498273545
 30
0.0
 40
3.000000000001345
100
AcDbArc
 50
0.0010179808
 51
30.9644429706
  0
ARC
  5
7B
330
1F
100
AcDbEntity
  8
0
  6
Continuous
 62
     7
100
AcDbCircle
 10
4926.5187553361
 20
4912.9657967648
 30
0.0
 40
32.99999999999909
100
AcDbArc
 50
0.0
 51
33.7977894052
  0
ARC
  5
7C
330
1F
100
AcDbEntity
  8
0
  6
Continuous
 62
     7
100
AcDbCircle
 10
4926.5187553361
 20
4912.9657967648
 30
0.0
 40
33.0000000000017
100
AcDbArc
 50
146.2022105948
 51
200.4889393132
  0
ARC
  5
7D
330
1F
100
AcDbEntity
  8
0
  6
Continuous
 62
     7
100
AcDbCircle
 10
4926.5187553361
 20
4912.9657967648
 30
0.0
 40
32.99999999999909
100
AcDbArc
 50
339.5110606868
 51
0.0
  0
ARC
  5
7E
330
1F
100
AcDbEntity
  8
0
  6
Continuous
 62
     7
100
AcDbCircle
 10
4926.5187553361
 20
4912.9657967648
 30
0.0
 40
39.99999999999959
100
AcDbArc
 50
0.0
 51
54.9003678046
  0
ARC
  5
7F
330
1F
100
AcDbEntity
  8
0
  6
Continuous
 62
     7
100
AcDbCircle
 10
4926.5187553361
 20
4912.9657967648
 30
0.0
 40
40.00000000000265
100
AcDbArc
 50
125.0996321954
 51
216.1109010358
  0
ARC
  5
80
330
1F
100
AcDbEntity
  8
0
  6
Continuous
 62
     7
100
AcDbCircle
 10
4926.5187553361
 20
4912.9657967648
 30
0.0
 40
39.99999999999909
100
AcDbArc
 50
323.8890989642
 51
0.0
  0
ARC
  5
81
330
1F
100
AcDbEntity
  8
0
  6
Continuous
 62
     7
100
AcDbCircle
 10
4897.0744687188
 20
5600.2842876528
 30
0.0
 40
17.79926466944256
100
AcDbArc
 50
70.6660849665
 51
93.4004015484
  0
ARC
  5
82
330
1F
100
AcDbEntity
  8
0
  6
Continuous
 62
     7
100
AcDbCircle
 10
4894.9627141962
 20
5600.287052133
 30
0.0
 40
17.79652201350455
100
AcDbArc
 50
86.5981520528
 51
109.3356312813
  0
ARC
  5
83
330
1F
100
AcDbEntity
  8
0
  6
Continuous
 62
     7
100
AcDbCircle
 10
4926.518755336
 20
4912.949886165
 30
0.0
 40
40.00000000000085
100
AcDbArc
 50
323.8929885945
 51
22.5226735859
  0
ARC
  5
84
330
1F
100
AcDbEntity
  8
0
  6
Continuous
 62
     7
100
AcDbCircle
 10
5074.018767257
 20
5312.965699679
 30
0.0
 40
20.00000000000103
100
AcDbArc
 50
24.7219584659
 51
155.2780415341
  0
ARC
  5
85
330
1F
100
AcDbEntity
  8
0
  6
Continuous
 62
     7
100
AcDbCircle
 10
5074.018767257
 20
5312.9658926586
 30
0.0
 40
19.99999999999951
100
AcDbArc
 50
204.7219584659
 51
335.2780415341
  0
ARC
  5
86
330
1F
100
AcDbEntity
  8
0
  6
Continuous
 62
     7
100
AcDbCircle
 10
5674.0187612966
 20
5312.9657644089
 30
0.0
 40
20.00000000000092
100
AcDbArc
 50
24.7217543182
 51
155.2782456818
  0
ARC
  5
87
330
1F
100
AcDbEntity
  8
0
  6
Continuous
 62
     7
100
AcDbCircle
 10
5674.0187612966
 20
5312.9658279287
 30
0.0
 40
20.00000000000053
100
AcDbArc
 50
204.7217543182
 51
335.2782456818
  0
ARC
  5
88
330
1F
100
AcDbEntity
  8
0
  6
Continuous
 62
     7
100
AcDbCircle
 10
7474.0187434152
 20
5312.965699679
 30
0.0
 40
19.99999999999989
100
AcDbArc
 50
24.7219584659
 51
155.2780415341
  0
ARC
  5
89
330
1F
100
AcDbEntity
  8
0
  6
Continuous
 62
     7
100
AcDbCircle
 10
7474.0187434152
 20
5312.9658926586
 30
0.0
 40
19.99999999999837
100
AcDbArc
 50
204.7219584659
 51
335.2780415341
  0
ARC
  5
8A
330
1F
100
AcDbEntity
  8
0
  6
Continuous
 62
     7
100
AcDbCircle
 10
6274.0187553361
 20
5312.9657927284
 30
0.0
 40
19.9999999999999
100
AcDbArc
 50
24.7216650031
 51
155.2783349969
  0
ARC
  5
8B
330
1F
100
AcDbEntity
  8
0
  6
Continuous
 62
     7
100
AcDbCircle
 10
6274.0187553361
 20
5312.9657927284
 30
0.0
 40
19.99999712236144
100
AcDbArc
 50
204.7216470975
 51
335.2783529025
  0
ARC
  5
8C
330
1F
100
AcDbEntity
  8
0
  6
Continuous
 62
     7
100
AcDbCircle
 10
6874.0187493756
 20
5312.9657644089
 30
0.0
 40
20.00000000000092
100
AcDbArc
 50
24.7217543182
 51
155.2782456818
  0
ARC
  5
8D
330
1F
100
AcDbEntity
  8
0
  6
Continuous
 62
     7
100
AcDbCircle
 10
6874.0187493756
 20
5312.9658279287
 30
0.0
 40
20.00000000000053
100
AcDbArc
 50
204.7217543182
 51
335.2782456818
  0
ARC
  5
8E
330
1F
100
AcDbEntity
  8
0
  6
Continuous
 62
     7
100
AcDbCircle
 10
5674.1295543672
 20
5535.0756028044
 30
0.0
 40
32.30016155891684
100
AcDbArc
 50
270.3177942276
 51
277.0592179239
  0
ARC
  5
8F
330
1F
100
AcDbEntity
  8
0
  6
Continuous
 62
     7
100
AcDbCircle
 10
5675.9292730622
 20
5520.6864120447
 30
0.0
 40
18.75557675627323
100
AcDbArc
 50
277.5083066905
 51
284.9294691048
  0
ARC
  5
90
330
1F
100
AcDbEntity
  8
0
  6
Continuous
 62
     7
100
AcDbCircle
 10
5678.9411197649
 20
5510.7393256638
 30
0.0
 40
7.435663254129302
100
AcDbArc
 50
284.1692071056
 51
298.0596173113
  0
ARC
  5
91
330
1F
100
AcDbEntity
  8
0
  6
Continuous
 62
     7
100
AcDbCircle
 10
5682.3617138972
 20
5504.2538215841
 30
0.0
 40
0.9027952271404656
100
AcDbArc
 50
304.3210506854
 51
1.5311929654
  0
ARC
  5
92
330
1F
100
AcDbEntity
  8
0
  6
Continuous
 62
     7
100
AcDbCircle
 10
5678.2880505503
 20
5496.829613684
 30
0.0
 40
9.348898174090918
100
AcDbArc
 50
65.4254284304
 51
77.2505041481
  0
ARC
  5
93
330
1F
100
AcDbEntity
  8
0
  6
Continuous
 62
     7
100
AcDbCircle
 10
5674.0311109946
 20
5471.9441017425
 30
0.0
 40
34.65303778707736
100
AcDbArc
 50
85.5780287099
 51
90.4998272583
  0
ARC
  5
94
330
1F
100
AcDbEntity
  8
0
  6
Continuous
 62
     7
100
AcDbCircle
 10
5672.1101680854
 20
5487.709141224
 30
0.0
 40
18.76602200705498
100
AcDbArc
 50
97.5100117729
 51
104.9272166357
  0
ARC
  5
95
330
1F
100
AcDbEntity
  8
0
  6
Continuous
 62
     7
100
AcDbCircle
 10
5665.6758989095
 20
5504.151897459
 30
0.0
 40
0.9029426681981068
100
AcDbArc
 50
124.3215948109
 51
181.5254119251
  0
ARC
  5
96
330
1F
100
AcDbEntity
  8
0
  6
Continuous
 62
     7
100
AcDbCircle
 10
5667.3896406858
 20
5507.2896291816
 30
0.0
 40
3.590982214240863
100
AcDbArc
 50
234.2907613412
 51
244.8141662134
  0
ARC
  5
97
330
1F
100
AcDbEntity
  8
0
  6
Continuous
 62
     7
100
AcDbCircle
 10
5669.7503907421
 20
5511.5793536873
 30
0.0
 40
9.352155108944753
100
AcDbArc
 50
245.4283641467
 51
257.2492483148
  0
ARC
  5
98
330
1F
100
AcDbEntity
  8
0
  6
Continuous
 62
     7
100
AcDbCircle
 10
5673.1061179636
 20
5527.438568407
 30
0.0
 40
24.62459972690421
100
AcDbArc
 50
258.5587891225
 51
265.8745566682
  0
ARC
  5
99
330
1F
100
AcDbEntity
  8
0
  6
Continuous
 62
     7
100
AcDbCircle
 10
5674.005060663
 20
5536.4222799627
 30
0.0
 40
34.61359684142239
100
AcDbArc
 50
265.5752228754
 51
270.502633093
  0
ARC
  5
9A
330
1F
100
AcDbEntity
  8
0
  6
Continuous
 62
     7
100
AcDbCircle
 10
5681.7780120268
 20
5505.3128618429
 30
0.0
 40
1.011452879789252
100
AcDbArc
 50
305.6856637856
 51
346.49097668
  0
ARC
  5
9B
330
1F
100
AcDbEntity
  8
0
  6
Continuous
 62
     7
100
AcDbCircle
 10
5675.8199851512
 20
5520.7540639342
 30
0.0
 40
17.73581134488499
100
AcDbArc
 50
277.293583415
 51
285.1422651192
  0
ARC
  5
9C
330
1F
100
AcDbEntity
  8
0
  6
Continuous
 62
     7
100
AcDbCircle
 10
5674.0067529117
 20
5535.6252669044
 30
0.0
 40
32.7212859597302
100
AcDbArc
 50
265.4326611563
 51
270.6451162671
  0
ARC
  5
9D
330
1F
100
AcDbEntity
  8
0
  6
Continuous
 62
     7
100
AcDbCircle
 10
5669.9866446387
 20
5512.1322357137
 30
0.0
 40
8.834937048908797
100
AcDbArc
 50
245.0797549876
 51
257.5950428298
  0
ARC
  5
9E
330
1F
100
AcDbEntity
  8
0
  6
Continuous
 62
     7
100
AcDbCircle
 10
5674.030748989
 20
5473.7461034752
 30
0.0
 40
32.72167504303751
100
AcDbArc
 50
85.4326792326
 51
90.6451767357
  0
ARC
  5
9F
330
1F
100
AcDbEntity
  8
0
  6
Continuous
 62
     7
100
AcDbCircle
 10
5672.2179712233
 20
5488.615792179
 30
0.0
 40
17.73776152261676
100
AcDbArc
 50
97.2943838786
 51
105.1420120105
  0
ARC
  5
A0
330
1F
100
AcDbEntity
  8
0
  6
Continuous
 62
     7
100
AcDbCircle
 10
5678.051955979
 20
5497.2421145147
 30
0.0
 40
8.83213288940755
100
AcDbArc
 50
65.0790144469
 51
77.5985980147
  0
ARC
  5
A1
330
1F
100
AcDbEntity
  8
0
  6
Continuous
 62
     7
100
AcDbCircle
 10
5666.1340597172
 20
5504.1575116273
 30
0.0
 40
0.8592962439804483
100
AcDbArc
 50
122.7270686664
 51
183.1251749903
  0
ARC
  5
A2
330
1F
100
AcDbEntity
  8
0
  6
Continuous
 62
     7
100
AcDbCircle
 10
5681.9033587108
 20
5504.2483496052
 30
0.0
 40
0.8593988780304049
100
AcDbArc
 50
302.7309264276
 51
3.1231152136
  0
ARC
  5
A3
330
1F
100
AcDbEntity
  8
0
  6
Continuous
 62
     7
100
AcDbCircle
 10
5669.9866446387
 20
5511.1663126428
 30
0.0
 40
8.834937048911314
100
AcDbArc
 50
245.0797549876
 51
257.5950428298
  0
ARC
  5
A4
330
1F
100
AcDbEntity
  8
0
  6
Continuous
 62
     7
100
AcDbCircle
 10
5675.8199851512
 20
5519.7881408633
 30
0.0
 40
17.73581134488499
100
AcDbArc
 50
277.293583415
 51
285.1422651192
  0
ARC
  5
A5
330
1F
100
AcDbEntity
  8
0
  6
Continuous
 62
     7
100
AcDbCircle
 10
5674.0067529117
 20
5534.6593438335
 30
0.0
 40
32.72128595972939
100
AcDbArc
 50
265.4326611563
 51
270.6451162671
  0
ARC
  5
A6
330
1F
100
AcDbEntity
  8
0
  6
Continuous
 62
     7
100
AcDbCircle
 10
6274.1295607184
 20
5535.0756036202
 30
0.0
 40
32.30016222890787
100
AcDbArc
 50
270.3177476007
 51
277.0592157465
  0
ARC
  5
A7
330
1F
100
AcDbEntity
  8
0
  6
Continuous
 62
     7
100
AcDbCircle
 10
6275.9285746971
 20
5520.6901038439
 30
0.0
 40
18.75933011765338
100
AcDbArc
 50
277.5089933965
 51
284.9286968681
  0
ARC
  5
A8
330
1F
100
AcDbEntity
  8
0
  6
Continuous
 62
     7
100
AcDbCircle
 10
6278.9412372051
 20
5510.7389210605
 30
0.0
 40
7.435248162356228
100
AcDbArc
 50
284.1692744714
 51
298.0602447724
  0
ARC
  5
A9
330
1F
100
AcDbEntity
  8
0
  6
Continuous
 62
     7
100
AcDbCircle
 10
6282.3616627699
 20
5504.2538660642
 30
0.0
 40
0.9028689821041648
100
AcDbArc
 50
304.3229002515
 51
1.5282441554
  0
ARC
  5
AA
330
1F
100
AcDbEntity
  8
0
  6
Continuous
 62
     7
100
AcDbCircle
 10
6278.2876723901
 20
5496.8285559259
 30
0.0
 40
9.35001723499899
100
AcDbArc
 50
65.4260187266
 51
77.249568111
  0
ARC
  5
AB
330
1F
100
AcDbEntity
  8
0
  6
Continuous
 62
     7
100
AcDbCircle
 10
6274.0311212424
 20
5471.9443442668
 30
0.0
 40
34.65279529147032
100
AcDbArc
 50
85.5780126134
 51
90.4998344574
  0
ARC
  5
AC
330
1F
100
AcDbEntity
  8
0
  6
Continuous
 62
     7
100
AcDbCircle
 10
6272.110069937
 20
5487.7100150784
 30
0.0
 40
18.76514633844314
100
AcDbArc
 50
97.5101448668
 51
104.9275453978
  0
ARC
  5
AD
330
1F
100
AcDbEntity
  8
0
  6
Continuous
 62
     7
100
AcDbCircle
 10
6265.6758538526
 20
5504.15196594
 30
0.0
 40
0.9028756194777571
100
AcDbArc
 50
124.3230698947
 51
181.5298725273
  0
ARC
  5
AE
330
1F
100
AcDbEntity
  8
0
  6
Continuous
 62
     7
100
AcDbCircle
 10
6267.3886118374
 20
5507.287717309
 30
0.0
 40
3.588819182921549
100
AcDbArc
 50
234.2865078135
 51
244.8158741512
  0
ARC
  5
AF
330
1F
100
AcDbEntity
  8
0
  6
Continuous
 62
     7
100
AcDbCircle
 10
6269.7507571863
 20
5511.5804120765
 30
0.0
 40
9.35327483406731
100
AcDbArc
 50
245.4289543516
 51
257.2483123823
  0
ARC
  5
B0
330
1F
100
AcDbEntity
  8
0
  6
Continuous
 62
     7
100
AcDbCircle
 10
6273.1064792566
 20
5527.4413748624
 30
0.0
 40
24.62742585081835
100
AcDbArc
 50
258.5592171062
 51
265.8741574324
  0
ARC
  5
B1
330
1F
100
AcDbEntity
  8
0
  6
Continuous
 62
     7
100
AcDbCircle
 10
6274.005038494
 20
5536.4220375191
 30
0.0
 40
34.61335442681073
100
AcDbArc
 50
265.5752067518
 51
270.5026403192
  0
ARC
  5
B2
330
1F
100
AcDbEntity
  8
0
  6
Continuous
 62
     7
100
AcDbCircle
 10
6281.7779305643
 20
5505.3129332607
 30
0.0
 40
1.011559277172673
100
AcDbArc
 50
305.6871203567
 51
346.4882642127
  0
ARC
  5
B3
330
1F
100
AcDbEntity
  8
0
  6
Continuous
 62
     7
100
AcDbCircle
 10
6275.8200257766
 20
5520.753472012
 30
0.0
 40
17.73522184505965
100
AcDbArc
 50
277.2937664336
 51
285.1425482064
  0
ARC
  5
B4
330
1F
100
AcDbEntity
  8
0
  6
Continuous
 62
     7
100
AcDbCircle
 10
6274.0067698163
 20
5535.6262806444
 30
0.0
 40
32.72229976601595
100
AcDbArc
 50
265.4327304898
 51
270.6451165811
  0
ARC
  5
B5
330
1F
100
AcDbEntity
  8
0
  6
Continuous
 62
     7
100
AcDbCircle
 10
6269.9868718203
 20
5512.133092285
 30
0.0
 40
8.835817403930449
100
AcDbArc
 50
245.0806503925
 51
257.594945311
  0
ARC
  5
B6
330
1F
100
AcDbEntity
  8
0
  6
Continuous
 62
     7
100
AcDbCircle
 10
6274.0307408559
 20
5473.745478405
 30
0.0
 40
32.72229976601425
100
AcDbArc
 50
85.4327304898
 51
90.6451165811
  0
ARC
  5
B7
330
1F
100
AcDbEntity
  8
0
  6
Continuous
 62
     7
100
AcDbCircle
 10
6272.2174848956
 20
5488.6182870374
 30
0.0
 40
17.73522184505976
100
AcDbArc
 50
97.2937664336
 51
105.1425482063
  0
ARC
  5
B8
330
1F
100
AcDbEntity
  8
0
  6
Continuous
 62
     7
100
AcDbCircle
 10
6278.0516867412
 20
5497.2413521991
 30
0.0
 40
8.832940460300582
100
AcDbArc
 50
65.0794753182
 51
77.5978002814
  0
ARC
  5
B9
330
1F
100
AcDbEntity
  8
0
  6
Continuous
 62
     7
100
AcDbCircle
 10
6266.1341269623
 20
5504.1574600174
 30
0.0
 40
0.8593832677679412
100
AcDbArc
 50
122.7297321714
 51
183.1214122177
  0
ARC
  5
BA
330
1F
100
AcDbEntity
  8
0
  6
Continuous
 62
     7
100
AcDbCircle
 10
6281.9032795301
 20
5504.2484012218
 30
0.0
 40
0.8594859181315304
100
AcDbArc
 50
302.7335898108
 51
3.1193525996
  0
ARC
  5
BB
330
1F
100
AcDbEntity
  8
0
  6
Continuous
 62
     7
100
AcDbCircle
 10
6269.9868718203
 20
5511.1671692141
 30
0.0
 40
8.835817403932944
100
AcDbArc
 50
245.0806503926
 51
257.594945311
  0
ARC
  5
BC
330
1F
100
AcDbEntity
  8
0
  6
Continuous
 62
     7
100
AcDbCircle
 10
6275.8200257766
 20
5519.7875489411
 30
0.0
 40
17.73522184506053
100
AcDbArc
 50
277.2937664336
 51
285.1425482064
  0
ARC
  5
BD
330
1F
100
AcDbEntity
  8
0
  6
Continuous
 62
     7
100
AcDbCircle
 10
6274.0067698163
 20
5534.6603575735
 30
0.0
 40
32.72229976601606
100
AcDbArc
 50
265.4327304898
 51
270.6451165811
  0
ARC
  5
BE
330
1F
100
AcDbEntity
  8
0
  6
Continuous
 62
     7
100
AcDbCircle
 10
5074.1295372404
 20
5535.0764232346
 30
0.0
 40
32.30098226984293
100
AcDbArc
 50
270.3178799704
 51
277.0591321811
  0
ARC
  5
BF
330
1F
100
AcDbEntity
  8
0
  6
Continuous
 62
     7
100
AcDbCircle
 10
5075.9279685187
 20
5520.6931693938
 30
0.0
 40
18.7624513104143
100
AcDbArc
 50
277.5096681487
 51
284.9281076466
  0
ARC
  5
C0
330
1F
100
AcDbEntity
  8
0
  6
Continuous
 62
     7
100
AcDbCircle
 10
5078.94022964
 20
5510.7417233618
 30
0.0
 40
7.4382146582275
100
AcDbArc
 50
284.1716011323
 51
298.057223285
  0
ARC
  5
C1
330
1F
100
AcDbEntity
  8
0
  6
Continuous
 62
     7
100
AcDbCircle
 10
5082.3619111144
 20
5504.2537784581
 30
0.0
 40
0.902634984059003
100
AcDbArc
 50
304.3110052741
 51
1.534203312
  0
ARC
  5
C2
330
1F
100
AcDbEntity
  8
0
  6
Continuous
 62
     7
100
AcDbCircle
 10
5078.2882260583
 20
5496.8298279266
 30
0.0
 40
9.348645220613088
100
AcDbArc
 50
65.4256612538
 51
77.2514060213
  0
ARC
  5
C3
330
1F
100
AcDbEntity
  8
0
  6
Continuous
 62
     7
100
AcDbCircle
 10
5074.0310487267
 20
5471.941415637
 30
0.0
 40
34.65572345520814
100
AcDbArc
 50
85.5782095189
 51
90.4997249913
  0
ARC
  5
C4
330
1F
100
AcDbEntity
  8
0
  6
Continuous
 62
     7
100
AcDbCircle
 10
5072.1107001955
 20
5487.7069483496
 30
0.0
 40
18.76826873547354
100
AcDbArc
 50
97.510819469
 51
104.9269563263
  0
ARC
  5
C5
330
1F
100
AcDbEntity
  8
0
  6
Continuous
 62
     7
100
AcDbCircle
 10
5065.6759524045
 20
5504.1519672498
 30
0.0
 40
0.9029622545864946
100
AcDbArc
 50
124.3312681546
 51
181.5298088452
  0
ARC
  5
C6
330
1F
100
AcDbEntity
  8
0
  6
Continuous
 62
     7
100
AcDbCircle
 10
5067.3922178237
 20
5507.294054028
 30
0.0
 40
3.596093292898812
100
AcDbArc
 50
234.2982607687
 51
244.8066667694
  0
ARC
  5
C7
330
1F
100
AcDbEntity
  8
0
  6
Continuous
 62
     7
100
AcDbCircle
 10
5069.7512988174
 20
5511.5819133438
 30
0.0
 40
9.354870490471484
100
AcDbArc
 50
245.4296923422
 51
257.2467854018
  0
ARC
  5
C8
330
1F
100
AcDbEntity
  8
0
  6
Continuous
 62
     7
100
AcDbCircle
 10
5073.1063347143
 20
5527.4396443444
 30
0.0
 40
24.62569018537443
100
AcDbArc
 50
258.5588729617
 51
265.8741784319
  0
ARC
  5
C9
330
1F
100
AcDbEntity
  8
0
  6
Continuous
 62
     7
100
AcDbCircle
 10
5074.0050253021
 20
5536.4217657927
 30
0.0
 40
34.61308331517544
100
AcDbArc
 50
265.5751762227
 51
270.5027582876
  0
ARC
  5
CA
330
1F
100
AcDbEntity
  8
0
  6
Continuous
 62
     7
100
AcDbCircle
 10
5081.7784464426
 20
5505.3126538871
 30
0.0
 40
1.011016683987434
100
AcDbArc
 50
305.6714448087
 51
346.4971582613
  0
ARC
  5
CB
330
1F
100
AcDbEntity
  8
0
  6
Continuous
 62
     7
100
AcDbCircle
 10
5075.8214809958
 20
5520.7458170317
 30
0.0
 40
17.7274382472923
100
AcDbArc
 50
277.2920953295
 51
285.1443005596
  0
ARC
  5
CC
330
1F
100
AcDbEntity
  8
0
  6
Continuous
 62
     7
100
AcDbCircle
 10
5074.0067625688
 20
5535.6262452281
 30
0.0
 40
32.72226384431195
100
AcDbArc
 50
265.4327390955
 51
270.6450383278
  0
ARC
  5
CD
330
1F
100
AcDbEntity
  8
0
  6
Continuous
 62
     7
100
AcDbCircle
 10
5069.9866804015
 20
5512.1322357137
 30
0.0
 40
8.834937048909563
100
AcDbArc
 50
245.0797549876
 51
257.5950428298
  0
ARC
  5
CE
330
1F
100
AcDbEntity
  8
0
  6
Continuous
 62
     7
100
AcDbCircle
 10
5074.0307305613
 20
5473.7447364788
 30
0.0
 40
32.72304201376645
100
AcDbArc
 50
85.4327752468
 51
90.6451592635
  0
ARC
  5
CF
330
1F
100
AcDbEntity
  8
0
  6
Continuous
 62
     7
100
AcDbCircle
 10
5072.2183346516
 20
5488.6138395781
 30
0.0
 40
17.73974749209624
100
AcDbArc
 50
97.2948238391
 51
105.1415720509
  0
ARC
  5
D0
330
1F
100
AcDbEntity
  8
0
  6
Continuous
 62
     7
100
AcDbCircle
 10
5078.051901867
 20
5497.2422083418
 30
0.0
 40
8.832060553745285
100
AcDbArc
 50
65.0785798832
 51
77.597897859
  0
ARC
  5
D1
330
1F
100
AcDbEntity
  8
0
  6
Continuous
 62
     7
100
AcDbCircle
 10
5066.1340520395
 20
5504.157467392
 30
0.0
 40
0.8593099737086175
100
AcDbArc
 50
122.7230374157
 51
183.1221711645
  0
ARC
  5
D2
330
1F
100
AcDbEntity
  8
0
  6
Continuous
 62
     7
100
AcDbCircle
 10
5081.9033783362
 20
5504.248393833
 30
0.0
 40
0.8594125829228063
100
AcDbArc
 50
302.7268943625
 51
3.1201123736
  0
ARC
  5
D3
330
1F
100
AcDbEntity
  8
0
  6
Continuous
 62
     7
100
AcDbCircle
 10
5069.9866804015
 20
5511.1663126428
 30
0.0
 40
8.834937048911705
100
AcDbArc
 50
245.0797549876
 51
257.5950428298
  0
ARC
  5
D4
330
1F
100
AcDbEntity
  8
0
  6
Continuous
 62
     7
100
AcDbCircle
 10
5075.8214809958
 20
5519.7798939608
 30
0.0
 40
17.7274382472923
100
AcDbArc
 50
277.2920953295
 51
285.1443005596
  0
ARC
  5
D5
330
1F
100
AcDbEntity
  8
0
  6
Continuous
 62
     7
100
AcDbCircle
 10
5074.0067625688
 20
5534.6603221572
 30
0.0
 40
32.72226384431114
100
AcDbArc
 50
265.4327390956
 51
270.6450383278
  0
ARC
  5
D6
330
1F
100
AcDbEntity
  8
0
  6
Continuous
 62
     7
100
AcDbCircle
 10
6874.1295424462
 20
5535.0756028044
 30
0.0
 40
32.30016155891684
100
AcDbArc
 50
270.3177942276
 51
277.0592179239
  0
ARC
  5
D7
330
1F
100
AcDbEntity
  8
0
  6
Continuous
 62
     7
100
AcDbCircle
 10
6875.9284765909
 20
5520.6909773645
 30
0.0
 40
18.76020545070844
100
AcDbArc
 50
277.5088603204
 51
284.9283680881
  0
ARC
  5
D8
330
1F
100
AcDbEntity
  8
0
  6
Continuous
 62
     7
100
AcDbCircle
 10
6878.9410884371
 20
5510.7392084376
 30
0.0
 40
7.43556893592076
100
AcDbArc
 50
284.1700185331
 51
298.0601741809
  0
ARC
  5
D9
330
1F
100
AcDbEntity
  8
0
  6
Continuous
 62
     7
100
AcDbCircle
 10
6882.3616176992
 20
5504.2539345545
 30
0.0
 40
0.9029360463592023
100
AcDbArc
 50
304.3214255589
 51
1.5237830274
  0
ARC
  5
DA
330
1F
100
AcDbEntity
  8
0
  6
Continuous
 62
     7
100
AcDbCircle
 10
6878.2880386293
 20
5496.829613684
 30
0.0
 40
9.348898174090918
100
AcDbArc
 50
65.4254284304
 51
77.2505041481
  0
ARC
  5
DB
330
1F
100
AcDbEntity
  8
0
  6
Continuous
 62
     7
100
AcDbCircle
 10
6874.0310990737
 20
5471.9441017425
 30
0.0
 40
34.65303778707724
100
AcDbArc
 50
85.5780287099
 51
90.4998272584
  0
ARC
  5
DC
330
1F
100
AcDbEntity
  8
0
  6
Continuous
 62
     7
100
AcDbCircle
 10
6872.1093708263
 20
5487.713710659
 30
0.0
 40
18.76138912614183
100
AcDbArc
 50
97.5094578557
 51
104.9283179396
  0
ARC
  5
DD
330
1F
100
AcDbEntity
  8
0
  6
Continuous
 62
     7
100
AcDbCircle
 10
6865.6758027338
 20
5504.1520104141
 30
0.0
 40
0.9028018742016659
100
AcDbArc
 50
124.3212205883
 51
181.532821053
  0
ARC
  5
DE
330
1F
100
AcDbEntity
  8
0
  6
Continuous
 62
     7
100
AcDbCircle
 10
6867.3896287651
 20
5507.2896291814
 30
0.0
 40
3.590982214241566
100
AcDbArc
 50
234.2907613375
 51
244.8141662083
  0
ARC
  5
DF
330
1F
100
AcDbEntity
  8
0
  6
Continuous
 62
     7
100
AcDbCircle
 10
6869.7503788211
 20
5511.5793536873
 30
0.0
 40
9.352155108944753
100
AcDbArc
 50
245.4283641467
 51
257.2492483148
  0
ARC
  5
E0
330
1F
100
AcDbEntity
  8
0
  6
Continuous
 62
     7
100
AcDbCircle
 10
6873.1061060427
 20
5527.438568407
 30
0.0
 40
24.62459972690421
100
AcDbArc
 50
258.5587891225
 51
265.8745566682
  0
ARC
  5
E1
330
1F
100
AcDbEntity
  8
0
  6
Continuous
 62
     7
100
AcDbCircle
 10
6874.0050487421
 20
5536.4222799627
 30
0.0
 40
34.61359684142248
100
AcDbArc
 50
265.5752228754
 51
270.5026330929
  0
ARC
  5
E2
330
1F
100
AcDbEntity
  8
0
  6
Continuous
 62
     7
100
AcDbCircle
 10
6881.7780001059
 20
5505.3128618429
 30
0.0
 40
1.011452879789464
100
AcDbArc
 50
305.6856637856
 51
346.4909766799
  0
ARC
  5
E3
330
1F
100
AcDbEntity
  8
0
  6
Continuous
 62
     7
100
AcDbCircle
 10
6875.8195394489
 20
5520.7559668704
 30
0.0
 40
17.73776152261555
100
AcDbArc
 50
277.2943838786
 51
285.1420120105
  0
ARC
  5
E4
330
1F
100
AcDbEntity
  8
0
  6
Continuous
 62
     7
100
AcDbCircle
 10
6874.0067616832
 20
5535.6256555742
 30
0.0
 40
32.72167504303922
100
AcDbArc
 50
265.4326792326
 51
270.6451767357
  0
ARC
  5
E5
330
1F
100
AcDbEntity
  8
0
  6
Continuous
 62
     7
100
AcDbCircle
 10
6869.9866025003
 20
5512.1323297929
 30
0.0
 40
8.835009636811794
100
AcDbArc
 50
245.08018978
 51
257.5957427985
  0
ARC
  5
E6
330
1F
100
AcDbEntity
  8
0
  6
Continuous
 62
     7
100
AcDbCircle
 10
6874.0307577605
 20
5473.746492145
 30
0.0
 40
32.72128595972847
100
AcDbArc
 50
85.4326611563
 51
90.6451162671
  0
ARC
  5
E7
330
1F
100
AcDbEntity
  8
0
  6
Continuous
 62
     7
100
AcDbCircle
 10
6872.217525521
 20
5488.6176951152
 30
0.0
 40
17.73581134488429
100
AcDbArc
 50
97.293583415
 51
105.1422651192
  0
ARC
  5
E8
330
1F
100
AcDbEntity
  8
0
  6
Continuous
 62
     7
100
AcDbCircle
 10
6878.0519137881
 20
5497.2422083417
 30
0.0
 40
8.832060553744823
100
AcDbArc
 50
65.0785798839
 51
77.5978978602
  0
ARC
  5
E9
330
1F
100
AcDbEntity
  8
0
  6
Continuous
 62
     7
100
AcDbCircle
 10
6866.1340477962
 20
5504.1575116273
 30
0.0
 40
0.8592962439798011
100
AcDbArc
 50
122.7270686587
 51
183.1251749862
  0
ARC
  5
EA
330
1F
100
AcDbEntity
  8
0
  6
Continuous
 62
     7
100
AcDbCircle
 10
6881.9033467898
 20
5504.2483496051
 30
0.0
 40
0.859398878030093
100
AcDbArc
 50
302.7309264352
 51
3.1231152178
  0
ARC
  5
EB
330
1F
100
AcDbEntity
  8
0
  6
Continuous
 62
     7
100
AcDbCircle
 10
6869.9866025003
 20
5511.166406722
 30
0.0
 40
8.835009636811122
100
AcDbArc
 50
245.08018978
 51
257.5957427986
  0
ARC
  5
EC
330
1F
100
AcDbEntity
  8
0
  6
Continuous
 62
     7
100
AcDbCircle
 10
6875.8195394489
 20
5519.7900437995
 30
0.0
 40
17.73776152261468
100
AcDbArc
 50
277.2943838786
 51
285.1420120105
  0
ARC
  5
ED
330
1F
100
AcDbEntity
  8
0
  6
Continuous
 62
     7
100
AcDbCircle
 10
6874.0067616832
 20
5534.6597325033
 30
0.0
 40
32.72167504303842
100
AcDbArc
 50
265.4326792326
 51
270.6451767357
  0
ARC
  5
EE
330
1F
100
AcDbEntity
  8
0
  6
Continuous
 62
     7
100
AcDbCircle
 10
7474.1295133985
 20
5535.0764232346
 30
0.0
 40
32.30098226984293
100
AcDbArc
 50
270.3178799704
 51
277.0591321811
  0
ARC
  5
EF
330
1F
100
AcDbEntity
  8
0
  6
Continuous
 62
     7
100
AcDbCircle
 10
7475.9279446768
 20
5520.6931693938
 30
0.0
 40
18.7624513104143
100
AcDbArc
 50
277.5096681487
 51
284.9281076466
  0
ARC
  5
F0
330
1F
100
AcDbEntity
  8
0
  6
Continuous
 62
     7
100
AcDbCircle
 10
7478.9402057981
 20
5510.7417233618
 30
0.0
 40
7.4382146582275
100
AcDbArc
 50
284.1716011323
 51
298.057223285
  0
ARC
  5
F1
330
1F
100
AcDbEntity
  8
0
  6
Continuous
 62
     7
100
AcDbCircle
 10
7482.3615642236
 20
5504.2538647521
 30
0.0
 40
0.9029556117804016
100
AcDbArc
 50
304.331098382
 51
1.5281807868
  0
ARC
  5
F2
330
1F
100
AcDbEntity
  8
0
  6
Continuous
 62
     7
100
AcDbCircle
 10
7478.2871310686
 20
5496.8270555861
 30
0.0
 40
9.351611913089203
100
AcDbArc
 50
65.4267568373
 51
77.2480409801
  0
ARC
  5
F3
330
1F
100
AcDbEntity
  8
0
  6
Continuous
 62
     7
100
AcDbCircle
 10
7474.0311345638
 20
5471.9446188946
 30
0.0
 40
34.65252127627921
100
AcDbArc
 50
85.5779819846
 51
90.4999525255
  0
ARC
  5
F4
330
1F
100
AcDbEntity
  8
0
  6
Continuous
 62
     7
100
AcDbCircle
 10
7472.1106763536
 20
5487.7069483496
 30
0.0
 40
18.76826873547343
100
AcDbArc
 50
97.510819469
 51
104.9269563263
  0
ARC
  5
F5
330
1F
100
AcDbEntity
  8
0
  6
Continuous
 62
     7
100
AcDbCircle
 10
7465.6756055196
 20
5504.1520535364
 30
0.0
 40
0.902641635367962
100
AcDbArc
 50
124.3111753071
 51
181.5358314288
  0
ARC
  5
F6
330
1F
100
AcDbEntity
  8
0
  6
Continuous
 62
     7
100
AcDbCircle
 10
7467.386325844
 20
5507.2833235811
 30
0.0
 40
3.583885725891739
100
AcDbArc
 50
234.2758820466
 51
244.8185334523
  0
ARC
  5
F7
330
1F
100
AcDbEntity
  8
0
  6
Continuous
 62
     7
100
AcDbCircle
 10
7469.7502032094
 20
5511.5791392159
 30
0.0
 40
9.351901906276659
100
AcDbArc
 50
245.4285969638
 51
257.2501501506
  0
ARC
  5
F8
330
1F
100
AcDbEntity
  8
0
  6
Continuous
 62
     7
100
AcDbCircle
 10
7473.1063108726
 20
5527.4396443444
 30
0.0
 40
24.62569018537474
100
AcDbArc
 50
258.5588729615
 51
265.8741784315
  0
ARC
  5
F9
330
1F
100
AcDbEntity
  8
0
  6
Continuous
 62
     7
100
AcDbCircle
 10
7474.0051109202
 20
5536.4249626532
 30
0.0
 40
34.61627909247258
100
AcDbArc
 50
265.5754038203
 51
270.5025306899
  0
ARC
  5
FA
330
1F
100
AcDbEntity
  8
0
  6
Continuous
 62
     7
100
AcDbCircle
 10
7481.7784226007
 20
5505.3126538871
 30
0.0
 40
1.011016683987912
100
AcDbArc
 50
305.6714448174
 51
346.4971582664
  0
ARC
  5
FB
330
1F
100
AcDbEntity
  8
0
  6
Continuous
 62
     7
100
AcDbCircle
 10
7475.8191760206
 20
5520.7579194713
 30
0.0
 40
17.73974749209503
100
AcDbArc
 50
277.2948238392
 51
285.1415720509
  0
ARC
  5
FC
330
1F
100
AcDbEntity
  8
0
  6
Continuous
 62
     7
100
AcDbCircle
 10
7474.0067801109
 20
5535.6270225706
 30
0.0
 40
32.72304201376634
100
AcDbArc
 50
265.4327752467
 51
270.6451592635
  0
ARC
  5
FD
330
1F
100
AcDbEntity
  8
0
  6
Continuous
 62
     7
100
AcDbCircle
 10
7469.9866565598
 20
5512.1322357137
 30
0.0
 40
8.834937048909559
100
AcDbArc
 50
245.0797549869
 51
257.5950428285
  0
ARC
  5
FE
330
1F
100
AcDbEntity
  8
0
  6
Continuous
 62
     7
100
AcDbCircle
 10
7474.0307481034
 20
5473.7455138213
 30
0.0
 40
32.72226384431023
100
AcDbArc
 50
85.4327390956
 51
90.6450383278
  0
ARC
  5
FF
330
1F
100
AcDbEntity
  8
0
  6
Continuous
 62
     7
100
AcDbCircle
 10
7472.2160296764
 20
5488.6259420177
 30
0.0
 40
17.72743824729235
100
AcDbArc
 50
97.2920953295
 51
105.1443005596
  0
ARC
  5
100
330
1F
100
AcDbEntity
  8
0
  6
Continuous
 62
     7
100
AcDbCircle
 10
7478.0518780253
 20
5497.2422083417
 30
0.0
 40
8.832060553744236
100
AcDbArc
 50
65.0785798839
 51
77.5978978602
  0
ARC
  5
101
330
1F
100
AcDbEntity
  8
0
  6
Continuous
 62
     7
100
AcDbCircle
 10
7466.1340281977
 20
5504.157467392
 30
0.0
 40
0.8593099737086175
100
AcDbArc
 50
122.7230374157
 51
183.1221711645
  0
ARC
  5
102
330
1F
100
AcDbEntity
  8
0
  6
Continuous
 62
     7
100
AcDbCircle
 10
7481.9033544944
 20
5504.248393833
 30
0.0
 40
0.8594125829227106
100
AcDbArc
 50
302.7268943624
 51
3.1201123736
  0
ARC
  5
103
330
1F
100
AcDbEntity
  8
0
  6
Continuous
 62
     7
100
AcDbCircle
 10
7469.9866565598
 20
5511.1663126428
 30
0.0
 40
8.834937048910987
100
AcDbArc
 50
245.079754987
 51
257.5950428285
  0
ARC
  5
104
330
1F
100
AcDbEntity
  8
0
  6
Continuous
 62
     7
100
AcDbCircle
 10
7475.8191760206
 20
5519.7919964004
 30
0.0
 40
17.73974749209503
100
AcDbArc
 50
277.2948238392
 51
285.1415720509
  0
ARC
  5
105
330
1F
100
AcDbEntity
  8
0
  6
Continuous
 62
     7
100
AcDbCircle
 10
7474.0067801109
 20
5534.6610994997
 30
0.0
 40
32.72304201376645
100
AcDbArc
 50
265.4327752468
 51
270.6451592635
  0
CIRCLE
  5
106
330
1F
100
AcDbEntity
  8
0
  6
Continuous
 62
     7
100
AcDbCircle
 10
6874.0187553361
 20
5512.9657967648
 30
0.0
 40
29.49999999999909
  0
CIRCLE
  5
107
330
1F
100
AcDbEntity
  8
0
  6
Continuous
 62
     7
100
AcDbCircle
 10
6874.0187553361
 20
5512.9657967648
 30
0.0
 40
30.0
  0
CIRCLE
  5
108
330
1F
100
AcDbEntity
  8
0
  6
Continuous
 62
     7
100
AcDbCircle
 10
5674.0187553361
 20
5512.9657967648
 30
0.0
 40
29.50000000000091
  0
CIRCLE
  5
109
330
1F
100
AcDbEntity
  8
0
  6
Continuous
 62
     7
100
AcDbCircle
 10
5674.0187553361
 20
5512.9657967648
 30
0.0
 40
30.0
  0
CIRCLE
  5
10A
330
1F
100
AcDbEntity
  8
0
  6
Continuous
 62
     7
100
AcDbCircle
 10
6274.0187553361
 20
5512.9657967648
 30
0.0
 40
29.5
  0
CIRCLE
  5
10B
330
1F
100
AcDbEntity
  8
0
  6
Continuous
 62
     7
100
AcDbCircle
 10
6274.0187553361
 20
5512.9657967648
 30
0.0
 40
30.0
  0
CIRCLE
  5
10C
330
1F
100
AcDbEntity
  8
0
  6
Continuous
 62
     7
100
AcDbCircle
 10
5074.0187553361
 20
5512.9657967648
 30
0.0
 40
29.49999999999909
  0
CIRCLE
  5
10D
330
1F
100
AcDbEntity
  8
0
  6
Continuous
 62
     7
100
AcDbCircle
 10
5074.0187553361
 20
5512.9657967648
 30
0.0
 40
30.0
  0
CIRCLE
  5
10E
330
1F
100
AcDbEntity
  8
0
  6
Continuous
 62
     7
100
AcDbCircle
 10
7474.0187553361
 20
5512.9657967648
 30
0.0
 40
29.50000000000091
  0
CIRCLE
  5
10F
330
1F
100
AcDbEntity
  8
0
  6
Continuous
 62
     7
100
AcDbCircle
 10
7474.0187553361
 20
5512.9657967648
 30
0.0
 40
30.0
  0
ARC
  5
110
330
1F
100
AcDbEntity
  8
0
  6
Continuous
 62
     7
100
AcDbCircle
 10
6274.0187553361
 20
5512.9657967648
 30
0.0
 40
13.99999999999986
100
AcDbArc
 50
200.4424420745
 51
339.5575579255
  0
ARC
  5
111
330
1F
100
AcDbEntity
  8
0
  6
Continuous
 62
     7
100
AcDbCircle
 10
6274.0187553361
 20
5512.9657967648
 30
0.0
 40
12.99999801708533
100
AcDbArc
 50
339.1746247611
 51
200.8253752389
  0
ARC
  5
112
330
1F
100
AcDbEntity
  8
0
  6
Continuous
 62
     7
100
AcDbCircle
 10
6274.0187553361
 20
5512.9657967648
 30
0.0
 40
13.99999999999986
100
AcDbArc
 50
339.5575579255
 51
200.4424420745
  0
ARC
  5
113
330
1F
100
AcDbEntity
  8
0
  6
Continuous
 62
     7
100
AcDbCircle
 10
6274.1491410723
 20
5534.7697931949
 30
0.0
 40
32.50938676488857
100
AcDbArc
 50
270.3984106037
 51
276.930029851
  0
ARC
  5
114
330
1F
100
AcDbEntity
  8
0
  6
Continuous
 62
     7
100
AcDbCircle
 10
6273.148432587
 20
5527.6243656416
 30
0.0
 40
25.32836554834674
100
AcDbArc
 50
258.4768675681
 51
265.893383922
  0
ARC
  5
115
330
1F
100
AcDbEntity
  8
0
  6
Continuous
 62
     7
100
AcDbCircle
 10
7474.0187434152
 20
5512.9657533728
 30
0.0
 40
13.00000000000181
100
AcDbArc
 50
339.1748326974
 51
200.8251673026
  0
ARC
  5
116
330
1F
100
AcDbEntity
  8
0
  6
Continuous
 62
     7
100
AcDbCircle
 10
7474.0187553361
 20
5512.9657967648
 30
0.0
 40
14.00000000000071
100
AcDbArc
 50
339.5575579255
 51
200.4424420745
  0
ARC
  5
117
330
1F
100
AcDbEntity
  8
0
  6
Continuous
 62
     7
100
AcDbCircle
 10
7474.0187553361
 20
5512.9657967648
 30
0.0
 40
14.00000000000071
100
AcDbArc
 50
200.4424420745
 51
339.5575579255
  0
ARC
  5
118
330
1F
100
AcDbEntity
  8
0
  6
Continuous
 62
     7
100
AcDbCircle
 10
7474.1488664346
 20
5534.7748616383
 30
0.0
 40
32.51445729584514
100
AcDbArc
 50
270.3989082625
 51
276.9295193025
  0
ARC
  5
119
330
1F
100
AcDbEntity
  8
0
  6
Continuous
 62
     7
100
AcDbCircle
 10
7473.1487487639
 20
5527.6266589373
 30
0.0
 40
25.33067807003146
100
AcDbArc
 50
258.4771776501
 51
265.892964217
  0
ARC
  5
11A
330
1F
100
AcDbEntity
  8
0
  6
Continuous
 62
     7
100
AcDbCircle
 10
5074.018767257
 20
5512.9657533728
 30
0.0
 40
13.00000000000149
100
AcDbArc
 50
339.1748326974
 51
200.8251673026
  0
ARC
  5
11B
330
1F
100
AcDbEntity
  8
0
  6
Continuous
 62
     7
100
AcDbCircle
 10
5074.0187553361
 20
5512.9657967648
 30
0.0
 40
14.00000000000071
100
AcDbArc
 50
200.4424420745
 51
339.5575579255
  0
ARC
  5
11C
330
1F
100
AcDbEntity
  8
0
  6
Continuous
 62
     7
100
AcDbCircle
 10
5074.0187553361
 20
5512.9657967648
 30
0.0
 40
14.00000000000071
100
AcDbArc
 50
339.5575579255
 51
200.4424420745
  0
ARC
  5
11D
330
1F
100
AcDbEntity
  8
0
  6
Continuous
 62
     7
100
AcDbCircle
 10
5074.1494484272
 20
5534.7642844862
 30
0.0
 40
32.50387568981719
100
AcDbArc
 50
270.3978440925
 51
276.9305834725
  0
ARC
  5
11E
330
1F
100
AcDbEntity
  8
0
  6
Continuous
 62
     7
100
AcDbCircle
 10
5073.1487726058
 20
5527.6266589373
 30
0.0
 40
25.33067807003146
100
AcDbArc
 50
258.4771776501
 51
265.892964217
  0
ARC
  5
11F
330
1F
100
AcDbEntity
  8
0
  6
Continuous
 62
     7
100
AcDbCircle
 10
5674.0187612965
 20
5512.9658317236
 30
0.0
 40
13.00000000000149
100
AcDbArc
 50
339.1744632394
 51
200.8255367606
  0
ARC
  5
120
330
1F
100
AcDbEntity
  8
0
  6
Continuous
 62
     7
100
AcDbCircle
 10
5674.0187553361
 20
5512.9657967648
 30
0.0
 40
13.99999999999869
100
AcDbArc
 50
200.4424420745
 51
339.5575579255
  0
ARC
  5
121
330
1F
100
AcDbEntity
  8
0
  6
Continuous
 62
     7
100
AcDbCircle
 10
5674.0187553361
 20
5512.9657967648
 30
0.0
 40
13.99999999999869
100
AcDbArc
 50
339.5575579255
 51
200.4424420745
  0
ARC
  5
122
330
1F
100
AcDbEntity
  8
0
  6
Continuous
 62
     7
100
AcDbCircle
 10
5674.1491336339
 20
5534.7695723618
 30
0.0
 40
32.50916579064504
100
AcDbArc
 50
270.3983761936
 51
276.9300513714
  0
ARC
  5
123
330
1F
100
AcDbEntity
  8
0
  6
Continuous
 62
     7
100
AcDbCircle
 10
5673.1488107279
 20
5527.6274400057
 30
0.0
 40
25.33145815539773
100
AcDbArc
 50
258.4773668058
 51
265.8930585278
  0
ARC
  5
124
330
1F
100
AcDbEntity
  8
0
  6
Continuous
 62
     7
100
AcDbCircle
 10
6874.0187493757
 20
5512.9658317236
 30
0.0
 40
13.00000000000128
100
AcDbArc
 50
339.1744632394
 51
200.8255367606
  0
ARC
  5
125
330
1F
100
AcDbEntity
  8
0
  6
Continuous
 62
     7
100
AcDbCircle
 10
6874.0187553361
 20
5512.9657967648
 30
0.0
 40
14.00000000000071
100
AcDbArc
 50
339.5575579255
 51
200.4424420745
  0
ARC
  5
126
330
1F
100
AcDbEntity
  8
0
  6
Continuous
 62
     7
100
AcDbCircle
 10
6874.0187553361
 20
5512.9657967648
 30
0.0
 40
14.00000000000071
100
AcDbArc
 50
200.4424420745
 51
339.5575579255
  0
ARC
  5
127
330
1F
100
AcDbEntity
  8
0
  6
Continuous
 62
     7
100
AcDbCircle
 10
6874.1489102484
 20
5534.7738051784
 30
0.0
 40
32.51340039057776
100
AcDbArc
 50
270.398802003
 51
276.9296255621
  0
ARC
  5
128
330
1F
100
AcDbEntity
  8
0
  6
Continuous
 62
     7
100
AcDbCircle
 10
6873.1483480844
 20
5527.623478993
 30
0.0
 40
25.32747503465366
100
AcDbArc
 50
258.476708076
 51
265.8934337911
  0
ARC
  5
129
330
1F
100
AcDbEntity
  8
0
  6
Continuous
 62
     7
100
AcDbCircle
 10
8198.8560768539
 20
4932.9657967648
 30
0.0
 40
20.00000000000106
100
AcDbArc
 50
359.9999692642
 51
90.000030736
  0
ARC
  5
12A
330
1F
100
AcDbEntity
  8
0
  6
Continuous
 62
     7
100
AcDbCircle
 10
8198.8560768539
 20
4892.9657939665
 30
0.0
 40
19.99999999999957
100
AcDbArc
 50
275.1543198901
 51
0.0000011867
  0
ARC
  5
12B
330
1F
100
AcDbEntity
  8
0
  6
Continuous
 62
     7
100
AcDbCircle
 10
8380.3560716087
 20
4939.9657974801
 30
0.0
 40
6.000000000003226
100
AcDbArc
 50
89.9998838871
 51
180.0001161129
  0
ARC
  5
12C
330
1F
100
AcDbEntity
  8
0
  6
Continuous
 62
     7
100
AcDbCircle
 10
8380.3560716087
 20
4885.9657829366
 30
0.0
 40
6.000000000003226
100
AcDbArc
 50
179.9998838871
 51
270.0001161129
  0
ARC
  5
12D
330
1F
100
AcDbEntity
  8
0
  6
Continuous
 62
     7
100
AcDbCircle
 10
8450.6857171516
 20
4931.9657900891
 30
0.0
 40
2.999999999999633
100
AcDbArc
 50
6.6546329698
 51
89.9999436254
  0
ARC
  5
12E
330
1F
100
AcDbEntity
  8
0
  6
Continuous
 62
     7
100
AcDbCircle
 10
8406.4763733516
 20
4948.6709156594
 30
0.0
 40
3.000000000000374
100
AcDbArc
 50
89.9997043953
 51
153.8448599986
  0
ARC
  5
12F
330
1F
100
AcDbEntity
  8
0
  6
Continuous
 62
     7
100
AcDbCircle
 10
8446.2357653631
 20
4948.6709156594
 30
0.0
 40
3.000000000002733
100
AcDbArc
 50
26.1552744358
 51
90.0001686287
  0
ARC
  5
130
330
1F
100
AcDbEntity
  8
0
  6
Continuous
 62
     7
100
AcDbCircle
 10
8185.5413599283
 20
5607.9490068189
 30
0.0
 40
4.324969328317005
100
AcDbArc
 50
206.0594629038
 51
241.476000153
  0
ARC
  5
131
330
1F
100
AcDbEntity
  8
0
  6
Continuous
 62
     7
100
AcDbCircle
 10
8185.5413400785
 20
5607.9490208917
 30
0.0
 40
4.324969328315093
100
AcDbArc
 50
118.5237005553
 51
153.9399385116
  0
ARC
  5
132
330
1F
100
AcDbEntity
  8
0
  6
Continuous
 62
     7
100
AcDbCircle
 10
8185.5413599284
 20
5517.9797294369
 30
0.0
 40
4.3249693283159
100
AcDbArc
 50
206.0594629017
 51
241.476000152
  0
ARC
  5
133
330
1F
100
AcDbEntity
  8
0
  6
Continuous
 62
     7
100
AcDbCircle
 10
8185.5413400785
 20
5517.9797435098
 30
0.0
 40
4.324969328314293
100
AcDbArc
 50
118.5237005553
 51
153.9399385117
  0
ARC
  5
134
330
1F
100
AcDbEntity
  8
0
  6
Continuous
 62
     7
100
AcDbCircle
 10
8402.2342499831
 20
4807.9498804173
 30
0.0
 40
3.000000000000536
100
AcDbArc
 50
185.8478511552
 51
269.9997492462
  0
ARC
  5
135
330
1F
100
AcDbEntity
  8
0
  6
Continuous
 62
     7
100
AcDbCircle
 10
8450.47789538
 20
4807.9498804173
 30
0.0
 40
3.000000000000714
100
AcDbArc
 50
269.9999661618
 51
354.1521488443
  0
ARC
  5
136
330
1F
100
AcDbEntity
  8
0
  6
Continuous
 62
     7
100
AcDbCircle
 10
8369.3560553962
 20
4935.9498837553
 30
0.0
 40
2.999999999999697
100
AcDbArc
 50
89.999599296
 51
179.9998315232
  0
ARC
  5
137
330
1F
100
AcDbEntity
  8
0
  6
Continuous
 62
     7
100
AcDbCircle
 10
8369.3560553962
 20
4889.9498975834
 30
0.0
 40
2.999999999999697
100
AcDbArc
 50
180.0001684768
 51
270.000400704
  0
ARC
  5
138
330
1F
100
AcDbEntity
  8
0
  6
Continuous
 62
     7
100
AcDbCircle
 10
8406.3560558729
 20
4948.449863117
 30
0.0
 40
2.999999999998518
100
AcDbArc
 50
149.0368027122
 51
179.9996650337
  0
ARC
  5
139
330
1F
100
AcDbEntity
  8
0
  6
Continuous
 62
     7
100
AcDbCircle
 10
8446.3560745889
 20
4948.4498780187
 30
0.0
 40
3.000000000001238
100
AcDbArc
 50
0.0000503644
 51
30.9630061112
  0
ARC
  5
13A
330
1F
100
AcDbEntity
  8
0
  6
Continuous
 62
     7
100
AcDbCircle
 10
8216.2601547212
 20
5312.9657860574
 30
0.0
 40
28.00000000000161
100
AcDbArc
 50
15.4636342606
 51
45.5847087679
  0
ARC
  5
13B
330
1F
100
AcDbEntity
  8
0
  6
Continuous
 62
     7
100
AcDbCircle
 10
8216.2601542692
 20
5312.9658058373
 30
0.0
 40
27.9999999999974
100
AcDbArc
 50
314.415292527
 51
344.5348076015
  0
ARC
  5
13C
330
1F
100
AcDbEntity
  8
0
  6
Continuous
 62
     7
100
AcDbCircle
 10
8186.0560804301
 20
5620.2490108295
 30
0.0
 40
2.200000000000933
100
AcDbArc
 50
78.0005868059
 51
179.9994031912
  0
ARC
  5
13D
330
1F
100
AcDbEntity
  8
0
  6
Continuous
 62
     7
100
AcDbCircle
 10
8231.6560625489
 20
5610.5564344939
 30
0.0
 40
2.20000000000019
100
AcDbArc
 50
0.000514192
 51
78.0001894284
  0
ARC
  5
13E
330
1F
100
AcDbEntity
  8
0
  6
Continuous
 62
     7
100
AcDbCircle
 10
8661.6560697013
 20
5200.7657967648
 30
0.0
 40
2.200000000002547
100
AcDbArc
 50
0.0000003125
 51
89.99999969
  0
ARC
  5
13F
330
1F
100
AcDbEntity
  8
0
  6
Continuous
 62
     7
100
AcDbCircle
 10
8403.987289337
 20
4932.0912442144
 30
0.0
 40
2.860414789646762
100
AcDbArc
 50
92.0233201083
 51
175.8644139495
  0
ARC
  5
140
330
1F
100
AcDbEntity
  8
0
  6
Continuous
 62
     7
100
AcDbCircle
 10
8243.8561408375
 20
5485.0177192941
 30
0.0
 40
14.04532662979851
100
AcDbArc
 50
83.2538341642
 51
96.661811633
  0
ARC
  5
141
330
1F
100
AcDbEntity
  8
0
  6
Continuous
 62
     7
100
AcDbCircle
 10
4929.018825279
 20
4388.2578195981
 30
0.0
 40
4.32496932831507
100
AcDbArc
 50
116.060660079
 51
151.476598745
  0
ARC
  5
142
330
1F
100
AcDbEntity
  8
0
  6
Continuous
 62
     7
100
AcDbCircle
 10
4929.018747382
 20
4388.2578195981
 30
0.0
 40
4.324969328314266
100
AcDbArc
 50
28.523401255
 51
63.939339921
  0
ARC
  5
143
330
1F
100
AcDbEntity
  8
0
  6
Continuous
 62
     7
100
AcDbCircle
 10
4789.0186772223
 20
4388.2577402002
 30
0.0
 40
4.324969328313734
100
AcDbArc
 50
116.0582657528
 51
151.4754015953
  0
ARC
  5
144
330
1F
100
AcDbEntity
  8
0
  6
Continuous
 62
     7
100
AcDbCircle
 10
4789.0188048397
 20
4388.2577402002
 30
0.0
 40
4.324969328314666
100
AcDbArc
 50
28.5245984058
 51
63.9417342492
  0
ARC
  5
145
330
1F
100
AcDbEntity
  8
0
  6
Continuous
 62
     7
100
AcDbCircle
 10
4787.5186667319
 20
4388.2577402002
 30
0.0
 40
4.324969328314951
100
AcDbArc
 50
116.0582657528
 51
151.4754015953
  0
ARC
  5
146
330
1F
100
AcDbEntity
  8
0
  6
Continuous
 62
     7
100
AcDbCircle
 10
4896.0187939599
 20
4365.3880852315
 30
0.0
 40
7.501051139090649
100
AcDbArc
 50
180.9624636975
 51
359.0375363025
  0
ARC
  5
147
330
1F
100
AcDbEntity
  8
0
  6
Continuous
 62
     7
100
AcDbCircle
 10
4894.5187238649
 20
4365.3430717645
 30
0.0
 40
3.000000000000207
100
AcDbArc
 50
42.8332191023
 51
137.1667808977
  0
ARC
  5
148
330
1F
100
AcDbEntity
  8
0
  6
Continuous
 62
     7
100
AcDbCircle
 10
4894.5187553361
 20
4365.3430701249
 30
0.0
 40
3.99999999999961
100
AcDbArc
 50
56.6329870308
 51
123.3670129692
  0
ARC
  5
149
330
1F
100
AcDbEntity
  8
0
  6
Continuous
 62
     7
100
AcDbCircle
 10
4894.5187553361
 20
4365.3430701249
 30
0.0
 40
3.99999999999961
100
AcDbArc
 50
236.6329870308
 51
303.3670129692
  0
ARC
  5
14A
330
1F
100
AcDbEntity
  8
0
  6
Continuous
 62
     7
100
AcDbCircle
 10
4894.5187238649
 20
4365.3430486489
 30
0.0
 40
2.999999999999589
100
AcDbArc
 50
222.8332191023
 51
317.1667808977
  0
ARC
  5
14B
330
1F
100
AcDbEntity
  8
0
  6
Continuous
 62
     7
100
AcDbCircle
 10
4894.5187553361
 20
4365.3430701249
 30
0.0
 40
3.99999999999961
100
AcDbArc
 50
123.3670129692
 51
236.6329870308
  0
ARC
  5
14C
330
1F
100
AcDbEntity
  8
0
  6
Continuous
 62
     7
100
AcDbCircle
 10
4894.5187553361
 20
4365.3430701249
 30
0.0
 40
3.99999999999961
100
AcDbArc
 50
303.3670129692
 51
56.6329870308
  0
ARC
  5
14D
330
1F
100
AcDbEntity
  8
0
  6
Continuous
 62
     7
100
AcDbCircle
 10
4926.5187553361
 20
4147.4430701249
 30
0.0
 40
5.250000000000043
100
AcDbArc
 50
98.2132107017
 51
261.7867892983
  0
ARC
  5
14E
330
1F
100
AcDbEntity
  8
0
  6
Continuous
 62
     7
100
AcDbCircle
 10
4926.5187553361
 20
4147.4430701249
 30
0.0
 40
5.250000000000043
100
AcDbArc
 50
278.2132107017
 51
81.7867892983
  0
ARC
  5
14F
330
1F
100
AcDbEntity
  8
0
  6
Continuous
 62
     7
100
AcDbCircle
 10
4926.5187553361
 20
4147.4430701249
 30
0.0
 40
5.250000000000043
100
AcDbArc
 50
81.7867892983
 51
98.2132107017
  0
ARC
  5
150
330
1F
100
AcDbEntity
  8
0
  6
Continuous
 62
     7
100
AcDbCircle
 10
4926.5187553361
 20
4147.4430701249
 30
0.0
 40
5.250000000000043
100
AcDbArc
 50
261.7867892983
 51
278.2132107017
  0
CIRCLE
  5
151
330
1F
100
AcDbEntity
  8
0
  6
Continuous
 62
     7
100
AcDbCircle
 10
4926.5187553361
 20
4147.4430701249
 30
0.0
 40
24.96512544439429
  0
CIRCLE
  5
152
330
1F
100
AcDbEntity
  8
0
  6
Continuous
 62
     7
100
AcDbCircle
 10
4926.5187553361
 20
4147.4430701249
 30
0.0
 40
35.0
  0
CIRCLE
  5
153
330
1F
100
AcDbEntity
  8
0
  6
Continuous
 62
     7
100
AcDbCircle
 10
4926.5187553361
 20
4147.4430701249
 30
0.0
 40
35.16921944985825
  0
CIRCLE
  5
154
330
1F
100
AcDbEntity
  8
0
  6
Continuous
 62
     7
100
AcDbCircle
 10
4926.5187553361
 20
4147.4430701249
 30
0.0
 40
22.0
  0
CIRCLE
  5
155
330
1F
100
AcDbEntity
  8
0
  6
Continuous
 62
     7
100
AcDbCircle
 10
4926.5187553361
 20
4147.4430701249
 30
0.0
 40
20.5
  0
CIRCLE
  5
156
330
1F
100
AcDbEntity
  8
0
  6
Continuous
 62
     7
100
AcDbCircle
 10
4926.5187553361
 20
4147.4430701249
 30
0.0
 40
5.699999999999818
  0
CIRCLE
  5
157
330
1F
100
AcDbEntity
  8
0
  6
Continuous
 62
     7
100
AcDbCircle
 10
4926.5187553361
 20
4161.4430701249
 30
0.0
 40
5.000000000000909
  0
CIRCLE
  5
158
330
1F
100
AcDbEntity
  8
0
  6
Continuous
 62
     7
100
AcDbCircle
 10
4938.6431109891
 20
4154.4430701249
 30
0.0
 40
5.0
  0
CIRCLE
  5
159
330
1F
100
AcDbEntity
  8
0
  6
Continuous
 62
     7
100
AcDbCircle
 10
4938.6431109891
 20
4140.4430701249
 30
0.0
 40
5.0
  0
CIRCLE
  5
15A
330
1F
100
AcDbEntity
  8
0
  6
Continuous
 62
     7
100
AcDbCircle
 10
4926.5187553361
 20
4133.4430701249
 30
0.0
 40
5.000000000000909
  0
CIRCLE
  5
15B
330
1F
100
AcDbEntity
  8
0
  6
Continuous
 62
     7
100
AcDbCircle
 10
4914.3943996831
 20
4140.4430701249
 30
0.0
 40
5.0
  0
CIRCLE
  5
15C
330
1F
100
AcDbEntity
  8
0
  6
Continuous
 62
     7
100
AcDbCircle
 10
4914.3943996831
 20
4154.4430701249
 30
0.0
 40
5.0
  0
LINE
  5
15D
330
1F
100
AcDbEntity
  8
0
  6
Continuous
 62
     7
100
AcDbLine
 10
4960.5187086061
 20
4874.9657877049
 30
0.0
 11
4953.8282064393
 21
4932.3134430013
 31
0.0
  0
LINE
  5
15E
330
1F
100
AcDbEntity
  8
0
  6
Continuous
 62
     7
100
AcDbLine
 10
4899.2093709901
 20
4932.3134430013
 30
0.0
 11
4892.5187496141
 21
4874.9657877049
 31
0.0
  0
LINE
  5
15F
330
1F
100
AcDbEntity
  8
0
  6
Continuous
 62
     7
100
AcDbLine
 10
4892.5187496141
 20
4874.9657877049
 30
0.0
 11
4892.5195840791
 21
4874.9573238454
 31
0.0
  0
LINE
  5
160
330
1F
100
AcDbEntity
  8
0
  6
Continuous
 62
     7
100
AcDbLine
 10
4960.517874141
 20
4874.9573238454
 30
0.0
 11
4960.5187086061
 21
4874.9657877049
 31
0.0
  0
LINE
  5
161
330
1F
100
AcDbEntity
  8
0
  6
Continuous
 62
     7
100
AcDbLine
 10
4910.5187562898
 20
4937.4498732648
 30
0.0
 11
4910.5187562898
 21
4934.9657900891
 31
0.0
  0
LINE
  5
162
330
1F
100
AcDbEntity
  8
0
  6
Continuous
 62
     7
100
AcDbLine
 10
4942.5187019303
 20
4934.9657900891
 30
0.0
 11
4942.5187019303
 21
4937.4498732648
 31
0.0
  0
LINE
  5
163
330
1F
100
AcDbEntity
  8
0
  6
Continuous
 62
     7
100
AcDbLine
 10
7774.0187553361
 20
5622.4490113816
 30
0.0
 11
7772.0187810853
 21
5622.4490113816
 31
0.0
  0
LINE
  5
164
330
1F
100
AcDbEntity
  8
0
  6
Continuous
 62
     7
100
AcDbLine
 10
4776.0187295869
 20
5622.4490113816
 30
0.0
 11
4774.0187553361
 21
5622.4490113816
 31
0.0
  0
LINE
  5
165
330
1F
100
AcDbEntity
  8
0
  6
Continuous
 62
     7
100
AcDbLine
 10
7772.0187810853
 20
5622.4490113816
 30
0.0
 11
4776.0187295869
 21
5622.4490113816
 31
0.0
  0
LINE
  5
166
330
1F
100
AcDbEntity
  8
0
  6
Continuous
 62
     7
100
AcDbLine
 10
4910.5187562898
 20
4952.9657967648
 30
0.0
 11
4910.5187562898
 21
4951.6709156594
 31
0.0
  0
LINE
  5
167
330
1F
100
AcDbEntity
  8
0
  6
Continuous
 62
     7
100
AcDbLine
 10
4910.5187562898
 20
4937.4498732648
 30
0.0
 11
4910.5187562898
 21
4934.9657900891
 31
0.0
  0
LINE
  5
168
330
1F
100
AcDbEntity
  8
0
  6
Continuous
 62
     7
100
AcDbLine
 10
4942.5187019303
 20
4934.9657900891
 30
0.0
 11
4942.5187019303
 21
4937.4498732648
 31
0.0
  0
LINE
  5
169
330
1F
100
AcDbEntity
  8
0
  6
Continuous
 62
     7
100
AcDbLine
 10
4942.5187019303
 20
4951.6709156594
 30
0.0
 11
4942.5187019303
 21
4952.9657967648
 31
0.0
  0
LINE
  5
16A
330
1F
100
AcDbEntity
  8
0
  6
Continuous
 62
     7
100
AcDbLine
 10
4892.5187496141
 20
4874.9498732648
 30
0.0
 11
4899.4125036195
 21
4807.6442189774
 31
0.0
  0
LINE
  5
16B
330
1F
100
AcDbEntity
  8
0
  6
Continuous
 62
     7
100
AcDbLine
 10
4953.6249546006
 20
4807.6442189774
 30
0.0
 11
4960.5187086061
 21
4874.9498732648
 31
0.0
  0
LINE
  5
16C
330
1F
100
AcDbEntity
  8
0
  6
Continuous
 62
     7
100
AcDbLine
 10
4960.5187086061
 20
4874.9498732648
 30
0.0
 11
4960.517874141
 21
4874.9573238454
 31
0.0
  0
LINE
  5
16D
330
1F
100
AcDbEntity
  8
0
  6
Continuous
 62
     7
100
AcDbLine
 10
4892.5195840791
 20
4874.9573238454
 30
0.0
 11
4892.5187496141
 21
4874.9498732648
 31
0.0
  0
LINE
  5
16E
330
1F
100
AcDbEntity
  8
0
  6
Continuous
 62
     7
100
AcDbLine
 10
4951.5187648728
 20
4937.4498732648
 30
0.0
 11
4949.518790622
 21
4941.449881371
 31
0.0
  0
LINE
  5
16F
330
1F
100
AcDbEntity
  8
0
  6
Continuous
 62
     7
100
AcDbLine
 10
4903.5187868074
 20
4941.449881371
 30
0.0
 11
4901.5188125566
 21
4937.4498732648
 31
0.0
  0
LINE
  5
170
330
1F
100
AcDbEntity
  8
0
  6
Continuous
 62
     7
100
AcDbLine
 10
4903.5187868074
 20
4948.4498806558
 30
0.0
 11
4903.5187868074
 21
4941.449881371
 31
0.0
  0
LINE
  5
171
330
1F
100
AcDbEntity
  8
0
  6
Continuous
 62
     7
100
AcDbLine
 10
4949.518790622
 20
4941.449881371
 30
0.0
 11
4949.518790622
 21
4948.4498806558
 31
0.0
  0
LINE
  5
172
330
1F
100
AcDbEntity
  8
0
  6
Continuous
 62
     7
100
AcDbLine
 10
4910.5187562898
 20
4937.4498732648
 30
0.0
 11
4910.5187562898
 21
4934.9657900891
 31
0.0
  0
LINE
  5
173
330
1F
100
AcDbEntity
  8
0
  6
Continuous
 62
     7
100
AcDbLine
 10
4942.5187019303
 20
4934.9657900891
 30
0.0
 11
4942.5187019303
 21
4937.4498732648
 31
0.0
  0
LINE
  5
174
330
1F
100
AcDbEntity
  8
0
  6
Continuous
 62
     7
100
AcDbLine
 10
7472.4280742601
 20
5499.0564592442
 30
0.0
 11
7472.5187925294
 21
5498.9658005795
 31
0.0
  0
LINE
  5
175
330
1F
100
AcDbEntity
  8
0
  6
Continuous
 62
     7
100
AcDbLine
 10
7475.5188135102
 20
5498.9658005795
 30
0.0
 11
7475.6094125703
 21
5499.0564592442
 31
0.0
  0
LINE
  5
176
330
1F
100
AcDbEntity
  8
0
  6
Continuous
 62
     7
100
AcDbLine
 10
5672.4281219438
 20
5499.0564592442
 30
0.0
 11
5672.5187806085
 21
5498.9658005795
 31
0.0
  0
LINE
  5
177
330
1F
100
AcDbEntity
  8
0
  6
Continuous
 62
     7
100
AcDbLine
 10
5675.5187419847
 20
5498.9658005795
 30
0.0
 11
5675.6094006494
 21
5499.0564592442
 31
0.0
  0
LINE
  5
178
330
1F
100
AcDbEntity
  8
0
  6
Continuous
 62
     7
100
AcDbLine
 10
5072.4280981019
 20
5499.0564592442
 30
0.0
 11
5072.518697162
 21
5498.9658005795
 31
0.0
  0
LINE
  5
179
330
1F
100
AcDbEntity
  8
0
  6
Continuous
 62
     7
100
AcDbLine
 10
5075.5187181428
 20
5498.9658005795
 30
0.0
 11
5075.6094364121
 21
5499.0564592442
 31
0.0
  0
LINE
  5
17A
330
1F
100
AcDbEntity
  8
0
  6
Continuous
 62
     7
100
AcDbLine
 10
6272.4280978225
 20
5499.0564592442
 30
0.0
 11
6272.5187553231
 21
5498.9658005795
 31
0.0
  0
LINE
  5
17B
330
1F
100
AcDbEntity
  8
0
  6
Continuous
 62
     7
100
AcDbLine
 10
6275.5187553491
 20
5498.9658005795
 30
0.0
 11
6275.6094128497
 21
5499.0564592442
 31
0.0
  0
LINE
  5
17C
330
1F
100
AcDbEntity
  8
0
  6
Continuous
 62
     7
100
AcDbLine
 10
6872.4281100228
 20
5499.0564592442
 30
0.0
 11
6872.5187686875
 21
5498.9658005795
 31
0.0
  0
LINE
  5
17D
330
1F
100
AcDbEntity
  8
0
  6
Continuous
 62
     7
100
AcDbLine
 10
6875.5187300637
 20
5498.9658005795
 30
0.0
 11
6875.6093887284
 21
5499.0564592442
 31
0.0
  0
LINE
  5
17E
330
1F
100
AcDbEntity
  8
0
  6
Continuous
 62
     7
100
AcDbLine
 10
5664.7687462762
 20
5504.8066087327
 30
0.0
 11
5664.7687462762
 21
5504.2029030881
 31
0.0
  0
LINE
  5
17F
330
1F
100
AcDbEntity
  8
0
  6
Continuous
 62
     7
100
AcDbLine
 10
5683.2687763169
 20
5504.2029030881
 30
0.0
 11
5683.2687763169
 21
5504.8066087327
 31
0.0
  0
LINE
  5
180
330
1F
100
AcDbEntity
  8
0
  6
Continuous
 62
     7
100
AcDbLine
 10
5681.5187839463
 20
5505.168826159
 30
0.0
 11
5681.5187839463
 21
5505.3693957887
 31
0.0
  0
LINE
  5
181
330
1F
100
AcDbEntity
  8
0
  6
Continuous
 62
     7
100
AcDbLine
 10
5666.5187386468
 20
5505.8655150494
 30
0.0
 11
5666.5187386468
 21
5505.168826159
 31
0.0
  0
LINE
  5
182
330
1F
100
AcDbEntity
  8
0
  6
Continuous
 62
     7
100
AcDbLine
 10
6264.7687552169
 20
5504.8066087327
 30
0.0
 11
6264.7687552169
 21
5504.2029030881
 31
0.0
  0
LINE
  5
183
330
1F
100
AcDbEntity
  8
0
  6
Continuous
 62
     7
100
AcDbLine
 10
6283.2687554553
 20
5504.2029030881
 30
0.0
 11
6283.2687554553
 21
5504.8066087327
 31
0.0
  0
LINE
  5
184
330
1F
100
AcDbEntity
  8
0
  6
Continuous
 62
     7
100
AcDbLine
 10
6281.5187551685
 20
5505.168826159
 30
0.0
 11
6281.5187551685
 21
5505.3693957887
 31
0.0
  0
LINE
  5
185
330
1F
100
AcDbEntity
  8
0
  6
Continuous
 62
     7
100
AcDbLine
 10
6266.5187555037
 20
5505.8655150494
 30
0.0
 11
6266.5187555037
 21
5505.168826159
 31
0.0
  0
LINE
  5
186
330
1F
100
AcDbEntity
  8
0
  6
Continuous
 62
     7
100
AcDbLine
 10
5064.768782039
 20
5504.8066087327
 30
0.0
 11
5064.768782039
 21
5504.2029030881
 31
0.0
  0
LINE
  5
187
330
1F
100
AcDbEntity
  8
0
  6
Continuous
 62
     7
100
AcDbLine
 10
5083.2687524751
 20
5504.2029030881
 30
0.0
 11
5083.2687524751
 21
5504.8066087327
 31
0.0
  0
LINE
  5
188
330
1F
100
AcDbEntity
  8
0
  6
Continuous
 62
     7
100
AcDbLine
 10
5081.5187601045
 20
5505.168826159
 30
0.0
 11
5081.5187601045
 21
5505.3693957887
 31
0.0
  0
LINE
  5
189
330
1F
100
AcDbEntity
  8
0
  6
Continuous
 62
     7
100
AcDbLine
 10
5066.5187744096
 20
5505.8655150494
 30
0.0
 11
5066.5187744096
 21
5505.168826159
 31
0.0
  0
LINE
  5
18A
330
1F
100
AcDbEntity
  8
0
  6
Continuous
 62
     7
100
AcDbLine
 10
6864.7687343553
 20
5504.8066087327
 30
0.0
 11
6864.7687343553
 21
5504.2029030881
 31
0.0
  0
LINE
  5
18B
330
1F
100
AcDbEntity
  8
0
  6
Continuous
 62
     7
100
AcDbLine
 10
6883.268764396
 20
5504.2029030881
 30
0.0
 11
6883.268764396
 21
5504.8066087327
 31
0.0
  0
LINE
  5
18C
330
1F
100
AcDbEntity
  8
0
  6
Continuous
 62
     7
100
AcDbLine
 10
6881.5187720254
 20
5505.168826159
 30
0.0
 11
6881.5187720254
 21
5505.3693957887
 31
0.0
  0
LINE
  5
18D
330
1F
100
AcDbEntity
  8
0
  6
Continuous
 62
     7
100
AcDbLine
 10
6866.5187267259
 20
5505.8655150494
 30
0.0
 11
6866.5187267259
 21
5505.168826159
 31
0.0
  0
LINE
  5
18E
330
1F
100
AcDbEntity
  8
0
  6
Continuous
 62
     7
100
AcDbLine
 10
7464.7687581971
 20
5504.8066087327
 30
0.0
 11
7464.7687581971
 21
5504.2029030881
 31
0.0
  0
LINE
  5
18F
330
1F
100
AcDbEntity
  8
0
  6
Continuous
 62
     7
100
AcDbLine
 10
7483.2687286332
 20
5504.2029030881
 30
0.0
 11
7483.2687286332
 21
5504.8066087327
 31
0.0
  0
LINE
  5
190
330
1F
100
AcDbEntity
  8
0
  6
Continuous
 62
     7
100
AcDbLine
 10
7481.5187362626
 20
5505.168826159
 30
0.0
 11
7481.5187362626
 21
5505.3693957887
 31
0.0
  0
LINE
  5
191
330
1F
100
AcDbEntity
  8
0
  6
Continuous
 62
     7
100
AcDbLine
 10
7466.5187505677
 20
5505.8655150494
 30
0.0
 11
7466.5187505677
 21
5505.168826159
 31
0.0
  0
LINE
  5
192
330
1F
100
AcDbEntity
  8
0
  6
Continuous
 62
     7
100
AcDbLine
 10
6275.6687553272
 20
5499.0609295926
 30
0.0
 11
6275.6687553272
 21
5499.063373383
 31
0.0
  0
LINE
  5
193
330
1F
100
AcDbEntity
  8
0
  6
Continuous
 62
     7
100
AcDbLine
 10
7475.6687787965
 20
5499.0609295926
 30
0.0
 11
7475.6687787965
 21
5499.063373383
 31
0.0
  0
LINE
  5
194
330
1F
100
AcDbEntity
  8
0
  6
Continuous
 62
     7
100
AcDbLine
 10
5075.6688026383
 20
5499.0609295926
 30
0.0
 11
5075.6688026383
 21
5499.063373383
 31
0.0
  0
LINE
  5
195
330
1F
100
AcDbEntity
  8
0
  6
Continuous
 62
     7
100
AcDbLine
 10
5675.6687668756
 20
5499.0609295926
 30
0.0
 11
5675.6687668756
 21
5499.063373383
 31
0.0
  0
LINE
  5
196
330
1F
100
AcDbEntity
  8
0
  6
Continuous
 62
     7
100
AcDbLine
 10
6875.6687549546
 20
5499.0609295926
 30
0.0
 11
6875.6687549546
 21
5499.063373383
 31
0.0
  0
LINE
  5
197
330
1F
100
AcDbEntity
  8
0
  6
Continuous
 62
     7
100
AcDbLine
 10
4926.5187887147
 20
4874.9657877049
 30
0.0
 11
4960.5187086061
 21
4874.9657877049
 31
0.0
  0
LINE
  5
198
330
1F
100
AcDbEntity
  8
0
  6
Continuous
 62
     7
100
AcDbLine
 10
4892.5187496141
 20
4874.9657877049
 30
0.0
 11
4926.5187887147
 21
4874.9657877049
 31
0.0
  0
LINE
  5
199
330
1F
100
AcDbEntity
  8
0
  6
Continuous
 62
     7
100
AcDbLine
 10
4902.1891263917
 20
4934.9657900891
 30
0.0
 11
4950.8484510377
 21
4934.9657900891
 31
0.0
  0
LINE
  5
19A
330
1F
100
AcDbEntity
  8
0
  6
Continuous
 62
     7
100
AcDbLine
 10
4926.5187887147
 20
4941.6709251962
 30
0.0
 11
4949.3983892396
 21
4941.6709251962
 31
0.0
  0
LINE
  5
19B
330
1F
100
AcDbEntity
  8
0
  6
Continuous
 62
     7
100
AcDbLine
 10
4903.6390689805
 20
4941.6709251962
 30
0.0
 11
4926.5187887147
 21
4941.6709251962
 31
0.0
  0
LINE
  5
19C
330
1F
100
AcDbEntity
  8
0
  6
Continuous
 62
     7
100
AcDbLine
 10
4926.5187887147
 20
4937.6709170899
 30
0.0
 11
4951.3984826997
 21
4937.6709170899
 31
0.0
  0
LINE
  5
19D
330
1F
100
AcDbEntity
  8
0
  6
Continuous
 62
     7
100
AcDbLine
 10
4901.6390947297
 20
4937.6709170899
 30
0.0
 11
4926.5187887147
 21
4937.6709170899
 31
0.0
  0
LINE
  5
19E
330
1F
100
AcDbEntity
  8
0
  6
Continuous
 62
     7
100
AcDbLine
 10
4926.5187887147
 20
4951.6709156594
 30
0.0
 11
4946.3984874681
 21
4951.6709156594
 31
0.0
  0
LINE
  5
19F
330
1F
100
AcDbEntity
  8
0
  6
Continuous
 62
     7
100
AcDbLine
 10
4906.6390899613
 20
4951.6709156594
 30
0.0
 11
4926.5187887147
 21
4951.6709156594
 31
0.0
  0
LINE
  5
1A0
330
1F
100
AcDbEntity
  8
0
  6
Continuous
 62
     7
100
AcDbLine
 10
4951.1426595643
 20
4934.9354215226
 30
0.0
 11
4951.0425237611
 21
4935.0471206269
 31
0.0
  0
LINE
  5
1A1
330
1F
100
AcDbEntity
  8
0
  6
Continuous
 62
     7
100
AcDbLine
 10
4951.0425237611
 20
4935.0471206269
 30
0.0
 11
4948.6440328553
 21
4937.4498732648
 31
0.0
  0
LINE
  5
1A2
330
1F
100
AcDbEntity
  8
0
  6
Continuous
 62
     7
100
AcDbLine
 10
4904.3934253648
 20
4937.4498732648
 30
0.0
 11
4901.994934459
 21
4935.0471206269
 31
0.0
  0
LINE
  5
1A3
330
1F
100
AcDbEntity
  8
0
  6
Continuous
 62
     7
100
AcDbLine
 10
4901.994934459
 20
4935.0471206269
 30
0.0
 11
4901.8949178651
 21
4934.9354215226
 31
0.0
  0
LINE
  5
1A4
330
1F
100
AcDbEntity
  8
0
  6
Continuous
 62
     7
100
AcDbLine
 10
7727.3687032655
 20
4954.6158023438
 30
0.0
 11
4820.6688074067
 21
4954.6158023438
 31
0.0
  0
LINE
  5
1A5
330
1F
100
AcDbEntity
  8
0
  6
Continuous
 62
     7
100
AcDbLine
 10
4820.6688074067
 20
4954.6158023438
 30
0.0
 11
4820.6688074067
 21
5176.3057958594
 31
0.0
  0
LINE
  5
1A6
330
1F
100
AcDbEntity
  8
0
  6
Continuous
 62
     7
100
AcDbLine
 10
7727.3687032655
 20
5176.3057958594
 30
0.0
 11
4820.6688074067
 21
5176.3057958594
 31
0.0
  0
LINE
  5
1A7
330
1F
100
AcDbEntity
  8
0
  6
Continuous
 62
     7
100
AcDbLine
 10
7727.3687032655
 20
4954.6158023438
 30
0.0
 11
7727.3687032655
 21
5176.3057958594
 31
0.0
  0
LINE
  5
1A8
330
1F
100
AcDbEntity
  8
0
  6
Continuous
 62
     7
100
AcDbLine
 10
7727.3687032655
 20
4952.9657967648
 30
0.0
 11
4820.6688074067
 21
4952.9657967648
 31
0.0
  0
LINE
  5
1A9
330
1F
100
AcDbEntity
  8
0
  6
Continuous
 62
     7
100
AcDbLine
 10
4820.6688074067
 20
4952.9657967648
 30
0.0
 11
4820.6688074067
 21
4954.6158023438
 31
0.0
  0
LINE
  5
1AA
330
1F
100
AcDbEntity
  8
0
  6
Continuous
 62
     7
100
AcDbLine
 10
7727.3687032655
 20
4952.9657967648
 30
0.0
 11
7727.3687032655
 21
4954.6158023438
 31
0.0
  0
LINE
  5
1AB
330
1F
100
AcDbEntity
  8
0
  6
Continuous
 62
     7
100
AcDbLine
 10
4820.6688074067
 20
4954.6158023438
 30
0.0
 11
4819.0187124208
 21
4954.6158023438
 31
0.0
  0
LINE
  5
1AC
330
1F
100
AcDbEntity
  8
0
  6
Continuous
 62
     7
100
AcDbLine
 10
4819.0187124208
 20
4954.6158023438
 30
0.0
 11
4819.0187124208
 21
5176.3057958594
 31
0.0
  0
LINE
  5
1AD
330
1F
100
AcDbEntity
  8
0
  6
Continuous
 62
     7
100
AcDbLine
 10
4819.0187124208
 20
5176.3057958594
 30
0.0
 11
4820.6688074067
 21
5176.3057958594
 31
0.0
  0
LINE
  5
1AE
330
1F
100
AcDbEntity
  8
0
  6
Continuous
 62
     7
100
AcDbLine
 10
7727.3687032655
 20
5177.9557958505
 30
0.0
 11
4820.6688074067
 21
5177.9557958505
 31
0.0
  0
LINE
  5
1AF
330
1F
100
AcDbEntity
  8
0
  6
Continuous
 62
     7
100
AcDbLine
 10
7727.3687032655
 20
5176.3057958594
 30
0.0
 11
7727.3687032655
 21
5177.9557958505
 31
0.0
  0
LINE
  5
1B0
330
1F
100
AcDbEntity
  8
0
  6
Continuous
 62
     7
100
AcDbLine
 10
4820.6688074067
 20
5176.3057958594
 30
0.0
 11
4820.6688074067
 21
5177.9557958505
 31
0.0
  0
LINE
  5
1B1
330
1F
100
AcDbEntity
  8
0
  6
Continuous
 62
     7
100
AcDbLine
 10
7727.3687032655
 20
5176.3057958594
 30
0.0
 11
7729.0187982514
 21
5176.3057958594
 31
0.0
  0
LINE
  5
1B2
330
1F
100
AcDbEntity
  8
0
  6
Continuous
 62
     7
100
AcDbLine
 10
7729.0187982514
 20
4954.6158023438
 30
0.0
 11
7729.0187982514
 21
5176.3057958594
 31
0.0
  0
LINE
  5
1B3
330
1F
100
AcDbEntity
  8
0
  6
Continuous
 62
     7
100
AcDbLine
 10
7729.0187982514
 20
4954.6158023438
 30
0.0
 11
7727.3687032655
 21
4954.6158023438
 31
0.0
  0
LINE
  5
1B4
330
1F
100
AcDbEntity
  8
0
  6
Continuous
 62
     7
100
AcDbLine
 10
7774.0187553361
 20
4952.9657967648
 30
0.0
 11
7774.0187553361
 21
5177.9557958505
 31
0.0
  0
LINE
  5
1B5
330
1F
100
AcDbEntity
  8
0
  6
Continuous
 62
     7
100
AcDbLine
 10
7770.9187177613
 20
4952.9657967648
 30
0.0
 11
7774.0187553361
 21
4952.9657967648
 31
0.0
  0
LINE
  5
1B6
330
1F
100
AcDbEntity
  8
0
  6
Continuous
 62
     7
100
AcDbLine
 10
7770.9187177613
 20
4952.9657967648
 30
0.0
 11
7770.9187177613
 21
5177.9557958505
 31
0.0
  0
LINE
  5
1B7
330
1F
100
AcDbEntity
  8
0
  6
Continuous
 62
     7
100
AcDbLine
 10
7774.0187553361
 20
5177.9557958505
 30
0.0
 11
7770.9187177613
 21
5177.9557958505
 31
0.0
  0
LINE
  5
1B8
330
1F
100
AcDbEntity
  8
0
  6
Continuous
 62
     7
100
AcDbLine
 10
7732.1187166169
 20
4952.9657967648
 30
0.0
 11
7770.9187177613
 21
4952.9657967648
 31
0.0
  0
LINE
  5
1B9
330
1F
100
AcDbEntity
  8
0
  6
Continuous
 62
     7
100
AcDbLine
 10
7732.1187166169
 20
4952.9657967648
 30
0.0
 11
7732.1187166169
 21
5177.9557958505
 31
0.0
  0
LINE
  5
1BA
330
1F
100
AcDbEntity
  8
0
  6
Continuous
 62
     7
100
AcDbLine
 10
7770.9187177613
 20
5177.9557958505
 30
0.0
 11
7732.1187166169
 21
5177.9557958505
 31
0.0
  0
LINE
  5
1BB
330
1F
100
AcDbEntity
  8
0
  6
Continuous
 62
     7
100
AcDbLine
 10
7732.1187166169
 20
4952.9657967648
 30
0.0
 11
7729.0187982514
 21
4952.9657967648
 31
0.0
  0
LINE
  5
1BC
330
1F
100
AcDbEntity
  8
0
  6
Continuous
 62
     7
100
AcDbLine
 10
7729.0187982514
 20
4952.9657967648
 30
0.0
 11
7729.0187982514
 21
4954.6158023438
 31
0.0
  0
LINE
  5
1BD
330
1F
100
AcDbEntity
  8
0
  6
Continuous
 62
     7
100
AcDbLine
 10
7729.0187982514
 20
5176.3057958594
 30
0.0
 11
7729.0187982514
 21
5177.9557958505
 31
0.0
  0
LINE
  5
1BE
330
1F
100
AcDbEntity
  8
0
  6
Continuous
 62
     7
100
AcDbLine
 10
7729.0187982514
 20
5177.9557958505
 30
0.0
 11
7732.1187166169
 21
5177.9557958505
 31
0.0
  0
LINE
  5
1BF
330
1F
100
AcDbEntity
  8
0
  6
Continuous
 62
     7
100
AcDbLine
 10
7774.0187553361
 20
5202.9657967648
 30
0.0
 11
7772.0187810853
 21
5202.9657967648
 31
0.0
  0
LINE
  5
1C0
330
1F
100
AcDbEntity
  8
0
  6
Continuous
 62
     7
100
AcDbLine
 10
7774.0187553361
 20
5202.9657967648
 30
0.0
 11
7774.0187553361
 21
5200.7657967768
 31
0.0
  0
LINE
  5
1C1
330
1F
100
AcDbEntity
  8
0
  6
Continuous
 62
     7
100
AcDbLine
 10
7774.0187553361
 20
5200.7657967768
 30
0.0
 11
7772.0187810853
 21
5200.7657967768
 31
0.0
  0
LINE
  5
1C2
330
1F
100
AcDbEntity
  8
0
  6
Continuous
 62
     7
100
AcDbLine
 10
7772.0187810853
 20
5202.9657967648
 30
0.0
 11
7772.0187810853
 21
5200.7657967768
 31
0.0
  0
LINE
  5
1C3
330
1F
100
AcDbEntity
  8
0
  6
Continuous
 62
     7
100
AcDbLine
 10
7774.0187553361
 20
5200.7657967768
 30
0.0
 11
7774.0187553361
 21
5177.9657963923
 31
0.0
  0
LINE
  5
1C4
330
1F
100
AcDbEntity
  8
0
  6
Continuous
 62
     7
100
AcDbLine
 10
7774.0187553361
 20
5177.9657963923
 30
0.0
 11
7772.0187810853
 21
5177.9657963923
 31
0.0
  0
LINE
  5
1C5
330
1F
100
AcDbEntity
  8
0
  6
Continuous
 62
     7
100
AcDbLine
 10
7772.0187810853
 20
5200.7657967768
 30
0.0
 11
7772.0187810853
 21
5177.9657963923
 31
0.0
  0
LINE
  5
1C6
330
1F
100
AcDbEntity
  8
0
  6
Continuous
 62
     7
100
AcDbLine
 10
7774.0187553361
 20
5177.9657963923
 30
0.0
 11
7774.0187553361
 21
5177.9557958505
 31
0.0
  0
LINE
  5
1C7
330
1F
100
AcDbEntity
  8
0
  6
Continuous
 62
     7
100
AcDbLine
 10
7772.0187810853
 20
5177.9657963923
 30
0.0
 11
7772.0187810853
 21
5177.9557958505
 31
0.0
  0
LINE
  5
1C8
330
1F
100
AcDbEntity
  8
0
  6
Continuous
 62
     7
100
AcDbLine
 10
7774.0187553361
 20
5612.7083607278
 30
0.0
 11
7772.0187810853
 21
5612.7083607278
 31
0.0
  0
LINE
  5
1C9
330
1F
100
AcDbEntity
  8
0
  6
Continuous
 62
     7
100
AcDbLine
 10
7774.0187553361
 20
5610.5564542375
 30
0.0
 11
7772.0187810853
 21
5610.5564542375
 31
0.0
  0
LINE
  5
1CA
330
1F
100
AcDbEntity
  8
0
  6
Continuous
 62
     7
100
AcDbLine
 10
7774.0187553361
 20
5612.7083607278
 30
0.0
 11
7774.0187553361
 21
5610.5564542375
 31
0.0
  0
LINE
  5
1CB
330
1F
100
AcDbEntity
  8
0
  6
Continuous
 62
     7
100
AcDbLine
 10
7772.0187810853
 20
5612.7083607278
 30
0.0
 11
7772.0187810853
 21
5610.5564542375
 31
0.0
  0
LINE
  5
1CC
330
1F
100
AcDbEntity
  8
0
  6
Continuous
 62
     7
100
AcDbLine
 10
7774.0187553361
 20
5610.5564542375
 30
0.0
 11
7774.0187553361
 21
5202.9657967648
 31
0.0
  0
LINE
  5
1CD
330
1F
100
AcDbEntity
  8
0
  6
Continuous
 62
     7
100
AcDbLine
 10
7772.0187810853
 20
5610.5564542375
 30
0.0
 11
7772.0187810853
 21
5202.9657967648
 31
0.0
  0
LINE
  5
1CE
330
1F
100
AcDbEntity
  8
0
  6
Continuous
 62
     7
100
AcDbLine
 10
7774.0187553361
 20
5622.4009402356
 30
0.0
 11
7772.0187810853
 21
5622.4009402356
 31
0.0
  0
LINE
  5
1CF
330
1F
100
AcDbEntity
  8
0
  6
Continuous
 62
     7
100
AcDbLine
 10
7774.0187553361
 20
5622.4009402356
 30
0.0
 11
7774.0187553361
 21
5612.7083607278
 31
0.0
  0
LINE
  5
1D0
330
1F
100
AcDbEntity
  8
0
  6
Continuous
 62
     7
100
AcDbLine
 10
7772.0187810853
 20
5622.4009402356
 30
0.0
 11
7772.0187810853
 21
5612.7083607278
 31
0.0
  0
LINE
  5
1D1
330
1F
100
AcDbEntity
  8
0
  6
Continuous
 62
     7
100
AcDbLine
 10
7774.0187553361
 20
5622.4490113816
 30
0.0
 11
7774.0187553361
 21
5622.4009402356
 31
0.0
  0
LINE
  5
1D2
330
1F
100
AcDbEntity
  8
0
  6
Continuous
 62
     7
100
AcDbLine
 10
7772.0187810853
 20
5622.4490113816
 30
0.0
 11
7772.0187810853
 21
5622.4009402356
 31
0.0
  0
LINE
  5
1D3
330
1F
100
AcDbEntity
  8
0
  6
Continuous
 62
     7
100
AcDbLine
 10
4777.1187929109
 20
4952.9657967648
 30
0.0
 11
4777.1187929109
 21
5177.9557958505
 31
0.0
  0
LINE
  5
1D4
330
1F
100
AcDbEntity
  8
0
  6
Continuous
 62
     7
100
AcDbLine
 10
4777.1187929109
 20
4952.9657967648
 30
0.0
 11
4774.0187553361
 21
4952.9657967648
 31
0.0
  0
LINE
  5
1D5
330
1F
100
AcDbEntity
  8
0
  6
Continuous
 62
     7
100
AcDbLine
 10
4774.0187553361
 20
4952.9657967648
 30
0.0
 11
4774.0187553361
 21
5177.9557958505
 31
0.0
  0
LINE
  5
1D6
330
1F
100
AcDbEntity
  8
0
  6
Continuous
 62
     7
100
AcDbLine
 10
4774.0187553361
 20
5177.9557958505
 30
0.0
 11
4777.1187929109
 21
5177.9557958505
 31
0.0
  0
LINE
  5
1D7
330
1F
100
AcDbEntity
  8
0
  6
Continuous
 62
     7
100
AcDbLine
 10
4815.9187940553
 20
4952.9657967648
 30
0.0
 11
4815.9187940553
 21
5177.9557958505
 31
0.0
  0
LINE
  5
1D8
330
1F
100
AcDbEntity
  8
0
  6
Continuous
 62
     7
100
AcDbLine
 10
4815.9187940553
 20
4952.9657967648
 30
0.0
 11
4777.1187929109
 21
4952.9657967648
 31
0.0
  0
LINE
  5
1D9
330
1F
100
AcDbEntity
  8
0
  6
Continuous
 62
     7
100
AcDbLine
 10
4777.1187929109
 20
5177.9557958505
 30
0.0
 11
4815.9187940553
 21
5177.9557958505
 31
0.0
  0
LINE
  5
1DA
330
1F
100
AcDbEntity
  8
0
  6
Continuous
 62
     7
100
AcDbLine
 10
4815.9187940553
 20
4952.9657967648
 30
0.0
 11
4819.0187124208
 21
4952.9657967648
 31
0.0
  0
LINE
  5
1DB
330
1F
100
AcDbEntity
  8
0
  6
Continuous
 62
     7
100
AcDbLine
 10
4819.0187124208
 20
4952.9657967648
 30
0.0
 11
4819.0187124208
 21
4954.6158023438
 31
0.0
  0
LINE
  5
1DC
330
1F
100
AcDbEntity
  8
0
  6
Continuous
 62
     7
100
AcDbLine
 10
4819.0187124208
 20
5176.3057958594
 30
0.0
 11
4819.0187124208
 21
5177.9557958505
 31
0.0
  0
LINE
  5
1DD
330
1F
100
AcDbEntity
  8
0
  6
Continuous
 62
     7
100
AcDbLine
 10
4819.0187124208
 20
5177.9557958505
 30
0.0
 11
4815.9187940553
 21
5177.9557958505
 31
0.0
  0
LINE
  5
1DE
330
1F
100
AcDbEntity
  8
0
  6
Continuous
 62
     7
100
AcDbLine
 10
4774.0187553361
 20
5177.9657963923
 30
0.0
 11
4776.0187295869
 21
5177.9657963923
 31
0.0
  0
LINE
  5
1DF
330
1F
100
AcDbEntity
  8
0
  6
Continuous
 62
     7
100
AcDbLine
 10
4774.0187553361
 20
5200.7657967768
 30
0.0
 11
4774.0187553361
 21
5177.9657963923
 31
0.0
  0
LINE
  5
1E0
330
1F
100
AcDbEntity
  8
0
  6
Continuous
 62
     7
100
AcDbLine
 10
4774.0187553361
 20
5200.7657967768
 30
0.0
 11
4776.0187295869
 21
5200.7657967768
 31
0.0
  0
LINE
  5
1E1
330
1F
100
AcDbEntity
  8
0
  6
Continuous
 62
     7
100
AcDbLine
 10
4776.0187295869
 20
5200.7657967768
 30
0.0
 11
4776.0187295869
 21
5177.9657963923
 31
0.0
  0
LINE
  5
1E2
330
1F
100
AcDbEntity
  8
0
  6
Continuous
 62
     7
100
AcDbLine
 10
4774.0187553361
 20
5202.9657967648
 30
0.0
 11
4776.0187295869
 21
5202.9657967648
 31
0.0
  0
LINE
  5
1E3
330
1F
100
AcDbEntity
  8
0
  6
Continuous
 62
     7
100
AcDbLine
 10
4776.0187295869
 20
5202.9657967648
 30
0.0
 11
4776.0187295869
 21
5200.7657967768
 31
0.0
  0
LINE
  5
1E4
330
1F
100
AcDbEntity
  8
0
  6
Continuous
 62
     7
100
AcDbLine
 10
4774.0187553361
 20
5202.9657967648
 30
0.0
 11
4774.0187553361
 21
5200.7657967768
 31
0.0
  0
LINE
  5
1E5
330
1F
100
AcDbEntity
  8
0
  6
Continuous
 62
     7
100
AcDbLine
 10
4776.0187295869
 20
5177.9657963923
 30
0.0
 11
4776.0187295869
 21
5177.9557958505
 31
0.0
  0
LINE
  5
1E6
330
1F
100
AcDbEntity
  8
0
  6
Continuous
 62
     7
100
AcDbLine
 10
4774.0187553361
 20
5177.9657963923
 30
0.0
 11
4774.0187553361
 21
5177.9557958505
 31
0.0
  0
LINE
  5
1E7
330
1F
100
AcDbEntity
  8
0
  6
Continuous
 62
     7
100
AcDbLine
 10
4774.0187553361
 20
5610.5564542375
 30
0.0
 11
4776.0187295869
 21
5610.5564542375
 31
0.0
  0
LINE
  5
1E8
330
1F
100
AcDbEntity
  8
0
  6
Continuous
 62
     7
100
AcDbLine
 10
4776.0187295869
 20
5610.5564542375
 30
0.0
 11
4776.0187295869
 21
5202.9657967648
 31
0.0
  0
LINE
  5
1E9
330
1F
100
AcDbEntity
  8
0
  6
Continuous
 62
     7
100
AcDbLine
 10
4774.0187553361
 20
5610.5564542375
 30
0.0
 11
4774.0187553361
 21
5202.9657967648
 31
0.0
  0
LINE
  5
1EA
330
1F
100
AcDbEntity
  8
0
  6
Continuous
 62
     7
100
AcDbLine
 10
4774.0187553361
 20
5612.7083607278
 30
0.0
 11
4776.0187295869
 21
5612.7083607278
 31
0.0
  0
LINE
  5
1EB
330
1F
100
AcDbEntity
  8
0
  6
Continuous
 62
     7
100
AcDbLine
 10
4776.0187295869
 20
5612.7083607278
 30
0.0
 11
4776.0187295869
 21
5610.5564542375
 31
0.0
  0
LINE
  5
1EC
330
1F
100
AcDbEntity
  8
0
  6
Continuous
 62
     7
100
AcDbLine
 10
4774.0187553361
 20
5612.7083607278
 30
0.0
 11
4774.0187553361
 21
5610.5564542375
 31
0.0
  0
LINE
  5
1ED
330
1F
100
AcDbEntity
  8
0
  6
Continuous
 62
     7
100
AcDbLine
 10
4774.0187553361
 20
5622.4009402356
 30
0.0
 11
4776.0187295869
 21
5622.4009402356
 31
0.0
  0
LINE
  5
1EE
330
1F
100
AcDbEntity
  8
0
  6
Continuous
 62
     7
100
AcDbLine
 10
4776.0187295869
 20
5622.4009402356
 30
0.0
 11
4776.0187295869
 21
5612.7083607278
 31
0.0
  0
LINE
  5
1EF
330
1F
100
AcDbEntity
  8
0
  6
Continuous
 62
     7
100
AcDbLine
 10
4774.0187553361
 20
5622.4009402356
 30
0.0
 11
4774.0187553361
 21
5612.7083607278
 31
0.0
  0
LINE
  5
1F0
330
1F
100
AcDbEntity
  8
0
  6
Continuous
 62
     7
100
AcDbLine
 10
4776.0187295869
 20
5622.4490113816
 30
0.0
 11
4776.0187295869
 21
5622.4009402356
 31
0.0
  0
LINE
  5
1F1
330
1F
100
AcDbEntity
  8
0
  6
Continuous
 62
     7
100
AcDbLine
 10
4774.0187553361
 20
5622.4490113816
 30
0.0
 11
4774.0187553361
 21
5622.4009402356
 31
0.0
  0
LINE
  5
1F2
330
1F
100
AcDbEntity
  8
0
  6
Continuous
 62
     7
100
AcDbLine
 10
7772.0187810853
 20
5202.9657967648
 30
0.0
 11
4776.0187295869
 21
5202.9657967648
 31
0.0
  0
LINE
  5
1F3
330
1F
100
AcDbEntity
  8
0
  6
Continuous
 62
     7
100
AcDbLine
 10
4776.0187295869
 20
5200.7657967768
 30
0.0
 11
7772.0187810853
 21
5200.7657967768
 31
0.0
  0
LINE
  5
1F4
330
1F
100
AcDbEntity
  8
0
  6
Continuous
 62
     7
100
AcDbLine
 10
4776.0187295869
 20
5177.9657963923
 30
0.0
 11
7772.0187810853
 21
5177.9657963923
 31
0.0
  0
LINE
  5
1F5
330
1F
100
AcDbEntity
  8
0
  6
Continuous
 62
     7
100
AcDbLine
 10
4776.0187295869
 20
5610.5564542375
 30
0.0
 11
7772.0187810853
 21
5610.5564542375
 31
0.0
  0
LINE
  5
1F6
330
1F
100
AcDbEntity
  8
0
  6
Continuous
 62
     7
100
AcDbLine
 10
7772.0187810853
 20
5612.7083607278
 30
0.0
 11
4776.0187295869
 21
5612.7083607278
 31
0.0
  0
LINE
  5
1F7
330
1F
100
AcDbEntity
  8
0
  6
Continuous
 62
     7
100
AcDbLine
 10
4776.0187295869
 20
5622.4009402356
 30
0.0
 11
7772.0187810853
 21
5622.4009402356
 31
0.0
  0
LINE
  5
1F8
330
1F
100
AcDbEntity
  8
0
  6
Continuous
 62
     7
100
AcDbLine
 10
4896.0187343553
 20
5616.1073155961
 30
0.0
 11
4897.6310399964
 21
5616.1437936387
 31
0.0
  0
LINE
  5
1F9
330
1F
100
AcDbEntity
  8
0
  6
Continuous
 62
     7
100
AcDbLine
 10
4897.6310399964
 20
5616.1437936387
 30
0.0
 11
4899.1678861573
 21
5616.2514396272
 31
0.0
  0
LINE
  5
1FA
330
1F
100
AcDbEntity
  8
0
  6
Continuous
 62
     7
100
AcDbLine
 10
4899.1678861573
 20
5616.2514396272
 30
0.0
 11
4900.5575088456
 21
5616.4252765737
 31
0.0
  0
LINE
  5
1FB
330
1F
100
AcDbEntity
  8
0
  6
Continuous
 62
     7
100
AcDbLine
 10
4900.5575088456
 20
5616.4252765737
 30
0.0
 11
4901.7349389985
 21
5616.6571684441
 31
0.0
  0
LINE
  5
1FC
330
1F
100
AcDbEntity
  8
0
  6
Continuous
 62
     7
100
AcDbLine
 10
4901.7349389985
 20
5616.6571684441
 30
0.0
 11
4902.6451019242
 21
5616.9362671933
 31
0.0
  0
LINE
  5
1FD
330
1F
100
AcDbEntity
  8
0
  6
Continuous
 62
     7
100
AcDbLine
 10
4902.6451019242
 20
5616.9362671933
 30
0.0
 11
4903.2453206971
 21
5617.2494896016
 31
0.0
  0
LINE
  5
1FE
330
1F
100
AcDbEntity
  8
0
  6
Continuous
 62
     7
100
AcDbLine
 10
4903.2453206971
 20
5617.2494896016
 30
0.0
 11
4903.5077003434
 21
5617.5822325311
 31
0.0
  0
LINE
  5
1FF
330
1F
100
AcDbEntity
  8
0
  6
Continuous
 62
     7
100
AcDbLine
 10
4903.5077003434
 20
5617.5822325311
 30
0.0
 11
4903.4199623063
 21
5617.9189391694
 31
0.0
  0
LINE
  5
200
330
1F
100
AcDbEntity
  8
0
  6
Continuous
 62
     7
100
AcDbLine
 10
4903.4199623063
 20
5617.9189391694
 30
0.0
 11
4902.9860404924
 21
5618.2438440881
 31
0.0
  0
LINE
  5
201
330
1F
100
AcDbEntity
  8
0
  6
Continuous
 62
     7
100
AcDbLine
 10
4902.9860404924
 20
5618.2438440881
 30
0.0
 11
4902.2264388993
 21
5618.5417481027
 31
0.0
  0
LINE
  5
202
330
1F
100
AcDbEntity
  8
0
  6
Continuous
 62
     7
100
AcDbLine
 10
4902.2264388993
 20
5618.5417481027
 30
0.0
 11
4901.176443477
 21
5618.7987335286
 31
0.0
  0
LINE
  5
203
330
1F
100
AcDbEntity
  8
0
  6
Continuous
 62
     7
100
AcDbLine
 10
4901.176443477
 20
5618.7987335286
 30
0.0
 11
4899.8854068711
 21
5619.00279003
 31
0.0
  0
LINE
  5
204
330
1F
100
AcDbEntity
  8
0
  6
Continuous
 62
     7
100
AcDbLine
 10
4899.8854068711
 20
5619.00279003
 30
0.0
 11
4898.4135297731
 21
5619.1443808637
 31
0.0
  0
LINE
  5
205
330
1F
100
AcDbEntity
  8
0
  6
Continuous
 62
     7
100
AcDbLine
 10
4898.4135297731
 20
5619.1443808637
 30
0.0
 11
4896.8295959428
 21
5619.2168601117
 31
0.0
  0
LINE
  5
206
330
1F
100
AcDbEntity
  8
0
  6
Continuous
 62
     7
100
AcDbLine
 10
4896.8295959428
 20
5619.2168601117
 30
0.0
 11
4895.2078727677
 21
5619.2168601117
 31
0.0
  0
LINE
  5
207
330
1F
100
AcDbEntity
  8
0
  6
Continuous
 62
     7
100
AcDbLine
 10
4895.2078727677
 20
5619.2168601117
 30
0.0
 11
4893.6239389375
 21
5619.1443808637
 31
0.0
  0
LINE
  5
208
330
1F
100
AcDbEntity
  8
0
  6
Continuous
 62
     7
100
AcDbLine
 10
4893.6239389375
 20
5619.1443808637
 30
0.0
 11
4892.1520618394
 21
5619.00279003
 31
0.0
  0
LINE
  5
209
330
1F
100
AcDbEntity
  8
0
  6
Continuous
 62
     7
100
AcDbLine
 10
4892.1520618394
 20
5619.00279003
 30
0.0
 11
4890.8610252336
 21
5618.7987335286
 31
0.0
  0
LINE
  5
20A
330
1F
100
AcDbEntity
  8
0
  6
Continuous
 62
     7
100
AcDbLine
 10
4890.8610252336
 20
5618.7987335286
 30
0.0
 11
4889.8110298112
 21
5618.5417481027
 31
0.0
  0
LINE
  5
20B
330
1F
100
AcDbEntity
  8
0
  6
Continuous
 62
     7
100
AcDbLine
 10
4889.8110298112
 20
5618.5417481027
 30
0.0
 11
4889.0514282182
 21
5618.2438440881
 31
0.0
  0
LINE
  5
20C
330
1F
100
AcDbEntity
  8
0
  6
Continuous
 62
     7
100
AcDbLine
 10
4889.0514282182
 20
5618.2438440881
 30
0.0
 11
4888.6175064042
 21
5617.9189391694
 31
0.0
  0
LINE
  5
20D
330
1F
100
AcDbEntity
  8
0
  6
Continuous
 62
     7
100
AcDbLine
 10
4888.6175064042
 20
5617.9189391694
 30
0.0
 11
4888.5297683671
 21
5617.5822325311
 31
0.0
  0
LINE
  5
20E
330
1F
100
AcDbEntity
  8
0
  6
Continuous
 62
     7
100
AcDbLine
 10
4888.5297683671
 20
5617.5822325311
 30
0.0
 11
4888.7921480134
 21
5617.2494896016
 31
0.0
  0
LINE
  5
20F
330
1F
100
AcDbEntity
  8
0
  6
Continuous
 62
     7
100
AcDbLine
 10
4888.7921480134
 20
5617.2494896016
 30
0.0
 11
4889.3923667863
 21
5616.9362671933
 31
0.0
  0
LINE
  5
210
330
1F
100
AcDbEntity
  8
0
  6
Continuous
 62
     7
100
AcDbLine
 10
4889.3923667863
 20
5616.9362671933
 30
0.0
 11
4890.302529712
 21
5616.6571684441
 31
0.0
  0
LINE
  5
211
330
1F
100
AcDbEntity
  8
0
  6
Continuous
 62
     7
100
AcDbLine
 10
4890.302529712
 20
5616.6571684441
 30
0.0
 11
4891.4799598649
 21
5616.4252765737
 31
0.0
  0
LINE
  5
212
330
1F
100
AcDbEntity
  8
0
  6
Continuous
 62
     7
100
AcDbLine
 10
4891.4799598649
 20
5616.4252765737
 30
0.0
 11
4892.8695825532
 21
5616.2514396272
 31
0.0
  0
LINE
  5
213
330
1F
100
AcDbEntity
  8
0
  6
Continuous
 62
     7
100
AcDbLine
 10
4892.8695825532
 20
5616.2514396272
 30
0.0
 11
4894.4064287141
 21
5616.1437936387
 31
0.0
  0
LINE
  5
214
330
1F
100
AcDbEntity
  8
0
  6
Continuous
 62
     7
100
AcDbLine
 10
4894.4064287141
 20
5616.1437936387
 30
0.0
 11
4896.0187343553
 21
5616.1073155961
 31
0.0
  0
LINE
  5
215
330
1F
100
AcDbEntity
  8
0
  6
Continuous
 62
     7
100
AcDbLine
 10
4892.5187496141
 20
4874.9498732648
 30
0.0
 11
4960.5187086061
 21
4874.9498732648
 31
0.0
  0
LINE
  5
216
330
1F
100
AcDbEntity
  8
0
  6
Continuous
 62
     7
100
AcDbLine
 10
4902.3969081834
 20
4804.9498804173
 30
0.0
 11
4950.6405500367
 21
4804.9498804173
 31
0.0
  0
LINE
  5
217
330
1F
100
AcDbEntity
  8
0
  6
Continuous
 62
     7
100
AcDbLine
 10
4903.5187868074
 20
4941.449881371
 30
0.0
 11
4949.518790622
 21
4941.449881371
 31
0.0
  0
LINE
  5
218
330
1F
100
AcDbEntity
  8
0
  6
Continuous
 62
     7
100
AcDbLine
 10
4901.5188125566
 20
4937.4498732648
 30
0.0
 11
4951.5187648728
 21
4937.4498732648
 31
0.0
  0
LINE
  5
219
330
1F
100
AcDbEntity
  8
0
  6
Continuous
 62
     7
100
AcDbLine
 10
6881.5687803224
 20
5316.9657968244
 30
0.0
 11
6866.4687780335
 21
5316.9657968244
 31
0.0
  0
LINE
  5
21A
330
1F
100
AcDbEntity
  8
0
  6
Continuous
 62
     7
100
AcDbLine
 10
6881.5687803224
 20
5306.3657962046
 30
0.0
 11
6866.4687780335
 21
5306.3657962046
 31
0.0
  0
LINE
  5
21B
330
1F
100
AcDbEntity
  8
0
  6
Continuous
 62
     7
100
AcDbLine
 10
5681.5687326387
 20
5316.9657968244
 30
0.0
 11
5666.4687303498
 21
5316.9657968244
 31
0.0
  0
LINE
  5
21C
330
1F
100
AcDbEntity
  8
0
  6
Continuous
 62
     7
100
AcDbLine
 10
5681.5687326387
 20
5306.3657962046
 30
0.0
 11
5666.4687303498
 21
5306.3657962046
 31
0.0
  0
LINE
  5
21D
330
1F
100
AcDbEntity
  8
0
  6
Continuous
 62
     7
100
AcDbLine
 10
7481.5688041642
 20
5316.9657968244
 30
0.0
 11
7466.4688018754
 21
5316.9657968244
 31
0.0
  0
LINE
  5
21E
330
1F
100
AcDbEntity
  8
0
  6
Continuous
 62
     7
100
AcDbLine
 10
7481.5688041642
 20
5306.3657962046
 30
0.0
 11
7466.4688018754
 21
5306.3657962046
 31
0.0
  0
LINE
  5
21F
330
1F
100
AcDbEntity
  8
0
  6
Continuous
 62
     7
100
AcDbLine
 10
6281.5687555492
 20
5316.9657968244
 30
0.0
 11
6266.468755123
 21
5316.9657968244
 31
0.0
  0
LINE
  5
220
330
1F
100
AcDbEntity
  8
0
  6
Continuous
 62
     7
100
AcDbLine
 10
6281.5687555492
 20
5306.3657962046
 30
0.0
 11
6266.468755123
 21
5306.3657962046
 31
0.0
  0
LINE
  5
221
330
1F
100
AcDbEntity
  8
0
  6
Continuous
 62
     7
100
AcDbLine
 10
5081.5687087968
 20
5316.9657968244
 30
0.0
 11
5066.468706508
 21
5316.9657968244
 31
0.0
  0
LINE
  5
222
330
1F
100
AcDbEntity
  8
0
  6
Continuous
 62
     7
100
AcDbLine
 10
5081.5687087968
 20
5306.3657962046
 30
0.0
 11
5066.468706508
 21
5306.3657962046
 31
0.0
  0
LINE
  5
223
330
1F
100
AcDbEntity
  8
0
  6
Continuous
 62
     7
100
AcDbLine
 10
5081.5187601045
 20
5317.2657944522
 30
0.0
 11
5066.5187744096
 21
5317.2657944522
 31
0.0
  0
LINE
  5
224
330
1F
100
AcDbEntity
  8
0
  6
Continuous
 62
     7
100
AcDbLine
 10
5066.5187744096
 20
5306.2657945118
 30
0.0
 11
5081.5187601045
 21
5306.2657945118
 31
0.0
  0
LINE
  5
225
330
1F
100
AcDbEntity
  8
0
  6
Continuous
 62
     7
100
AcDbLine
 10
5681.5187839463
 20
5317.2657944522
 30
0.0
 11
5666.5187386468
 21
5317.2657944522
 31
0.0
  0
LINE
  5
226
330
1F
100
AcDbEntity
  8
0
  6
Continuous
 62
     7
100
AcDbLine
 10
5666.5187386468
 20
5306.2657945118
 30
0.0
 11
5681.5187839463
 21
5306.2657945118
 31
0.0
  0
LINE
  5
227
330
1F
100
AcDbEntity
  8
0
  6
Continuous
 62
     7
100
AcDbLine
 10
7481.5187362626
 20
5317.2657944522
 30
0.0
 11
7466.5187505677
 21
5317.2657944522
 31
0.0
  0
LINE
  5
228
330
1F
100
AcDbEntity
  8
0
  6
Continuous
 62
     7
100
AcDbLine
 10
7466.5187505677
 20
5306.2657945118
 30
0.0
 11
7481.5187362626
 21
5306.2657945118
 31
0.0
  0
LINE
  5
229
330
1F
100
AcDbEntity
  8
0
  6
Continuous
 62
     7
100
AcDbLine
 10
6281.5187551685
 20
5317.2657944522
 30
0.0
 11
6266.5187555037
 21
5317.2657944522
 31
0.0
  0
LINE
  5
22A
330
1F
100
AcDbEntity
  8
0
  6
Continuous
 62
     7
100
AcDbLine
 10
6266.5187555037
 20
5306.2657945118
 30
0.0
 11
6281.5187551685
 21
5306.2657945118
 31
0.0
  0
LINE
  5
22B
330
1F
100
AcDbEntity
  8
0
  6
Continuous
 62
     7
100
AcDbLine
 10
6881.5187720254
 20
5317.2657944522
 30
0.0
 11
6866.5187267259
 21
5317.2657944522
 31
0.0
  0
LINE
  5
22C
330
1F
100
AcDbEntity
  8
0
  6
Continuous
 62
     7
100
AcDbLine
 10
6866.5187267259
 20
5306.2657945118
 30
0.0
 11
6881.5187720254
 21
5306.2657945118
 31
0.0
  0
LINE
  5
22D
330
1F
100
AcDbEntity
  8
0
  6
Continuous
 62
     7
100
AcDbLine
 10
5688.0187300637
 20
4952.8658099732
 30
0.0
 11
5688.0187300637
 21
4952.9657967648
 31
0.0
  0
LINE
  5
22E
330
1F
100
AcDbEntity
  8
0
  6
Continuous
 62
     7
100
AcDbLine
 10
5688.0187300637
 20
4952.8658099732
 30
0.0
 11
5660.0187329248
 21
4952.8658099732
 31
0.0
  0
LINE
  5
22F
330
1F
100
AcDbEntity
  8
0
  6
Continuous
 62
     7
100
AcDbLine
 10
5660.0187329248
 20
4952.8658099732
 30
0.0
 11
5660.0187329248
 21
4952.9657967648
 31
0.0
  0
LINE
  5
230
330
1F
100
AcDbEntity
  8
0
  6
Continuous
 62
     7
100
AcDbLine
 10
5060.0187686875
 20
4952.8658099732
 30
0.0
 11
5060.0187686875
 21
4952.9657967648
 31
0.0
  0
LINE
  5
231
330
1F
100
AcDbEntity
  8
0
  6
Continuous
 62
     7
100
AcDbLine
 10
5088.0187658265
 20
4952.8658099732
 30
0.0
 11
5088.0187658265
 21
4952.9657967648
 31
0.0
  0
LINE
  5
232
330
1F
100
AcDbEntity
  8
0
  6
Continuous
 62
     7
100
AcDbLine
 10
5088.0187658265
 20
4952.8658099732
 30
0.0
 11
5060.0187686875
 21
4952.8658099732
 31
0.0
  0
LINE
  5
233
330
1F
100
AcDbEntity
  8
0
  6
Continuous
 62
     7
100
AcDbLine
 10
6888.0187777474
 20
4952.8658099732
 30
0.0
 11
6888.0187777474
 21
4952.9657967648
 31
0.0
  0
LINE
  5
234
330
1F
100
AcDbEntity
  8
0
  6
Continuous
 62
     7
100
AcDbLine
 10
6888.0187777474
 20
4952.8658099732
 30
0.0
 11
6860.0187806085
 21
4952.8658099732
 31
0.0
  0
LINE
  5
235
330
1F
100
AcDbEntity
  8
0
  6
Continuous
 62
     7
100
AcDbLine
 10
6860.0187806085
 20
4952.8658099732
 30
0.0
 11
6860.0187806085
 21
4952.9657967648
 31
0.0
  0
LINE
  5
236
330
1F
100
AcDbEntity
  8
0
  6
Continuous
 62
     7
100
AcDbLine
 10
6288.0187557682
 20
4952.8658099732
 30
0.0
 11
6288.0187557682
 21
4952.9657967648
 31
0.0
  0
LINE
  5
237
330
1F
100
AcDbEntity
  8
0
  6
Continuous
 62
     7
100
AcDbLine
 10
6288.0187557682
 20
4952.8658099732
 30
0.0
 11
6260.018754904
 21
4952.8658099732
 31
0.0
  0
LINE
  5
238
330
1F
100
AcDbEntity
  8
0
  6
Continuous
 62
     7
100
AcDbLine
 10
6260.018754904
 20
4952.8658099732
 30
0.0
 11
6260.018754904
 21
4952.9657967648
 31
0.0
  0
LINE
  5
239
330
1F
100
AcDbEntity
  8
0
  6
Continuous
 62
     7
100
AcDbLine
 10
7460.0187448457
 20
4952.8658099732
 30
0.0
 11
7460.0187448457
 21
4952.9657967648
 31
0.0
  0
LINE
  5
23A
330
1F
100
AcDbEntity
  8
0
  6
Continuous
 62
     7
100
AcDbLine
 10
7488.0187419847
 20
4952.8658099732
 30
0.0
 11
7460.0187448457
 21
4952.8658099732
 31
0.0
  0
LINE
  5
23B
330
1F
100
AcDbEntity
  8
0
  6
Continuous
 62
     7
100
AcDbLine
 10
7488.0187419847
 20
4952.8658099732
 30
0.0
 11
7488.0187419847
 21
4952.9657967648
 31
0.0
  0
LINE
  5
23C
330
1F
100
AcDbEntity
  8
0
  6
Continuous
 62
     7
100
AcDbLine
 10
7475.5188135102
 20
5498.9658005795
 30
0.0
 11
7472.5187925294
 21
5498.9658005795
 31
0.0
  0
LINE
  5
23D
330
1F
100
AcDbEntity
  8
0
  6
Continuous
 62
     7
100
AcDbLine
 10
5675.5187419847
 20
5498.9658005795
 30
0.0
 11
5672.5187806085
 21
5498.9658005795
 31
0.0
  0
LINE
  5
23E
330
1F
100
AcDbEntity
  8
0
  6
Continuous
 62
     7
100
AcDbLine
 10
5075.5187181428
 20
5498.9658005795
 30
0.0
 11
5072.518697162
 21
5498.9658005795
 31
0.0
  0
LINE
  5
23F
330
1F
100
AcDbEntity
  8
0
  6
Continuous
 62
     7
100
AcDbLine
 10
6275.5187553491
 20
5498.9658005795
 30
0.0
 11
6272.5187553231
 21
5498.9658005795
 31
0.0
  0
LINE
  5
240
330
1F
100
AcDbEntity
  8
0
  6
Continuous
 62
     7
100
AcDbLine
 10
6875.5187300637
 20
5498.9658005795
 30
0.0
 11
6872.5187686875
 21
5498.9658005795
 31
0.0
  0
LINE
  5
241
330
1F
100
AcDbEntity
  8
0
  6
Continuous
 62
     7
100
AcDbLine
 10
5680.7612685159
 20
5503.5298772416
 30
0.0
 11
5680.7612685159
 21
5502.5639541707
 31
0.0
  0
LINE
  5
242
330
1F
100
AcDbEntity
  8
0
  6
Continuous
 62
     7
100
AcDbLine
 10
5683.2641867593
 20
5504.8816509805
 30
0.0
 11
5683.2641867593
 21
5504.2779453359
 31
0.0
  0
LINE
  5
243
330
1F
100
AcDbEntity
  8
0
  6
Continuous
 62
     7
100
AcDbLine
 10
5682.1760443643
 20
5505.6433685384
 30
0.0
 11
5682.1760443643
 21
5505.3316958508
 31
0.0
  0
LINE
  5
244
330
1F
100
AcDbEntity
  8
0
  6
Continuous
 62
     7
100
AcDbLine
 10
5680.3512481645
 20
5506.1640449128
 30
0.0
 11
5680.3512481645
 21
5505.9480078778
 31
0.0
  0
LINE
  5
245
330
1F
100
AcDbEntity
  8
0
  6
Continuous
 62
     7
100
AcDbLine
 10
5676.7029074624
 20
5506.6625185571
 30
0.0
 11
5676.7029074624
 21
5506.493986424
 31
0.0
  0
LINE
  5
246
330
1F
100
AcDbEntity
  8
0
  6
Continuous
 62
     7
100
AcDbLine
 10
5673.7288145021
 20
5506.7576475701
 30
0.0
 11
5673.7288145021
 21
5506.5958209596
 31
0.0
  0
LINE
  5
247
330
1F
100
AcDbEntity
  8
0
  6
Continuous
 62
     7
100
AcDbLine
 10
5669.657459636
 20
5506.4959831796
 30
0.0
 11
5669.657459636
 21
5506.314189013
 31
0.0
  0
LINE
  5
248
330
1F
100
AcDbEntity
  8
0
  6
Continuous
 62
     7
100
AcDbLine
 10
5667.2761944726
 20
5506.0702570043
 30
0.0
 11
5667.2761944726
 21
5505.8418818078
 31
0.0
  0
LINE
  5
249
330
1F
100
AcDbEntity
  8
0
  6
Continuous
 62
     7
100
AcDbLine
 10
5665.166786094
 20
5505.3357489667
 30
0.0
 11
5665.166786094
 21
5504.8976250253
 31
0.0
  0
LINE
  5
24A
330
1F
100
AcDbEntity
  8
0
  6
Continuous
 62
     7
100
AcDbLine
 10
5665.8614782289
 20
5504.0400333962
 30
0.0
 11
5665.8614782289
 21
5503.0741103253
 31
0.0
  0
LINE
  5
24B
330
1F
100
AcDbEntity
  8
0
  6
Continuous
 62
     7
100
AcDbLine
 10
5671.3346151307
 20
5502.8777726254
 30
0.0
 11
5671.3346151307
 21
5501.9118495545
 31
0.0
  0
LINE
  5
24C
330
1F
100
AcDbEntity
  8
0
  6
Continuous
 62
     7
100
AcDbLine
 10
5667.4703864053
 20
5503.8700409493
 30
0.0
 11
5666.5701774552
 21
5504.2507954202
 31
0.0
  0
LINE
  5
24D
330
1F
100
AcDbEntity
  8
0
  6
Continuous
 62
     7
100
AcDbLine
 10
5666.5701774552
 20
5504.2507954202
 30
0.0
 11
5665.9954694703
 21
5504.6716936192
 31
0.0
  0
LINE
  5
24E
330
1F
100
AcDbEntity
  8
0
  6
Continuous
 62
     7
100
AcDbLine
 10
5665.9954694703
 20
5504.6716936192
 30
0.0
 11
5665.7714752153
 21
5505.114287909
 31
0.0
  0
LINE
  5
24F
330
1F
100
AcDbEntity
  8
0
  6
Continuous
 62
     7
100
AcDbLine
 10
5665.7714752153
 20
5505.114287909
 30
0.0
 11
5665.9078506425
 21
5505.5592961869
 31
0.0
  0
LINE
  5
250
330
1F
100
AcDbEntity
  8
0
  6
Continuous
 62
     7
100
AcDbLine
 10
5665.9078506425
 20
5505.5592961869
 30
0.0
 11
5666.0352257684
 21
5505.7071753106
 31
0.0
  0
LINE
  5
251
330
1F
100
AcDbEntity
  8
0
  6
Continuous
 62
     7
100
AcDbLine
 10
5682.1933893159
 20
5505.4567761979
 30
0.0
 11
5682.2660473779
 21
5505.2233942113
 31
0.0
  0
LINE
  5
252
330
1F
100
AcDbEntity
  8
0
  6
Continuous
 62
     7
100
AcDbLine
 10
5682.2660473779
 20
5505.2233942113
 30
0.0
 11
5682.1296719506
 21
5504.7783859334
 31
0.0
  0
LINE
  5
253
330
1F
100
AcDbEntity
  8
0
  6
Continuous
 62
     7
100
AcDbLine
 10
5682.1296719506
 20
5504.7783859334
 30
0.0
 11
5681.6387680963
 21
5504.3504543862
 31
0.0
  0
LINE
  5
254
330
1F
100
AcDbEntity
  8
0
  6
Continuous
 62
     7
100
AcDbLine
 10
5681.6387680963
 20
5504.3504543862
 30
0.0
 11
5680.8148530915
 21
5503.9583154282
 31
0.0
  0
LINE
  5
255
330
1F
100
AcDbEntity
  8
0
  6
Continuous
 62
     7
100
AcDbLine
 10
5680.8148530915
 20
5503.9583154282
 30
0.0
 11
5680.4615167573
 21
5503.8351424298
 31
0.0
  0
LINE
  5
256
330
1F
100
AcDbEntity
  8
0
  6
Continuous
 62
     7
100
AcDbLine
 10
5667.7926687196
 20
5503.7679083905
 30
0.0
 11
5667.4703864053
 21
5503.8700409493
 31
0.0
  0
LINE
  5
257
330
1F
100
AcDbEntity
  8
0
  6
Continuous
 62
     7
100
AcDbLine
 10
5682.7614811853
 20
5505.2610941491
 30
0.0
 11
5683.0233243898
 21
5505.2521236501
 31
0.0
  0
LINE
  5
258
330
1F
100
AcDbEntity
  8
0
  6
Continuous
 62
     7
100
AcDbLine
 10
5680.7612685159
 20
5503.5298772416
 30
0.0
 11
5680.4528740838
 21
5503.6340363583
 31
0.0
  0
LINE
  5
259
330
1F
100
AcDbEntity
  8
0
  6
Continuous
 62
     7
100
AcDbLine
 10
5671.4011339143
 20
5503.007889565
 30
0.0
 11
5671.3346151307
 21
5502.8777726254
 31
0.0
  0
LINE
  5
25A
330
1F
100
AcDbEntity
  8
0
  6
Continuous
 62
     7
100
AcDbLine
 10
5665.8614782289
 20
5504.0400333962
 30
0.0
 11
5666.263988395
 21
5504.1198738179
 31
0.0
  0
LINE
  5
25B
330
1F
100
AcDbEntity
  8
0
  6
Continuous
 62
     7
100
AcDbLine
 10
5666.5187386468
 20
5505.2452095113
 30
0.0
 11
5665.9954694703
 21
5505.6376166902
 31
0.0
  0
LINE
  5
25C
330
1F
100
AcDbEntity
  8
0
  6
Continuous
 62
     7
100
AcDbLine
 10
5665.9954694703
 20
5505.6376166902
 30
0.0
 11
5665.9584549859
 21
5505.6794889531
 31
0.0
  0
LINE
  5
25D
330
1F
100
AcDbEntity
  8
0
  6
Continuous
 62
     7
100
AcDbLine
 10
5681.638470073
 20
5505.3161986432
 30
0.0
 11
5681.5187839463
 21
5505.2452095113
 31
0.0
  0
LINE
  5
25E
330
1F
100
AcDbEntity
  8
0
  6
Continuous
 62
     7
100
AcDbLine
 10
5676.6363886788
 20
5506.3638694844
 30
0.0
 11
5676.7029074624
 21
5506.493986424
 31
0.0
  0
LINE
  5
25F
330
1F
100
AcDbEntity
  8
0
  6
Continuous
 62
     7
100
AcDbLine
 10
5673.6622957185
 20
5506.46570402
 30
0.0
 11
5673.7288145021
 21
5506.5958209596
 31
0.0
  0
LINE
  5
260
330
1F
100
AcDbEntity
  8
0
  6
Continuous
 62
     7
100
AcDbLine
 10
5668.0657175973
 20
5503.9881177506
 30
0.0
 11
5667.2242192224
 21
5504.3469377122
 31
0.0
  0
LINE
  5
261
330
1F
100
AcDbEntity
  8
0
  6
Continuous
 62
     7
100
AcDbLine
 10
5667.2242192224
 20
5504.3469377122
 30
0.0
 11
5666.7004136041
 21
5504.7442026696
 31
0.0
  0
LINE
  5
262
330
1F
100
AcDbEntity
  8
0
  6
Continuous
 62
     7
100
AcDbLine
 10
5666.7004136041
 20
5504.7442026696
 30
0.0
 11
5666.5187982514
 21
5505.1613159738
 31
0.0
  0
LINE
  5
263
330
1F
100
AcDbEntity
  8
0
  6
Continuous
 62
     7
100
AcDbLine
 10
5666.5187982514
 20
5505.1613159738
 30
0.0
 11
5666.6878966287
 21
5505.5787571034
 31
0.0
  0
LINE
  5
264
330
1F
100
AcDbEntity
  8
0
  6
Continuous
 62
     7
100
AcDbLine
 10
5666.6878966287
 20
5505.5787571034
 30
0.0
 11
5667.199781318
 21
5505.9770651421
 31
0.0
  0
LINE
  5
265
330
1F
100
AcDbEntity
  8
0
  6
Continuous
 62
     7
100
AcDbLine
 10
5667.199781318
 20
5505.9770651421
 30
0.0
 11
5667.2761944726
 21
5506.0189374051
 31
0.0
  0
LINE
  5
266
330
1F
100
AcDbEntity
  8
0
  6
Continuous
 62
     7
100
AcDbLine
 10
5681.469848533
 20
5505.390227612
 30
0.0
 11
5681.4715770677
 21
5505.3862042985
 31
0.0
  0
LINE
  5
267
330
1F
100
AcDbEntity
  8
0
  6
Continuous
 62
     7
100
AcDbLine
 10
5681.4715770677
 20
5505.3862042985
 30
0.0
 11
5681.47789516
 21
5504.96646839
 31
0.0
  0
LINE
  5
268
330
1F
100
AcDbEntity
  8
0
  6
Continuous
 62
     7
100
AcDbLine
 10
5681.47789516
 20
5504.96646839
 30
0.0
 11
5681.1354068711
 21
5504.5561798177
 31
0.0
  0
LINE
  5
269
330
1F
100
AcDbEntity
  8
0
  6
Continuous
 62
     7
100
AcDbLine
 10
5681.1354068711
 20
5504.5561798177
 30
0.0
 11
5680.4601458505
 21
5504.1745312772
 31
0.0
  0
LINE
  5
26A
330
1F
100
AcDbEntity
  8
0
  6
Continuous
 62
     7
100
AcDbLine
 10
5680.4601458505
 20
5504.1745312772
 30
0.0
 11
5679.4837025598
 21
5503.8394041619
 31
0.0
  0
LINE
  5
26B
330
1F
100
AcDbEntity
  8
0
  6
Continuous
 62
     7
100
AcDbLine
 10
5679.4837025598
 20
5503.8394041619
 30
0.0
 11
5678.2517341569
 21
5503.5664148889
 31
0.0
  0
LINE
  5
26C
330
1F
100
AcDbEntity
  8
0
  6
Continuous
 62
     7
100
AcDbLine
 10
5678.2517341569
 20
5503.5664148889
 30
0.0
 11
5676.8218187287
 21
5503.3683784566
 31
0.0
  0
LINE
  5
26D
330
1F
100
AcDbEntity
  8
0
  6
Continuous
 62
     7
100
AcDbLine
 10
5676.8218187287
 20
5503.3683784566
 30
0.0
 11
5675.2608326867
 21
5503.2545037827
 31
0.0
  0
LINE
  5
26E
330
1F
100
AcDbEntity
  8
0
  6
Continuous
 62
     7
100
AcDbLine
 10
5675.2608326867
 20
5503.2545037827
 30
0.0
 11
5673.6417917207
 21
5503.2301552854
 31
0.0
  0
LINE
  5
26F
330
1F
100
AcDbEntity
  8
0
  6
Continuous
 62
     7
100
AcDbLine
 10
5673.6417917207
 20
5503.2301552854
 30
0.0
 11
5672.0403341249
 21
5503.2964356503
 31
0.0
  0
LINE
  5
270
330
1F
100
AcDbEntity
  8
0
  6
Continuous
 62
     7
100
AcDbLine
 10
5672.0403341249
 20
5503.2964356503
 30
0.0
 11
5670.5314425424
 21
5503.4503050408
 31
0.0
  0
LINE
  5
271
330
1F
100
AcDbEntity
  8
0
  6
Continuous
 62
     7
100
AcDbLine
 10
5670.5314425424
 20
5503.4503050408
 30
0.0
 11
5669.1855696633
 21
5503.6845214925
 31
0.0
  0
LINE
  5
272
330
1F
100
AcDbEntity
  8
0
  6
Continuous
 62
     7
100
AcDbLine
 10
5669.1855696633
 20
5503.6845214925
 30
0.0
 11
5668.0657175973
 21
5503.9881177506
 31
0.0
  0
LINE
  5
273
330
1F
100
AcDbEntity
  8
0
  6
Continuous
 62
     7
100
AcDbLine
 10
5673.6622957185
 20
5506.757081326
 30
0.0
 11
5673.6622957185
 21
5506.46570402
 31
0.0
  0
LINE
  5
274
330
1F
100
AcDbEntity
  8
0
  6
Continuous
 62
     7
100
AcDbLine
 10
5669.657459636
 20
5506.314189013
 30
0.0
 11
5669.9658540681
 21
5506.2100000939
 31
0.0
  0
LINE
  5
275
330
1F
100
AcDbEntity
  8
0
  6
Continuous
 62
     7
100
AcDbLine
 10
5667.2761944726
 20
5505.8418818078
 30
0.0
 11
5667.5846485093
 21
5505.7377226911
 31
0.0
  0
LINE
  5
276
330
1F
100
AcDbEntity
  8
0
  6
Continuous
 62
     7
100
AcDbLine
 10
5669.9658540681
 20
5506.5335639081
 30
0.0
 11
5669.9658540681
 21
5506.2100000939
 31
0.0
  0
LINE
  5
277
330
1F
100
AcDbEntity
  8
0
  6
Continuous
 62
     7
100
AcDbLine
 10
5680.3512481645
 20
5505.9480078778
 30
0.0
 11
5679.9487379983
 21
5505.8681674561
 31
0.0
  0
LINE
  5
278
330
1F
100
AcDbEntity
  8
0
  6
Continuous
 62
     7
100
AcDbLine
 10
5682.1760443643
 20
5505.3316958508
 30
0.0
 11
5681.7735341981
 21
5505.2518852315
 31
0.0
  0
LINE
  5
279
330
1F
100
AcDbEntity
  8
0
  6
Continuous
 62
     7
100
AcDbLine
 10
5679.9487379983
 20
5506.2465973458
 30
0.0
 11
5679.9487379983
 21
5505.8681674561
 31
0.0
  0
LINE
  5
27A
330
1F
100
AcDbEntity
  8
0
  6
Continuous
 62
     7
100
AcDbLine
 10
5665.669491668
 20
5505.5676706395
 30
0.0
 11
5665.669491668
 21
5504.8803992829
 31
0.0
  0
LINE
  5
27B
330
1F
100
AcDbEntity
  8
0
  6
Continuous
 62
     7
100
AcDbLine
 10
5665.669491668
 20
5504.8803992829
 30
0.0
 11
5665.166786094
 21
5504.8976250253
 31
0.0
  0
LINE
  5
27C
330
1F
100
AcDbEntity
  8
0
  6
Continuous
 62
     7
100
AcDbLine
 10
5665.2760414079
 20
5504.1106649003
 30
0.0
 11
5664.7732762292
 21
5504.1278608403
 31
0.0
  0
LINE
  5
27D
330
1F
100
AcDbEntity
  8
0
  6
Continuous
 62
     7
100
AcDbLine
 10
5665.2760414079
 20
5504.2951710782
 30
0.0
 11
5665.2760414079
 21
5504.1106649003
 31
0.0
  0
LINE
  5
27E
330
1F
100
AcDbEntity
  8
0
  6
Continuous
 62
     7
100
AcDbLine
 10
5682.7614811853
 20
5505.2610941491
 30
0.0
 11
5682.7614811853
 21
5504.2951710782
 31
0.0
  0
LINE
  5
27F
330
1F
100
AcDbEntity
  8
0
  6
Continuous
 62
     7
100
AcDbLine
 10
5682.7614811853
 20
5504.2951710782
 30
0.0
 11
5683.2641867593
 21
5504.2779453359
 31
0.0
  0
LINE
  5
280
330
1F
100
AcDbEntity
  8
0
  6
Continuous
 62
     7
100
AcDbLine
 10
5682.3680309251
 20
5503.5254068932
 30
0.0
 11
5682.8707364991
 21
5503.5082109532
 31
0.0
  0
LINE
  5
281
330
1F
100
AcDbEntity
  8
0
  6
Continuous
 62
     7
100
AcDbLine
 10
5682.3680309251
 20
5504.4913299642
 30
0.0
 11
5682.3680309251
 21
5503.5254068932
 31
0.0
  0
LINE
  5
282
330
1F
100
AcDbEntity
  8
0
  6
Continuous
 62
     7
100
AcDbLine
 10
5666.263988395
 20
5504.1198738179
 30
0.0
 11
5666.263988395
 21
5503.153950747
 31
0.0
  0
LINE
  5
283
330
1F
100
AcDbEntity
  8
0
  6
Continuous
 62
     7
100
AcDbLine
 10
5665.8614782289
 20
5503.0741103253
 30
0.0
 11
5666.263988395
 21
5503.153950747
 31
0.0
  0
LINE
  5
284
330
1F
100
AcDbEntity
  8
0
  6
Continuous
 62
     7
100
AcDbLine
 10
5667.6862744287
 20
5502.4578281007
 30
0.0
 11
5668.0887249902
 21
5502.53763872
 31
0.0
  0
LINE
  5
285
330
1F
100
AcDbEntity
  8
0
  6
Continuous
 62
     7
100
AcDbLine
 10
5668.0887249902
 20
5503.5035617909
 30
0.0
 11
5668.0887249902
 21
5502.53763872
 31
0.0
  0
LINE
  5
286
330
1F
100
AcDbEntity
  8
0
  6
Continuous
 62
     7
100
AcDbLine
 10
5680.4528740838
 20
5503.6340363583
 30
0.0
 11
5680.4528740838
 21
5502.6681132874
 31
0.0
  0
LINE
  5
287
330
1F
100
AcDbEntity
  8
0
  6
Continuous
 62
     7
100
AcDbLine
 10
5680.7612685159
 20
5502.5639541707
 30
0.0
 11
5680.4528740838
 21
5502.6681132874
 31
0.0
  0
LINE
  5
288
330
1F
100
AcDbEntity
  8
0
  6
Continuous
 62
     7
100
AcDbLine
 10
5678.0716089204
 20
5503.1617589555
 30
0.0
 11
5678.0716089204
 21
5502.1958358846
 31
0.0
  0
LINE
  5
289
330
1F
100
AcDbEntity
  8
0
  6
Continuous
 62
     7
100
AcDbLine
 10
5678.3800629571
 20
5502.0916469655
 30
0.0
 11
5678.0716089204
 21
5502.1958358846
 31
0.0
  0
LINE
  5
28A
330
1F
100
AcDbEntity
  8
0
  6
Continuous
 62
     7
100
AcDbLine
 10
5671.4011339143
 20
5503.007889565
 30
0.0
 11
5671.4011339143
 21
5502.0419664941
 31
0.0
  0
LINE
  5
28B
330
1F
100
AcDbEntity
  8
0
  6
Continuous
 62
     7
100
AcDbLine
 10
5674.37516727
 20
5502.9060550294
 30
0.0
 11
5674.37516727
 21
5501.9401319585
 31
0.0
  0
LINE
  5
28C
330
1F
100
AcDbEntity
  8
0
  6
Continuous
 62
     7
100
AcDbLine
 10
5671.4011339143
 20
5502.0419664941
 30
0.0
 11
5671.3346151307
 21
5501.9118495545
 31
0.0
  0
LINE
  5
28D
330
1F
100
AcDbEntity
  8
0
  6
Continuous
 62
     7
100
AcDbLine
 10
5674.37516727
 20
5501.9401319585
 30
0.0
 11
5674.3087080911
 21
5501.8100150189
 31
0.0
  0
LINE
  5
28E
330
1F
100
AcDbEntity
  8
0
  6
Continuous
 62
     7
100
AcDbLine
 10
6280.7612928234
 20
5503.5298772416
 30
0.0
 11
6280.7612928234
 21
5502.5639541707
 31
0.0
  0
LINE
  5
28F
330
1F
100
AcDbEntity
  8
0
  6
Continuous
 62
     7
100
AcDbLine
 10
6283.2642106011
 20
5504.8816509805
 30
0.0
 11
6283.2642106011
 21
5504.2779453359
 31
0.0
  0
LINE
  5
290
330
1F
100
AcDbEntity
  8
0
  6
Continuous
 62
     7
100
AcDbLine
 10
6282.1760439917
 20
5505.6433685384
 30
0.0
 11
6282.1760439917
 21
5505.3316958508
 31
0.0
  0
LINE
  5
291
330
1F
100
AcDbEntity
  8
0
  6
Continuous
 62
     7
100
AcDbLine
 10
6280.3512659527
 20
5506.1640449128
 30
0.0
 11
6280.3512659527
 21
5505.9480078778
 31
0.0
  0
LINE
  5
292
330
1F
100
AcDbEntity
  8
0
  6
Continuous
 62
     7
100
AcDbLine
 10
6276.7029087197
 20
5506.6625185571
 30
0.0
 11
6276.7029087197
 21
5506.493986424
 31
0.0
  0
LINE
  5
293
330
1F
100
AcDbEntity
  8
0
  6
Continuous
 62
     7
100
AcDbLine
 10
6273.7288225114
 20
5506.7576475701
 30
0.0
 11
6273.7288225114
 21
5506.5958209596
 31
0.0
  0
LINE
  5
294
330
1F
100
AcDbEntity
  8
0
  6
Continuous
 62
     7
100
AcDbLine
 10
6269.6574327208
 20
5506.4959831796
 30
0.0
 11
6269.6574327208
 21
5506.314189013
 31
0.0
  0
LINE
  5
295
330
1F
100
AcDbEntity
  8
0
  6
Continuous
 62
     7
100
AcDbLine
 10
6267.2762178488
 20
5506.0702570043
 30
0.0
 11
6267.2762178488
 21
5505.8418818078
 31
0.0
  0
LINE
  5
296
330
1F
100
AcDbEntity
  8
0
  6
Continuous
 62
     7
100
AcDbLine
 10
6265.1667596444
 20
5505.3357489667
 30
0.0
 11
6265.1667596444
 21
5504.8976250253
 31
0.0
  0
LINE
  5
297
330
1F
100
AcDbEntity
  8
0
  6
Continuous
 62
     7
100
AcDbLine
 10
6265.8614666805
 20
5504.0400333962
 30
0.0
 11
6265.8614666805
 21
5503.0741103253
 31
0.0
  0
LINE
  5
298
330
1F
100
AcDbEntity
  8
0
  6
Continuous
 62
     7
100
AcDbLine
 10
6271.3346019525
 20
5502.8777726254
 30
0.0
 11
6271.3346019525
 21
5501.9118495545
 31
0.0
  0
LINE
  5
299
330
1F
100
AcDbEntity
  8
0
  6
Continuous
 62
     7
100
AcDbLine
 10
6267.4704149038
 20
5503.8700409493
 30
0.0
 11
6266.5701817393
 21
5504.2507954202
 31
0.0
  0
LINE
  5
29A
330
1F
100
AcDbEntity
  8
0
  6
Continuous
 62
     7
100
AcDbLine
 10
6266.5701817393
 20
5504.2507954202
 30
0.0
 11
6265.9954867929
 21
5504.6716936192
 31
0.0
  0
LINE
  5
29B
330
1F
100
AcDbEntity
  8
0
  6
Continuous
 62
     7
100
AcDbLine
 10
6265.9954867929
 20
5504.6716936192
 30
0.0
 11
6265.7714478344
 21
5505.114287909
 31
0.0
  0
LINE
  5
29C
330
1F
100
AcDbEntity
  8
0
  6
Continuous
 62
     7
100
AcDbLine
 10
6265.7714478344
 20
5505.114287909
 30
0.0
 11
6265.9078549266
 21
5505.5592961869
 31
0.0
  0
LINE
  5
29D
330
1F
100
AcDbEntity
  8
0
  6
Continuous
 62
     7
100
AcDbLine
 10
6265.9078549266
 20
5505.5592961869
 30
0.0
 11
6266.0352514729
 21
5505.7071753106
 31
0.0
  0
LINE
  5
29E
330
1F
100
AcDbEntity
  8
0
  6
Continuous
 62
     7
100
AcDbLine
 10
6282.1933963939
 20
5505.4567761979
 30
0.0
 11
6282.2660628378
 21
5505.2233942113
 31
0.0
  0
LINE
  5
29F
330
1F
100
AcDbEntity
  8
0
  6
Continuous
 62
     7
100
AcDbLine
 10
6282.2660628378
 20
5505.2233942113
 30
0.0
 11
6282.1296557456
 21
5504.7783859334
 31
0.0
  0
LINE
  5
2A0
330
1F
100
AcDbEntity
  8
0
  6
Continuous
 62
     7
100
AcDbLine
 10
6282.1296557456
 20
5504.7783859334
 30
0.0
 11
6281.6387630671
 21
5504.3504543862
 31
0.0
  0
LINE
  5
2A1
330
1F
100
AcDbEntity
  8
0
  6
Continuous
 62
     7
100
AcDbLine
 10
6281.6387630671
 20
5504.3504543862
 30
0.0
 11
6280.8148392148
 21
5503.9583154282
 31
0.0
  0
LINE
  5
2A2
330
1F
100
AcDbEntity
  8
0
  6
Continuous
 62
     7
100
AcDbLine
 10
6280.8148392148
 20
5503.9583154282
 30
0.0
 11
6280.461527095
 21
5503.8351424298
 31
0.0
  0
LINE
  5
2A3
330
1F
100
AcDbEntity
  8
0
  6
Continuous
 62
     7
100
AcDbLine
 10
6267.7926818512
 20
5503.7679083905
 30
0.0
 11
6267.4704149038
 21
5503.8700409493
 31
0.0
  0
LINE
  5
2A4
330
1F
100
AcDbEntity
  8
0
  6
Continuous
 62
     7
100
AcDbLine
 10
6282.7614919886
 20
5505.2610941491
 30
0.0
 11
6283.0233035281
 21
5505.2521236501
 31
0.0
  0
LINE
  5
2A5
330
1F
100
AcDbEntity
  8
0
  6
Continuous
 62
     7
100
AcDbLine
 10
6280.7612928234
 20
5503.5298772416
 30
0.0
 11
6280.4528453059
 21
5503.6340363583
 31
0.0
  0
LINE
  5
2A6
330
1F
100
AcDbEntity
  8
0
  6
Continuous
 62
     7
100
AcDbLine
 10
6271.4011095602
 20
5503.007889565
 30
0.0
 11
6271.3346019525
 21
5502.8777726254
 31
0.0
  0
LINE
  5
2A7
330
1F
100
AcDbEntity
  8
0
  6
Continuous
 62
     7
100
AcDbLine
 10
6265.8614666805
 20
5504.0400333962
 30
0.0
 11
6266.2639698617
 21
5504.1198738179
 31
0.0
  0
LINE
  5
2A8
330
1F
100
AcDbEntity
  8
0
  6
Continuous
 62
     7
100
AcDbLine
 10
6266.5187555037
 20
5505.2452095113
 30
0.0
 11
6265.9954867929
 21
5505.6376166902
 31
0.0
  0
LINE
  5
2A9
330
1F
100
AcDbEntity
  8
0
  6
Continuous
 62
     7
100
AcDbLine
 10
6265.9954867929
 20
5505.6376166902
 30
0.0
 11
6265.9584704459
 21
5505.6794889531
 31
0.0
  0
LINE
  5
2AA
330
1F
100
AcDbEntity
  8
0
  6
Continuous
 62
     7
100
AcDbLine
 10
6281.6384724945
 20
5505.3161986432
 30
0.0
 11
6281.5187551685
 21
5505.2452095113
 31
0.0
  0
LINE
  5
2AB
330
1F
100
AcDbEntity
  8
0
  6
Continuous
 62
     7
100
AcDbLine
 10
6276.636401112
 20
5506.3638694844
 30
0.0
 11
6276.7029087197
 21
5506.493986424
 31
0.0
  0
LINE
  5
2AC
330
1F
100
AcDbEntity
  8
0
  6
Continuous
 62
     7
100
AcDbLine
 10
6273.6623149037
 20
5506.46570402
 30
0.0
 11
6273.7288225114
 21
5506.5958209596
 31
0.0
  0
LINE
  5
2AD
330
1F
100
AcDbEntity
  8
0
  6
Continuous
 62
     7
100
AcDbLine
 10
6268.0657186218
 20
5503.9881177506
 30
0.0
 11
6267.2242137276
 21
5504.3469377122
 31
0.0
  0
LINE
  5
2AE
330
1F
100
AcDbEntity
  8
0
  6
Continuous
 62
     7
100
AcDbLine
 10
6267.2242137276
 20
5504.3469377122
 30
0.0
 11
6266.7004141629
 21
5504.7442026696
 31
0.0
  0
LINE
  5
2AF
330
1F
100
AcDbEntity
  8
0
  6
Continuous
 62
     7
100
AcDbLine
 10
6266.7004141629
 20
5504.7442026696
 30
0.0
 11
6266.5188118488
 21
5505.1613159738
 31
0.0
  0
LINE
  5
2B0
330
1F
100
AcDbEntity
  8
0
  6
Continuous
 62
     7
100
AcDbLine
 10
6266.5188118488
 20
5505.1613159738
 30
0.0
 11
6266.6878985844
 21
5505.5787571034
 31
0.0
  0
LINE
  5
2B1
330
1F
100
AcDbEntity
  8
0
  6
Continuous
 62
     7
100
AcDbLine
 10
6266.6878985844
 20
5505.5787571034
 30
0.0
 11
6267.1997683726
 21
5505.9770651421
 31
0.0
  0
LINE
  5
2B2
330
1F
100
AcDbEntity
  8
0
  6
Continuous
 62
     7
100
AcDbLine
 10
6267.1997683726
 20
5505.9770651421
 30
0.0
 11
6267.2762178488
 21
5506.0189374051
 31
0.0
  0
LINE
  5
2B3
330
1F
100
AcDbEntity
  8
0
  6
Continuous
 62
     7
100
AcDbLine
 10
6281.4698225491
 20
5505.390227612
 30
0.0
 11
6281.471586474
 21
5505.3862042985
 31
0.0
  0
LINE
  5
2B4
330
1F
100
AcDbEntity
  8
0
  6
Continuous
 62
     7
100
AcDbLine
 10
6281.471586474
 20
5505.3862042985
 30
0.0
 11
6281.4778812833
 21
5504.96646839
 31
0.0
  0
LINE
  5
2B5
330
1F
100
AcDbEntity
  8
0
  6
Continuous
 62
     7
100
AcDbLine
 10
6281.4778812833
 20
5504.96646839
 30
0.0
 11
6281.1353953227
 21
5504.5561798177
 31
0.0
  0
LINE
  5
2B6
330
1F
100
AcDbEntity
  8
0
  6
Continuous
 62
     7
100
AcDbLine
 10
6281.1353953227
 20
5504.5561798177
 30
0.0
 11
6280.4601431496
 21
5504.1745312772
 31
0.0
  0
LINE
  5
2B7
330
1F
100
AcDbEntity
  8
0
  6
Continuous
 62
     7
100
AcDbLine
 10
6280.4601431496
 20
5504.1745312772
 30
0.0
 11
6279.4836989276
 21
5503.8394041619
 31
0.0
  0
LINE
  5
2B8
330
1F
100
AcDbEntity
  8
0
  6
Continuous
 62
     7
100
AcDbLine
 10
6279.4836989276
 20
5503.8394041619
 30
0.0
 11
6278.2517202802
 21
5503.5664148889
 31
0.0
  0
LINE
  5
2B9
330
1F
100
AcDbEntity
  8
0
  6
Continuous
 62
     7
100
AcDbLine
 10
6278.2517202802
 20
5503.5664148889
 30
0.0
 11
6276.8218125354
 21
5503.3683784566
 31
0.0
  0
LINE
  5
2BA
330
1F
100
AcDbEntity
  8
0
  6
Continuous
 62
     7
100
AcDbLine
 10
6276.8218125354
 20
5503.3683784566
 30
0.0
 11
6275.2608372036
 21
5503.2545037827
 31
0.0
  0
LINE
  5
2BB
330
1F
100
AcDbEntity
  8
0
  6
Continuous
 62
     7
100
AcDbLine
 10
6275.2608372036
 20
5503.2545037827
 30
0.0
 11
6273.6417833737
 21
5503.2301552854
 31
0.0
  0
LINE
  5
2BC
330
1F
100
AcDbEntity
  8
0
  6
Continuous
 62
     7
100
AcDbLine
 10
6273.6417833737
 20
5503.2301552854
 30
0.0
 11
6272.0403563369
 21
5503.2964356503
 31
0.0
  0
LINE
  5
2BD
330
1F
100
AcDbEntity
  8
0
  6
Continuous
 62
     7
100
AcDbLine
 10
6272.0403563369
 20
5503.2964356503
 30
0.0
 11
6270.5314370476
 21
5503.4503050408
 31
0.0
  0
LINE
  5
2BE
330
1F
100
AcDbEntity
  8
0
  6
Continuous
 62
     7
100
AcDbLine
 10
6270.5314370476
 20
5503.4503050408
 30
0.0
 11
6269.1855809323
 21
5503.6845214925
 31
0.0
  0
LINE
  5
2BF
330
1F
100
AcDbEntity
  8
0
  6
Continuous
 62
     7
100
AcDbLine
 10
6269.1855809323
 20
5503.6845214925
 30
0.0
 11
6268.0657186218
 21
5503.9881177506
 31
0.0
  0
LINE
  5
2C0
330
1F
100
AcDbEntity
  8
0
  6
Continuous
 62
     7
100
AcDbLine
 10
6273.6623149037
 20
5506.757081326
 30
0.0
 11
6273.6623149037
 21
5506.46570402
 31
0.0
  0
LINE
  5
2C1
330
1F
100
AcDbEntity
  8
0
  6
Continuous
 62
     7
100
AcDbLine
 10
6269.6574327208
 20
5506.314189013
 30
0.0
 11
6269.9658797726
 21
5506.2100000939
 31
0.0
  0
LINE
  5
2C2
330
1F
100
AcDbEntity
  8
0
  6
Continuous
 62
     7
100
AcDbLine
 10
6267.2762178488
 20
5505.8418818078
 30
0.0
 11
6267.5846653663
 21
5505.7377226911
 31
0.0
  0
LINE
  5
2C3
330
1F
100
AcDbEntity
  8
0
  6
Continuous
 62
     7
100
AcDbLine
 10
6269.9658797726
 20
5506.5335639081
 30
0.0
 11
6269.9658797726
 21
5506.2100000939
 31
0.0
  0
LINE
  5
2C4
330
1F
100
AcDbEntity
  8
0
  6
Continuous
 62
     7
100
AcDbLine
 10
6280.3512659527
 20
5505.9480078778
 30
0.0
 11
6279.9487623058
 21
5505.8681674561
 31
0.0
  0
LINE
  5
2C5
330
1F
100
AcDbEntity
  8
0
  6
Continuous
 62
     7
100
AcDbLine
 10
6282.1760439917
 20
5505.3316958508
 30
0.0
 11
6281.7735408105
 21
5505.2518852315
 31
0.0
  0
LINE
  5
2C6
330
1F
100
AcDbEntity
  8
0
  6
Continuous
 62
     7
100
AcDbLine
 10
6279.9487623058
 20
5506.2465973458
 30
0.0
 11
6279.9487623058
 21
5505.8681674561
 31
0.0
  0
LINE
  5
2C7
330
1F
100
AcDbEntity
  8
0
  6
Continuous
 62
     7
100
AcDbLine
 10
6265.669478257
 20
5505.5676706395
 30
0.0
 11
6265.669478257
 21
5504.8803992829
 31
0.0
  0
LINE
  5
2C8
330
1F
100
AcDbEntity
  8
0
  6
Continuous
 62
     7
100
AcDbLine
 10
6265.669478257
 20
5504.8803992829
 30
0.0
 11
6265.1667596444
 21
5504.8976250253
 31
0.0
  0
LINE
  5
2C9
330
1F
100
AcDbEntity
  8
0
  6
Continuous
 62
     7
100
AcDbLine
 10
6265.2760186836
 20
5504.1106649003
 30
0.0
 11
6264.7733000711
 21
5504.1278608403
 31
0.0
  0
LINE
  5
2CA
330
1F
100
AcDbEntity
  8
0
  6
Continuous
 62
     7
100
AcDbLine
 10
6265.2760186836
 20
5504.2951710782
 30
0.0
 11
6265.2760186836
 21
5504.1106649003
 31
0.0
  0
LINE
  5
2CB
330
1F
100
AcDbEntity
  8
0
  6
Continuous
 62
     7
100
AcDbLine
 10
6282.7614919886
 20
5505.2610941491
 30
0.0
 11
6282.7614919886
 21
5504.2951710782
 31
0.0
  0
LINE
  5
2CC
330
1F
100
AcDbEntity
  8
0
  6
Continuous
 62
     7
100
AcDbLine
 10
6282.7614919886
 20
5504.2951710782
 30
0.0
 11
6283.2642106011
 21
5504.2779453359
 31
0.0
  0
LINE
  5
2CD
330
1F
100
AcDbEntity
  8
0
  6
Continuous
 62
     7
100
AcDbLine
 10
6282.3680324152
 20
5503.5254068932
 30
0.0
 11
6282.8707510278
 21
5503.5082109532
 31
0.0
  0
LINE
  5
2CE
330
1F
100
AcDbEntity
  8
0
  6
Continuous
 62
     7
100
AcDbLine
 10
6282.3680324152
 20
5504.4913299642
 30
0.0
 11
6282.3680324152
 21
5503.5254068932
 31
0.0
  0
LINE
  5
2CF
330
1F
100
AcDbEntity
  8
0
  6
Continuous
 62
     7
100
AcDbLine
 10
6266.2639698617
 20
5504.1198738179
 30
0.0
 11
6266.2639698617
 21
5503.153950747
 31
0.0
  0
LINE
  5
2D0
330
1F
100
AcDbEntity
  8
0
  6
Continuous
 62
     7
100
AcDbLine
 10
6265.8614666805
 20
5503.0741103253
 30
0.0
 11
6266.2639698617
 21
5503.153950747
 31
0.0
  0
LINE
  5
2D1
330
1F
100
AcDbEntity
  8
0
  6
Continuous
 62
     7
100
AcDbLine
 10
6267.6862447195
 20
5502.4578281007
 30
0.0
 11
6268.0887483664
 21
5502.53763872
 31
0.0
  0
LINE
  5
2D2
330
1F
100
AcDbEntity
  8
0
  6
Continuous
 62
     7
100
AcDbLine
 10
6268.0887483664
 20
5503.5035617909
 30
0.0
 11
6268.0887483664
 21
5502.53763872
 31
0.0
  0
LINE
  5
2D3
330
1F
100
AcDbEntity
  8
0
  6
Continuous
 62
     7
100
AcDbLine
 10
6280.4528453059
 20
5503.6340363583
 30
0.0
 11
6280.4528453059
 21
5502.6681132874
 31
0.0
  0
LINE
  5
2D4
330
1F
100
AcDbEntity
  8
0
  6
Continuous
 62
     7
100
AcDbLine
 10
6278.0716308996
 20
5503.1617589555
 30
0.0
 11
6278.0716308996
 21
5502.1958358846
 31
0.0
  0
LINE
  5
2D5
330
1F
100
AcDbEntity
  8
0
  6
Continuous
 62
     7
100
AcDbLine
 10
6280.7612928234
 20
5502.5639541707
 30
0.0
 11
6280.4528453059
 21
5502.6681132874
 31
0.0
  0
LINE
  5
2D6
330
1F
100
AcDbEntity
  8
0
  6
Continuous
 62
     7
100
AcDbLine
 10
6278.3800779514
 20
5502.0916469655
 30
0.0
 11
6278.0716308996
 21
5502.1958358846
 31
0.0
  0
LINE
  5
2D7
330
1F
100
AcDbEntity
  8
0
  6
Continuous
 62
     7
100
AcDbLine
 10
6271.4011095602
 20
5503.007889565
 30
0.0
 11
6271.4011095602
 21
5502.0419664941
 31
0.0
  0
LINE
  5
2D8
330
1F
100
AcDbEntity
  8
0
  6
Continuous
 62
     7
100
AcDbLine
 10
6274.3751957685
 20
5502.9060550294
 30
0.0
 11
6274.3751957685
 21
5501.9401319585
 31
0.0
  0
LINE
  5
2D9
330
1F
100
AcDbEntity
  8
0
  6
Continuous
 62
     7
100
AcDbLine
 10
6271.4011095602
 20
5502.0419664941
 30
0.0
 11
6271.3346019525
 21
5501.9118495545
 31
0.0
  0
LINE
  5
2DA
330
1F
100
AcDbEntity
  8
0
  6
Continuous
 62
     7
100
AcDbLine
 10
6274.3751957685
 20
5501.9401319585
 30
0.0
 11
6274.3086881608
 21
5501.8100150189
 31
0.0
  0
LINE
  5
2DB
330
1F
100
AcDbEntity
  8
0
  6
Continuous
 62
     7
100
AcDbLine
 10
5080.7613042787
 20
5503.5298772416
 30
0.0
 11
5080.7613042787
 21
5502.5639541707
 31
0.0
  0
LINE
  5
2DC
330
1F
100
AcDbEntity
  8
0
  6
Continuous
 62
     7
100
AcDbLine
 10
5083.2642225221
 20
5504.8816509805
 30
0.0
 11
5083.2642225221
 21
5504.2779453359
 31
0.0
  0
LINE
  5
2DD
330
1F
100
AcDbEntity
  8
0
  6
Continuous
 62
     7
100
AcDbLine
 10
5082.1760801271
 20
5505.6433685384
 30
0.0
 11
5082.1760801271
 21
5505.3316958508
 31
0.0
  0
LINE
  5
2DE
330
1F
100
AcDbEntity
  8
0
  6
Continuous
 62
     7
100
AcDbLine
 10
5080.3512243226
 20
5506.1640449128
 30
0.0
 11
5080.3512243226
 21
5505.9480078778
 31
0.0
  0
LINE
  5
2DF
330
1F
100
AcDbEntity
  8
0
  6
Continuous
 62
     7
100
AcDbLine
 10
5076.7029432252
 20
5506.6625185571
 30
0.0
 11
5076.7029432252
 21
5506.493986424
 31
0.0
  0
LINE
  5
2E0
330
1F
100
AcDbEntity
  8
0
  6
Continuous
 62
     7
100
AcDbLine
 10
5073.7287906602
 20
5506.7576475701
 30
0.0
 11
5073.7287906602
 21
5506.5958209596
 31
0.0
  0
LINE
  5
2E1
330
1F
100
AcDbEntity
  8
0
  6
Continuous
 62
     7
100
AcDbLine
 10
5069.6574357942
 20
5506.4959831796
 30
0.0
 11
5069.6574357942
 21
5506.314189013
 31
0.0
  0
LINE
  5
2E2
330
1F
100
AcDbEntity
  8
0
  6
Continuous
 62
     7
100
AcDbLine
 10
5067.2762302354
 20
5506.0702570043
 30
0.0
 11
5067.2762302354
 21
5505.8418818078
 31
0.0
  0
LINE
  5
2E3
330
1F
100
AcDbEntity
  8
0
  6
Continuous
 62
     7
100
AcDbLine
 10
5065.1667026475
 20
5505.3357489667
 30
0.0
 11
5065.1667026475
 21
5504.8976250253
 31
0.0
  0
LINE
  5
2E4
330
1F
100
AcDbEntity
  8
0
  6
Continuous
 62
     7
100
AcDbLine
 10
5065.861454387
 20
5504.0400333962
 30
0.0
 11
5065.861454387
 21
5503.0741103253
 31
0.0
  0
LINE
  5
2E5
330
1F
100
AcDbEntity
  8
0
  6
Continuous
 62
     7
100
AcDbLine
 10
5071.3345912889
 20
5502.8777726254
 30
0.0
 11
5071.3345912889
 21
5501.9118495545
 31
0.0
  0
LINE
  5
2E6
330
1F
100
AcDbEntity
  8
0
  6
Continuous
 62
     7
100
AcDbLine
 10
5067.4704221681
 20
5503.8700409493
 30
0.0
 11
5066.5701536134
 21
5504.2507954202
 31
0.0
  0
LINE
  5
2E7
330
1F
100
AcDbEntity
  8
0
  6
Continuous
 62
     7
100
AcDbLine
 10
5066.5701536134
 20
5504.2507954202
 30
0.0
 11
5065.9954456285
 21
5504.6716936192
 31
0.0
  0
LINE
  5
2E8
330
1F
100
AcDbEntity
  8
0
  6
Continuous
 62
     7
100
AcDbLine
 10
5065.9954456285
 20
5504.6716936192
 30
0.0
 11
5065.7714513734
 21
5505.114287909
 31
0.0
  0
LINE
  5
2E9
330
1F
100
AcDbEntity
  8
0
  6
Continuous
 62
     7
100
AcDbLine
 10
5065.7714513734
 20
5505.114287909
 30
0.0
 11
5065.9078268006
 21
5505.5592961869
 31
0.0
  0
LINE
  5
2EA
330
1F
100
AcDbEntity
  8
0
  6
Continuous
 62
     7
100
AcDbLine
 10
5065.9078268006
 20
5505.5592961869
 30
0.0
 11
5066.0352615312
 21
5505.7071753106
 31
0.0
  0
LINE
  5
2EB
330
1F
100
AcDbEntity
  8
0
  6
Continuous
 62
     7
100
AcDbLine
 10
5082.193365474
 20
5505.4567761979
 30
0.0
 11
5082.2660831407
 21
5505.2233942113
 31
0.0
  0
LINE
  5
2EC
330
1F
100
AcDbEntity
  8
0
  6
Continuous
 62
     7
100
AcDbLine
 10
5082.2660831407
 20
5505.2233942113
 30
0.0
 11
5082.1297077134
 21
5504.7783859334
 31
0.0
  0
LINE
  5
2ED
330
1F
100
AcDbEntity
  8
0
  6
Continuous
 62
     7
100
AcDbLine
 10
5082.1297077134
 20
5504.7783859334
 30
0.0
 11
5081.638803859
 21
5504.3504543862
 31
0.0
  0
LINE
  5
2EE
330
1F
100
AcDbEntity
  8
0
  6
Continuous
 62
     7
100
AcDbLine
 10
5081.638803859
 20
5504.3504543862
 30
0.0
 11
5080.8148292497
 21
5503.9583154282
 31
0.0
  0
LINE
  5
2EF
330
1F
100
AcDbEntity
  8
0
  6
Continuous
 62
     7
100
AcDbLine
 10
5080.8148292497
 20
5503.9583154282
 30
0.0
 11
5080.4614929154
 21
5503.8351424298
 31
0.0
  0
LINE
  5
2F0
330
1F
100
AcDbEntity
  8
0
  6
Continuous
 62
     7
100
AcDbLine
 10
5067.8205398515
 20
5503.7596531472
 30
0.0
 11
5067.4704221681
 21
5503.8700409493
 31
0.0
  0
LINE
  5
2F1
330
1F
100
AcDbEntity
  8
0
  6
Continuous
 62
     7
100
AcDbLine
 10
5082.761516948
 20
5505.2610941491
 30
0.0
 11
5083.0233005479
 21
5505.2521236501
 31
0.0
  0
LINE
  5
2F2
330
1F
100
AcDbEntity
  8
0
  6
Continuous
 62
     7
100
AcDbLine
 10
5080.7613042787
 20
5503.5298772416
 30
0.0
 11
5080.4527906373
 21
5503.6340363583
 31
0.0
  0
LINE
  5
2F3
330
1F
100
AcDbEntity
  8
0
  6
Continuous
 62
     7
100
AcDbLine
 10
5071.4011100724
 20
5503.007889565
 30
0.0
 11
5071.3345912889
 21
5502.8777726254
 31
0.0
  0
LINE
  5
2F4
330
1F
100
AcDbEntity
  8
0
  6
Continuous
 62
     7
100
AcDbLine
 10
5065.861454387
 20
5504.0400333962
 30
0.0
 11
5066.2640241578
 21
5504.1198738179
 31
0.0
  0
LINE
  5
2F5
330
1F
100
AcDbEntity
  8
0
  6
Continuous
 62
     7
100
AcDbLine
 10
5066.5187744096
 20
5505.2452095113
 30
0.0
 11
5065.9954456285
 21
5505.6376166902
 31
0.0
  0
LINE
  5
2F6
330
1F
100
AcDbEntity
  8
0
  6
Continuous
 62
     7
100
AcDbLine
 10
5065.9954456285
 20
5505.6376166902
 30
0.0
 11
5065.9584907487
 21
5505.6794889531
 31
0.0
  0
LINE
  5
2F7
330
1F
100
AcDbEntity
  8
0
  6
Continuous
 62
     7
100
AcDbLine
 10
5081.6384462312
 20
5505.3161986432
 30
0.0
 11
5081.5187601045
 21
5505.2452095113
 31
0.0
  0
LINE
  5
2F8
330
1F
100
AcDbEntity
  8
0
  6
Continuous
 62
     7
100
AcDbLine
 10
5076.6364244416
 20
5506.3638694844
 30
0.0
 11
5076.7029432252
 21
5506.493986424
 31
0.0
  0
LINE
  5
2F9
330
1F
100
AcDbEntity
  8
0
  6
Continuous
 62
     7
100
AcDbLine
 10
5073.6622718766
 20
5506.46570402
 30
0.0
 11
5073.7287906602
 21
5506.5958209596
 31
0.0
  0
LINE
  5
2FA
330
1F
100
AcDbEntity
  8
0
  6
Continuous
 62
     7
100
AcDbLine
 10
5068.0657533601
 20
5503.9881177506
 30
0.0
 11
5067.2242549851
 21
5504.3469377122
 31
0.0
  0
LINE
  5
2FB
330
1F
100
AcDbEntity
  8
0
  6
Continuous
 62
     7
100
AcDbLine
 10
5067.2242549851
 20
5504.3469377122
 30
0.0
 11
5066.7004493669
 21
5504.7442026696
 31
0.0
  0
LINE
  5
2FC
330
1F
100
AcDbEntity
  8
0
  6
Continuous
 62
     7
100
AcDbLine
 10
5066.7004493669
 20
5504.7442026696
 30
0.0
 11
5066.5187744096
 21
5505.1613159738
 31
0.0
  0
LINE
  5
2FD
330
1F
100
AcDbEntity
  8
0
  6
Continuous
 62
     7
100
AcDbLine
 10
5066.5187744096
 20
5505.1613159738
 30
0.0
 11
5066.6879323915
 21
5505.5787571034
 31
0.0
  0
LINE
  5
2FE
330
1F
100
AcDbEntity
  8
0
  6
Continuous
 62
     7
100
AcDbLine
 10
5066.6879323915
 20
5505.5787571034
 30
0.0
 11
5067.1998170808
 21
5505.9770651421
 31
0.0
  0
LINE
  5
2FF
330
1F
100
AcDbEntity
  8
0
  6
Continuous
 62
     7
100
AcDbLine
 10
5067.1998170808
 20
5505.9770651421
 30
0.0
 11
5067.2762302354
 21
5506.0189374051
 31
0.0
  0
LINE
  5
300
330
1F
100
AcDbEntity
  8
0
  6
Continuous
 62
     7
100
AcDbLine
 10
5081.4697650865
 20
5505.390227612
 30
0.0
 11
5081.4715532258
 21
5505.3862042985
 31
0.0
  0
LINE
  5
301
330
1F
100
AcDbEntity
  8
0
  6
Continuous
 62
     7
100
AcDbLine
 10
5081.4715532258
 20
5505.3862042985
 30
0.0
 11
5081.4778713182
 21
5504.96646839
 31
0.0
  0
LINE
  5
302
330
1F
100
AcDbEntity
  8
0
  6
Continuous
 62
     7
100
AcDbLine
 10
5081.4778713182
 20
5504.96646839
 30
0.0
 11
5081.1353830293
 21
5504.5561798177
 31
0.0
  0
LINE
  5
303
330
1F
100
AcDbEntity
  8
0
  6
Continuous
 62
     7
100
AcDbLine
 10
5081.1353830293
 20
5504.5561798177
 30
0.0
 11
5080.4601816133
 21
5504.1745312772
 31
0.0
  0
LINE
  5
304
330
1F
100
AcDbEntity
  8
0
  6
Continuous
 62
     7
100
AcDbLine
 10
5080.4601816133
 20
5504.1745312772
 30
0.0
 11
5079.4837383226
 21
5503.8394041619
 31
0.0
  0
LINE
  5
305
330
1F
100
AcDbEntity
  8
0
  6
Continuous
 62
     7
100
AcDbLine
 10
5079.4837383226
 20
5503.8394041619
 30
0.0
 11
5078.251710315
 21
5503.5664148889
 31
0.0
  0
LINE
  5
306
330
1F
100
AcDbEntity
  8
0
  6
Continuous
 62
     7
100
AcDbLine
 10
5078.251710315
 20
5503.5664148889
 30
0.0
 11
5076.8217948869
 21
5503.3683784566
 31
0.0
  0
LINE
  5
307
330
1F
100
AcDbEntity
  8
0
  6
Continuous
 62
     7
100
AcDbLine
 10
5076.8217948869
 20
5503.3683784566
 30
0.0
 11
5075.2608684495
 21
5503.2545037827
 31
0.0
  0
LINE
  5
308
330
1F
100
AcDbEntity
  8
0
  6
Continuous
 62
     7
100
AcDbLine
 10
5075.2608684495
 20
5503.2545037827
 30
0.0
 11
5073.6417678788
 21
5503.2301552854
 31
0.0
  0
LINE
  5
309
330
1F
100
AcDbEntity
  8
0
  6
Continuous
 62
     7
100
AcDbLine
 10
5073.6417678788
 20
5503.2301552854
 30
0.0
 11
5072.040310283
 21
5503.2964356503
 31
0.0
  0
LINE
  5
30A
330
1F
100
AcDbEntity
  8
0
  6
Continuous
 62
     7
100
AcDbLine
 10
5072.040310283
 20
5503.2964356503
 30
0.0
 11
5070.5314783052
 21
5503.4503050408
 31
0.0
  0
LINE
  5
30B
330
1F
100
AcDbEntity
  8
0
  6
Continuous
 62
     7
100
AcDbLine
 10
5070.5314783052
 20
5503.4503050408
 30
0.0
 11
5069.1856054261
 21
5503.6845214925
 31
0.0
  0
LINE
  5
30C
330
1F
100
AcDbEntity
  8
0
  6
Continuous
 62
     7
100
AcDbLine
 10
5069.1856054261
 20
5503.6845214925
 30
0.0
 11
5068.0657533601
 21
5503.9881177506
 31
0.0
  0
LINE
  5
30D
330
1F
100
AcDbEntity
  8
0
  6
Continuous
 62
     7
100
AcDbLine
 10
5073.6622718766
 20
5506.757081326
 30
0.0
 11
5073.6622718766
 21
5506.46570402
 31
0.0
  0
LINE
  5
30E
330
1F
100
AcDbEntity
  8
0
  6
Continuous
 62
     7
100
AcDbLine
 10
5069.6574357942
 20
5506.314189013
 30
0.0
 11
5069.9658302262
 21
5506.2100000939
 31
0.0
  0
LINE
  5
30F
330
1F
100
AcDbEntity
  8
0
  6
Continuous
 62
     7
100
AcDbLine
 10
5067.2762302354
 20
5505.8418818078
 30
0.0
 11
5067.5846246675
 21
5505.7377226911
 31
0.0
  0
LINE
  5
310
330
1F
100
AcDbEntity
  8
0
  6
Continuous
 62
     7
100
AcDbLine
 10
5069.9658302262
 20
5506.5335639081
 30
0.0
 11
5069.9658302262
 21
5506.2100000939
 31
0.0
  0
LINE
  5
311
330
1F
100
AcDbEntity
  8
0
  6
Continuous
 62
     7
100
AcDbLine
 10
5080.3512243226
 20
5505.9480078778
 30
0.0
 11
5079.9487737611
 21
5505.8681674561
 31
0.0
  0
LINE
  5
312
330
1F
100
AcDbEntity
  8
0
  6
Continuous
 62
     7
100
AcDbLine
 10
5082.1760801271
 20
5505.3316958508
 30
0.0
 11
5081.7735103562
 21
5505.2518852315
 31
0.0
  0
LINE
  5
313
330
1F
100
AcDbEntity
  8
0
  6
Continuous
 62
     7
100
AcDbLine
 10
5079.9487737611
 20
5506.2465973458
 30
0.0
 11
5079.9487737611
 21
5505.8681674561
 31
0.0
  0
LINE
  5
314
330
1F
100
AcDbEntity
  8
0
  6
Continuous
 62
     7
100
AcDbLine
 10
5065.6695274308
 20
5505.5676706395
 30
0.0
 11
5065.6695274308
 21
5504.8803992829
 31
0.0
  0
LINE
  5
315
330
1F
100
AcDbEntity
  8
0
  6
Continuous
 62
     7
100
AcDbLine
 10
5065.6695274308
 20
5504.8803992829
 30
0.0
 11
5065.1667026475
 21
5504.8976250253
 31
0.0
  0
LINE
  5
316
330
1F
100
AcDbEntity
  8
0
  6
Continuous
 62
     7
100
AcDbLine
 10
5065.276017566
 20
5504.1106649003
 30
0.0
 11
5064.773311992
 21
5504.1278608403
 31
0.0
  0
LINE
  5
317
330
1F
100
AcDbEntity
  8
0
  6
Continuous
 62
     7
100
AcDbLine
 10
5065.276017566
 20
5504.2951710782
 30
0.0
 11
5065.276017566
 21
5504.1106649003
 31
0.0
  0
LINE
  5
318
330
1F
100
AcDbEntity
  8
0
  6
Continuous
 62
     7
100
AcDbLine
 10
5082.761516948
 20
5505.2610941491
 30
0.0
 11
5082.761516948
 21
5504.2951710782
 31
0.0
  0
LINE
  5
319
330
1F
100
AcDbEntity
  8
0
  6
Continuous
 62
     7
100
AcDbLine
 10
5082.761516948
 20
5504.2951710782
 30
0.0
 11
5083.2642225221
 21
5504.2779453359
 31
0.0
  0
LINE
  5
31A
330
1F
100
AcDbEntity
  8
0
  6
Continuous
 62
     7
100
AcDbLine
 10
5082.3680070832
 20
5503.5254068932
 30
0.0
 11
5082.8707126573
 21
5503.5082109532
 31
0.0
  0
LINE
  5
31B
330
1F
100
AcDbEntity
  8
0
  6
Continuous
 62
     7
100
AcDbLine
 10
5082.3680070832
 20
5504.4913299642
 30
0.0
 11
5082.3680070832
 21
5503.5254068932
 31
0.0
  0
LINE
  5
31C
330
1F
100
AcDbEntity
  8
0
  6
Continuous
 62
     7
100
AcDbLine
 10
5066.2640241578
 20
5504.1198738179
 30
0.0
 11
5066.2640241578
 21
5503.153950747
 31
0.0
  0
LINE
  5
31D
330
1F
100
AcDbEntity
  8
0
  6
Continuous
 62
     7
100
AcDbLine
 10
5065.861454387
 20
5503.0741103253
 30
0.0
 11
5066.2640241578
 21
5503.153950747
 31
0.0
  0
LINE
  5
31E
330
1F
100
AcDbEntity
  8
0
  6
Continuous
 62
     7
100
AcDbLine
 10
5067.6861909822
 20
5502.4578281007
 30
0.0
 11
5068.088760753
 21
5502.53763872
 31
0.0
  0
LINE
  5
31F
330
1F
100
AcDbEntity
  8
0
  6
Continuous
 62
     7
100
AcDbLine
 10
5068.088760753
 20
5503.5035617909
 30
0.0
 11
5068.088760753
 21
5502.53763872
 31
0.0
  0
LINE
  5
320
330
1F
100
AcDbEntity
  8
0
  6
Continuous
 62
     7
100
AcDbLine
 10
5080.4527906373
 20
5503.6340363583
 30
0.0
 11
5080.4527906373
 21
5502.6681132874
 31
0.0
  0
LINE
  5
321
330
1F
100
AcDbEntity
  8
0
  6
Continuous
 62
     7
100
AcDbLine
 10
5078.0715850785
 20
5503.1617589555
 30
0.0
 11
5078.0715850785
 21
5502.1958358846
 31
0.0
  0
LINE
  5
322
330
1F
100
AcDbEntity
  8
0
  6
Continuous
 62
     7
100
AcDbLine
 10
5080.7613042787
 20
5502.5639541707
 30
0.0
 11
5080.4527906373
 21
5502.6681132874
 31
0.0
  0
LINE
  5
323
330
1F
100
AcDbEntity
  8
0
  6
Continuous
 62
     7
100
AcDbLine
 10
5078.3800987199
 20
5502.0916469655
 30
0.0
 11
5078.0715850785
 21
5502.1958358846
 31
0.0
  0
LINE
  5
324
330
1F
100
AcDbEntity
  8
0
  6
Continuous
 62
     7
100
AcDbLine
 10
5071.4011100724
 20
5503.007889565
 30
0.0
 11
5071.4011100724
 21
5502.0419664941
 31
0.0
  0
LINE
  5
325
330
1F
100
AcDbEntity
  8
0
  6
Continuous
 62
     7
100
AcDbLine
 10
5074.3751434281
 20
5502.9060550294
 30
0.0
 11
5074.3751434281
 21
5501.9401319585
 31
0.0
  0
LINE
  5
326
330
1F
100
AcDbEntity
  8
0
  6
Continuous
 62
     7
100
AcDbLine
 10
5071.4011100724
 20
5502.0419664941
 30
0.0
 11
5071.3345912889
 21
5501.9118495545
 31
0.0
  0
LINE
  5
327
330
1F
100
AcDbEntity
  8
0
  6
Continuous
 62
     7
100
AcDbLine
 10
5074.3751434281
 20
5501.9401319585
 30
0.0
 11
5074.3087438539
 21
5501.8100150189
 31
0.0
  0
LINE
  5
328
330
1F
100
AcDbEntity
  8
0
  6
Continuous
 62
     7
100
AcDbLine
 10
6880.7613161996
 20
5503.5298772416
 30
0.0
 11
6880.7613161996
 21
5502.5639541707
 31
0.0
  0
LINE
  5
329
330
1F
100
AcDbEntity
  8
0
  6
Continuous
 62
     7
100
AcDbLine
 10
6883.264234443
 20
5504.8816509805
 30
0.0
 11
6883.264234443
 21
5504.2779453359
 31
0.0
  0
LINE
  5
32A
330
1F
100
AcDbEntity
  8
0
  6
Continuous
 62
     7
100
AcDbLine
 10
6882.1760324433
 20
5505.6433685384
 30
0.0
 11
6882.1760324433
 21
5505.3316958508
 31
0.0
  0
LINE
  5
32B
330
1F
100
AcDbEntity
  8
0
  6
Continuous
 62
     7
100
AcDbLine
 10
6880.3512362435
 20
5506.1640449128
 30
0.0
 11
6880.3512362435
 21
5505.9480078778
 31
0.0
  0
LINE
  5
32C
330
1F
100
AcDbEntity
  8
0
  6
Continuous
 62
     7
100
AcDbLine
 10
6876.7028955415
 20
5506.6625185571
 30
0.0
 11
6876.7028955415
 21
5506.493986424
 31
0.0
  0
LINE
  5
32D
330
1F
100
AcDbEntity
  8
0
  6
Continuous
 62
     7
100
AcDbLine
 10
6873.7288025811
 20
5506.7576475701
 30
0.0
 11
6873.7288025811
 21
5506.5958209596
 31
0.0
  0
LINE
  5
32E
330
1F
100
AcDbEntity
  8
0
  6
Continuous
 62
     7
100
AcDbLine
 10
6869.6574477151
 20
5506.4959831796
 30
0.0
 11
6869.6574477151
 21
5506.314189013
 31
0.0
  0
LINE
  5
32F
330
1F
100
AcDbEntity
  8
0
  6
Continuous
 62
     7
100
AcDbLine
 10
6867.2762421563
 20
5506.0702570043
 30
0.0
 11
6867.2762421563
 21
5505.8418818078
 31
0.0
  0
LINE
  5
330
330
1F
100
AcDbEntity
  8
0
  6
Continuous
 62
     7
100
AcDbLine
 10
6865.1667741731
 20
5505.3357489667
 30
0.0
 11
6865.1667741731
 21
5504.8976250253
 31
0.0
  0
LINE
  5
331
330
1F
100
AcDbEntity
  8
0
  6
Continuous
 62
     7
100
AcDbLine
 10
6865.8614663079
 20
5504.0400333962
 30
0.0
 11
6865.8614663079
 21
5503.0741103253
 31
0.0
  0
LINE
  5
332
330
1F
100
AcDbEntity
  8
0
  6
Continuous
 62
     7
100
AcDbLine
 10
6871.3346032098
 20
5502.8777726254
 30
0.0
 11
6871.3346032098
 21
5501.9118495545
 31
0.0
  0
LINE
  5
333
330
1F
100
AcDbEntity
  8
0
  6
Continuous
 62
     7
100
AcDbLine
 10
6867.470434089
 20
5503.8700409493
 30
0.0
 11
6866.5701655343
 21
5504.2507954202
 31
0.0
  0
LINE
  5
334
330
1F
100
AcDbEntity
  8
0
  6
Continuous
 62
     7
100
AcDbLine
 10
6866.5701655343
 20
5504.2507954202
 30
0.0
 11
6865.9954575494
 21
5504.6716936192
 31
0.0
  0
LINE
  5
335
330
1F
100
AcDbEntity
  8
0
  6
Continuous
 62
     7
100
AcDbLine
 10
6865.9954575494
 20
5504.6716936192
 30
0.0
 11
6865.7714632943
 21
5505.114287909
 31
0.0
  0
LINE
  5
336
330
1F
100
AcDbEntity
  8
0
  6
Continuous
 62
     7
100
AcDbLine
 10
6865.7714632943
 20
5505.114287909
 30
0.0
 11
6865.9078387216
 21
5505.5592961869
 31
0.0
  0
LINE
  5
337
330
1F
100
AcDbEntity
  8
0
  6
Continuous
 62
     7
100
AcDbLine
 10
6865.9078387216
 20
5505.5592961869
 30
0.0
 11
6866.0352734521
 21
5505.7071753106
 31
0.0
  0
LINE
  5
338
330
1F
100
AcDbEntity
  8
0
  6
Continuous
 62
     7
100
AcDbLine
 10
6882.193377395
 20
5505.4567761979
 30
0.0
 11
6882.2660354569
 21
5505.2233942113
 31
0.0
  0
LINE
  5
339
330
1F
100
AcDbEntity
  8
0
  6
Continuous
 62
     7
100
AcDbLine
 10
6882.2660354569
 20
5505.2233942113
 30
0.0
 11
6882.1296600297
 21
5504.7783859334
 31
0.0
  0
LINE
  5
33A
330
1F
100
AcDbEntity
  8
0
  6
Continuous
 62
     7
100
AcDbLine
 10
6882.1296600297
 20
5504.7783859334
 30
0.0
 11
6881.6387561753
 21
5504.3504543862
 31
0.0
  0
LINE
  5
33B
330
1F
100
AcDbEntity
  8
0
  6
Continuous
 62
     7
100
AcDbLine
 10
6881.6387561753
 20
5504.3504543862
 30
0.0
 11
6880.8148411706
 21
5503.9583154282
 31
0.0
  0
LINE
  5
33C
330
1F
100
AcDbEntity
  8
0
  6
Continuous
 62
     7
100
AcDbLine
 10
6880.8148411706
 20
5503.9583154282
 30
0.0
 11
6879.693916221
 21
5503.6190457902
 31
0.0
  0
LINE
  5
33D
330
1F
100
AcDbEntity
  8
0
  6
Continuous
 62
     7
100
AcDbLine
 10
6879.693916221
 20
5503.6190457902
 30
0.0
 11
6878.3249167398
 21
5503.3475168309
 31
0.0
  0
LINE
  5
33E
330
1F
100
AcDbEntity
  8
0
  6
Continuous
 62
     7
100
AcDbLine
 10
6878.3249167398
 20
5503.3475168309
 30
0.0
 11
6876.767745395
 21
5503.1556196771
 31
0.0
  0
LINE
  5
33F
330
1F
100
AcDbEntity
  8
0
  6
Continuous
 62
     7
100
AcDbLine
 10
6876.767745395
 20
5503.1556196771
 30
0.0
 11
6875.0904110864
 21
5503.0516691766
 31
0.0
  0
LINE
  5
340
330
1F
100
AcDbEntity
  8
0
  6
Continuous
 62
     7
100
AcDbLine
 10
6875.0904110864
 20
5503.0516691766
 30
0.0
 11
6873.3662871316
 21
5503.0402846894
 31
0.0
  0
LINE
  5
341
330
1F
100
AcDbEntity
  8
0
  6
Continuous
 62
     7
100
AcDbLine
 10
6873.3662871316
 20
5503.0402846894
 30
0.0
 11
6871.670654197
 21
5503.1218834481
 31
0.0
  0
LINE
  5
342
330
1F
100
AcDbEntity
  8
0
  6
Continuous
 62
     7
100
AcDbLine
 10
6871.670654197
 20
5503.1218834481
 30
0.0
 11
6870.0776008561
 21
5503.2929785809
 31
0.0
  0
LINE
  5
343
330
1F
100
AcDbEntity
  8
0
  6
Continuous
 62
     7
100
AcDbLine
 10
6870.0776008561
 20
5503.2929785809
 30
0.0
 11
6868.6568645433
 21
5503.5460599027
 31
0.0
  0
LINE
  5
344
330
1F
100
AcDbEntity
  8
0
  6
Continuous
 62
     7
100
AcDbLine
 10
6868.6568645433
 20
5503.5460599027
 30
0.0
 11
6867.470434089
 21
5503.8700409493
 31
0.0
  0
LINE
  5
345
330
1F
100
AcDbEntity
  8
0
  6
Continuous
 62
     7
100
AcDbLine
 10
6882.7614692643
 20
5505.2610941491
 30
0.0
 11
6883.0233124688
 21
5505.2521236501
 31
0.0
  0
LINE
  5
346
330
1F
100
AcDbEntity
  8
0
  6
Continuous
 62
     7
100
AcDbLine
 10
6880.7613161996
 20
5503.5298772416
 30
0.0
 11
6880.4528621629
 21
5503.6340363583
 31
0.0
  0
LINE
  5
347
330
1F
100
AcDbEntity
  8
0
  6
Continuous
 62
     7
100
AcDbLine
 10
6871.4011219934
 20
5503.007889565
 30
0.0
 11
6871.3346032098
 21
5502.8777726254
 31
0.0
  0
LINE
  5
348
330
1F
100
AcDbEntity
  8
0
  6
Continuous
 62
     7
100
AcDbLine
 10
6865.8614663079
 20
5504.0400333962
 30
0.0
 11
6866.2639764741
 21
5504.1198738179
 31
0.0
  0
LINE
  5
349
330
1F
100
AcDbEntity
  8
0
  6
Continuous
 62
     7
100
AcDbLine
 10
6866.5187267259
 20
5505.2452095113
 30
0.0
 11
6865.9954575494
 21
5505.6376166902
 31
0.0
  0
LINE
  5
34A
330
1F
100
AcDbEntity
  8
0
  6
Continuous
 62
     7
100
AcDbLine
 10
6865.9954575494
 20
5505.6376166902
 30
0.0
 11
6865.958443065
 21
5505.6794889531
 31
0.0
  0
LINE
  5
34B
330
1F
100
AcDbEntity
  8
0
  6
Continuous
 62
     7
100
AcDbLine
 10
6881.6384581521
 20
5505.3161986432
 30
0.0
 11
6881.5187720254
 21
5505.2452095113
 31
0.0
  0
LINE
  5
34C
330
1F
100
AcDbEntity
  8
0
  6
Continuous
 62
     7
100
AcDbLine
 10
6876.6363767579
 20
5506.3638694844
 30
0.0
 11
6876.7028955415
 21
5506.493986424
 31
0.0
  0
LINE
  5
34D
330
1F
100
AcDbEntity
  8
0
  6
Continuous
 62
     7
100
AcDbLine
 10
6873.6623434022
 20
5506.46570402
 30
0.0
 11
6873.7288025811
 21
5506.5958209596
 31
0.0
  0
LINE
  5
34E
330
1F
100
AcDbEntity
  8
0
  6
Continuous
 62
     7
100
AcDbLine
 10
6868.0657056764
 20
5503.9881177506
 30
0.0
 11
6867.2242073014
 21
5504.3469377122
 31
0.0
  0
LINE
  5
34F
330
1F
100
AcDbEntity
  8
0
  6
Continuous
 62
     7
100
AcDbLine
 10
6867.2242073014
 20
5504.3469377122
 30
0.0
 11
6866.7004016831
 21
5504.7442026696
 31
0.0
  0
LINE
  5
350
330
1F
100
AcDbEntity
  8
0
  6
Continuous
 62
     7
100
AcDbLine
 10
6866.7004016831
 20
5504.7442026696
 30
0.0
 11
6866.5187863305
 21
5505.1613159738
 31
0.0
  0
LINE
  5
351
330
1F
100
AcDbEntity
  8
0
  6
Continuous
 62
     7
100
AcDbLine
 10
6866.5187863305
 20
5505.1613159738
 30
0.0
 11
6866.6878847077
 21
5505.5787571034
 31
0.0
  0
LINE
  5
352
330
1F
100
AcDbEntity
  8
0
  6
Continuous
 62
     7
100
AcDbLine
 10
6866.6878847077
 20
5505.5787571034
 30
0.0
 11
6867.1997693971
 21
5505.9770651421
 31
0.0
  0
LINE
  5
353
330
1F
100
AcDbEntity
  8
0
  6
Continuous
 62
     7
100
AcDbLine
 10
6867.1997693971
 20
5505.9770651421
 30
0.0
 11
6867.2762421563
 21
5506.0189374051
 31
0.0
  0
LINE
  5
354
330
1F
100
AcDbEntity
  8
0
  6
Continuous
 62
     7
100
AcDbLine
 10
6881.469836612
 20
5505.390227612
 30
0.0
 11
6881.4715651467
 21
5505.3862042985
 31
0.0
  0
LINE
  5
355
330
1F
100
AcDbEntity
  8
0
  6
Continuous
 62
     7
100
AcDbLine
 10
6881.4715651467
 20
5505.3862042985
 30
0.0
 11
6881.4778832391
 21
5504.96646839
 31
0.0
  0
LINE
  5
356
330
1F
100
AcDbEntity
  8
0
  6
Continuous
 62
     7
100
AcDbLine
 10
6881.4778832391
 20
5504.96646839
 30
0.0
 11
6881.1353949502
 21
5504.5561798177
 31
0.0
  0
LINE
  5
357
330
1F
100
AcDbEntity
  8
0
  6
Continuous
 62
     7
100
AcDbLine
 10
6881.1353949502
 20
5504.5561798177
 30
0.0
 11
6880.4601339295
 21
5504.1745312772
 31
0.0
  0
LINE
  5
358
330
1F
100
AcDbEntity
  8
0
  6
Continuous
 62
     7
100
AcDbLine
 10
6880.4601339295
 20
5504.1745312772
 30
0.0
 11
6879.4836906388
 21
5503.8394041619
 31
0.0
  0
LINE
  5
359
330
1F
100
AcDbEntity
  8
0
  6
Continuous
 62
     7
100
AcDbLine
 10
6879.4836906388
 20
5503.8394041619
 30
0.0
 11
6878.251722236
 21
5503.5664148889
 31
0.0
  0
LINE
  5
35A
330
1F
100
AcDbEntity
  8
0
  6
Continuous
 62
     7
100
AcDbLine
 10
6878.251722236
 20
5503.5664148889
 30
0.0
 11
6876.8218068078
 21
5503.3683784566
 31
0.0
  0
LINE
  5
35B
330
1F
100
AcDbEntity
  8
0
  6
Continuous
 62
     7
100
AcDbLine
 10
6876.8218068078
 20
5503.3683784566
 30
0.0
 11
6875.2608207658
 21
5503.2545037827
 31
0.0
  0
LINE
  5
35C
330
1F
100
AcDbEntity
  8
0
  6
Continuous
 62
     7
100
AcDbLine
 10
6875.2608207658
 20
5503.2545037827
 30
0.0
 11
6873.6417797998
 21
5503.2301552854
 31
0.0
  0
LINE
  5
35D
330
1F
100
AcDbEntity
  8
0
  6
Continuous
 62
     7
100
AcDbLine
 10
6873.6417797998
 20
5503.2301552854
 30
0.0
 11
6872.0403818086
 21
5503.2964356503
 31
0.0
  0
LINE
  5
35E
330
1F
100
AcDbEntity
  8
0
  6
Continuous
 62
     7
100
AcDbLine
 10
6872.0403818086
 20
5503.2964356503
 30
0.0
 11
6870.5314306214
 21
5503.4503050408
 31
0.0
  0
LINE
  5
35F
330
1F
100
AcDbEntity
  8
0
  6
Continuous
 62
     7
100
AcDbLine
 10
6870.5314306214
 20
5503.4503050408
 30
0.0
 11
6869.1855577424
 21
5503.6845214925
 31
0.0
  0
LINE
  5
360
330
1F
100
AcDbEntity
  8
0
  6
Continuous
 62
     7
100
AcDbLine
 10
6869.1855577424
 20
5503.6845214925
 30
0.0
 11
6868.0657056764
 21
5503.9881177506
 31
0.0
  0
LINE
  5
361
330
1F
100
AcDbEntity
  8
0
  6
Continuous
 62
     7
100
AcDbLine
 10
6873.6623434022
 20
5506.757081326
 30
0.0
 11
6873.6623434022
 21
5506.46570402
 31
0.0
  0
LINE
  5
362
330
1F
100
AcDbEntity
  8
0
  6
Continuous
 62
     7
100
AcDbLine
 10
6869.6574477151
 20
5506.314189013
 30
0.0
 11
6869.9659017518
 21
5506.2100000939
 31
0.0
  0
LINE
  5
363
330
1F
100
AcDbEntity
  8
0
  6
Continuous
 62
     7
100
AcDbLine
 10
6867.2762421563
 20
5505.8418818078
 30
0.0
 11
6867.5846365884
 21
5505.7377226911
 31
0.0
  0
LINE
  5
364
330
1F
100
AcDbEntity
  8
0
  6
Continuous
 62
     7
100
AcDbLine
 10
6869.9659017518
 20
5506.5335639081
 30
0.0
 11
6869.9659017518
 21
5506.2100000939
 31
0.0
  0
LINE
  5
365
330
1F
100
AcDbEntity
  8
0
  6
Continuous
 62
     7
100
AcDbLine
 10
6880.3512362435
 20
5505.9480078778
 30
0.0
 11
6879.948785682
 21
5505.8681674561
 31
0.0
  0
LINE
  5
366
330
1F
100
AcDbEntity
  8
0
  6
Continuous
 62
     7
100
AcDbLine
 10
6882.1760324433
 20
5505.3316958508
 30
0.0
 11
6881.7735222772
 21
5505.2518852315
 31
0.0
  0
LINE
  5
367
330
1F
100
AcDbEntity
  8
0
  6
Continuous
 62
     7
100
AcDbLine
 10
6879.948785682
 20
5506.2465973458
 30
0.0
 11
6879.948785682
 21
5505.8681674561
 31
0.0
  0
LINE
  5
368
330
1F
100
AcDbEntity
  8
0
  6
Continuous
 62
     7
100
AcDbLine
 10
6865.6694797471
 20
5505.5676706395
 30
0.0
 11
6865.6694797471
 21
5504.8803992829
 31
0.0
  0
LINE
  5
369
330
1F
100
AcDbEntity
  8
0
  6
Continuous
 62
     7
100
AcDbLine
 10
6865.6694797471
 20
5504.8803992829
 30
0.0
 11
6865.1667741731
 21
5504.8976250253
 31
0.0
  0
LINE
  5
36A
330
1F
100
AcDbEntity
  8
0
  6
Continuous
 62
     7
100
AcDbLine
 10
6865.2760294869
 20
5504.1106649003
 30
0.0
 11
6864.7733239129
 21
5504.1278608403
 31
0.0
  0
LINE
  5
36B
330
1F
100
AcDbEntity
  8
0
  6
Continuous
 62
     7
100
AcDbLine
 10
6865.2760294869
 20
5504.2951710782
 30
0.0
 11
6865.2760294869
 21
5504.1106649003
 31
0.0
  0
LINE
  5
36C
330
1F
100
AcDbEntity
  8
0
  6
Continuous
 62
     7
100
AcDbLine
 10
6882.7614692643
 20
5505.2610941491
 30
0.0
 11
6882.7614692643
 21
5504.2951710782
 31
0.0
  0
LINE
  5
36D
330
1F
100
AcDbEntity
  8
0
  6
Continuous
 62
     7
100
AcDbLine
 10
6882.7614692643
 20
5504.2951710782
 30
0.0
 11
6883.264234443
 21
5504.2779453359
 31
0.0
  0
LINE
  5
36E
330
1F
100
AcDbEntity
  8
0
  6
Continuous
 62
     7
100
AcDbLine
 10
6882.3680190042
 20
5503.5254068932
 30
0.0
 11
6882.8707245782
 21
5503.5082109532
 31
0.0
  0
LINE
  5
36F
330
1F
100
AcDbEntity
  8
0
  6
Continuous
 62
     7
100
AcDbLine
 10
6882.3680190042
 20
5504.4913299642
 30
0.0
 11
6882.3680190042
 21
5503.5254068932
 31
0.0
  0
LINE
  5
370
330
1F
100
AcDbEntity
  8
0
  6
Continuous
 62
     7
100
AcDbLine
 10
6866.2639764741
 20
5504.1198738179
 30
0.0
 11
6866.2639764741
 21
5503.153950747
 31
0.0
  0
LINE
  5
371
330
1F
100
AcDbEntity
  8
0
  6
Continuous
 62
     7
100
AcDbLine
 10
6865.8614663079
 20
5503.0741103253
 30
0.0
 11
6866.2639764741
 21
5503.153950747
 31
0.0
  0
LINE
  5
372
330
1F
100
AcDbEntity
  8
0
  6
Continuous
 62
     7
100
AcDbLine
 10
6867.6862625077
 20
5502.4578281007
 30
0.0
 11
6868.0887726739
 21
5502.53763872
 31
0.0
  0
LINE
  5
373
330
1F
100
AcDbEntity
  8
0
  6
Continuous
 62
     7
100
AcDbLine
 10
6868.0887726739
 20
5503.5035617909
 30
0.0
 11
6868.0887726739
 21
5502.53763872
 31
0.0
  0
LINE
  5
374
330
1F
100
AcDbEntity
  8
0
  6
Continuous
 62
     7
100
AcDbLine
 10
6880.4528621629
 20
5503.6340363583
 30
0.0
 11
6880.4528621629
 21
5502.6681132874
 31
0.0
  0
LINE
  5
375
330
1F
100
AcDbEntity
  8
0
  6
Continuous
 62
     7
100
AcDbLine
 10
6878.0716566041
 20
5503.1617589555
 30
0.0
 11
6878.0716566041
 21
5502.1958358846
 31
0.0
  0
LINE
  5
376
330
1F
100
AcDbEntity
  8
0
  6
Continuous
 62
     7
100
AcDbLine
 10
6880.7613161996
 20
5502.5639541707
 30
0.0
 11
6880.4528621629
 21
5502.6681132874
 31
0.0
  0
LINE
  5
377
330
1F
100
AcDbEntity
  8
0
  6
Continuous
 62
     7
100
AcDbLine
 10
6878.3800510362
 20
5502.0916469655
 30
0.0
 11
6878.0716566041
 21
5502.1958358846
 31
0.0
  0
LINE
  5
378
330
1F
100
AcDbEntity
  8
0
  6
Continuous
 62
     7
100
AcDbLine
 10
6871.4011219934
 20
5503.007889565
 30
0.0
 11
6871.4011219934
 21
5502.0419664941
 31
0.0
  0
LINE
  5
379
330
1F
100
AcDbEntity
  8
0
  6
Continuous
 62
     7
100
AcDbLine
 10
6874.3752149537
 20
5502.9060550294
 30
0.0
 11
6874.3752149537
 21
5501.9401319585
 31
0.0
  0
LINE
  5
37A
330
1F
100
AcDbEntity
  8
0
  6
Continuous
 62
     7
100
AcDbLine
 10
6871.4011219934
 20
5502.0419664941
 30
0.0
 11
6871.3346032098
 21
5501.9118495545
 31
0.0
  0
LINE
  5
37B
330
1F
100
AcDbEntity
  8
0
  6
Continuous
 62
     7
100
AcDbLine
 10
6874.3752149537
 20
5501.9401319585
 30
0.0
 11
6874.3086961701
 21
5501.8100150189
 31
0.0
  0
LINE
  5
37C
330
1F
100
AcDbEntity
  8
0
  6
Continuous
 62
     7
100
AcDbLine
 10
7480.7612804368
 20
5503.5298772416
 30
0.0
 11
7480.7612804368
 21
5502.5639541707
 31
0.0
  0
LINE
  5
37D
330
1F
100
AcDbEntity
  8
0
  6
Continuous
 62
     7
100
AcDbLine
 10
7483.2641986802
 20
5504.8816509805
 30
0.0
 11
7483.2641986802
 21
5504.2779453359
 31
0.0
  0
LINE
  5
37E
330
1F
100
AcDbEntity
  8
0
  6
Continuous
 62
     7
100
AcDbLine
 10
7482.1760562852
 20
5505.6433685384
 30
0.0
 11
7482.1760562852
 21
5505.3316958508
 31
0.0
  0
LINE
  5
37F
330
1F
100
AcDbEntity
  8
0
  6
Continuous
 62
     7
100
AcDbLine
 10
7480.35131969
 20
5506.1640449128
 30
0.0
 11
7480.35131969
 21
5505.9480078778
 31
0.0
  0
LINE
  5
380
330
1F
100
AcDbEntity
  8
0
  6
Continuous
 62
     7
100
AcDbLine
 10
7476.7029193833
 20
5506.6625185571
 30
0.0
 11
7476.7029193833
 21
5506.493986424
 31
0.0
  0
LINE
  5
381
330
1F
100
AcDbEntity
  8
0
  6
Continuous
 62
     7
100
AcDbLine
 10
7473.7287668183
 20
5506.7576475701
 30
0.0
 11
7473.7287668183
 21
5506.5958209596
 31
0.0
  0
LINE
  5
382
330
1F
100
AcDbEntity
  8
0
  6
Continuous
 62
     7
100
AcDbLine
 10
7469.6574119523
 20
5506.4959831796
 30
0.0
 11
7469.6574119523
 21
5506.314189013
 31
0.0
  0
LINE
  5
383
330
1F
100
AcDbEntity
  8
0
  6
Continuous
 62
     7
100
AcDbLine
 10
7467.2762063935
 20
5506.0702570043
 30
0.0
 11
7467.2762063935
 21
5505.8418818078
 31
0.0
  0
LINE
  5
384
330
1F
100
AcDbEntity
  8
0
  6
Continuous
 62
     7
100
AcDbLine
 10
7465.1667980149
 20
5505.3357489667
 30
0.0
 11
7465.1667980149
 21
5504.8976250253
 31
0.0
  0
LINE
  5
385
330
1F
100
AcDbEntity
  8
0
  6
Continuous
 62
     7
100
AcDbLine
 10
7465.8614305451
 20
5504.0400333962
 30
0.0
 11
7465.8614305451
 21
5503.0741103253
 31
0.0
  0
LINE
  5
386
330
1F
100
AcDbEntity
  8
0
  6
Continuous
 62
     7
100
AcDbLine
 10
7471.334567447
 20
5502.8777726254
 30
0.0
 11
7471.334567447
 21
5501.9118495545
 31
0.0
  0
LINE
  5
387
330
1F
100
AcDbEntity
  8
0
  6
Continuous
 62
     7
100
AcDbLine
 10
7467.4703983262
 20
5503.8700409493
 30
0.0
 11
7466.5701297715
 21
5504.2507954202
 31
0.0
  0
LINE
  5
388
330
1F
100
AcDbEntity
  8
0
  6
Continuous
 62
     7
100
AcDbLine
 10
7466.5701297715
 20
5504.2507954202
 30
0.0
 11
7465.9955409959
 21
5504.6716936192
 31
0.0
  0
LINE
  5
389
330
1F
100
AcDbEntity
  8
0
  6
Continuous
 62
     7
100
AcDbLine
 10
7465.9955409959
 20
5504.6716936192
 30
0.0
 11
7465.7714275315
 21
5505.114287909
 31
0.0
  0
LINE
  5
38A
330
1F
100
AcDbEntity
  8
0
  6
Continuous
 62
     7
100
AcDbLine
 10
7465.7714275315
 20
5505.114287909
 30
0.0
 11
7465.9078029588
 21
5505.5592961869
 31
0.0
  0
LINE
  5
38B
330
1F
100
AcDbEntity
  8
0
  6
Continuous
 62
     7
100
AcDbLine
 10
7465.9078029588
 20
5505.5592961869
 30
0.0
 11
7466.0352376893
 21
5505.7071753106
 31
0.0
  0
LINE
  5
38C
330
1F
100
AcDbEntity
  8
0
  6
Continuous
 62
     7
100
AcDbLine
 10
7482.1933416322
 20
5505.4567761979
 30
0.0
 11
7482.2660592988
 21
5505.2233942113
 31
0.0
  0
LINE
  5
38D
330
1F
100
AcDbEntity
  8
0
  6
Continuous
 62
     7
100
AcDbLine
 10
7482.2660592988
 20
5505.2233942113
 30
0.0
 11
7482.1296838716
 21
5504.7783859334
 31
0.0
  0
LINE
  5
38E
330
1F
100
AcDbEntity
  8
0
  6
Continuous
 62
     7
100
AcDbLine
 10
7482.1296838716
 20
5504.7783859334
 30
0.0
 11
7481.6387800172
 21
5504.3504543862
 31
0.0
  0
LINE
  5
38F
330
1F
100
AcDbEntity
  8
0
  6
Continuous
 62
     7
100
AcDbLine
 10
7481.6387800172
 20
5504.3504543862
 30
0.0
 11
7480.8148054078
 21
5503.9583154282
 31
0.0
  0
LINE
  5
390
330
1F
100
AcDbEntity
  8
0
  6
Continuous
 62
     7
100
AcDbLine
 10
7480.8148054078
 20
5503.9583154282
 30
0.0
 11
7480.4614690736
 21
5503.8351424298
 31
0.0
  0
LINE
  5
391
330
1F
100
AcDbEntity
  8
0
  6
Continuous
 62
     7
100
AcDbLine
 10
7467.7927402452
 20
5503.7679083905
 30
0.0
 11
7467.4703983262
 21
5503.8700409493
 31
0.0
  0
LINE
  5
392
330
1F
100
AcDbEntity
  8
0
  6
Continuous
 62
     7
100
AcDbLine
 10
7482.7614931062
 20
5505.2610941491
 30
0.0
 11
7483.023276706
 21
5505.2521236501
 31
0.0
  0
LINE
  5
393
330
1F
100
AcDbEntity
  8
0
  6
Continuous
 62
     7
100
AcDbLine
 10
7480.7612804368
 20
5503.5298772416
 30
0.0
 11
7480.4528860047
 21
5503.6340363583
 31
0.0
  0
LINE
  5
394
330
1F
100
AcDbEntity
  8
0
  6
Continuous
 62
     7
100
AcDbLine
 10
7471.4010862306
 20
5503.007889565
 30
0.0
 11
7471.334567447
 21
5502.8777726254
 31
0.0
  0
LINE
  5
395
330
1F
100
AcDbEntity
  8
0
  6
Continuous
 62
     7
100
AcDbLine
 10
7465.8614305451
 20
5504.0400333962
 30
0.0
 11
7466.264000316
 21
5504.1198738179
 31
0.0
  0
LINE
  5
396
330
1F
100
AcDbEntity
  8
0
  6
Continuous
 62
     7
100
AcDbLine
 10
7466.5187505677
 20
5505.2452095113
 30
0.0
 11
7465.9955409959
 21
5505.6376166902
 31
0.0
  0
LINE
  5
397
330
1F
100
AcDbEntity
  8
0
  6
Continuous
 62
     7
100
AcDbLine
 10
7465.9955409959
 20
5505.6376166902
 30
0.0
 11
7465.9584669068
 21
5505.6794889531
 31
0.0
  0
LINE
  5
398
330
1F
100
AcDbEntity
  8
0
  6
Continuous
 62
     7
100
AcDbLine
 10
7481.6384223893
 20
5505.3161986432
 30
0.0
 11
7481.5187362626
 21
5505.2452095113
 31
0.0
  0
LINE
  5
399
330
1F
100
AcDbEntity
  8
0
  6
Continuous
 62
     7
100
AcDbLine
 10
7476.6364005998
 20
5506.3638694844
 30
0.0
 11
7476.7029193833
 21
5506.493986424
 31
0.0
  0
LINE
  5
39A
330
1F
100
AcDbEntity
  8
0
  6
Continuous
 62
     7
100
AcDbLine
 10
7473.6623672441
 20
5506.46570402
 30
0.0
 11
7473.7287668183
 21
5506.5958209596
 31
0.0
  0
LINE
  5
39B
330
1F
100
AcDbEntity
  8
0
  6
Continuous
 62
     7
100
AcDbLine
 10
7468.0657295182
 20
5503.9881177506
 30
0.0
 11
7467.2242311433
 21
5504.3469377122
 31
0.0
  0
LINE
  5
39C
330
1F
100
AcDbEntity
  8
0
  6
Continuous
 62
     7
100
AcDbLine
 10
7467.2242311433
 20
5504.3469377122
 30
0.0
 11
7466.700425525
 21
5504.7442026696
 31
0.0
  0
LINE
  5
39D
330
1F
100
AcDbEntity
  8
0
  6
Continuous
 62
     7
100
AcDbLine
 10
7466.700425525
 20
5504.7442026696
 30
0.0
 11
7466.518869777
 21
5505.1613159738
 31
0.0
  0
LINE
  5
39E
330
1F
100
AcDbEntity
  8
0
  6
Continuous
 62
     7
100
AcDbLine
 10
7466.518869777
 20
5505.1613159738
 30
0.0
 11
7466.6879085496
 21
5505.5787571034
 31
0.0
  0
LINE
  5
39F
330
1F
100
AcDbEntity
  8
0
  6
Continuous
 62
     7
100
AcDbLine
 10
7466.6879085496
 20
5505.5787571034
 30
0.0
 11
7467.1997932389
 21
5505.9770651421
 31
0.0
  0
LINE
  5
3A0
330
1F
100
AcDbEntity
  8
0
  6
Continuous
 62
     7
100
AcDbLine
 10
7467.1997932389
 20
5505.9770651421
 30
0.0
 11
7467.2762063935
 21
5506.0189374051
 31
0.0
  0
LINE
  5
3A1
330
1F
100
AcDbEntity
  8
0
  6
Continuous
 62
     7
100
AcDbLine
 10
7481.4698604539
 20
5505.390227612
 30
0.0
 11
7481.471529384
 21
5505.3862042985
 31
0.0
  0
LINE
  5
3A2
330
1F
100
AcDbEntity
  8
0
  6
Continuous
 62
     7
100
AcDbLine
 10
7481.471529384
 20
5505.3862042985
 30
0.0
 11
7481.4778474763
 21
5504.96646839
 31
0.0
  0
LINE
  5
3A3
330
1F
100
AcDbEntity
  8
0
  6
Continuous
 62
     7
100
AcDbLine
 10
7481.4778474763
 20
5504.96646839
 30
0.0
 11
7481.1353591874
 21
5504.5561798177
 31
0.0
  0
LINE
  5
3A4
330
1F
100
AcDbEntity
  8
0
  6
Continuous
 62
     7
100
AcDbLine
 10
7481.1353591874
 20
5504.5561798177
 30
0.0
 11
7480.4601577714
 21
5504.1745312772
 31
0.0
  0
LINE
  5
3A5
330
1F
100
AcDbEntity
  8
0
  6
Continuous
 62
     7
100
AcDbLine
 10
7480.4601577714
 20
5504.1745312772
 30
0.0
 11
7479.4837144807
 21
5503.8394041619
 31
0.0
  0
LINE
  5
3A6
330
1F
100
AcDbEntity
  8
0
  6
Continuous
 62
     7
100
AcDbLine
 10
7479.4837144807
 20
5503.8394041619
 30
0.0
 11
7478.2516864732
 21
5503.5664148889
 31
0.0
  0
LINE
  5
3A7
330
1F
100
AcDbEntity
  8
0
  6
Continuous
 62
     7
100
AcDbLine
 10
7478.2516864732
 20
5503.5664148889
 30
0.0
 11
7476.821771045
 21
5503.3683784566
 31
0.0
  0
LINE
  5
3A8
330
1F
100
AcDbEntity
  8
0
  6
Continuous
 62
     7
100
AcDbLine
 10
7476.821771045
 20
5503.3683784566
 30
0.0
 11
7475.2608446076
 21
5503.2545037827
 31
0.0
  0
LINE
  5
3A9
330
1F
100
AcDbEntity
  8
0
  6
Continuous
 62
     7
100
AcDbLine
 10
7475.2608446076
 20
5503.2545037827
 30
0.0
 11
7473.641744037
 21
5503.2301552854
 31
0.0
  0
LINE
  5
3AA
330
1F
100
AcDbEntity
  8
0
  6
Continuous
 62
     7
100
AcDbLine
 10
7473.641744037
 20
5503.2301552854
 30
0.0
 11
7472.0404056504
 21
5503.2964356503
 31
0.0
  0
LINE
  5
3AB
330
1F
100
AcDbEntity
  8
0
  6
Continuous
 62
     7
100
AcDbLine
 10
7472.0404056504
 20
5503.2964356503
 30
0.0
 11
7470.5314544633
 21
5503.4503050408
 31
0.0
  0
LINE
  5
3AC
330
1F
100
AcDbEntity
  8
0
  6
Continuous
 62
     7
100
AcDbLine
 10
7470.5314544633
 20
5503.4503050408
 30
0.0
 11
7469.1855815843
 21
5503.6845214925
 31
0.0
  0
LINE
  5
3AD
330
1F
100
AcDbEntity
  8
0
  6
Continuous
 62
     7
100
AcDbLine
 10
7469.1855815843
 20
5503.6845214925
 30
0.0
 11
7468.0657295182
 21
5503.9881177506
 31
0.0
  0
LINE
  5
3AE
330
1F
100
AcDbEntity
  8
0
  6
Continuous
 62
     7
100
AcDbLine
 10
7473.6623672441
 20
5506.757081326
 30
0.0
 11
7473.6623672441
 21
5506.46570402
 31
0.0
  0
LINE
  5
3AF
330
1F
100
AcDbEntity
  8
0
  6
Continuous
 62
     7
100
AcDbLine
 10
7469.6574119523
 20
5506.314189013
 30
0.0
 11
7469.9659255937
 21
5506.2100000939
 31
0.0
  0
LINE
  5
3B0
330
1F
100
AcDbEntity
  8
0
  6
Continuous
 62
     7
100
AcDbLine
 10
7467.2762063935
 20
5505.8418818078
 30
0.0
 11
7467.5847200349
 21
5505.7377226911
 31
0.0
  0
LINE
  5
3B1
330
1F
100
AcDbEntity
  8
0
  6
Continuous
 62
     7
100
AcDbLine
 10
7469.9659255937
 20
5506.5335639081
 30
0.0
 11
7469.9659255937
 21
5506.2100000939
 31
0.0
  0
LINE
  5
3B2
330
1F
100
AcDbEntity
  8
0
  6
Continuous
 62
     7
100
AcDbLine
 10
7480.35131969
 20
5505.9480078778
 30
0.0
 11
7479.9487499192
 21
5505.8681674561
 31
0.0
  0
LINE
  5
3B3
330
1F
100
AcDbEntity
  8
0
  6
Continuous
 62
     7
100
AcDbLine
 10
7482.1760562852
 20
5505.3316958508
 30
0.0
 11
7481.7734865144
 21
5505.2518852315
 31
0.0
  0
LINE
  5
3B4
330
1F
100
AcDbEntity
  8
0
  6
Continuous
 62
     7
100
AcDbLine
 10
7479.9487499192
 20
5506.2465973458
 30
0.0
 11
7479.9487499192
 21
5505.8681674561
 31
0.0
  0
LINE
  5
3B5
330
1F
100
AcDbEntity
  8
0
  6
Continuous
 62
     7
100
AcDbLine
 10
7465.669503589
 20
5505.5676706395
 30
0.0
 11
7465.669503589
 21
5504.8803992829
 31
0.0
  0
LINE
  5
3B6
330
1F
100
AcDbEntity
  8
0
  6
Continuous
 62
     7
100
AcDbLine
 10
7465.669503589
 20
5504.8803992829
 30
0.0
 11
7465.1667980149
 21
5504.8976250253
 31
0.0
  0
LINE
  5
3B7
330
1F
100
AcDbEntity
  8
0
  6
Continuous
 62
     7
100
AcDbLine
 10
7465.2759937242
 20
5504.1106649003
 30
0.0
 11
7464.7732881501
 21
5504.1278608403
 31
0.0
  0
LINE
  5
3B8
330
1F
100
AcDbEntity
  8
0
  6
Continuous
 62
     7
100
AcDbLine
 10
7465.2759937242
 20
5504.2951710782
 30
0.0
 11
7465.2759937242
 21
5504.1106649003
 31
0.0
  0
LINE
  5
3B9
330
1F
100
AcDbEntity
  8
0
  6
Continuous
 62
     7
100
AcDbLine
 10
7482.7614931062
 20
5505.2610941491
 30
0.0
 11
7482.7614931062
 21
5504.2951710782
 31
0.0
  0
LINE
  5
3BA
330
1F
100
AcDbEntity
  8
0
  6
Continuous
 62
     7
100
AcDbLine
 10
7482.7614931062
 20
5504.2951710782
 30
0.0
 11
7483.2641986802
 21
5504.2779453359
 31
0.0
  0
LINE
  5
3BB
330
1F
100
AcDbEntity
  8
0
  6
Continuous
 62
     7
100
AcDbLine
 10
7482.3679832414
 20
5503.5254068932
 30
0.0
 11
7482.8708080247
 21
5503.5082109532
 31
0.0
  0
LINE
  5
3BC
330
1F
100
AcDbEntity
  8
0
  6
Continuous
 62
     7
100
AcDbLine
 10
7482.3679832414
 20
5504.4913299642
 30
0.0
 11
7482.3679832414
 21
5503.5254068932
 31
0.0
  0
LINE
  5
3BD
330
1F
100
AcDbEntity
  8
0
  6
Continuous
 62
     7
100
AcDbLine
 10
7466.264000316
 20
5504.1198738179
 30
0.0
 11
7466.264000316
 21
5503.153950747
 31
0.0
  0
LINE
  5
3BE
330
1F
100
AcDbEntity
  8
0
  6
Continuous
 62
     7
100
AcDbLine
 10
7465.8614305451
 20
5503.0741103253
 30
0.0
 11
7466.264000316
 21
5503.153950747
 31
0.0
  0
LINE
  5
3BF
330
1F
100
AcDbEntity
  8
0
  6
Continuous
 62
     7
100
AcDbLine
 10
7467.6862863496
 20
5502.4578281007
 30
0.0
 11
7468.0887369111
 21
5502.53763872
 31
0.0
  0
LINE
  5
3C0
330
1F
100
AcDbEntity
  8
0
  6
Continuous
 62
     7
100
AcDbLine
 10
7468.0887369111
 20
5503.5035617909
 30
0.0
 11
7468.0887369111
 21
5502.53763872
 31
0.0
  0
LINE
  5
3C1
330
1F
100
AcDbEntity
  8
0
  6
Continuous
 62
     7
100
AcDbLine
 10
7480.4528860047
 20
5503.6340363583
 30
0.0
 11
7480.4528860047
 21
5502.6681132874
 31
0.0
  0
LINE
  5
3C2
330
1F
100
AcDbEntity
  8
0
  6
Continuous
 62
     7
100
AcDbLine
 10
7478.071680446
 20
5503.1617589555
 30
0.0
 11
7478.071680446
 21
5502.1958358846
 31
0.0
  0
LINE
  5
3C3
330
1F
100
AcDbEntity
  8
0
  6
Continuous
 62
     7
100
AcDbLine
 10
7480.7612804368
 20
5502.5639541707
 30
0.0
 11
7480.4528860047
 21
5502.6681132874
 31
0.0
  0
LINE
  5
3C4
330
1F
100
AcDbEntity
  8
0
  6
Continuous
 62
     7
100
AcDbLine
 10
7478.380074878
 20
5502.0916469655
 30
0.0
 11
7478.071680446
 21
5502.1958358846
 31
0.0
  0
LINE
  5
3C5
330
1F
100
AcDbEntity
  8
0
  6
Continuous
 62
     7
100
AcDbLine
 10
7471.4010862306
 20
5503.007889565
 30
0.0
 11
7471.4010862306
 21
5502.0419664941
 31
0.0
  0
LINE
  5
3C6
330
1F
100
AcDbEntity
  8
0
  6
Continuous
 62
     7
100
AcDbLine
 10
7474.3752387956
 20
5502.9060550294
 30
0.0
 11
7474.3752387956
 21
5501.9401319585
 31
0.0
  0
LINE
  5
3C7
330
1F
100
AcDbEntity
  8
0
  6
Continuous
 62
     7
100
AcDbLine
 10
7471.4010862306
 20
5502.0419664941
 30
0.0
 11
7471.334567447
 21
5501.9118495545
 31
0.0
  0
LINE
  5
3C8
330
1F
100
AcDbEntity
  8
0
  6
Continuous
 62
     7
100
AcDbLine
 10
7474.3752387956
 20
5501.9401319585
 30
0.0
 11
7474.308720012
 21
5501.8100150189
 31
0.0
  0
LINE
  5
3C9
330
1F
100
AcDbEntity
  8
0
  6
Continuous
 62
     7
100
AcDbLine
 10
6261.8680691019
 20
5508.3440251908
 30
0.0
 11
6286.1694415703
 21
5508.3440251908
 31
0.0
  0
LINE
  5
3CA
330
1F
100
AcDbEntity
  8
0
  6
Continuous
 62
     7
100
AcDbLine
 10
6287.1370847036
 20
5508.0760693075
 30
0.0
 11
6286.1694415703
 21
5508.3440251908
 31
0.0
  0
LINE
  5
3CB
330
1F
100
AcDbEntity
  8
0
  6
Continuous
 62
     7
100
AcDbLine
 10
6261.8680691019
 20
5508.3440251908
 30
0.0
 11
6260.9004259686
 21
5508.0760693075
 31
0.0
  0
LINE
  5
3CC
330
1F
100
AcDbEntity
  8
0
  6
Continuous
 62
     7
100
AcDbLine
 10
6274.0187553361
 20
5506.7587502561
 30
0.0
 11
6275.8876113592
 21
5506.7125566564
 31
0.0
  0
LINE
  5
3CD
330
1F
100
AcDbEntity
  8
0
  6
Continuous
 62
     7
100
AcDbLine
 10
6275.8876113592
 20
5506.7125566564
 30
0.0
 11
6277.6889220484
 21
5506.5756745896
 31
0.0
  0
LINE
  5
3CE
330
1F
100
AcDbEntity
  8
0
  6
Continuous
 62
     7
100
AcDbLine
 10
6277.6889220484
 20
5506.5756745896
 30
0.0
 11
6279.3575834155
 21
5506.3530214391
 31
0.0
  0
LINE
  5
3CF
330
1F
100
AcDbEntity
  8
0
  6
Continuous
 62
     7
100
AcDbLine
 10
6279.3575834155
 20
5506.3530214391
 30
0.0
 11
6280.8332854554
 21
5506.052673634
 31
0.0
  0
LINE
  5
3D0
330
1F
100
AcDbEntity
  8
0
  6
Continuous
 62
     7
100
AcDbLine
 10
6280.8332854554
 20
5506.052673634
 30
0.0
 11
6282.0626927212
 21
5505.6854494176
 31
0.0
  0
LINE
  5
3D1
330
1F
100
AcDbEntity
  8
0
  6
Continuous
 62
     7
100
AcDbLine
 10
6282.0626927212
 20
5505.6854494176
 30
0.0
 11
6283.0013708815
 21
5505.2646406255
 31
0.0
  0
LINE
  5
3D2
330
1F
100
AcDbEntity
  8
0
  6
Continuous
 62
     7
100
AcDbLine
 10
6283.0013708815
 20
5505.2646406255
 30
0.0
 11
6283.6153946489
 21
5504.8054762444
 31
0.0
  0
LINE
  5
3D3
330
1F
100
AcDbEntity
  8
0
  6
Continuous
 62
     7
100
AcDbLine
 10
6283.6153946489
 20
5504.8054762444
 30
0.0
 11
6283.8825706065
 21
5504.3245263657
 31
0.0
  0
LINE
  5
3D4
330
1F
100
AcDbEntity
  8
0
  6
Continuous
 62
     7
100
AcDbLine
 10
6283.8825706065
 20
5504.3245263657
 30
0.0
 11
6283.7932418704
 21
5503.8391657433
 31
0.0
  0
LINE
  5
3D5
330
1F
100
AcDbEntity
  8
0
  6
Continuous
 62
     7
100
AcDbLine
 10
6283.7932418704
 20
5503.8391657433
 30
0.0
 11
6283.3506382674
 21
5503.3669777474
 31
0.0
  0
LINE
  5
3D6
330
1F
100
AcDbEntity
  8
0
  6
Continuous
 62
     7
100
AcDbLine
 10
6283.3506382674
 20
5503.3669777474
 30
0.0
 11
6282.570756194
 21
5502.9250093064
 31
0.0
  0
LINE
  5
3D7
330
1F
100
AcDbEntity
  8
0
  6
Continuous
 62
     7
100
AcDbLine
 10
6282.570756194
 20
5502.9250093064
 30
0.0
 11
6281.4817825936
 21
5502.5292046628
 31
0.0
  0
LINE
  5
3D8
330
1F
100
AcDbEntity
  8
0
  6
Continuous
 62
     7
100
AcDbLine
 10
6281.4817825936
 20
5502.5292046628
 30
0.0
 11
6280.1230751581
 21
5502.1938987336
 31
0.0
  0
LINE
  5
3D9
330
1F
100
AcDbEntity
  8
0
  6
Continuous
 62
     7
100
AcDbLine
 10
6280.1230751581
 20
5502.1938987336
 30
0.0
 11
6278.5437420614
 21
5501.9311912618
 31
0.0
  0
LINE
  5
3DA
330
1F
100
AcDbEntity
  8
0
  6
Continuous
 62
     7
100
AcDbLine
 10
6278.5437420614
 20
5501.9311912618
 30
0.0
 11
6276.8008642968
 21
5501.7506189904
 31
0.0
  0
LINE
  5
3DB
330
1F
100
AcDbEntity
  8
0
  6
Continuous
 62
     7
100
AcDbLine
 10
6276.8008642968
 20
5501.7506189904
 30
0.0
 11
6274.9574337874
 21
5501.6586490235
 31
0.0
  0
LINE
  5
3DC
330
1F
100
AcDbEntity
  8
0
  6
Continuous
 62
     7
100
AcDbLine
 10
6274.9574337874
 20
5501.6586490235
 30
0.0
 11
6273.0800768848
 21
5501.6586490235
 31
0.0
  0
LINE
  5
3DD
330
1F
100
AcDbEntity
  8
0
  6
Continuous
 62
     7
100
AcDbLine
 10
6273.0800768848
 20
5501.6586490235
 30
0.0
 11
6271.2366463754
 21
5501.7506189904
 31
0.0
  0
LINE
  5
3DE
330
1F
100
AcDbEntity
  8
0
  6
Continuous
 62
     7
100
AcDbLine
 10
6271.2366463754
 20
5501.7506189904
 30
0.0
 11
6269.4937686108
 21
5501.9311912618
 31
0.0
  0
LINE
  5
3DF
330
1F
100
AcDbEntity
  8
0
  6
Continuous
 62
     7
100
AcDbLine
 10
6269.4937686108
 20
5501.9311912618
 30
0.0
 11
6267.9144355141
 21
5502.1938987336
 31
0.0
  0
LINE
  5
3E0
330
1F
100
AcDbEntity
  8
0
  6
Continuous
 62
     7
100
AcDbLine
 10
6267.9144355141
 20
5502.1938987336
 30
0.0
 11
6266.5557280786
 21
5502.5292046628
 31
0.0
  0
LINE
  5
3E1
330
1F
100
AcDbEntity
  8
0
  6
Continuous
 62
     7
100
AcDbLine
 10
6266.5557280786
 20
5502.5292046628
 30
0.0
 11
6265.4667544782
 21
5502.9250093064
 31
0.0
  0
LINE
  5
3E2
330
1F
100
AcDbEntity
  8
0
  6
Continuous
 62
     7
100
AcDbLine
 10
6265.4667544782
 20
5502.9250093064
 30
0.0
 11
6264.6868724048
 21
5503.3669777474
 31
0.0
  0
LINE
  5
3E3
330
1F
100
AcDbEntity
  8
0
  6
Continuous
 62
     7
100
AcDbLine
 10
6264.6868724048
 20
5503.3669777474
 30
0.0
 11
6264.2442688018
 21
5503.8391657433
 31
0.0
  0
LINE
  5
3E4
330
1F
100
AcDbEntity
  8
0
  6
Continuous
 62
     7
100
AcDbLine
 10
6264.2442688018
 20
5503.8391657433
 30
0.0
 11
6264.1549400657
 21
5504.3245263657
 31
0.0
  0
LINE
  5
3E5
330
1F
100
AcDbEntity
  8
0
  6
Continuous
 62
     7
100
AcDbLine
 10
6264.1549400657
 20
5504.3245263657
 30
0.0
 11
6264.4221160233
 21
5504.8054762444
 31
0.0
  0
LINE
  5
3E6
330
1F
100
AcDbEntity
  8
0
  6
Continuous
 62
     7
100
AcDbLine
 10
6264.4221160233
 20
5504.8054762444
 30
0.0
 11
6265.0361397907
 21
5505.2646406255
 31
0.0
  0
LINE
  5
3E7
330
1F
100
AcDbEntity
  8
0
  6
Continuous
 62
     7
100
AcDbLine
 10
6265.0361397907
 20
5505.2646406255
 30
0.0
 11
6265.974817951
 21
5505.6854494176
 31
0.0
  0
LINE
  5
3E8
330
1F
100
AcDbEntity
  8
0
  6
Continuous
 62
     7
100
AcDbLine
 10
6265.974817951
 20
5505.6854494176
 30
0.0
 11
6267.2042252168
 21
5506.052673634
 31
0.0
  0
LINE
  5
3E9
330
1F
100
AcDbEntity
  8
0
  6
Continuous
 62
     7
100
AcDbLine
 10
6267.2042252168
 20
5506.052673634
 30
0.0
 11
6268.6799272567
 21
5506.3530214391
 31
0.0
  0
LINE
  5
3EA
330
1F
100
AcDbEntity
  8
0
  6
Continuous
 62
     7
100
AcDbLine
 10
6268.6799272567
 20
5506.3530214391
 30
0.0
 11
6270.3485886238
 21
5506.5756745896
 31
0.0
  0
LINE
  5
3EB
330
1F
100
AcDbEntity
  8
0
  6
Continuous
 62
     7
100
AcDbLine
 10
6270.3485886238
 20
5506.5756745896
 30
0.0
 11
6272.149899313
 21
5506.7125566564
 31
0.0
  0
LINE
  5
3EC
330
1F
100
AcDbEntity
  8
0
  6
Continuous
 62
     7
100
AcDbLine
 10
6272.149899313
 20
5506.7125566564
 30
0.0
 11
6274.0187553361
 21
5506.7587502561
 31
0.0
  0
LINE
  5
3ED
330
1F
100
AcDbEntity
  8
0
  6
Continuous
 62
     7
100
AcDbLine
 10
6283.2481275916
 20
5505.1119037232
 30
0.0
 11
6283.3937557086
 21
5504.6858795247
 31
0.0
  0
LINE
  5
3EE
330
1F
100
AcDbEntity
  8
0
  6
Continuous
 62
     7
100
AcDbLine
 10
6283.3937557086
 20
5504.6858795247
 30
0.0
 11
6283.2687554553
 21
5504.2909689507
 31
0.0
  0
LINE
  5
3EF
330
1F
100
AcDbEntity
  8
0
  6
Continuous
 62
     7
100
AcDbLine
 10
6282.3680324152
 20
5503.582329329
 30
0.0
 11
6281.8137827933
 21
5503.3378310761
 31
0.0
  0
LINE
  5
3F0
330
1F
100
AcDbEntity
  8
0
  6
Continuous
 62
     7
100
AcDbLine
 10
6281.8137827933
 20
5503.3378310761
 30
0.0
 11
6280.7612928234
 21
5502.9999919496
 31
0.0
  0
LINE
  5
3F1
330
1F
100
AcDbEntity
  8
0
  6
Continuous
 62
     7
100
AcDbLine
 10
6265.8614666805
 20
5503.4900017342
 30
0.0
 11
6265.3573846117
 21
5503.7573285661
 31
0.0
  0
LINE
  5
3F2
330
1F
100
AcDbEntity
  8
0
  6
Continuous
 62
     7
100
AcDbLine
 10
6265.3573846117
 20
5503.7573285661
 30
0.0
 11
6264.898969014
 21
5504.1235693059
 31
0.0
  0
LINE
  5
3F3
330
1F
100
AcDbEntity
  8
0
  6
Continuous
 62
     7
100
AcDbLine
 10
6264.7687552169
 20
5504.2909689507
 30
0.0
 11
6264.6437549636
 21
5504.6858795247
 31
0.0
  0
LINE
  5
3F4
330
1F
100
AcDbEntity
  8
0
  6
Continuous
 62
     7
100
AcDbLine
 10
6264.6437549636
 20
5504.6858795247
 30
0.0
 11
6264.7893830806
 21
5505.1119037232
 31
0.0
  0
LINE
  5
3F5
330
1F
100
AcDbEntity
  8
0
  6
Continuous
 62
     7
100
AcDbLine
 10
7461.8680385545
 20
5508.3440251908
 30
0.0
 11
7486.1694482759
 21
5508.3440251908
 31
0.0
  0
LINE
  5
3F6
330
1F
100
AcDbEntity
  8
0
  6
Continuous
 62
     7
100
AcDbLine
 10
7487.1370847036
 20
5508.0760693075
 30
0.0
 11
7486.1694482759
 21
5508.3440251908
 31
0.0
  0
LINE
  5
3F7
330
1F
100
AcDbEntity
  8
0
  6
Continuous
 62
     7
100
AcDbLine
 10
7461.8680385545
 20
5508.3440251908
 30
0.0
 11
7460.9004259686
 21
5508.0760693075
 31
0.0
  0
LINE
  5
3F8
330
1F
100
AcDbEntity
  8
0
  6
Continuous
 62
     7
100
AcDbLine
 10
7474.0188030198
 20
5506.7587502561
 30
0.0
 11
7475.8876470521
 21
5506.7125566564
 31
0.0
  0
LINE
  5
3F9
330
1F
100
AcDbEntity
  8
0
  6
Continuous
 62
     7
100
AcDbLine
 10
7475.8876470521
 20
5506.7125566564
 30
0.0
 11
7477.6888994172
 21
5506.5756745896
 31
0.0
  0
LINE
  5
3FA
330
1F
100
AcDbEntity
  8
0
  6
Continuous
 62
     7
100
AcDbLine
 10
7477.6888994172
 20
5506.5756745896
 30
0.0
 11
7479.3575910523
 21
5506.3530214391
 31
0.0
  0
LINE
  5
3FB
330
1F
100
AcDbEntity
  8
0
  6
Continuous
 62
     7
100
AcDbLine
 10
7479.3575910523
 20
5506.3530214391
 30
0.0
 11
7480.8332828477
 21
5506.052673634
 31
0.0
  0
LINE
  5
3FC
330
1F
100
AcDbEntity
  8
0
  6
Continuous
 62
     7
100
AcDbLine
 10
7480.8332828477
 20
5506.052673634
 30
0.0
 11
7482.0626882508
 21
5505.6854494176
 31
0.0
  0
LINE
  5
3FD
330
1F
100
AcDbEntity
  8
0
  6
Continuous
 62
     7
100
AcDbLine
 10
7482.0626882508
 20
5505.6854494176
 30
0.0
 11
7483.0013421968
 21
5505.2646406255
 31
0.0
  0
LINE
  5
3FE
330
1F
100
AcDbEntity
  8
0
  6
Continuous
 62
     7
100
AcDbLine
 10
7483.0013421968
 20
5505.2646406255
 30
0.0
 11
7483.6153892472
 21
5504.8054762444
 31
0.0
  0
LINE
  5
3FF
330
1F
100
AcDbEntity
  8
0
  6
Continuous
 62
     7
100
AcDbLine
 10
7483.6153892472
 20
5504.8054762444
 30
0.0
 11
7483.8825372651
 21
5504.3245263657
 31
0.0
  0
LINE
  5
400
330
1F
100
AcDbEntity
  8
0
  6
Continuous
 62
     7
100
AcDbLine
 10
7483.8825372651
 20
5504.3245263657
 30
0.0
 11
7483.7932495072
 21
5503.8391657433
 31
0.0
  0
LINE
  5
401
330
1F
100
AcDbEntity
  8
0
  6
Continuous
 62
     7
100
AcDbLine
 10
7483.7932495072
 20
5503.8391657433
 30
0.0
 11
7483.3506254151
 21
5503.3669777474
 31
0.0
  0
LINE
  5
402
330
1F
100
AcDbEntity
  8
0
  6
Continuous
 62
     7
100
AcDbLine
 10
7483.3506254151
 20
5503.3669777474
 30
0.0
 11
7482.5707582429
 21
5502.9250093064
 31
0.0
  0
LINE
  5
403
330
1F
100
AcDbEntity
  8
0
  6
Continuous
 62
     7
100
AcDbLine
 10
7482.5707582429
 20
5502.9250093064
 30
0.0
 11
7481.4817813829
 21
5502.5292046628
 31
0.0
  0
LINE
  5
404
330
1F
100
AcDbEntity
  8
0
  6
Continuous
 62
     7
100
AcDbLine
 10
7481.4817813829
 20
5502.5292046628
 30
0.0
 11
7480.1230339006
 21
5502.1938987336
 31
0.0
  0
LINE
  5
405
330
1F
100
AcDbEntity
  8
0
  6
Continuous
 62
     7
100
AcDbLine
 10
7480.1230339006
 20
5502.1938987336
 30
0.0
 11
7478.5437492326
 21
5501.9311912618
 31
0.0
  0
LINE
  5
406
330
1F
100
AcDbEntity
  8
0
  6
Continuous
 62
     7
100
AcDbLine
 10
7478.5437492326
 20
5501.9311912618
 30
0.0
 11
7476.8009094194
 21
5501.7506189904
 31
0.0
  0
LINE
  5
407
330
1F
100
AcDbEntity
  8
0
  6
Continuous
 62
     7
100
AcDbLine
 10
7476.8009094194
 20
5501.7506189904
 30
0.0
 11
7474.9574569657
 21
5501.6586490235
 31
0.0
  0
LINE
  5
408
330
1F
100
AcDbEntity
  8
0
  6
Continuous
 62
     7
100
AcDbLine
 10
7474.9574569657
 20
5501.6586490235
 30
0.0
 11
7473.0800298646
 21
5501.6586490235
 31
0.0
  0
LINE
  5
409
330
1F
100
AcDbEntity
  8
0
  6
Continuous
 62
     7
100
AcDbLine
 10
7473.0800298646
 20
5501.6586490235
 30
0.0
 11
7471.2366966203
 21
5501.7506189904
 31
0.0
  0
LINE
  5
40A
330
1F
100
AcDbEntity
  8
0
  6
Continuous
 62
     7
100
AcDbLine
 10
7471.2366966203
 20
5501.7506189904
 30
0.0
 11
7469.4937375978
 21
5501.9311912618
 31
0.0
  0
LINE
  5
40B
330
1F
100
AcDbEntity
  8
0
  6
Continuous
 62
     7
100
AcDbLine
 10
7469.4937375978
 20
5501.9311912618
 30
0.0
 11
7467.9144529298
 21
5502.1938987336
 31
0.0
  0
LINE
  5
40C
330
1F
100
AcDbEntity
  8
0
  6
Continuous
 62
     7
100
AcDbLine
 10
7467.9144529298
 20
5502.1938987336
 30
0.0
 11
7466.5557054475
 21
5502.5292046628
 31
0.0
  0
LINE
  5
40D
330
1F
100
AcDbEntity
  8
0
  6
Continuous
 62
     7
100
AcDbLine
 10
7466.5557054475
 20
5502.5292046628
 30
0.0
 11
7465.4667285874
 21
5502.9250093064
 31
0.0
  0
LINE
  5
40E
330
1F
100
AcDbEntity
  8
0
  6
Continuous
 62
     7
100
AcDbLine
 10
7465.4667285874
 20
5502.9250093064
 30
0.0
 11
7464.6868614152
 21
5503.3669777474
 31
0.0
  0
LINE
  5
40F
330
1F
100
AcDbEntity
  8
0
  6
Continuous
 62
     7
100
AcDbLine
 10
7464.6868614152
 20
5503.3669777474
 30
0.0
 11
7464.2442373231
 21
5503.8391657433
 31
0.0
  0
LINE
  5
410
330
1F
100
AcDbEntity
  8
0
  6
Continuous
 62
     7
100
AcDbLine
 10
7464.2442373231
 20
5503.8391657433
 30
0.0
 11
7464.1549495652
 21
5504.3245263657
 31
0.0
  0
LINE
  5
411
330
1F
100
AcDbEntity
  8
0
  6
Continuous
 62
     7
100
AcDbLine
 10
7464.1549495652
 20
5504.3245263657
 30
0.0
 11
7464.4220975831
 21
5504.8054762444
 31
0.0
  0
LINE
  5
412
330
1F
100
AcDbEntity
  8
0
  6
Continuous
 62
     7
100
AcDbLine
 10
7464.4220975831
 20
5504.8054762444
 30
0.0
 11
7465.0361446336
 21
5505.2646406255
 31
0.0
  0
LINE
  5
413
330
1F
100
AcDbEntity
  8
0
  6
Continuous
 62
     7
100
AcDbLine
 10
7465.0361446336
 20
5505.2646406255
 30
0.0
 11
7465.9747985795
 21
5505.6854494176
 31
0.0
  0
LINE
  5
414
330
1F
100
AcDbEntity
  8
0
  6
Continuous
 62
     7
100
AcDbLine
 10
7465.9747985795
 20
5505.6854494176
 30
0.0
 11
7467.2042039826
 21
5506.052673634
 31
0.0
  0
LINE
  5
415
330
1F
100
AcDbEntity
  8
0
  6
Continuous
 62
     7
100
AcDbLine
 10
7467.2042039826
 20
5506.052673634
 30
0.0
 11
7468.679895778
 21
5506.3530214391
 31
0.0
  0
LINE
  5
416
330
1F
100
AcDbEntity
  8
0
  6
Continuous
 62
     7
100
AcDbLine
 10
7468.679895778
 20
5506.3530214391
 30
0.0
 11
7470.3485874131
 21
5506.5756745896
 31
0.0
  0
LINE
  5
417
330
1F
100
AcDbEntity
  8
0
  6
Continuous
 62
     7
100
AcDbLine
 10
7470.3485874131
 20
5506.5756745896
 30
0.0
 11
7472.1498397782
 21
5506.7125566564
 31
0.0
  0
LINE
  5
418
330
1F
100
AcDbEntity
  8
0
  6
Continuous
 62
     7
100
AcDbLine
 10
7472.1498397782
 20
5506.7125566564
 30
0.0
 11
7474.0188030198
 21
5506.7587502561
 31
0.0
  0
LINE
  5
419
330
1F
100
AcDbEntity
  8
0
  6
Continuous
 62
     7
100
AcDbLine
 10
7483.2481054261
 20
5505.1119037232
 30
0.0
 11
7483.393779178
 21
5504.6858795247
 31
0.0
  0
LINE
  5
41A
330
1F
100
AcDbEntity
  8
0
  6
Continuous
 62
     7
100
AcDbLine
 10
7483.393779178
 20
5504.6858795247
 30
0.0
 11
7483.2687286332
 21
5504.2909689507
 31
0.0
  0
LINE
  5
41B
330
1F
100
AcDbEntity
  8
0
  6
Continuous
 62
     7
100
AcDbLine
 10
7482.3679832414
 20
5503.582329329
 30
0.0
 11
7481.8137792543
 21
5503.3378310761
 31
0.0
  0
LINE
  5
41C
330
1F
100
AcDbEntity
  8
0
  6
Continuous
 62
     7
100
AcDbLine
 10
7481.8137792543
 20
5503.3378310761
 30
0.0
 11
7480.7612804368
 21
5502.9999919496
 31
0.0
  0
LINE
  5
41D
330
1F
100
AcDbEntity
  8
0
  6
Continuous
 62
     7
100
AcDbLine
 10
7465.8614305451
 20
5503.4900017342
 30
0.0
 11
7465.3574136689
 21
5503.7573285661
 31
0.0
  0
LINE
  5
41E
330
1F
100
AcDbEntity
  8
0
  6
Continuous
 62
     7
100
AcDbLine
 10
7465.3574136689
 20
5503.7573285661
 30
0.0
 11
7464.8989347413
 21
5504.1235693059
 31
0.0
  0
LINE
  5
41F
330
1F
100
AcDbEntity
  8
0
  6
Continuous
 62
     7
100
AcDbLine
 10
7464.7687581971
 20
5504.2909689507
 30
0.0
 11
7464.6437076524
 21
5504.6858795247
 31
0.0
  0
LINE
  5
420
330
1F
100
AcDbEntity
  8
0
  6
Continuous
 62
     7
100
AcDbLine
 10
7464.6437076524
 20
5504.6858795247
 30
0.0
 11
7464.7893814042
 21
5505.1119037232
 31
0.0
  0
LINE
  5
421
330
1F
100
AcDbEntity
  8
0
  6
Continuous
 62
     7
100
AcDbLine
 10
5061.8680623963
 20
5508.3440251908
 30
0.0
 11
5086.1694721177
 21
5508.3440251908
 31
0.0
  0
LINE
  5
422
330
1F
100
AcDbEntity
  8
0
  6
Continuous
 62
     7
100
AcDbLine
 10
5087.1370847036
 20
5508.0760693075
 30
0.0
 11
5086.1694721177
 21
5508.3440251908
 31
0.0
  0
LINE
  5
423
330
1F
100
AcDbEntity
  8
0
  6
Continuous
 62
     7
100
AcDbLine
 10
5061.8680623963
 20
5508.3440251908
 30
0.0
 11
5060.9004259686
 21
5508.0760693075
 31
0.0
  0
LINE
  5
424
330
1F
100
AcDbEntity
  8
0
  6
Continuous
 62
     7
100
AcDbLine
 10
5074.0187076524
 20
5506.7587502561
 30
0.0
 11
5075.887670894
 21
5506.7125566564
 31
0.0
  0
LINE
  5
425
330
1F
100
AcDbEntity
  8
0
  6
Continuous
 62
     7
100
AcDbLine
 10
5075.887670894
 20
5506.7125566564
 30
0.0
 11
5077.6889232591
 21
5506.5756745896
 31
0.0
  0
LINE
  5
426
330
1F
100
AcDbEntity
  8
0
  6
Continuous
 62
     7
100
AcDbLine
 10
5077.6889232591
 20
5506.5756745896
 30
0.0
 11
5079.3576148942
 21
5506.3530214391
 31
0.0
  0
LINE
  5
427
330
1F
100
AcDbEntity
  8
0
  6
Continuous
 62
     7
100
AcDbLine
 10
5079.3576148942
 20
5506.3530214391
 30
0.0
 11
5080.8333066896
 21
5506.052673634
 31
0.0
  0
LINE
  5
428
330
1F
100
AcDbEntity
  8
0
  6
Continuous
 62
     7
100
AcDbLine
 10
5080.8333066896
 20
5506.052673634
 30
0.0
 11
5082.0627120927
 21
5505.6854494176
 31
0.0
  0
LINE
  5
429
330
1F
100
AcDbEntity
  8
0
  6
Continuous
 62
     7
100
AcDbLine
 10
5082.0627120927
 20
5505.6854494176
 30
0.0
 11
5083.0013660386
 21
5505.2646406255
 31
0.0
  0
LINE
  5
42A
330
1F
100
AcDbEntity
  8
0
  6
Continuous
 62
     7
100
AcDbLine
 10
5083.0013660386
 20
5505.2646406255
 30
0.0
 11
5083.6154130891
 21
5504.8054762444
 31
0.0
  0
LINE
  5
42B
330
1F
100
AcDbEntity
  8
0
  6
Continuous
 62
     7
100
AcDbLine
 10
5083.6154130891
 20
5504.8054762444
 30
0.0
 11
5083.882561107
 21
5504.3245263657
 31
0.0
  0
LINE
  5
42C
330
1F
100
AcDbEntity
  8
0
  6
Continuous
 62
     7
100
AcDbLine
 10
5083.882561107
 20
5504.3245263657
 30
0.0
 11
5083.7932733491
 21
5503.8391657433
 31
0.0
  0
LINE
  5
42D
330
1F
100
AcDbEntity
  8
0
  6
Continuous
 62
     7
100
AcDbLine
 10
5083.7932733491
 20
5503.8391657433
 30
0.0
 11
5083.350649257
 21
5503.3669777474
 31
0.0
  0
LINE
  5
42E
330
1F
100
AcDbEntity
  8
0
  6
Continuous
 62
     7
100
AcDbLine
 10
5083.350649257
 20
5503.3669777474
 30
0.0
 11
5082.5707820848
 21
5502.9250093064
 31
0.0
  0
LINE
  5
42F
330
1F
100
AcDbEntity
  8
0
  6
Continuous
 62
     7
100
AcDbLine
 10
5082.5707820848
 20
5502.9250093064
 30
0.0
 11
5081.4818052247
 21
5502.5292046628
 31
0.0
  0
LINE
  5
430
330
1F
100
AcDbEntity
  8
0
  6
Continuous
 62
     7
100
AcDbLine
 10
5081.4818052247
 20
5502.5292046628
 30
0.0
 11
5080.1230577424
 21
5502.1938987336
 31
0.0
  0
LINE
  5
431
330
1F
100
AcDbEntity
  8
0
  6
Continuous
 62
     7
100
AcDbLine
 10
5080.1230577424
 20
5502.1938987336
 30
0.0
 11
5078.5437730744
 21
5501.9311912618
 31
0.0
  0
LINE
  5
432
330
1F
100
AcDbEntity
  8
0
  6
Continuous
 62
     7
100
AcDbLine
 10
5078.5437730744
 20
5501.9311912618
 30
0.0
 11
5076.8008140519
 21
5501.7506189904
 31
0.0
  0
LINE
  5
433
330
1F
100
AcDbEntity
  8
0
  6
Continuous
 62
     7
100
AcDbLine
 10
5076.8008140519
 20
5501.7506189904
 30
0.0
 11
5074.9574808076
 21
5501.6586490235
 31
0.0
  0
LINE
  5
434
330
1F
100
AcDbEntity
  8
0
  6
Continuous
 62
     7
100
AcDbLine
 10
5074.9574808076
 20
5501.6586490235
 30
0.0
 11
5073.0800537065
 21
5501.6586490235
 31
0.0
  0
LINE
  5
435
330
1F
100
AcDbEntity
  8
0
  6
Continuous
 62
     7
100
AcDbLine
 10
5073.0800537065
 20
5501.6586490235
 30
0.0
 11
5071.2366012528
 21
5501.7506189904
 31
0.0
  0
LINE
  5
436
330
1F
100
AcDbEntity
  8
0
  6
Continuous
 62
     7
100
AcDbLine
 10
5071.2366012528
 20
5501.7506189904
 30
0.0
 11
5069.4937614396
 21
5501.9311912618
 31
0.0
  0
LINE
  5
437
330
1F
100
AcDbEntity
  8
0
  6
Continuous
 62
     7
100
AcDbLine
 10
5069.4937614396
 20
5501.9311912618
 30
0.0
 11
5067.9144767716
 21
5502.1938987336
 31
0.0
  0
LINE
  5
438
330
1F
100
AcDbEntity
  8
0
  6
Continuous
 62
     7
100
AcDbLine
 10
5067.9144767716
 20
5502.1938987336
 30
0.0
 11
5066.5557292893
 21
5502.5292046628
 31
0.0
  0
LINE
  5
439
330
1F
100
AcDbEntity
  8
0
  6
Continuous
 62
     7
100
AcDbLine
 10
5066.5557292893
 20
5502.5292046628
 30
0.0
 11
5065.4667524293
 21
5502.9250093064
 31
0.0
  0
LINE
  5
43A
330
1F
100
AcDbEntity
  8
0
  6
Continuous
 62
     7
100
AcDbLine
 10
5065.4667524293
 20
5502.9250093064
 30
0.0
 11
5064.6868852571
 21
5503.3669777474
 31
0.0
  0
LINE
  5
43B
330
1F
100
AcDbEntity
  8
0
  6
Continuous
 62
     7
100
AcDbLine
 10
5064.6868852571
 20
5503.3669777474
 30
0.0
 11
5064.244261165
 21
5503.8391657433
 31
0.0
  0
LINE
  5
43C
330
1F
100
AcDbEntity
  8
0
  6
Continuous
 62
     7
100
AcDbLine
 10
5064.244261165
 20
5503.8391657433
 30
0.0
 11
5064.1549734071
 21
5504.3245263657
 31
0.0
  0
LINE
  5
43D
330
1F
100
AcDbEntity
  8
0
  6
Continuous
 62
     7
100
AcDbLine
 10
5064.1549734071
 20
5504.3245263657
 30
0.0
 11
5064.422121425
 21
5504.8054762444
 31
0.0
  0
LINE
  5
43E
330
1F
100
AcDbEntity
  8
0
  6
Continuous
 62
     7
100
AcDbLine
 10
5064.422121425
 20
5504.8054762444
 30
0.0
 11
5065.0361684754
 21
5505.2646406255
 31
0.0
  0
LINE
  5
43F
330
1F
100
AcDbEntity
  8
0
  6
Continuous
 62
     7
100
AcDbLine
 10
5065.0361684754
 20
5505.2646406255
 30
0.0
 11
5065.9748224214
 21
5505.6854494176
 31
0.0
  0
LINE
  5
440
330
1F
100
AcDbEntity
  8
0
  6
Continuous
 62
     7
100
AcDbLine
 10
5065.9748224214
 20
5505.6854494176
 30
0.0
 11
5067.2042278245
 21
5506.052673634
 31
0.0
  0
LINE
  5
441
330
1F
100
AcDbEntity
  8
0
  6
Continuous
 62
     7
100
AcDbLine
 10
5067.2042278245
 20
5506.052673634
 30
0.0
 11
5068.6799196199
 21
5506.3530214391
 31
0.0
  0
LINE
  5
442
330
1F
100
AcDbEntity
  8
0
  6
Continuous
 62
     7
100
AcDbLine
 10
5068.6799196199
 20
5506.3530214391
 30
0.0
 11
5070.348611255
 21
5506.5756745896
 31
0.0
  0
LINE
  5
443
330
1F
100
AcDbEntity
  8
0
  6
Continuous
 62
     7
100
AcDbLine
 10
5070.348611255
 20
5506.5756745896
 30
0.0
 11
5072.1498636201
 21
5506.7125566564
 31
0.0
  0
LINE
  5
444
330
1F
100
AcDbEntity
  8
0
  6
Continuous
 62
     7
100
AcDbLine
 10
5072.1498636201
 20
5506.7125566564
 30
0.0
 11
5074.0187076524
 21
5506.7587502561
 31
0.0
  0
LINE
  5
445
330
1F
100
AcDbEntity
  8
0
  6
Continuous
 62
     7
100
AcDbLine
 10
5083.248129268
 20
5505.1119037232
 30
0.0
 11
5083.3938030198
 21
5504.6858795247
 31
0.0
  0
LINE
  5
446
330
1F
100
AcDbEntity
  8
0
  6
Continuous
 62
     7
100
AcDbLine
 10
5083.3938030198
 20
5504.6858795247
 30
0.0
 11
5083.2687524751
 21
5504.2909689507
 31
0.0
  0
LINE
  5
447
330
1F
100
AcDbEntity
  8
0
  6
Continuous
 62
     7
100
AcDbLine
 10
5082.3680070832
 20
5503.582329329
 30
0.0
 11
5081.8138030961
 21
5503.3378310761
 31
0.0
  0
LINE
  5
448
330
1F
100
AcDbEntity
  8
0
  6
Continuous
 62
     7
100
AcDbLine
 10
5081.8138030961
 20
5503.3378310761
 30
0.0
 11
5080.7613042787
 21
5502.9999919496
 31
0.0
  0
LINE
  5
449
330
1F
100
AcDbEntity
  8
0
  6
Continuous
 62
     7
100
AcDbLine
 10
5065.861454387
 20
5503.4900017342
 30
0.0
 11
5065.3574375108
 21
5503.7573285661
 31
0.0
  0
LINE
  5
44A
330
1F
100
AcDbEntity
  8
0
  6
Continuous
 62
     7
100
AcDbLine
 10
5065.3574375108
 20
5503.7573285661
 30
0.0
 11
5064.8989585832
 21
5504.1235693059
 31
0.0
  0
LINE
  5
44B
330
1F
100
AcDbEntity
  8
0
  6
Continuous
 62
     7
100
AcDbLine
 10
5064.768782039
 20
5504.2909689507
 30
0.0
 11
5064.6437314942
 21
5504.6858795247
 31
0.0
  0
LINE
  5
44C
330
1F
100
AcDbEntity
  8
0
  6
Continuous
 62
     7
100
AcDbLine
 10
5064.6437314942
 20
5504.6858795247
 30
0.0
 11
5064.7894052461
 21
5505.1119037232
 31
0.0
  0
LINE
  5
44D
330
1F
100
AcDbEntity
  8
0
  6
Continuous
 62
     7
100
AcDbLine
 10
5661.8680862382
 20
5508.3440251908
 30
0.0
 11
5686.1694363549
 21
5508.3440251908
 31
0.0
  0
LINE
  5
44E
330
1F
100
AcDbEntity
  8
0
  6
Continuous
 62
     7
100
AcDbLine
 10
5687.1370847036
 20
5508.0760693075
 30
0.0
 11
5686.1694363549
 21
5508.3440251908
 31
0.0
  0
LINE
  5
44F
330
1F
100
AcDbEntity
  8
0
  6
Continuous
 62
     7
100
AcDbLine
 10
5661.8680862382
 20
5508.3440251908
 30
0.0
 11
5660.9004259686
 21
5508.0760693075
 31
0.0
  0
LINE
  5
450
330
1F
100
AcDbEntity
  8
0
  6
Continuous
 62
     7
100
AcDbLine
 10
5674.0187314942
 20
5506.7587502561
 30
0.0
 11
5675.8876351312
 21
5506.7125566564
 31
0.0
  0
LINE
  5
451
330
1F
100
AcDbEntity
  8
0
  6
Continuous
 62
     7
100
AcDbLine
 10
5675.8876351312
 20
5506.7125566564
 30
0.0
 11
5677.6889471009
 21
5506.5756745896
 31
0.0
  0
LINE
  5
452
330
1F
100
AcDbEntity
  8
0
  6
Continuous
 62
     7
100
AcDbLine
 10
5677.6889471009
 20
5506.5756745896
 30
0.0
 11
5679.3575791314
 21
5506.3530214391
 31
0.0
  0
LINE
  5
453
330
1F
100
AcDbEntity
  8
0
  6
Continuous
 62
     7
100
AcDbLine
 10
5679.3575791314
 20
5506.3530214391
 30
0.0
 11
5680.8332709268
 21
5506.052673634
 31
0.0
  0
LINE
  5
454
330
1F
100
AcDbEntity
  8
0
  6
Continuous
 62
     7
100
AcDbLine
 10
5680.8332709268
 20
5506.052673634
 30
0.0
 11
5682.0626763299
 21
5505.6854494176
 31
0.0
  0
LINE
  5
455
330
1F
100
AcDbEntity
  8
0
  6
Continuous
 62
     7
100
AcDbLine
 10
5682.0626763299
 20
5505.6854494176
 30
0.0
 11
5683.0013898805
 21
5505.2646406255
 31
0.0
  0
LINE
  5
456
330
1F
100
AcDbEntity
  8
0
  6
Continuous
 62
     7
100
AcDbLine
 10
5683.0013898805
 20
5505.2646406255
 30
0.0
 11
5683.6153773263
 21
5504.8054762444
 31
0.0
  0
LINE
  5
457
330
1F
100
AcDbEntity
  8
0
  6
Continuous
 62
     7
100
AcDbLine
 10
5683.6153773263
 20
5504.8054762444
 30
0.0
 11
5683.8825849488
 21
5504.3245263657
 31
0.0
  0
LINE
  5
458
330
1F
100
AcDbEntity
  8
0
  6
Continuous
 62
     7
100
AcDbLine
 10
5683.8825849488
 20
5504.3245263657
 30
0.0
 11
5683.7932375863
 21
5503.8391657433
 31
0.0
  0
LINE
  5
459
330
1F
100
AcDbEntity
  8
0
  6
Continuous
 62
     7
100
AcDbLine
 10
5683.7932375863
 20
5503.8391657433
 30
0.0
 11
5683.3506134942
 21
5503.3669777474
 31
0.0
  0
LINE
  5
45A
330
1F
100
AcDbEntity
  8
0
  6
Continuous
 62
     7
100
AcDbLine
 10
5683.3506134942
 20
5503.3669777474
 30
0.0
 11
5682.570746322
 21
5502.9250093064
 31
0.0
  0
LINE
  5
45B
330
1F
100
AcDbEntity
  8
0
  6
Continuous
 62
     7
100
AcDbLine
 10
5682.570746322
 20
5502.9250093064
 30
0.0
 11
5681.4817694619
 21
5502.5292046628
 31
0.0
  0
LINE
  5
45C
330
1F
100
AcDbEntity
  8
0
  6
Continuous
 62
     7
100
AcDbLine
 10
5681.4817694619
 20
5502.5292046628
 30
0.0
 11
5680.1230815843
 21
5502.1938987336
 31
0.0
  0
LINE
  5
45D
330
1F
100
AcDbEntity
  8
0
  6
Continuous
 62
     7
100
AcDbLine
 10
5680.1230815843
 20
5502.1938987336
 30
0.0
 11
5678.5437373117
 21
5501.9311912618
 31
0.0
  0
LINE
  5
45E
330
1F
100
AcDbEntity
  8
0
  6
Continuous
 62
     7
100
AcDbLine
 10
5678.5437373117
 20
5501.9311912618
 30
0.0
 11
5676.8008378938
 21
5501.7506189904
 31
0.0
  0
LINE
  5
45F
330
1F
100
AcDbEntity
  8
0
  6
Continuous
 62
     7
100
AcDbLine
 10
5676.8008378938
 20
5501.7506189904
 30
0.0
 11
5674.9574450448
 21
5501.6586490235
 31
0.0
  0
LINE
  5
460
330
1F
100
AcDbEntity
  8
0
  6
Continuous
 62
     7
100
AcDbLine
 10
5674.9574450448
 20
5501.6586490235
 30
0.0
 11
5673.0800775483
 21
5501.6586490235
 31
0.0
  0
LINE
  5
461
330
1F
100
AcDbEntity
  8
0
  6
Continuous
 62
     7
100
AcDbLine
 10
5673.0800775483
 20
5501.6586490235
 30
0.0
 11
5671.2366250947
 21
5501.7506189904
 31
0.0
  0
LINE
  5
462
330
1F
100
AcDbEntity
  8
0
  6
Continuous
 62
     7
100
AcDbLine
 10
5671.2366250947
 20
5501.7506189904
 30
0.0
 11
5669.4937852815
 21
5501.9311912618
 31
0.0
  0
LINE
  5
463
330
1F
100
AcDbEntity
  8
0
  6
Continuous
 62
     7
100
AcDbLine
 10
5669.4937852815
 20
5501.9311912618
 30
0.0
 11
5667.9144410089
 21
5502.1938987336
 31
0.0
  0
LINE
  5
464
330
1F
100
AcDbEntity
  8
0
  6
Continuous
 62
     7
100
AcDbLine
 10
5667.9144410089
 20
5502.1938987336
 30
0.0
 11
5666.5557531312
 21
5502.5292046628
 31
0.0
  0
LINE
  5
465
330
1F
100
AcDbEntity
  8
0
  6
Continuous
 62
     7
100
AcDbLine
 10
5666.5557531312
 20
5502.5292046628
 30
0.0
 11
5665.4667762712
 21
5502.9250093064
 31
0.0
  0
LINE
  5
466
330
1F
100
AcDbEntity
  8
0
  6
Continuous
 62
     7
100
AcDbLine
 10
5665.4667762712
 20
5502.9250093064
 30
0.0
 11
5664.6868494943
 21
5503.3669777474
 31
0.0
  0
LINE
  5
467
330
1F
100
AcDbEntity
  8
0
  6
Continuous
 62
     7
100
AcDbLine
 10
5664.6868494943
 20
5503.3669777474
 30
0.0
 11
5664.2442850068
 21
5503.8391657433
 31
0.0
  0
LINE
  5
468
330
1F
100
AcDbEntity
  8
0
  6
Continuous
 62
     7
100
AcDbLine
 10
5664.2442850068
 20
5503.8391657433
 30
0.0
 11
5664.1549376443
 21
5504.3245263657
 31
0.0
  0
LINE
  5
469
330
1F
100
AcDbEntity
  8
0
  6
Continuous
 62
     7
100
AcDbLine
 10
5664.1549376443
 20
5504.3245263657
 30
0.0
 11
5664.4221452668
 21
5504.8054762444
 31
0.0
  0
LINE
  5
46A
330
1F
100
AcDbEntity
  8
0
  6
Continuous
 62
     7
100
AcDbLine
 10
5664.4221452668
 20
5504.8054762444
 30
0.0
 11
5665.0361327127
 21
5505.2646406255
 31
0.0
  0
LINE
  5
46B
330
1F
100
AcDbEntity
  8
0
  6
Continuous
 62
     7
100
AcDbLine
 10
5665.0361327127
 20
5505.2646406255
 30
0.0
 11
5665.9748462632
 21
5505.6854494176
 31
0.0
  0
LINE
  5
46C
330
1F
100
AcDbEntity
  8
0
  6
Continuous
 62
     7
100
AcDbLine
 10
5665.9748462632
 20
5505.6854494176
 30
0.0
 11
5667.2042516664
 21
5506.052673634
 31
0.0
  0
LINE
  5
46D
330
1F
100
AcDbEntity
  8
0
  6
Continuous
 62
     7
100
AcDbLine
 10
5667.2042516664
 20
5506.052673634
 30
0.0
 11
5668.6799434617
 21
5506.3530214391
 31
0.0
  0
LINE
  5
46E
330
1F
100
AcDbEntity
  8
0
  6
Continuous
 62
     7
100
AcDbLine
 10
5668.6799434617
 20
5506.3530214391
 30
0.0
 11
5670.3485754922
 21
5506.5756745896
 31
0.0
  0
LINE
  5
46F
330
1F
100
AcDbEntity
  8
0
  6
Continuous
 62
     7
100
AcDbLine
 10
5670.3485754922
 20
5506.5756745896
 30
0.0
 11
5672.149887462
 21
5506.7125566564
 31
0.0
  0
LINE
  5
470
330
1F
100
AcDbEntity
  8
0
  6
Continuous
 62
     7
100
AcDbLine
 10
5672.149887462
 20
5506.7125566564
 30
0.0
 11
5674.0187314942
 21
5506.7587502561
 31
0.0
  0
LINE
  5
471
330
1F
100
AcDbEntity
  8
0
  6
Continuous
 62
     7
100
AcDbLine
 10
5683.2481531098
 20
5505.1119037232
 30
0.0
 11
5683.393767257
 21
5504.6858795247
 31
0.0
  0
LINE
  5
472
330
1F
100
AcDbEntity
  8
0
  6
Continuous
 62
     7
100
AcDbLine
 10
5683.393767257
 20
5504.6858795247
 30
0.0
 11
5683.2687763169
 21
5504.2909689507
 31
0.0
  0
LINE
  5
473
330
1F
100
AcDbEntity
  8
0
  6
Continuous
 62
     7
100
AcDbLine
 10
5682.3680309251
 20
5503.582329329
 30
0.0
 11
5681.8137673333
 21
5503.3378310761
 31
0.0
  0
LINE
  5
474
330
1F
100
AcDbEntity
  8
0
  6
Continuous
 62
     7
100
AcDbLine
 10
5681.8137673333
 20
5503.3378310761
 30
0.0
 11
5680.7612685159
 21
5502.9999919496
 31
0.0
  0
LINE
  5
475
330
1F
100
AcDbEntity
  8
0
  6
Continuous
 62
     7
100
AcDbLine
 10
5665.8614782289
 20
5503.4900017342
 30
0.0
 11
5665.357401748
 21
5503.7573285661
 31
0.0
  0
LINE
  5
476
330
1F
100
AcDbEntity
  8
0
  6
Continuous
 62
     7
100
AcDbLine
 10
5665.357401748
 20
5503.7573285661
 30
0.0
 11
5664.898982425
 21
5504.1235693059
 31
0.0
  0
LINE
  5
477
330
1F
100
AcDbEntity
  8
0
  6
Continuous
 62
     7
100
AcDbLine
 10
5664.7687462762
 20
5504.2909689507
 30
0.0
 11
5664.6437553361
 21
5504.6858795247
 31
0.0
  0
LINE
  5
478
330
1F
100
AcDbEntity
  8
0
  6
Continuous
 62
     7
100
AcDbLine
 10
5664.6437553361
 20
5504.6858795247
 30
0.0
 11
5664.7893694833
 21
5505.1119037232
 31
0.0
  0
LINE
  5
479
330
1F
100
AcDbEntity
  8
0
  6
Continuous
 62
     7
100
AcDbLine
 10
6861.8680743173
 20
5508.3440251908
 30
0.0
 11
6886.169424434
 21
5508.3440251908
 31
0.0
  0
LINE
  5
47A
330
1F
100
AcDbEntity
  8
0
  6
Continuous
 62
     7
100
AcDbLine
 10
6887.1370847036
 20
5508.0760693075
 30
0.0
 11
6886.169424434
 21
5508.3440251908
 31
0.0
  0
LINE
  5
47B
330
1F
100
AcDbEntity
  8
0
  6
Continuous
 62
     7
100
AcDbLine
 10
6861.8680743173
 20
5508.3440251908
 30
0.0
 11
6860.9004259686
 21
5508.0760693075
 31
0.0
  0
LINE
  5
47C
330
1F
100
AcDbEntity
  8
0
  6
Continuous
 62
     7
100
AcDbLine
 10
6874.018779178
 20
5506.7587502561
 30
0.0
 11
6875.8876232102
 21
5506.7125566564
 31
0.0
  0
LINE
  5
47D
330
1F
100
AcDbEntity
  8
0
  6
Continuous
 62
     7
100
AcDbLine
 10
6875.8876232102
 20
5506.7125566564
 30
0.0
 11
6877.68893518
 21
5506.5756745896
 31
0.0
  0
LINE
  5
47E
330
1F
100
AcDbEntity
  8
0
  6
Continuous
 62
     7
100
AcDbLine
 10
6877.68893518
 20
5506.5756745896
 30
0.0
 11
6879.3575672105
 21
5506.3530214391
 31
0.0
  0
LINE
  5
47F
330
1F
100
AcDbEntity
  8
0
  6
Continuous
 62
     7
100
AcDbLine
 10
6879.3575672105
 20
5506.3530214391
 30
0.0
 11
6880.8332590058
 21
5506.052673634
 31
0.0
  0
LINE
  5
480
330
1F
100
AcDbEntity
  8
0
  6
Continuous
 62
     7
100
AcDbLine
 10
6880.8332590058
 20
5506.052673634
 30
0.0
 11
6882.062664409
 21
5505.6854494176
 31
0.0
  0
LINE
  5
481
330
1F
100
AcDbEntity
  8
0
  6
Continuous
 62
     7
100
AcDbLine
 10
6882.062664409
 20
5505.6854494176
 30
0.0
 11
6883.0013779595
 21
5505.2646406255
 31
0.0
  0
LINE
  5
482
330
1F
100
AcDbEntity
  8
0
  6
Continuous
 62
     7
100
AcDbLine
 10
6883.0013779595
 20
5505.2646406255
 30
0.0
 11
6883.6153654054
 21
5504.8054762444
 31
0.0
  0
LINE
  5
483
330
1F
100
AcDbEntity
  8
0
  6
Continuous
 62
     7
100
AcDbLine
 10
6883.6153654054
 20
5504.8054762444
 30
0.0
 11
6883.8825730279
 21
5504.3245263657
 31
0.0
  0
LINE
  5
484
330
1F
100
AcDbEntity
  8
0
  6
Continuous
 62
     7
100
AcDbLine
 10
6883.8825730279
 20
5504.3245263657
 30
0.0
 11
6883.7932256654
 21
5503.8391657433
 31
0.0
  0
LINE
  5
485
330
1F
100
AcDbEntity
  8
0
  6
Continuous
 62
     7
100
AcDbLine
 10
6883.7932256654
 20
5503.8391657433
 30
0.0
 11
6883.3506611779
 21
5503.3669777474
 31
0.0
  0
LINE
  5
486
330
1F
100
AcDbEntity
  8
0
  6
Continuous
 62
     7
100
AcDbLine
 10
6883.3506611779
 20
5503.3669777474
 30
0.0
 11
6882.570734401
 21
5502.9250093064
 31
0.0
  0
LINE
  5
487
330
1F
100
AcDbEntity
  8
0
  6
Continuous
 62
     7
100
AcDbLine
 10
6882.570734401
 20
5502.9250093064
 30
0.0
 11
6881.481757541
 21
5502.5292046628
 31
0.0
  0
LINE
  5
488
330
1F
100
AcDbEntity
  8
0
  6
Continuous
 62
     7
100
AcDbLine
 10
6881.481757541
 20
5502.5292046628
 30
0.0
 11
6880.1230696633
 21
5502.1938987336
 31
0.0
  0
LINE
  5
489
330
1F
100
AcDbEntity
  8
0
  6
Continuous
 62
     7
100
AcDbLine
 10
6880.1230696633
 20
5502.1938987336
 30
0.0
 11
6878.5437253907
 21
5501.9311912618
 31
0.0
  0
LINE
  5
48A
330
1F
100
AcDbEntity
  8
0
  6
Continuous
 62
     7
100
AcDbLine
 10
6878.5437253907
 20
5501.9311912618
 30
0.0
 11
6876.8008855775
 21
5501.7506189904
 31
0.0
  0
LINE
  5
48B
330
1F
100
AcDbEntity
  8
0
  6
Continuous
 62
     7
100
AcDbLine
 10
6876.8008855775
 20
5501.7506189904
 30
0.0
 11
6874.9574331239
 21
5501.6586490235
 31
0.0
  0
LINE
  5
48C
330
1F
100
AcDbEntity
  8
0
  6
Continuous
 62
     7
100
AcDbLine
 10
6874.9574331239
 20
5501.6586490235
 30
0.0
 11
6873.0800656274
 21
5501.6586490235
 31
0.0
  0
LINE
  5
48D
330
1F
100
AcDbEntity
  8
0
  6
Continuous
 62
     7
100
AcDbLine
 10
6873.0800656274
 20
5501.6586490235
 30
0.0
 11
6871.2366727784
 21
5501.7506189904
 31
0.0
  0
LINE
  5
48E
330
1F
100
AcDbEntity
  8
0
  6
Continuous
 62
     7
100
AcDbLine
 10
6871.2366727784
 20
5501.7506189904
 30
0.0
 11
6869.4937733605
 21
5501.9311912618
 31
0.0
  0
LINE
  5
48F
330
1F
100
AcDbEntity
  8
0
  6
Continuous
 62
     7
100
AcDbLine
 10
6869.4937733605
 20
5501.9311912618
 30
0.0
 11
6867.9144290879
 21
5502.1938987336
 31
0.0
  0
LINE
  5
490
330
1F
100
AcDbEntity
  8
0
  6
Continuous
 62
     7
100
AcDbLine
 10
6867.9144290879
 20
5502.1938987336
 30
0.0
 11
6866.5557412103
 21
5502.5292046628
 31
0.0
  0
LINE
  5
491
330
1F
100
AcDbEntity
  8
0
  6
Continuous
 62
     7
100
AcDbLine
 10
6866.5557412103
 20
5502.5292046628
 30
0.0
 11
6865.4667643502
 21
5502.9250093064
 31
0.0
  0
LINE
  5
492
330
1F
100
AcDbEntity
  8
0
  6
Continuous
 62
     7
100
AcDbLine
 10
6865.4667643502
 20
5502.9250093064
 30
0.0
 11
6864.686897178
 21
5503.3669777474
 31
0.0
  0
LINE
  5
493
330
1F
100
AcDbEntity
  8
0
  6
Continuous
 62
     7
100
AcDbLine
 10
6864.686897178
 20
5503.3669777474
 30
0.0
 11
6864.2442730859
 21
5503.8391657433
 31
0.0
  0
LINE
  5
494
330
1F
100
AcDbEntity
  8
0
  6
Continuous
 62
     7
100
AcDbLine
 10
6864.2442730859
 20
5503.8391657433
 30
0.0
 11
6864.1549257234
 21
5504.3245263657
 31
0.0
  0
LINE
  5
495
330
1F
100
AcDbEntity
  8
0
  6
Continuous
 62
     7
100
AcDbLine
 10
6864.1549257234
 20
5504.3245263657
 30
0.0
 11
6864.4221333459
 21
5504.8054762444
 31
0.0
  0
LINE
  5
496
330
1F
100
AcDbEntity
  8
0
  6
Continuous
 62
     7
100
AcDbLine
 10
6864.4221333459
 20
5504.8054762444
 30
0.0
 11
6865.0361207917
 21
5505.2646406255
 31
0.0
  0
LINE
  5
497
330
1F
100
AcDbEntity
  8
0
  6
Continuous
 62
     7
100
AcDbLine
 10
6865.0361207917
 20
5505.2646406255
 30
0.0
 11
6865.9748343423
 21
5505.6854494176
 31
0.0
  0
LINE
  5
498
330
1F
100
AcDbEntity
  8
0
  6
Continuous
 62
     7
100
AcDbLine
 10
6865.9748343423
 20
5505.6854494176
 30
0.0
 11
6867.2042397454
 21
5506.052673634
 31
0.0
  0
LINE
  5
499
330
1F
100
AcDbEntity
  8
0
  6
Continuous
 62
     7
100
AcDbLine
 10
6867.2042397454
 20
5506.052673634
 30
0.0
 11
6868.6799315408
 21
5506.3530214391
 31
0.0
  0
LINE
  5
49A
330
1F
100
AcDbEntity
  8
0
  6
Continuous
 62
     7
100
AcDbLine
 10
6868.6799315408
 20
5506.3530214391
 30
0.0
 11
6870.3485635713
 21
5506.5756745896
 31
0.0
  0
LINE
  5
49B
330
1F
100
AcDbEntity
  8
0
  6
Continuous
 62
     7
100
AcDbLine
 10
6870.3485635713
 20
5506.5756745896
 30
0.0
 11
6872.149875541
 21
5506.7125566564
 31
0.0
  0
LINE
  5
49C
330
1F
100
AcDbEntity
  8
0
  6
Continuous
 62
     7
100
AcDbLine
 10
6872.149875541
 20
5506.7125566564
 30
0.0
 11
6874.018779178
 21
5506.7587502561
 31
0.0
  0
LINE
  5
49D
330
1F
100
AcDbEntity
  8
0
  6
Continuous
 62
     7
100
AcDbLine
 10
6883.2481411889
 20
5505.1119037232
 30
0.0
 11
6883.3937553361
 21
5504.6858795247
 31
0.0
  0
LINE
  5
49E
330
1F
100
AcDbEntity
  8
0
  6
Continuous
 62
     7
100
AcDbLine
 10
6883.3937553361
 20
5504.6858795247
 30
0.0
 11
6883.268764396
 21
5504.2909689507
 31
0.0
  0
LINE
  5
49F
330
1F
100
AcDbEntity
  8
0
  6
Continuous
 62
     7
100
AcDbLine
 10
6882.3680190042
 20
5503.582329329
 30
0.0
 11
6881.8137554124
 21
5503.3378310761
 31
0.0
  0
LINE
  5
4A0
330
1F
100
AcDbEntity
  8
0
  6
Continuous
 62
     7
100
AcDbLine
 10
6881.8137554124
 20
5503.3378310761
 30
0.0
 11
6880.7613161996
 21
5502.9999919496
 31
0.0
  0
LINE
  5
4A1
330
1F
100
AcDbEntity
  8
0
  6
Continuous
 62
     7
100
AcDbLine
 10
6865.8614663079
 20
5503.4900017342
 30
0.0
 11
6865.3573898271
 21
5503.7573285661
 31
0.0
  0
LINE
  5
4A2
330
1F
100
AcDbEntity
  8
0
  6
Continuous
 62
     7
100
AcDbLine
 10
6865.3573898271
 20
5503.7573285661
 30
0.0
 11
6864.8989705041
 21
5504.1235693059
 31
0.0
  0
LINE
  5
4A3
330
1F
100
AcDbEntity
  8
0
  6
Continuous
 62
     7
100
AcDbLine
 10
6864.7687343553
 20
5504.2909689507
 30
0.0
 11
6864.6437434152
 21
5504.6858795247
 31
0.0
  0
LINE
  5
4A4
330
1F
100
AcDbEntity
  8
0
  6
Continuous
 62
     7
100
AcDbLine
 10
6864.6437434152
 20
5504.6858795247
 30
0.0
 11
6864.7893575624
 21
5505.1119037232
 31
0.0
  0
LINE
  5
4A5
330
1F
100
AcDbEntity
  8
0
  6
Continuous
 62
     7
100
AcDbLine
 10
4899.2093709901
 20
4932.3134430013
 30
0.0
 11
4953.8282064393
 21
4932.3134430013
 31
0.0
  0
LINE
  5
4A6
330
1F
100
AcDbEntity
  8
0
  6
Continuous
 62
     7
100
AcDbLine
 10
4926.5187887147
 20
4807.6601334176
 30
0.0
 11
4953.6249546006
 21
4807.6601334176
 31
0.0
  0
LINE
  5
4A7
330
1F
100
AcDbEntity
  8
0
  6
Continuous
 62
     7
100
AcDbLine
 10
4899.4125036195
 20
4807.6601334176
 30
0.0
 11
4926.5187887147
 21
4807.6601334176
 31
0.0
  0
LINE
  5
4A8
330
1F
100
AcDbEntity
  8
0
  6
Continuous
 62
     7
100
AcDbLine
 10
4926.5187887147
 20
4948.6709244809
 30
0.0
 11
4949.3983892396
 21
4948.6709244809
 31
0.0
  0
LINE
  5
4A9
330
1F
100
AcDbEntity
  8
0
  6
Continuous
 62
     7
100
AcDbLine
 10
4903.6390689805
 20
4948.6709244809
 30
0.0
 11
4926.5187887147
 21
4948.6709244809
 31
0.0
  0
LINE
  5
4AA
330
1F
100
AcDbEntity
  8
0
  6
Continuous
 62
     7
100
AcDbLine
 10
4899.4125036195
 20
4807.6442189774
 30
0.0
 11
4953.6249546006
 21
4807.6442189774
 31
0.0
  0
LINE
  5
4AB
330
1F
100
AcDbEntity
  8
0
  6
Continuous
 62
     7
100
AcDbLine
 10
4953.8282064393
 20
4932.2975285611
 30
0.0
 11
4899.2093709901
 21
4932.2975285611
 31
0.0
  0
LINE
  5
4AC
330
1F
100
AcDbEntity
  8
0
  6
Continuous
 62
     7
100
AcDbLine
 10
4903.5187868074
 20
4948.4498806558
 30
0.0
 11
4949.518790622
 21
4948.4498806558
 31
0.0
  0
LINE
  5
4AD
330
1F
100
AcDbEntity
  8
0
  6
Continuous
 62
     7
100
AcDbLine
 10
8392.3560782844
 20
4874.9657877049
 30
0.0
 11
8392.3569425517
 21
4874.9573238454
 31
0.0
  0
LINE
  5
4AE
330
1F
100
AcDbEntity
  8
0
  6
Continuous
 62
     7
100
AcDbLine
 10
8460.3552028114
 20
4874.9573238454
 30
0.0
 11
8460.3560670787
 21
4874.9657877049
 31
0.0
  0
LINE
  5
4AF
330
1F
100
AcDbEntity
  8
0
  6
Continuous
 62
     7
100
AcDbLine
 10
8460.3560670787
 20
4874.9657877049
 30
0.0
 11
8453.6655053073
 21
4932.3134430013
 31
0.0
  0
LINE
  5
4B0
330
1F
100
AcDbEntity
  8
0
  6
Continuous
 62
     7
100
AcDbLine
 10
8394.2208692008
 20
4890.9498758874
 30
0.0
 11
8392.3560782844
 21
4874.9657877049
 31
0.0
  0
LINE
  5
4B1
330
1F
100
AcDbEntity
  8
0
  6
Continuous
 62
     7
100
AcDbLine
 10
8390.3560742313
 20
4945.9657974801
 30
0.0
 11
8380.356083768
 21
4945.9657974801
 31
0.0
  0
LINE
  5
4B2
330
1F
100
AcDbEntity
  8
0
  6
Continuous
 62
     7
100
AcDbLine
 10
8380.356083768
 20
4879.9657829366
 30
0.0
 11
8390.3560742313
 21
4879.9657829366
 31
0.0
  0
LINE
  5
4B3
330
1F
100
AcDbEntity
  8
0
  6
Continuous
 62
     7
100
AcDbLine
 10
8402.0264252597
 20
4934.9657900891
 30
0.0
 11
8390.3560742313
 21
4934.9657900891
 31
0.0
  0
LINE
  5
4B4
330
1F
100
AcDbEntity
  8
0
  6
Continuous
 62
     7
100
AcDbLine
 10
8366.3560553962
 20
4932.965786036
 30
0.0
 11
8218.8560768539
 21
4932.965786036
 31
0.0
  0
LINE
  5
4B5
330
1F
100
AcDbEntity
  8
0
  6
Continuous
 62
     7
100
AcDbLine
 10
8410.3560551578
 20
4937.4498732648
 30
0.0
 11
8410.3560551578
 21
4934.9657900891
 31
0.0
  0
LINE
  5
4B6
330
1F
100
AcDbEntity
  8
0
  6
Continuous
 62
     7
100
AcDbLine
 10
8442.3560753042
 20
4934.9657900891
 30
0.0
 11
8442.3560753042
 21
4937.4498732648
 31
0.0
  0
LINE
  5
4B7
330
1F
100
AcDbEntity
  8
0
  6
Continuous
 62
     7
100
AcDbLine
 10
8183.4760710174
 20
5604.1490145287
 30
0.0
 11
8183.8560804302
 21
5604.1490145287
 31
0.0
  0
LINE
  5
4B8
330
1F
100
AcDbEntity
  8
0
  6
Continuous
 62
     7
100
AcDbLine
 10
8183.8560804302
 20
5611.7490239701
 30
0.0
 11
8183.4760710174
 21
5611.7490239701
 31
0.0
  0
LINE
  5
4B9
330
1F
100
AcDbEntity
  8
0
  6
Continuous
 62
     7
100
AcDbLine
 10
8183.4760710174
 20
5514.1797371468
 30
0.0
 11
8183.8560804302
 21
5514.1797371468
 31
0.0
  0
LINE
  5
4BA
330
1F
100
AcDbEntity
  8
0
  6
Continuous
 62
     7
100
AcDbLine
 10
8183.8560804302
 20
5521.7797465882
 30
0.0
 11
8183.4760710174
 21
5521.7797465882
 31
0.0
  0
LINE
  5
4BB
330
1F
100
AcDbEntity
  8
0
  6
Continuous
 62
     7
100
AcDbLine
 10
8183.8560804302
 20
4952.9498823247
 30
0.0
 11
8183.6876675063
 21
4952.9498823247
 31
0.0
  0
LINE
  5
4BC
330
1F
100
AcDbEntity
  8
0
  6
Continuous
 62
     7
100
AcDbLine
 10
8183.6876675063
 20
4872.949899014
 30
0.0
 11
8198.6876830035
 21
4872.949899014
 31
0.0
  0
LINE
  5
4BD
330
1F
100
AcDbEntity
  8
0
  6
Continuous
 62
     7
100
AcDbLine
 10
8198.6876830035
 20
4872.949899014
 30
0.0
 11
8200.6528481418
 21
4873.0466671548
 31
0.0
  0
LINE
  5
4BE
330
1F
100
AcDbEntity
  8
0
  6
Continuous
 62
     7
100
AcDbLine
 10
8183.6876675063
 20
4932.9498715959
 30
0.0
 11
8173.6876770431
 21
4932.9498715959
 31
0.0
  0
LINE
  5
4BF
330
1F
100
AcDbEntity
  8
0
  6
Continuous
 62
     7
100
AcDbLine
 10
8173.6876770431
 20
4892.9498799405
 30
0.0
 11
8183.6876675063
 21
4892.9498799405
 31
0.0
  0
LINE
  5
4C0
330
1F
100
AcDbEntity
  8
0
  6
Continuous
 62
     7
100
AcDbLine
 10
8218.8560768539
 20
4892.9498799405
 30
0.0
 11
8366.3560553962
 21
4892.9498799405
 31
0.0
  0
LINE
  5
4C1
330
1F
100
AcDbEntity
  8
0
  6
Continuous
 62
     7
100
AcDbLine
 10
8410.3560551578
 20
4952.9657967648
 30
0.0
 11
8410.3560551578
 21
4951.6709156594
 31
0.0
  0
LINE
  5
4C2
330
1F
100
AcDbEntity
  8
0
  6
Continuous
 62
     7
100
AcDbLine
 10
8410.3560551578
 20
4937.4498732648
 30
0.0
 11
8410.3560551578
 21
4934.9657900891
 31
0.0
  0
LINE
  5
4C3
330
1F
100
AcDbEntity
  8
0
  6
Continuous
 62
     7
100
AcDbLine
 10
8442.3560753042
 20
4934.9657900891
 30
0.0
 11
8442.3560753042
 21
4937.4498732648
 31
0.0
  0
LINE
  5
4C4
330
1F
100
AcDbEntity
  8
0
  6
Continuous
 62
     7
100
AcDbLine
 10
8442.3560753042
 20
4951.6709156594
 30
0.0
 11
8442.3560753042
 21
4952.9657967648
 31
0.0
  0
LINE
  5
4C5
330
1F
100
AcDbEntity
  8
0
  6
Continuous
 62
     7
100
AcDbLine
 10
8460.3560670787
 20
4874.9498732648
 30
0.0
 11
8460.3552028114
 21
4874.9573238454
 31
0.0
  0
LINE
  5
4C6
330
1F
100
AcDbEntity
  8
0
  6
Continuous
 62
     7
100
AcDbLine
 10
8392.3569425517
 20
4874.9573238454
 30
0.0
 11
8392.3560782844
 21
4874.9498732648
 31
0.0
  0
LINE
  5
4C7
330
1F
100
AcDbEntity
  8
0
  6
Continuous
 62
     7
100
AcDbLine
 10
8392.3560782844
 20
4874.9498732648
 30
0.0
 11
8399.2498620921
 21
4807.6442189774
 31
0.0
  0
LINE
  5
4C8
330
1F
100
AcDbEntity
  8
0
  6
Continuous
 62
     7
100
AcDbLine
 10
8453.462283271
 20
4807.6442189774
 30
0.0
 11
8460.3560670787
 21
4874.9498732648
 31
0.0
  0
LINE
  5
4C9
330
1F
100
AcDbEntity
  8
0
  6
Continuous
 62
     7
100
AcDbLine
 10
8374.3560716087
 20
4938.9498837552
 30
0.0
 11
8369.356076377
 21
4938.9498837552
 31
0.0
  0
LINE
  5
4CA
330
1F
100
AcDbEntity
  8
0
  6
Continuous
 62
     7
100
AcDbLine
 10
8369.356076377
 20
4886.9498975835
 30
0.0
 11
8374.3560716087
 21
4886.9498975835
 31
0.0
  0
LINE
  5
4CB
330
1F
100
AcDbEntity
  8
0
  6
Continuous
 62
     7
100
AcDbLine
 10
8451.3560637409
 20
4937.4498732648
 30
0.0
 11
8449.3560745889
 21
4941.449881371
 31
0.0
  0
LINE
  5
4CC
330
1F
100
AcDbEntity
  8
0
  6
Continuous
 62
     7
100
AcDbLine
 10
8403.356055873
 20
4941.449881371
 30
0.0
 11
8401.3560816222
 21
4937.4498732648
 31
0.0
  0
LINE
  5
4CD
330
1F
100
AcDbEntity
  8
0
  6
Continuous
 62
     7
100
AcDbLine
 10
8403.356055873
 20
4948.4498806558
 30
0.0
 11
8403.356055873
 21
4941.449881371
 31
0.0
  0
LINE
  5
4CE
330
1F
100
AcDbEntity
  8
0
  6
Continuous
 62
     7
100
AcDbLine
 10
8449.3560745889
 20
4941.449881371
 30
0.0
 11
8449.3560745889
 21
4948.4498806558
 31
0.0
  0
LINE
  5
4CF
330
1F
100
AcDbEntity
  8
0
  6
Continuous
 62
     7
100
AcDbLine
 10
8390.3560742313
 20
4890.9498758874
 30
0.0
 11
8394.2208692008
 21
4890.9498758874
 31
0.0
  0
LINE
  5
4D0
330
1F
100
AcDbEntity
  8
0
  6
Continuous
 62
     7
100
AcDbLine
 10
8410.3560551578
 20
4937.4498732648
 30
0.0
 11
8410.3560551578
 21
4934.9657900891
 31
0.0
  0
LINE
  5
4D1
330
1F
100
AcDbEntity
  8
0
  6
Continuous
 62
     7
100
AcDbLine
 10
8442.3560753042
 20
4934.9657900891
 30
0.0
 11
8442.3560753042
 21
4937.4498732648
 31
0.0
  0
LINE
  5
4D2
330
1F
100
AcDbEntity
  8
0
  6
Continuous
 62
     7
100
AcDbLine
 10
8243.4060677463
 20
5306.3657962046
 30
0.0
 11
8243.4060677463
 21
5316.9657968244
 31
0.0
  0
LINE
  5
4D3
330
1F
100
AcDbEntity
  8
0
  6
Continuous
 62
     7
100
AcDbLine
 10
8233.8560625488
 20
5292.9658003411
 30
0.0
 11
8235.8560666019
 21
5292.9658003411
 31
0.0
  0
LINE
  5
4D4
330
1F
100
AcDbEntity
  8
0
  6
Continuous
 62
     7
100
AcDbLine
 10
8235.8560666019
 20
5332.9657919965
 30
0.0
 11
8233.8560625488
 21
5332.9657919965
 31
0.0
  0
LINE
  5
4D5
330
1F
100
AcDbEntity
  8
0
  6
Continuous
 62
     7
100
AcDbLine
 10
8243.2560726577
 20
5317.2657944522
 30
0.0
 11
8243.2560726577
 21
5320.4081662259
 31
0.0
  0
LINE
  5
4D6
330
1F
100
AcDbEntity
  8
0
  6
Continuous
 62
     7
100
AcDbLine
 10
8243.2560726577
 20
5305.5234261117
 30
0.0
 11
8243.2560726577
 21
5306.2657945118
 31
0.0
  0
LINE
  5
4D7
330
1F
100
AcDbEntity
  8
0
  6
Continuous
 62
     7
100
AcDbLine
 10
8236.3560601646
 20
5542.9658003411
 30
0.0
 11
8233.8560625488
 21
5542.9658003411
 31
0.0
  0
LINE
  5
4D8
330
1F
100
AcDbEntity
  8
0
  6
Continuous
 62
     7
100
AcDbLine
 10
8233.8560625488
 20
5482.9657979569
 30
0.0
 11
8236.3560601646
 21
5482.9657979569
 31
0.0
  0
LINE
  5
4D9
330
1F
100
AcDbEntity
  8
0
  6
Continuous
 62
     7
100
AcDbLine
 10
8236.3560601646
 20
5482.9657979569
 30
0.0
 11
8236.8560835296
 21
5483.4657915196
 31
0.0
  0
LINE
  5
4DA
330
1F
100
AcDbEntity
  8
0
  6
Continuous
 62
     7
100
AcDbLine
 10
8236.8560835296
 20
5542.4658067784
 30
0.0
 11
8236.3560601646
 21
5542.9658003411
 31
0.0
  0
LINE
  5
4DB
330
1F
100
AcDbEntity
  8
0
  6
Continuous
 62
     7
100
AcDbLine
 10
8245.506058591
 20
5498.9658005795
 30
0.0
 11
8367.8560658866
 21
5498.9658005795
 31
0.0
  0
LINE
  5
4DC
330
1F
100
AcDbEntity
  8
0
  6
Continuous
 62
     7
100
AcDbLine
 10
8236.8560835296
 20
5498.9658005795
 30
0.0
 11
8242.2267600471
 21
5498.9658005795
 31
0.0
  0
LINE
  5
4DD
330
1F
100
AcDbEntity
  8
0
  6
Continuous
 62
     7
100
AcDbLine
 10
8401.8560751849
 20
5526.9657977185
 30
0.0
 11
8236.8560835296
 21
5526.9657977185
 31
0.0
  0
LINE
  5
4DE
330
1F
100
AcDbEntity
  8
0
  6
Continuous
 62
     7
100
AcDbLine
 10
8402.8560623103
 20
5525.9658105931
 30
0.0
 11
8401.8560751849
 21
5526.9657977185
 31
0.0
  0
LINE
  5
4DF
330
1F
100
AcDbEntity
  8
0
  6
Continuous
 62
     7
100
AcDbLine
 10
8183.8560804302
 20
4952.9657967648
 30
0.0
 11
8183.8560804302
 21
4872.9657836518
 31
0.0
  0
LINE
  5
4E0
330
1F
100
AcDbEntity
  8
0
  6
Continuous
 62
     7
100
AcDbLine
 10
8218.8560768539
 20
4932.965786036
 30
0.0
 11
8218.8560768539
 21
4892.9657943807
 31
0.0
  0
LINE
  5
4E1
330
1F
100
AcDbEntity
  8
0
  6
Continuous
 62
     7
100
AcDbLine
 10
8392.3560782844
 20
4874.9657877049
 30
0.0
 11
8460.3560670787
 21
4874.9657877049
 31
0.0
  0
LINE
  5
4E2
330
1F
100
AcDbEntity
  8
0
  6
Continuous
 62
     7
100
AcDbLine
 10
8374.3560716087
 20
4939.9657853208
 30
0.0
 11
8374.3560716087
 21
4885.9657950959
 31
0.0
  0
LINE
  5
4E3
330
1F
100
AcDbEntity
  8
0
  6
Continuous
 62
     7
100
AcDbLine
 10
8390.3560742313
 20
4945.9657974801
 30
0.0
 11
8390.3560742313
 21
4879.9657829366
 31
0.0
  0
LINE
  5
4E4
330
1F
100
AcDbEntity
  8
0
  6
Continuous
 62
     7
100
AcDbLine
 10
8401.0698899204
 20
4932.4325926862
 30
0.0
 11
8401.1343225414
 21
4932.3134430013
 31
0.0
  0
LINE
  5
4E5
330
1F
100
AcDbEntity
  8
0
  6
Continuous
 62
     7
100
AcDbLine
 10
8402.0264252597
 20
4934.9657900891
 30
0.0
 11
8450.6857201034
 21
4934.9657900891
 31
0.0
  0
LINE
  5
4E6
330
1F
100
AcDbEntity
  8
0
  6
Continuous
 62
     7
100
AcDbLine
 10
8403.4763678485
 20
4941.6709251962
 30
0.0
 11
8449.2357626134
 21
4941.6709251962
 31
0.0
  0
LINE
  5
4E7
330
1F
100
AcDbEntity
  8
0
  6
Continuous
 62
     7
100
AcDbLine
 10
8401.4763935977
 20
4937.6709170899
 30
0.0
 11
8451.2357517654
 21
4937.6709170899
 31
0.0
  0
LINE
  5
4E8
330
1F
100
AcDbEntity
  8
0
  6
Continuous
 62
     7
100
AcDbLine
 10
8406.4763888294
 20
4951.6709156594
 30
0.0
 11
8446.2357565337
 21
4951.6709156594
 31
0.0
  0
LINE
  5
4E9
330
1F
100
AcDbEntity
  8
0
  6
Continuous
 62
     7
100
AcDbLine
 10
8183.8560804302
 20
5599.5658047757
 30
0.0
 11
8183.8560804302
 21
5620.2490337453
 31
0.0
  0
LINE
  5
4EA
330
1F
100
AcDbEntity
  8
0
  6
Continuous
 62
     7
100
AcDbLine
 10
8186.5134641105
 20
5622.4009402356
 30
0.0
 11
8232.1134611541
 21
5612.7083607278
 31
0.0
  0
LINE
  5
4EB
330
1F
100
AcDbEntity
  8
0
  6
Continuous
 62
     7
100
AcDbLine
 10
8233.8560625488
 20
5610.5564542375
 30
0.0
 11
8233.8560625488
 21
5202.9657967648
 31
0.0
  0
LINE
  5
4EC
330
1F
100
AcDbEntity
  8
0
  6
Continuous
 62
     7
100
AcDbLine
 10
8233.8560625488
 20
5202.9657967648
 30
0.0
 11
8661.6560697132
 21
5202.9657967648
 31
0.0
  0
LINE
  5
4ED
330
1F
100
AcDbEntity
  8
0
  6
Continuous
 62
     7
100
AcDbLine
 10
8663.8560697013
 20
5200.7657967768
 30
0.0
 11
8663.8560697013
 21
5177.9657963923
 31
0.0
  0
LINE
  5
4EE
330
1F
100
AcDbEntity
  8
0
  6
Continuous
 62
     7
100
AcDbLine
 10
8663.8560697013
 20
5177.9657963923
 30
0.0
 11
8660.8560696752
 21
5177.9657963923
 31
0.0
  0
LINE
  5
4EF
330
1F
100
AcDbEntity
  8
0
  6
Continuous
 62
     7
100
AcDbLine
 10
8660.8560696752
 20
5177.9657963923
 30
0.0
 11
8660.8560696752
 21
5177.9557958505
 31
0.0
  0
LINE
  5
4F0
330
1F
100
AcDbEntity
  8
0
  6
Continuous
 62
     7
100
AcDbLine
 10
8660.8560696752
 20
4952.9657967648
 30
0.0
 11
8660.8560696752
 21
5177.9557958505
 31
0.0
  0
LINE
  5
4F1
330
1F
100
AcDbEntity
  8
0
  6
Continuous
 62
     7
100
AcDbLine
 10
8660.8560696752
 20
4952.9657967648
 30
0.0
 11
8186.9560584003
 21
4952.9657967648
 31
0.0
  0
LINE
  5
4F2
330
1F
100
AcDbEntity
  8
0
  6
Continuous
 62
     7
100
AcDbLine
 10
8186.9560584003
 20
5597.5658007226
 30
0.0
 11
8186.9560584003
 21
4952.9657967648
 31
0.0
  0
LINE
  5
4F3
330
1F
100
AcDbEntity
  8
0
  6
Continuous
 62
     7
100
AcDbLine
 10
8186.9560584003
 20
5597.5658007226
 30
0.0
 11
8187.956075328
 21
5597.5658007226
 31
0.0
  0
LINE
  5
4F4
330
1F
100
AcDbEntity
  8
0
  6
Continuous
 62
     7
100
AcDbLine
 10
8187.956075328
 20
5597.5658007226
 30
0.0
 11
8187.956075328
 21
5599.5658047757
 31
0.0
  0
LINE
  5
4F5
330
1F
100
AcDbEntity
  8
0
  6
Continuous
 62
     7
100
AcDbLine
 10
8187.956075328
 20
5599.5658047757
 30
0.0
 11
8183.8560804302
 21
5599.5658047757
 31
0.0
  0
LINE
  5
4F6
330
1F
100
AcDbEntity
  8
0
  6
Continuous
 62
     7
100
AcDbLine
 10
8186.9560584003
 20
4952.9657967648
 30
0.0
 11
8183.8560804302
 21
4952.9657967648
 31
0.0
  0
LINE
  5
4F7
330
1F
100
AcDbEntity
  8
0
  6
Continuous
 62
     7
100
AcDbLine
 10
8183.8560804302
 20
4952.9657967648
 30
0.0
 11
8183.8560804302
 21
5597.5658007226
 31
0.0
  0
LINE
  5
4F8
330
1F
100
AcDbEntity
  8
0
  6
Continuous
 62
     7
100
AcDbLine
 10
8183.8560804302
 20
5597.5658007226
 30
0.0
 11
8186.9560584003
 21
5597.5658007226
 31
0.0
  0
LINE
  5
4F9
330
1F
100
AcDbEntity
  8
0
  6
Continuous
 62
     7
100
AcDbLine
 10
8663.9560696988
 20
4952.9657967648
 30
0.0
 11
8663.9560696988
 21
5177.9557958505
 31
0.0
  0
LINE
  5
4FA
330
1F
100
AcDbEntity
  8
0
  6
Continuous
 62
     7
100
AcDbLine
 10
8660.8560696752
 20
5177.9557958505
 30
0.0
 11
8663.9560696988
 21
5177.9557958505
 31
0.0
  0
LINE
  5
4FB
330
1F
100
AcDbEntity
  8
0
  6
Continuous
 62
     7
100
AcDbLine
 10
8663.9560696988
 20
4952.9657967648
 30
0.0
 11
8660.8560696752
 21
4952.9657967648
 31
0.0
  0
LINE
  5
4FC
330
1F
100
AcDbEntity
  8
0
  6
Continuous
 62
     7
100
AcDbLine
 10
8185.0560709411
 20
5599.5658047757
 30
0.0
 11
8185.0560709411
 21
5597.9658074937
 31
0.0
  0
LINE
  5
4FD
330
1F
100
AcDbEntity
  8
0
  6
Continuous
 62
     7
100
AcDbLine
 10
8183.8560804302
 20
5599.5658047757
 30
0.0
 11
8183.8560804302
 21
5597.9658074937
 31
0.0
  0
LINE
  5
4FE
330
1F
100
AcDbEntity
  8
0
  6
Continuous
 62
     7
100
AcDbLine
 10
8183.8560804302
 20
5597.9658074937
 30
0.0
 11
8185.0560709411
 21
5597.9658074937
 31
0.0
  0
LINE
  5
4FF
330
1F
100
AcDbEntity
  8
0
  6
Continuous
 62
     7
100
AcDbLine
 10
8181.6560729915
 20
5606.0490317902
 30
0.0
 11
8181.6560729915
 21
5609.8490365109
 31
0.0
  0
LINE
  5
500
330
1F
100
AcDbEntity
  8
0
  6
Continuous
 62
     7
100
AcDbLine
 10
8183.4760710174
 20
5604.1490145287
 30
0.0
 11
8183.4760710174
 21
5611.7490239701
 31
0.0
  0
LINE
  5
501
330
1F
100
AcDbEntity
  8
0
  6
Continuous
 62
     7
100
AcDbLine
 10
8183.4760710174
 20
5521.6482885442
 30
0.0
 11
8183.4760710174
 21
5521.7797465882
 31
0.0
  0
LINE
  5
502
330
1F
100
AcDbEntity
  8
0
  6
Continuous
 62
     7
100
AcDbLine
 10
8183.4760710174
 20
5514.1797371468
 30
0.0
 11
8183.4760710174
 21
5521.6482885442
 31
0.0
  0
LINE
  5
503
330
1F
100
AcDbEntity
  8
0
  6
Continuous
 62
     7
100
AcDbLine
 10
8181.6560729915
 20
5519.8140152059
 30
0.0
 11
8181.6560729915
 21
5519.879759129
 31
0.0
  0
LINE
  5
504
330
1F
100
AcDbEntity
  8
0
  6
Continuous
 62
     7
100
AcDbLine
 10
8181.6560729915
 20
5516.0797544084
 30
0.0
 11
8181.6560729915
 21
5519.8140152059
 31
0.0
  0
LINE
  5
505
330
1F
100
AcDbEntity
  8
0
  6
Continuous
 62
     7
100
AcDbLine
 10
8187.3560651714
 20
5598.979742106
 30
0.0
 11
8185.8560844833
 21
5598.979742106
 31
0.0
  0
LINE
  5
506
330
1F
100
AcDbEntity
  8
0
  6
Continuous
 62
     7
100
AcDbLine
 10
8187.3560651714
 20
5598.979742106
 30
0.0
 11
8187.3560651714
 21
5597.5658007226
 31
0.0
  0
LINE
  5
507
330
1F
100
AcDbEntity
  8
0
  6
Continuous
 62
     7
100
AcDbLine
 10
8185.8560844833
 20
5598.979742106
 30
0.0
 11
8185.8560844833
 21
5597.5658007226
 31
0.0
  0
LINE
  5
508
330
1F
100
AcDbEntity
  8
0
  6
Continuous
 62
     7
100
AcDbLine
 10
8187.3560651714
 20
5599.5658047757
 30
0.0
 11
8187.3560651714
 21
5598.979742106
 31
0.0
  0
LINE
  5
509
330
1F
100
AcDbEntity
  8
0
  6
Continuous
 62
     7
100
AcDbLine
 10
8185.8560844833
 20
5598.979742106
 30
0.0
 11
8185.8560844833
 21
5599.5658047757
 31
0.0
  0
LINE
  5
50A
330
1F
100
AcDbEntity
  8
0
  6
Continuous
 62
     7
100
AcDbLine
 10
8183.6876675063
 20
4952.9498823247
 30
0.0
 11
8183.6876675063
 21
4872.949899014
 31
0.0
  0
LINE
  5
50B
330
1F
100
AcDbEntity
  8
0
  6
Continuous
 62
     7
100
AcDbLine
 10
8173.6876770431
 20
4932.9498715959
 30
0.0
 11
8173.6876770431
 21
4892.9498799405
 31
0.0
  0
LINE
  5
50C
330
1F
100
AcDbEntity
  8
0
  6
Continuous
 62
     7
100
AcDbLine
 10
8392.3560782844
 20
4874.9498732648
 30
0.0
 11
8460.3560670787
 21
4874.9498732648
 31
0.0
  0
LINE
  5
50D
330
1F
100
AcDbEntity
  8
0
  6
Continuous
 62
     7
100
AcDbLine
 10
8402.2342368537
 20
4804.9498804173
 30
0.0
 11
8450.4778936082
 21
4804.9498804173
 31
0.0
  0
LINE
  5
50E
330
1F
100
AcDbEntity
  8
0
  6
Continuous
 62
     7
100
AcDbLine
 10
8366.3560553962
 20
4935.9498925767
 30
0.0
 11
8366.3560553962
 21
4889.949888762
 31
0.0
  0
LINE
  5
50F
330
1F
100
AcDbEntity
  8
0
  6
Continuous
 62
     7
100
AcDbLine
 10
8403.356055873
 20
4941.449881371
 30
0.0
 11
8449.3560745889
 21
4941.449881371
 31
0.0
  0
LINE
  5
510
330
1F
100
AcDbEntity
  8
0
  6
Continuous
 62
     7
100
AcDbLine
 10
8401.3560816222
 20
4937.4498732648
 30
0.0
 11
8451.3560637409
 21
4937.4498732648
 31
0.0
  0
LINE
  5
511
330
1F
100
AcDbEntity
  8
0
  6
Continuous
 62
     7
100
AcDbLine
 10
8242.2857388431
 20
5316.9657968244
 30
0.0
 11
8241.5738209659
 21
5316.9657968244
 31
0.0
  0
LINE
  5
512
330
1F
100
AcDbEntity
  8
0
  6
Continuous
 62
     7
100
AcDbLine
 10
8242.2857388431
 20
5306.3657962046
 30
0.0
 11
8241.8598636562
 21
5306.3657962046
 31
0.0
  0
LINE
  5
513
330
1F
100
AcDbEntity
  8
0
  6
Continuous
 62
     7
100
AcDbLine
 10
8243.4060677463
 20
5316.9657968244
 30
0.0
 11
8242.2857388431
 21
5316.9657968244
 31
0.0
  0
LINE
  5
514
330
1F
100
AcDbEntity
  8
0
  6
Continuous
 62
     7
100
AcDbLine
 10
8243.4060677463
 20
5306.3657962046
 30
0.0
 11
8242.2857388431
 21
5306.3657962046
 31
0.0
  0
LINE
  5
515
330
1F
100
AcDbEntity
  8
0
  6
Continuous
 62
     7
100
AcDbLine
 10
8235.8560666019
 20
5304.6015881262
 30
0.0
 11
8235.8560666019
 21
5292.9658003411
 31
0.0
  0
LINE
  5
516
330
1F
100
AcDbEntity
  8
0
  6
Continuous
 62
     7
100
AcDbLine
 10
8235.8560666019
 20
5332.9657919965
 30
0.0
 11
8235.8560666019
 21
5321.3300042114
 31
0.0
  0
LINE
  5
517
330
1F
100
AcDbEntity
  8
0
  6
Continuous
 62
     7
100
AcDbLine
 10
8243.2560726577
 20
5317.2657944522
 30
0.0
 11
8242.150853532
 21
5317.2657944522
 31
0.0
  0
LINE
  5
518
330
1F
100
AcDbEntity
  8
0
  6
Continuous
 62
     7
100
AcDbLine
 10
8242.150853532
 20
5306.2657945118
 30
0.0
 11
8243.2560726577
 21
5306.2657945118
 31
0.0
  0
LINE
  5
519
330
1F
100
AcDbEntity
  8
0
  6
Continuous
 62
     7
100
AcDbLine
 10
8651.9560694271
 20
4952.8658099732
 30
0.0
 11
8651.9560694271
 21
4952.9657967648
 31
0.0
  0
LINE
  5
51A
330
1F
100
AcDbEntity
  8
0
  6
Continuous
 62
     7
100
AcDbLine
 10
8658.9560696432
 20
4952.8658099732
 30
0.0
 11
8658.9560696432
 21
4952.9657967648
 31
0.0
  0
LINE
  5
51B
330
1F
100
AcDbEntity
  8
0
  6
Continuous
 62
     7
100
AcDbLine
 10
8658.9560696432
 20
4952.8658099732
 30
0.0
 11
8651.9560694271
 21
4952.8658099732
 31
0.0
  0
LINE
  5
51C
330
1F
100
AcDbEntity
  8
0
  6
Continuous
 62
     7
100
AcDbLine
 10
8242.7520855838
 20
5498.9658005795
 30
0.0
 11
8242.3560723239
 21
5498.9658005795
 31
0.0
  0
LINE
  5
51D
330
1F
100
AcDbEntity
  8
0
  6
Continuous
 62
     7
100
AcDbLine
 10
8245.3560635024
 20
5498.9658005795
 30
0.0
 11
8242.7520855838
 21
5498.9658005795
 31
0.0
  0
LINE
  5
51E
330
1F
100
AcDbEntity
  8
0
  6
Continuous
 62
     7
100
AcDbLine
 10
8236.3560601646
 20
5524.5377429089
 30
0.0
 11
8236.3560601646
 21
5542.9658003411
 31
0.0
  0
LINE
  5
51F
330
1F
100
AcDbEntity
  8
0
  6
Continuous
 62
     7
100
AcDbLine
 10
8236.3560601646
 20
5482.9657979569
 30
0.0
 11
8236.3560601646
 21
5524.5377429089
 31
0.0
  0
LINE
  5
520
330
1F
100
AcDbEntity
  8
0
  6
Continuous
 62
     7
100
AcDbLine
 10
8236.8560835296
 20
5524.3448920808
 30
0.0
 11
8236.8560835296
 21
5483.4657915196
 31
0.0
  0
LINE
  5
521
330
1F
100
AcDbEntity
  8
0
  6
Continuous
 62
     7
100
AcDbLine
 10
8236.8560835296
 20
5542.4658067784
 30
0.0
 11
8236.8560835296
 21
5524.3448920808
 31
0.0
  0
LINE
  5
522
330
1F
100
AcDbEntity
  8
0
  6
Continuous
 62
     7
100
AcDbLine
 10
8401.8560751849
 20
5508.0760725102
 30
0.0
 11
8401.8560751849
 21
5526.9657977185
 31
0.0
  0
LINE
  5
523
330
1F
100
AcDbEntity
  8
0
  6
Continuous
 62
     7
100
AcDbLine
 10
8367.8560658866
 20
5498.9658005795
 30
0.0
 11
8368.0271014148
 21
5499.0116365514
 31
0.0
  0
LINE
  5
524
330
1F
100
AcDbEntity
  8
0
  6
Continuous
 62
     7
100
AcDbLine
 10
8368.0271014148
 20
5499.0116365514
 30
0.0
 11
8368.5390755111
 21
5499.1488166413
 31
0.0
  0
LINE
  5
525
330
1F
100
AcDbEntity
  8
0
  6
Continuous
 62
     7
100
AcDbLine
 10
8368.5390755111
 20
5499.1488166413
 30
0.0
 11
8369.3886205131
 21
5499.3764467797
 31
0.0
  0
LINE
  5
526
330
1F
100
AcDbEntity
  8
0
  6
Continuous
 62
     7
100
AcDbLine
 10
8369.3886205131
 20
5499.3764467797
 30
0.0
 11
8370.5701931888
 21
5499.6930368504
 31
0.0
  0
LINE
  5
527
330
1F
100
AcDbEntity
  8
0
  6
Continuous
 62
     7
100
AcDbLine
 10
8370.5701931888
 20
5499.6930368504
 30
0.0
 11
8372.0760747367
 21
5500.0965304933
 31
0.0
  0
LINE
  5
528
330
1F
100
AcDbEntity
  8
0
  6
Continuous
 62
     7
100
AcDbLine
 10
8372.0760747367
 20
5500.0965304933
 30
0.0
 11
8373.8963707858
 21
5500.5842753014
 31
0.0
  0
LINE
  5
529
330
1F
100
AcDbEntity
  8
0
  6
Continuous
 62
     7
100
AcDbLine
 10
8373.8963707858
 20
5500.5842753014
 30
0.0
 11
8376.0191604072
 21
5501.1530824265
 31
0.0
  0
LINE
  5
52A
330
1F
100
AcDbEntity
  8
0
  6
Continuous
 62
     7
100
AcDbLine
 10
8376.0191604072
 20
5501.1530824265
 30
0.0
 11
8378.4305855209
 21
5501.7992265782
 31
0.0
  0
LINE
  5
52B
330
1F
100
AcDbEntity
  8
0
  6
Continuous
 62
     7
100
AcDbLine
 10
8378.4305855209
 20
5501.7992265782
 30
0.0
 11
8381.114850896
 21
5502.5184758267
 31
0.0
  0
LINE
  5
52C
330
1F
100
AcDbEntity
  8
0
  6
Continuous
 62
     7
100
AcDbLine
 10
8381.114850896
 20
5502.5184758267
 30
0.0
 11
8384.0543731624
 21
5503.3061214051
 31
0.0
  0
LINE
  5
52D
330
1F
100
AcDbEntity
  8
0
  6
Continuous
 62
     7
100
AcDbLine
 10
8384.0543731624
 20
5503.3061214051
 30
0.0
 11
8387.2299000198
 21
5504.1570075116
 31
0.0
  0
LINE
  5
52E
330
1F
100
AcDbEntity
  8
0
  6
Continuous
 62
     7
100
AcDbLine
 10
8387.2299000198
 20
5504.1570075116
 30
0.0
 11
8390.6206294471
 21
5505.0655313096
 31
0.0
  0
LINE
  5
52F
330
1F
100
AcDbEntity
  8
0
  6
Continuous
 62
     7
100
AcDbLine
 10
8390.6206294471
 20
5505.0655313096
 30
0.0
 11
8394.2044183189
 21
5506.0258217416
 31
0.0
  0
LINE
  5
530
330
1F
100
AcDbEntity
  8
0
  6
Continuous
 62
     7
100
AcDbLine
 10
8394.2044183189
 20
5506.0258217416
 30
0.0
 11
8397.9577526027
 21
5507.0315309129
 31
0.0
  0
LINE
  5
531
330
1F
100
AcDbEntity
  8
0
  6
Continuous
 62
     7
100
AcDbLine
 10
8397.9577526027
 20
5507.0315309129
 30
0.0
 11
8401.8560751849
 21
5508.0760725102
 31
0.0
  0
LINE
  5
532
330
1F
100
AcDbEntity
  8
0
  6
Continuous
 62
     7
100
AcDbLine
 10
8402.8560623103
 20
5525.9658105931
 30
0.0
 11
8402.8560623103
 21
5508.3440251908
 31
0.0
  0
LINE
  5
533
330
1F
100
AcDbEntity
  8
0
  6
Continuous
 62
     7
100
AcDbLine
 10
8402.8560623103
 20
5508.3440251908
 30
0.0
 11
8401.8560751849
 21
5508.0760725102
 31
0.0
  0
LINE
  5
534
330
1F
100
AcDbEntity
  8
0
  6
Continuous
 62
     7
100
AcDbLine
 10
8198.856066125
 20
4952.9657967648
 30
0.0
 11
8198.856066125
 21
4872.9657836518
 31
0.0
  0
LINE
  5
535
330
1F
100
AcDbEntity
  8
0
  6
Continuous
 62
     7
100
AcDbLine
 10
8399.2498620921
 20
4807.6601334176
 30
0.0
 11
8453.462283271
 21
4807.6601334176
 31
0.0
  0
LINE
  5
536
330
1F
100
AcDbEntity
  8
0
  6
Continuous
 62
     7
100
AcDbLine
 10
8401.1343225414
 20
4932.3134430013
 30
0.0
 11
8453.6655053073
 21
4932.3134430013
 31
0.0
  0
LINE
  5
537
330
1F
100
AcDbEntity
  8
0
  6
Continuous
 62
     7
100
AcDbLine
 10
8380.356083768
 20
4945.9657974801
 30
0.0
 11
8380.356083768
 21
4879.9657829366
 31
0.0
  0
LINE
  5
538
330
1F
100
AcDbEntity
  8
0
  6
Continuous
 62
     7
100
AcDbLine
 10
8403.4763678485
 20
4948.6709244809
 30
0.0
 11
8449.2357626134
 21
4948.6709244809
 31
0.0
  0
LINE
  5
539
330
1F
100
AcDbEntity
  8
0
  6
Continuous
 62
     7
100
AcDbLine
 10
8198.6876830035
 20
4952.9498823247
 30
0.0
 11
8198.6876830035
 21
4872.949899014
 31
0.0
  0
LINE
  5
53A
330
1F
100
AcDbEntity
  8
0
  6
Continuous
 62
     7
100
AcDbLine
 10
8453.6655053073
 20
4932.2975285611
 30
0.0
 11
8401.1343225414
 21
4932.2975285611
 31
0.0
  0
LINE
  5
53B
330
1F
100
AcDbEntity
  8
0
  6
Continuous
 62
     7
100
AcDbLine
 10
8399.2498620921
 20
4807.6442189774
 30
0.0
 11
8453.462283271
 21
4807.6442189774
 31
0.0
  0
LINE
  5
53C
330
1F
100
AcDbEntity
  8
0
  6
Continuous
 62
     7
100
AcDbLine
 10
8369.356076377
 20
4938.9498837552
 30
0.0
 11
8369.356076377
 21
4886.9498975835
 31
0.0
  0
LINE
  5
53D
330
1F
100
AcDbEntity
  8
0
  6
Continuous
 62
     7
100
AcDbLine
 10
8403.356055873
 20
4948.4498806558
 30
0.0
 11
8449.3560745889
 21
4948.4498806558
 31
0.0
  0
LINE
  5
53E
330
1F
100
AcDbEntity
  8
0
  6
Continuous
 62
     7
100
AcDbLine
 10
4925.2188114121
 20
4390.3230688088
 30
0.0
 11
4925.2188114121
 21
4389.9430593961
 31
0.0
  0
LINE
  5
53F
330
1F
100
AcDbEntity
  8
0
  6
Continuous
 62
     7
100
AcDbLine
 10
4932.8187612489
 20
4389.9430593961
 30
0.0
 11
4932.8187612489
 21
4390.3230688088
 31
0.0
  0
LINE
  5
540
330
1F
100
AcDbEntity
  8
0
  6
Continuous
 62
     7
100
AcDbLine
 10
4785.218706508
 20
4390.3230688088
 30
0.0
 11
4785.218706508
 21
4389.9430593961
 31
0.0
  0
LINE
  5
541
330
1F
100
AcDbEntity
  8
0
  6
Continuous
 62
     7
100
AcDbLine
 10
4792.818775554
 20
4389.9430593961
 30
0.0
 11
4792.818775554
 21
4390.3230688088
 31
0.0
  0
LINE
  5
542
330
1F
100
AcDbEntity
  8
0
  6
Continuous
 62
     7
100
AcDbLine
 10
4783.7186960176
 20
4390.3230688088
 30
0.0
 11
4783.7186960176
 21
4389.9430593961
 31
0.0
  0
LINE
  5
543
330
1F
100
AcDbEntity
  8
0
  6
Continuous
 62
     7
100
AcDbLine
 10
4966.5187505677
 20
4389.9430593961
 30
0.0
 11
4966.5187505677
 21
4390.1114723199
 31
0.0
  0
LINE
  5
544
330
1F
100
AcDbEntity
  8
0
  6
Continuous
 62
     7
100
AcDbLine
 10
4886.5187076524
 20
4390.1114723199
 30
0.0
 11
4886.5187076524
 21
4389.9430593961
 31
0.0
  0
LINE
  5
545
330
1F
100
AcDbEntity
  8
0
  6
Continuous
 62
     7
100
AcDbLine
 10
4946.5187696412
 20
4390.1114723199
 30
0.0
 11
4946.5187696412
 21
4400.1114627831
 31
0.0
  0
LINE
  5
546
330
1F
100
AcDbEntity
  8
0
  6
Continuous
 62
     7
100
AcDbLine
 10
4906.5188077882
 20
4400.1114627831
 30
0.0
 11
4906.5188077882
 21
4390.1114723199
 31
0.0
  0
LINE
  5
547
330
1F
100
AcDbEntity
  8
0
  6
Continuous
 62
     7
100
AcDbLine
 10
6904.0187505677
 20
4337.4430796616
 30
0.0
 11
6904.0187505677
 21
4339.9430772775
 31
0.0
  0
LINE
  5
548
330
1F
100
AcDbEntity
  8
0
  6
Continuous
 62
     7
100
AcDbLine
 10
6844.0187481835
 20
4339.9430772775
 30
0.0
 11
6844.0187481835
 21
4337.4430796616
 31
0.0
  0
LINE
  5
549
330
1F
100
AcDbEntity
  8
0
  6
Continuous
 62
     7
100
AcDbLine
 10
6844.0187481835
 20
4337.4430796616
 30
0.0
 11
6844.5187715486
 21
4336.9430562966
 31
0.0
  0
LINE
  5
54A
330
1F
100
AcDbEntity
  8
0
  6
Continuous
 62
     7
100
AcDbLine
 10
6903.5187272027
 20
4336.9430562966
 30
0.0
 11
6904.0187505677
 21
4337.4430796616
 31
0.0
  0
LINE
  5
54B
330
1F
100
AcDbEntity
  8
0
  6
Continuous
 62
     7
100
AcDbLine
 10
5704.0187624887
 20
4337.4430796616
 30
0.0
 11
5704.0187624887
 21
4339.9430772775
 31
0.0
  0
LINE
  5
54C
330
1F
100
AcDbEntity
  8
0
  6
Continuous
 62
     7
100
AcDbLine
 10
5644.0187601045
 20
4339.9430772775
 30
0.0
 11
5644.0187601045
 21
4337.4430796616
 31
0.0
  0
LINE
  5
54D
330
1F
100
AcDbEntity
  8
0
  6
Continuous
 62
     7
100
AcDbLine
 10
5644.0187601045
 20
4337.4430796616
 30
0.0
 11
5644.5187834695
 21
4336.9430562966
 31
0.0
  0
LINE
  5
54E
330
1F
100
AcDbEntity
  8
0
  6
Continuous
 62
     7
100
AcDbLine
 10
5703.5187391236
 20
4336.9430562966
 30
0.0
 11
5704.0187624887
 21
4337.4430796616
 31
0.0
  0
LINE
  5
54F
330
1F
100
AcDbEntity
  8
0
  6
Continuous
 62
     7
100
AcDbLine
 10
6304.0187546655
 20
4337.4430796616
 30
0.0
 11
6304.0187546655
 21
4339.9430772775
 31
0.0
  0
LINE
  5
550
330
1F
100
AcDbEntity
  8
0
  6
Continuous
 62
     7
100
AcDbLine
 10
6244.0187560067
 20
4339.9430772775
 30
0.0
 11
6244.0187560067
 21
4337.4430796616
 31
0.0
  0
LINE
  5
551
330
1F
100
AcDbEntity
  8
0
  6
Continuous
 62
     7
100
AcDbLine
 10
6244.0187560067
 20
4337.4430796616
 30
0.0
 11
6244.5187551573
 21
4336.9430562966
 31
0.0
  0
LINE
  5
552
330
1F
100
AcDbEntity
  8
0
  6
Continuous
 62
     7
100
AcDbLine
 10
6303.5187555149
 20
4336.9430562966
 30
0.0
 11
6304.0187546655
 21
4337.4430796616
 31
0.0
  0
LINE
  5
553
330
1F
100
AcDbEntity
  8
0
  6
Continuous
 62
     7
100
AcDbLine
 10
5104.0187982514
 20
4337.4430796616
 30
0.0
 11
5104.0187982514
 21
4339.9430772775
 31
0.0
  0
LINE
  5
554
330
1F
100
AcDbEntity
  8
0
  6
Continuous
 62
     7
100
AcDbLine
 10
5044.0187362626
 20
4339.9430772775
 30
0.0
 11
5044.0187362626
 21
4337.4430796616
 31
0.0
  0
LINE
  5
555
330
1F
100
AcDbEntity
  8
0
  6
Continuous
 62
     7
100
AcDbLine
 10
5044.0187362626
 20
4337.4430796616
 30
0.0
 11
5044.518700023
 21
4336.9430562966
 31
0.0
  0
LINE
  5
556
330
1F
100
AcDbEntity
  8
0
  6
Continuous
 62
     7
100
AcDbLine
 10
5103.5187152818
 20
4336.9430562966
 30
0.0
 11
5104.0187982514
 21
4337.4430796616
 31
0.0
  0
LINE
  5
557
330
1F
100
AcDbEntity
  8
0
  6
Continuous
 62
     7
100
AcDbLine
 10
7504.0187744096
 20
4337.4430796616
 30
0.0
 11
7504.0187744096
 21
4339.9430772775
 31
0.0
  0
LINE
  5
558
330
1F
100
AcDbEntity
  8
0
  6
Continuous
 62
     7
100
AcDbLine
 10
7444.0187124208
 20
4339.9430772775
 30
0.0
 11
7444.0187124208
 21
4337.4430796616
 31
0.0
  0
LINE
  5
559
330
1F
100
AcDbEntity
  8
0
  6
Continuous
 62
     7
100
AcDbLine
 10
7444.0187124208
 20
4337.4430796616
 30
0.0
 11
7444.5187953904
 21
4336.9430562966
 31
0.0
  0
LINE
  5
55A
330
1F
100
AcDbEntity
  8
0
  6
Continuous
 62
     7
100
AcDbLine
 10
7503.5188106492
 20
4336.9430562966
 30
0.0
 11
7504.0187744096
 21
4337.4430796616
 31
0.0
  0
LINE
  5
55B
330
1F
100
AcDbEntity
  8
0
  6
Continuous
 62
     7
100
AcDbLine
 10
6260.018754904
 20
4336.9430562966
 30
0.0
 11
6260.018754904
 21
4171.9430646413
 31
0.0
  0
LINE
  5
55C
330
1F
100
AcDbEntity
  8
0
  6
Continuous
 62
     7
100
AcDbLine
 10
6288.0187557682
 20
4171.9430646413
 30
0.0
 11
6288.0187557682
 21
4336.9430562966
 31
0.0
  0
LINE
  5
55D
330
1F
100
AcDbEntity
  8
0
  6
Continuous
 62
     7
100
AcDbLine
 10
6260.018754904
 20
4171.9430646413
 30
0.0
 11
6261.0187550679
 21
4170.9430775159
 31
0.0
  0
LINE
  5
55E
330
1F
100
AcDbEntity
  8
0
  6
Continuous
 62
     7
100
AcDbLine
 10
6287.0187556043
 20
4170.9430775159
 30
0.0
 11
6288.0187557682
 21
4171.9430646413
 31
0.0
  0
LINE
  5
55F
330
1F
100
AcDbEntity
  8
0
  6
Continuous
 62
     7
100
AcDbLine
 10
7460.0187448457
 20
4336.9430562966
 30
0.0
 11
7460.0187448457
 21
4171.9430646413
 31
0.0
  0
LINE
  5
560
330
1F
100
AcDbEntity
  8
0
  6
Continuous
 62
     7
100
AcDbLine
 10
7488.0187419847
 20
4171.9430646413
 30
0.0
 11
7488.0187419847
 21
4336.9430562966
 31
0.0
  0
LINE
  5
561
330
1F
100
AcDbEntity
  8
0
  6
Continuous
 62
     7
100
AcDbLine
 10
7460.0187448457
 20
4171.9430646413
 30
0.0
 11
7461.0187915757
 21
4170.9430775159
 31
0.0
  0
LINE
  5
562
330
1F
100
AcDbEntity
  8
0
  6
Continuous
 62
     7
100
AcDbLine
 10
7487.0188144639
 20
4170.9430775159
 30
0.0
 11
7488.0187419847
 21
4171.9430646413
 31
0.0
  0
LINE
  5
563
330
1F
100
AcDbEntity
  8
0
  6
Continuous
 62
     7
100
AcDbLine
 10
5060.0187686875
 20
4336.9430562966
 30
0.0
 11
5060.0187686875
 21
4171.9430646413
 31
0.0
  0
LINE
  5
564
330
1F
100
AcDbEntity
  8
0
  6
Continuous
 62
     7
100
AcDbLine
 10
5088.0187658265
 20
4171.9430646413
 30
0.0
 11
5088.0187658265
 21
4336.9430562966
 31
0.0
  0
LINE
  5
565
330
1F
100
AcDbEntity
  8
0
  6
Continuous
 62
     7
100
AcDbLine
 10
5060.0187686875
 20
4171.9430646413
 30
0.0
 11
5061.0186962083
 21
4170.9430775159
 31
0.0
  0
LINE
  5
566
330
1F
100
AcDbEntity
  8
0
  6
Continuous
 62
     7
100
AcDbLine
 10
5087.0187190965
 20
4170.9430775159
 30
0.0
 11
5088.0187658265
 21
4171.9430646413
 31
0.0
  0
LINE
  5
567
330
1F
100
AcDbEntity
  8
0
  6
Continuous
 62
     7
100
AcDbLine
 10
5660.0187329248
 20
4336.9430562966
 30
0.0
 11
5660.0187329248
 21
4171.9430646413
 31
0.0
  0
LINE
  5
568
330
1F
100
AcDbEntity
  8
0
  6
Continuous
 62
     7
100
AcDbLine
 10
5688.0187300637
 20
4171.9430646413
 30
0.0
 11
5688.0187300637
 21
4336.9430562966
 31
0.0
  0
LINE
  5
569
330
1F
100
AcDbEntity
  8
0
  6
Continuous
 62
     7
100
AcDbLine
 10
5660.0187329248
 20
4171.9430646413
 30
0.0
 11
5661.0187796548
 21
4170.9430775159
 31
0.0
  0
LINE
  5
56A
330
1F
100
AcDbEntity
  8
0
  6
Continuous
 62
     7
100
AcDbLine
 10
5687.0187429383
 20
4170.9430775159
 30
0.0
 11
5688.0187300637
 21
4171.9430646413
 31
0.0
  0
LINE
  5
56B
330
1F
100
AcDbEntity
  8
0
  6
Continuous
 62
     7
100
AcDbLine
 10
6860.0187806085
 20
4336.9430562966
 30
0.0
 11
6860.0187806085
 21
4171.9430646413
 31
0.0
  0
LINE
  5
56C
330
1F
100
AcDbEntity
  8
0
  6
Continuous
 62
     7
100
AcDbLine
 10
6888.0187777474
 20
4171.9430646413
 30
0.0
 11
6888.0187777474
 21
4336.9430562966
 31
0.0
  0
LINE
  5
56D
330
1F
100
AcDbEntity
  8
0
  6
Continuous
 62
     7
100
AcDbLine
 10
6860.0187806085
 20
4171.9430646413
 30
0.0
 11
6861.0187677339
 21
4170.9430775159
 31
0.0
  0
LINE
  5
56E
330
1F
100
AcDbEntity
  8
0
  6
Continuous
 62
     7
100
AcDbLine
 10
6887.0187310174
 20
4170.9430775159
 30
0.0
 11
6888.0187777474
 21
4171.9430646413
 31
0.0
  0
LINE
  5
56F
330
1F
100
AcDbEntity
  8
0
  6
Continuous
 62
     7
100
AcDbLine
 10
7727.3687032655
 20
3909.8430701274
 30
0.0
 11
4820.6688074067
 21
3909.8430701274
 31
0.0
  0
LINE
  5
570
330
1F
100
AcDbEntity
  8
0
  6
Continuous
 62
     7
100
AcDbLine
 10
7727.3687032655
 20
3909.8430701274
 30
0.0
 11
7727.3687032655
 21
3909.9430701249
 31
0.0
  0
LINE
  5
571
330
1F
100
AcDbEntity
  8
0
  6
Continuous
 62
     7
100
AcDbLine
 10
4820.6688074067
 20
3909.8430701274
 30
0.0
 11
4820.6688074067
 21
3909.9430701249
 31
0.0
  0
LINE
  5
572
330
1F
100
AcDbEntity
  8
0
  6
Continuous
 62
     7
100
AcDbLine
 10
7727.3687032655
 20
3909.8430701274
 30
0.0
 11
7727.6906875566
 21
3909.8747744142
 31
0.0
  0
LINE
  5
573
330
1F
100
AcDbEntity
  8
0
  6
Continuous
 62
     7
100
AcDbLine
 10
7727.6906875566
 20
3909.8747744142
 30
0.0
 11
7727.9344705537
 21
3909.9430701249
 31
0.0
  0
LINE
  5
574
330
1F
100
AcDbEntity
  8
0
  6
Continuous
 62
     7
100
AcDbLine
 10
4820.1030401185
 20
3909.9430701249
 30
0.0
 11
4820.3468231156
 21
3909.8747744142
 31
0.0
  0
LINE
  5
575
330
1F
100
AcDbEntity
  8
0
  6
Continuous
 62
     7
100
AcDbLine
 10
4820.3468231156
 20
3909.8747744142
 30
0.0
 11
4820.6688074067
 21
3909.8430701274
 31
0.0
  0
LINE
  5
576
330
1F
100
AcDbEntity
  8
0
  6
Continuous
 62
     7
100
AcDbLine
 10
7774.0187553361
 20
4389.9430593961
 30
0.0
 11
7772.0187810853
 21
4389.9430593961
 31
0.0
  0
LINE
  5
577
330
1F
100
AcDbEntity
  8
0
  6
Continuous
 62
     7
100
AcDbLine
 10
7774.0187553361
 20
4389.9430593961
 30
0.0
 11
7774.0187553361
 21
4387.2856757157
 31
0.0
  0
LINE
  5
578
330
1F
100
AcDbEntity
  8
0
  6
Continuous
 62
     7
100
AcDbLine
 10
7774.0187553361
 20
4387.2856757157
 30
0.0
 11
7772.0187810853
 21
4387.2856757157
 31
0.0
  0
LINE
  5
579
330
1F
100
AcDbEntity
  8
0
  6
Continuous
 62
     7
100
AcDbLine
 10
7772.0187810853
 20
4389.9430593961
 30
0.0
 11
7772.0187810853
 21
4387.2856757157
 31
0.0
  0
LINE
  5
57A
330
1F
100
AcDbEntity
  8
0
  6
Continuous
 62
     7
100
AcDbLine
 10
7774.0187553361
 20
4341.6856786721
 30
0.0
 11
7772.0187810853
 21
4341.6856786721
 31
0.0
  0
LINE
  5
57B
330
1F
100
AcDbEntity
  8
0
  6
Continuous
 62
     7
100
AcDbLine
 10
7774.0187553361
 20
4387.2856757157
 30
0.0
 11
7774.0187553361
 21
4341.6856786721
 31
0.0
  0
LINE
  5
57C
330
1F
100
AcDbEntity
  8
0
  6
Continuous
 62
     7
100
AcDbLine
 10
7772.0187810853
 20
4387.2856757157
 30
0.0
 11
7772.0187810853
 21
4341.6856786721
 31
0.0
  0
LINE
  5
57D
330
1F
100
AcDbEntity
  8
0
  6
Continuous
 62
     7
100
AcDbLine
 10
7774.0187553361
 20
4339.9430772775
 30
0.0
 11
7772.0187810853
 21
4339.9430772775
 31
0.0
  0
LINE
  5
57E
330
1F
100
AcDbEntity
  8
0
  6
Continuous
 62
     7
100
AcDbLine
 10
7774.0187553361
 20
4341.6856786721
 30
0.0
 11
7774.0187553361
 21
4339.9430772775
 31
0.0
  0
LINE
  5
57F
330
1F
100
AcDbEntity
  8
0
  6
Continuous
 62
     7
100
AcDbLine
 10
7772.0187810853
 20
4341.6856786721
 30
0.0
 11
7772.0187810853
 21
4339.9430772775
 31
0.0
  0
LINE
  5
580
330
1F
100
AcDbEntity
  8
0
  6
Continuous
 62
     7
100
AcDbLine
 10
7774.0187553361
 20
3912.143070113
 30
0.0
 11
7772.0187810853
 21
3912.143070113
 31
0.0
  0
LINE
  5
581
330
1F
100
AcDbEntity
  8
0
  6
Continuous
 62
     7
100
AcDbLine
 10
7774.0187553361
 20
4339.9430772775
 30
0.0
 11
7774.0187553361
 21
3912.143070113
 31
0.0
  0
LINE
  5
582
330
1F
100
AcDbEntity
  8
0
  6
Continuous
 62
     7
100
AcDbLine
 10
7772.0187810853
 20
4339.9430772775
 30
0.0
 11
7772.0187810853
 21
3912.143070113
 31
0.0
  0
LINE
  5
583
330
1F
100
AcDbEntity
  8
0
  6
Continuous
 62
     7
100
AcDbLine
 10
7774.0187553361
 20
3909.9430701249
 30
0.0
 11
7772.0187810853
 21
3909.9430701249
 31
0.0
  0
LINE
  5
584
330
1F
100
AcDbEntity
  8
0
  6
Continuous
 62
     7
100
AcDbLine
 10
7774.0187553361
 20
3912.143070113
 30
0.0
 11
7774.0187553361
 21
3909.9430701249
 31
0.0
  0
LINE
  5
585
330
1F
100
AcDbEntity
  8
0
  6
Continuous
 62
     7
100
AcDbLine
 10
7772.0187810853
 20
3912.143070113
 30
0.0
 11
7772.0187810853
 21
3909.9430701249
 31
0.0
  0
LINE
  5
586
330
1F
100
AcDbEntity
  8
0
  6
Continuous
 62
     7
100
AcDbLine
 10
7771.6997770265
 20
3909.9430701249
 30
0.0
 11
7771.5235856965
 21
3909.9026357549
 31
0.0
  0
LINE
  5
587
330
1F
100
AcDbEntity
  8
0
  6
Continuous
 62
     7
100
AcDbLine
 10
7771.5235856965
 20
3909.9026357549
 30
0.0
 11
7770.9187177613
 21
3909.8430701274
 31
0.0
  0
LINE
  5
588
330
1F
100
AcDbEntity
  8
0
  6
Continuous
 62
     7
100
AcDbLine
 10
7770.9187177613
 20
3909.8430701274
 30
0.0
 11
7732.1187166169
 21
3909.8430701274
 31
0.0
  0
LINE
  5
589
330
1F
100
AcDbEntity
  8
0
  6
Continuous
 62
     7
100
AcDbLine
 10
7731.3377765611
 20
3909.9430701249
 30
0.0
 11
7731.513967891
 21
3909.9026357549
 31
0.0
  0
LINE
  5
58A
330
1F
100
AcDbEntity
  8
0
  6
Continuous
 62
     7
100
AcDbLine
 10
7731.513967891
 20
3909.9026357549
 30
0.0
 11
7732.1187166169
 21
3909.8430701274
 31
0.0
  0
LINE
  5
58B
330
1F
100
AcDbEntity
  8
0
  6
Continuous
 62
     7
100
AcDbLine
 10
4774.0187553361
 20
4387.2856757157
 30
0.0
 11
4776.0187295869
 21
4387.2856757157
 31
0.0
  0
LINE
  5
58C
330
1F
100
AcDbEntity
  8
0
  6
Continuous
 62
     7
100
AcDbLine
 10
4774.0187553361
 20
4389.9430593961
 30
0.0
 11
4774.0187553361
 21
4387.2856757157
 31
0.0
  0
LINE
  5
58D
330
1F
100
AcDbEntity
  8
0
  6
Continuous
 62
     7
100
AcDbLine
 10
4774.0187553361
 20
4389.9430593961
 30
0.0
 11
4776.0187295869
 21
4389.9430593961
 31
0.0
  0
LINE
  5
58E
330
1F
100
AcDbEntity
  8
0
  6
Continuous
 62
     7
100
AcDbLine
 10
4776.0187295869
 20
4389.9430593961
 30
0.0
 11
4776.0187295869
 21
4387.2856757157
 31
0.0
  0
LINE
  5
58F
330
1F
100
AcDbEntity
  8
0
  6
Continuous
 62
     7
100
AcDbLine
 10
4774.0187553361
 20
4341.6856786721
 30
0.0
 11
4776.0187295869
 21
4341.6856786721
 31
0.0
  0
LINE
  5
590
330
1F
100
AcDbEntity
  8
0
  6
Continuous
 62
     7
100
AcDbLine
 10
4774.0187553361
 20
4387.2856757157
 30
0.0
 11
4774.0187553361
 21
4341.6856786721
 31
0.0
  0
LINE
  5
591
330
1F
100
AcDbEntity
  8
0
  6
Continuous
 62
     7
100
AcDbLine
 10
4776.0187295869
 20
4387.2856757157
 30
0.0
 11
4776.0187295869
 21
4341.6856786721
 31
0.0
  0
LINE
  5
592
330
1F
100
AcDbEntity
  8
0
  6
Continuous
 62
     7
100
AcDbLine
 10
4774.0187553361
 20
4339.9430772775
 30
0.0
 11
4776.0187295869
 21
4339.9430772775
 31
0.0
  0
LINE
  5
593
330
1F
100
AcDbEntity
  8
0
  6
Continuous
 62
     7
100
AcDbLine
 10
4774.0187553361
 20
4341.6856786721
 30
0.0
 11
4774.0187553361
 21
4339.9430772775
 31
0.0
  0
LINE
  5
594
330
1F
100
AcDbEntity
  8
0
  6
Continuous
 62
     7
100
AcDbLine
 10
4776.0187295869
 20
4341.6856786721
 30
0.0
 11
4776.0187295869
 21
4339.9430772775
 31
0.0
  0
LINE
  5
595
330
1F
100
AcDbEntity
  8
0
  6
Continuous
 62
     7
100
AcDbLine
 10
4774.0187553361
 20
3912.143070113
 30
0.0
 11
4776.0187295869
 21
3912.143070113
 31
0.0
  0
LINE
  5
596
330
1F
100
AcDbEntity
  8
0
  6
Continuous
 62
     7
100
AcDbLine
 10
4774.0187553361
 20
4339.9430772775
 30
0.0
 11
4774.0187553361
 21
3912.143070113
 31
0.0
  0
LINE
  5
597
330
1F
100
AcDbEntity
  8
0
  6
Continuous
 62
     7
100
AcDbLine
 10
4776.0187295869
 20
4339.9430772775
 30
0.0
 11
4776.0187295869
 21
3912.143070113
 31
0.0
  0
LINE
  5
598
330
1F
100
AcDbEntity
  8
0
  6
Continuous
 62
     7
100
AcDbLine
 10
4774.0187553361
 20
3909.9430701249
 30
0.0
 11
4776.0187295869
 21
3909.9430701249
 31
0.0
  0
LINE
  5
599
330
1F
100
AcDbEntity
  8
0
  6
Continuous
 62
     7
100
AcDbLine
 10
4774.0187553361
 20
3912.143070113
 30
0.0
 11
4774.0187553361
 21
3909.9430701249
 31
0.0
  0
LINE
  5
59A
330
1F
100
AcDbEntity
  8
0
  6
Continuous
 62
     7
100
AcDbLine
 10
4776.0187295869
 20
3912.143070113
 30
0.0
 11
4776.0187295869
 21
3909.9430701249
 31
0.0
  0
LINE
  5
59B
330
1F
100
AcDbEntity
  8
0
  6
Continuous
 62
     7
100
AcDbLine
 10
4776.3377336457
 20
3909.9430701249
 30
0.0
 11
4776.5139249757
 21
3909.9026357549
 31
0.0
  0
LINE
  5
59C
330
1F
100
AcDbEntity
  8
0
  6
Continuous
 62
     7
100
AcDbLine
 10
4776.5139249757
 20
3909.9026357549
 30
0.0
 11
4777.1187929109
 21
3909.8430701274
 31
0.0
  0
LINE
  5
59D
330
1F
100
AcDbEntity
  8
0
  6
Continuous
 62
     7
100
AcDbLine
 10
4777.1187929109
 20
3909.8430701274
 30
0.0
 11
4815.9187940553
 21
3909.8430701274
 31
0.0
  0
LINE
  5
59E
330
1F
100
AcDbEntity
  8
0
  6
Continuous
 62
     7
100
AcDbLine
 10
4816.6997341111
 20
3909.9430701249
 30
0.0
 11
4816.5235427812
 21
3909.9026357549
 31
0.0
  0
LINE
  5
59F
330
1F
100
AcDbEntity
  8
0
  6
Continuous
 62
     7
100
AcDbLine
 10
4816.5235427812
 20
3909.9026357549
 30
0.0
 11
4815.9187940553
 21
3909.8430701274
 31
0.0
  0
LINE
  5
5A0
330
1F
100
AcDbEntity
  8
0
  6
Continuous
 62
     7
100
AcDbLine
 10
7772.0187810853
 20
4389.9430593961
 30
0.0
 11
4776.0187295869
 21
4389.9430593961
 31
0.0
  0
LINE
  5
5A1
330
1F
100
AcDbEntity
  8
0
  6
Continuous
 62
     7
100
AcDbLine
 10
4776.0187295869
 20
4387.2856757157
 30
0.0
 11
7772.0187810853
 21
4387.2856757157
 31
0.0
  0
LINE
  5
5A2
330
1F
100
AcDbEntity
  8
0
  6
Continuous
 62
     7
100
AcDbLine
 10
7772.0187810853
 20
4341.6856786721
 30
0.0
 11
4776.0187295869
 21
4341.6856786721
 31
0.0
  0
LINE
  5
5A3
330
1F
100
AcDbEntity
  8
0
  6
Continuous
 62
     7
100
AcDbLine
 10
4896.0187343553
 20
4357.6765021794
 30
0.0
 11
4897.6310399964
 21
4357.8480145448
 31
0.0
  0
LINE
  5
5A4
330
1F
100
AcDbEntity
  8
0
  6
Continuous
 62
     7
100
AcDbLine
 10
4897.6310399964
 20
4357.8480145448
 30
0.0
 11
4899.1678861573
 21
4358.3545348161
 31
0.0
  0
LINE
  5
5A5
330
1F
100
AcDbEntity
  8
0
  6
Continuous
 62
     7
100
AcDbLine
 10
4899.1678861573
 20
4358.3545348161
 30
0.0
 11
4900.5575088456
 21
4359.172370147
 31
0.0
  0
LINE
  5
5A6
330
1F
100
AcDbEntity
  8
0
  6
Continuous
 62
     7
100
AcDbLine
 10
4900.5575088456
 20
4359.172370147
 30
0.0
 11
4901.7349389985
 21
4360.2633139603
 31
0.0
  0
LINE
  5
5A7
330
1F
100
AcDbEntity
  8
0
  6
Continuous
 62
     7
100
AcDbLine
 10
4901.7349389985
 20
4360.2633139603
 30
0.0
 11
4902.6451019242
 21
4361.5763148778
 31
0.0
  0
LINE
  5
5A8
330
1F
100
AcDbEntity
  8
0
  6
Continuous
 62
     7
100
AcDbLine
 10
4902.6451019242
 20
4361.5763148778
 30
0.0
 11
4903.2453206971
 21
4363.0499801152
 31
0.0
  0
LINE
  5
5A9
330
1F
100
AcDbEntity
  8
0
  6
Continuous
 62
     7
100
AcDbLine
 10
4903.2453206971
 20
4363.0499801152
 30
0.0
 11
4903.5077003434
 21
4364.6154365056
 31
0.0
  0
LINE
  5
5AA
330
1F
100
AcDbEntity
  8
0
  6
Continuous
 62
     7
100
AcDbLine
 10
4903.5077003434
 20
4364.6154365056
 30
0.0
 11
4903.4199623063
 21
4366.1994597428
 31
0.0
  0
LINE
  5
5AB
330
1F
100
AcDbEntity
  8
0
  6
Continuous
 62
     7
100
AcDbLine
 10
4903.4199623063
 20
4366.1994597428
 30
0.0
 11
4902.9860404924
 21
4367.7279612534
 31
0.0
  0
LINE
  5
5AC
330
1F
100
AcDbEntity
  8
0
  6
Continuous
 62
     7
100
AcDbLine
 10
4902.9860404924
 20
4367.7279612534
 30
0.0
 11
4902.2264388993
 21
4369.129534673
 31
0.0
  0
LINE
  5
5AD
330
1F
100
AcDbEntity
  8
0
  6
Continuous
 62
     7
100
AcDbLine
 10
4902.2264388993
 20
4369.129534673
 30
0.0
 11
4901.176443477
 21
4370.33858509
 31
0.0
  0
LINE
  5
5AE
330
1F
100
AcDbEntity
  8
0
  6
Continuous
 62
     7
100
AcDbLine
 10
4901.176443477
 20
4370.33858509
 30
0.0
 11
4899.8854068711
 21
4371.298607301
 31
0.0
  0
LINE
  5
5AF
330
1F
100
AcDbEntity
  8
0
  6
Continuous
 62
     7
100
AcDbLine
 10
4899.8854068711
 20
4371.298607301
 30
0.0
 11
4898.4135297731
 21
4371.9646892064
 31
0.0
  0
LINE
  5
5B0
330
1F
100
AcDbEntity
  8
0
  6
Continuous
 62
     7
100
AcDbLine
 10
4898.4135297731
 20
4371.9646892064
 30
0.0
 11
4896.8295959428
 21
4372.3057171815
 31
0.0
  0
LINE
  5
5B1
330
1F
100
AcDbEntity
  8
0
  6
Continuous
 62
     7
100
AcDbLine
 10
4896.8295959428
 20
4372.3057171815
 30
0.0
 11
4895.2078727677
 21
4372.3057171815
 31
0.0
  0
LINE
  5
5B2
330
1F
100
AcDbEntity
  8
0
  6
Continuous
 62
     7
100
AcDbLine
 10
4895.2078727677
 20
4372.3057171815
 30
0.0
 11
4893.6239389375
 21
4371.9646892064
 31
0.0
  0
LINE
  5
5B3
330
1F
100
AcDbEntity
  8
0
  6
Continuous
 62
     7
100
AcDbLine
 10
4893.6239389375
 20
4371.9646892064
 30
0.0
 11
4892.1520618394
 21
4371.298607301
 31
0.0
  0
LINE
  5
5B4
330
1F
100
AcDbEntity
  8
0
  6
Continuous
 62
     7
100
AcDbLine
 10
4892.1520618394
 20
4371.298607301
 30
0.0
 11
4890.8610252336
 21
4370.33858509
 31
0.0
  0
LINE
  5
5B5
330
1F
100
AcDbEntity
  8
0
  6
Continuous
 62
     7
100
AcDbLine
 10
4890.8610252336
 20
4370.33858509
 30
0.0
 11
4889.8110298112
 21
4369.129534673
 31
0.0
  0
LINE
  5
5B6
330
1F
100
AcDbEntity
  8
0
  6
Continuous
 62
     7
100
AcDbLine
 10
4889.8110298112
 20
4369.129534673
 30
0.0
 11
4889.0514282182
 21
4367.7279612534
 31
0.0
  0
LINE
  5
5B7
330
1F
100
AcDbEntity
  8
0
  6
Continuous
 62
     7
100
AcDbLine
 10
4889.0514282182
 20
4367.7279612534
 30
0.0
 11
4888.6175064042
 21
4366.1994597428
 31
0.0
  0
LINE
  5
5B8
330
1F
100
AcDbEntity
  8
0
  6
Continuous
 62
     7
100
AcDbLine
 10
4888.6175064042
 20
4366.1994597428
 30
0.0
 11
4888.5297683671
 21
4364.6154365056
 31
0.0
  0
LINE
  5
5B9
330
1F
100
AcDbEntity
  8
0
  6
Continuous
 62
     7
100
AcDbLine
 10
4888.5297683671
 20
4364.6154365056
 30
0.0
 11
4888.7921480134
 21
4363.0499801152
 31
0.0
  0
LINE
  5
5BA
330
1F
100
AcDbEntity
  8
0
  6
Continuous
 62
     7
100
AcDbLine
 10
4888.7921480134
 20
4363.0499801152
 30
0.0
 11
4889.3923667863
 21
4361.5763148778
 31
0.0
  0
LINE
  5
5BB
330
1F
100
AcDbEntity
  8
0
  6
Continuous
 62
     7
100
AcDbLine
 10
4889.3923667863
 20
4361.5763148778
 30
0.0
 11
4890.302529712
 21
4360.2633139603
 31
0.0
  0
LINE
  5
5BC
330
1F
100
AcDbEntity
  8
0
  6
Continuous
 62
     7
100
AcDbLine
 10
4890.302529712
 20
4360.2633139603
 30
0.0
 11
4891.4799598649
 21
4359.172370147
 31
0.0
  0
LINE
  5
5BD
330
1F
100
AcDbEntity
  8
0
  6
Continuous
 62
     7
100
AcDbLine
 10
4891.4799598649
 20
4359.172370147
 30
0.0
 11
4892.8695825532
 21
4358.3545348161
 31
0.0
  0
LINE
  5
5BE
330
1F
100
AcDbEntity
  8
0
  6
Continuous
 62
     7
100
AcDbLine
 10
4892.8695825532
 20
4358.3545348161
 30
0.0
 11
4894.4064287141
 21
4357.8480145448
 31
0.0
  0
LINE
  5
5BF
330
1F
100
AcDbEntity
  8
0
  6
Continuous
 62
     7
100
AcDbLine
 10
4894.4064287141
 20
4357.8480145448
 30
0.0
 11
4896.0187343553
 21
4357.6765021794
 31
0.0
  0
LINE
  5
5C0
330
1F
100
AcDbEntity
  8
0
  6
Continuous
 62
     7
100
AcDbLine
 10
4776.0187295869
 20
4339.9430772775
 30
0.0
 11
7772.0187810853
 21
4339.9430772775
 31
0.0
  0
LINE
  5
5C1
330
1F
100
AcDbEntity
  8
0
  6
Continuous
 62
     7
100
AcDbLine
 10
7772.0187810853
 20
3954.943071913
 30
0.0
 11
4776.0187295869
 21
3954.943071913
 31
0.0
  0
LINE
  5
5C2
330
1F
100
AcDbEntity
  8
0
  6
Continuous
 62
     7
100
AcDbLine
 10
4776.0187295869
 20
3952.743071925
 30
0.0
 11
7772.0187810853
 21
3952.743071925
 31
0.0
  0
LINE
  5
5C3
330
1F
100
AcDbEntity
  8
0
  6
Continuous
 62
     7
100
AcDbLine
 10
7772.0187810853
 20
3912.143070113
 30
0.0
 11
4776.0187295869
 21
3912.143070113
 31
0.0
  0
LINE
  5
5C4
330
1F
100
AcDbEntity
  8
0
  6
Continuous
 62
     7
100
AcDbLine
 10
7772.0187810853
 20
3912.143070113
 30
0.0
 11
7772.0187810853
 21
3952.743071925
 31
0.0
  0
LINE
  5
5C5
330
1F
100
AcDbEntity
  8
0
  6
Continuous
 62
     7
100
AcDbLine
 10
4776.0187295869
 20
3912.143070113
 30
0.0
 11
4776.0187295869
 21
3952.743071925
 31
0.0
  0
LINE
  5
5C6
330
1F
100
AcDbEntity
  8
0
  6
Continuous
 62
     7
100
AcDbLine
 10
4776.0187295869
 20
3909.9430701249
 30
0.0
 11
7772.0187810853
 21
3909.9430701249
 31
0.0
  0
LINE
  5
5C7
330
1F
100
AcDbEntity
  8
0
  6
Continuous
 62
     7
100
AcDbLine
 10
7772.0187810853
 20
3955.2854298168
 30
0.0
 11
4776.0187295869
 21
3955.2854298168
 31
0.0
  0
LINE
  5
5C8
330
1F
100
AcDbEntity
  8
0
  6
Continuous
 62
     7
100
AcDbLine
 10
4776.0187295869
 20
4080.6605032199
 30
0.0
 11
7772.0187810853
 21
4080.6605032199
 31
0.0
  0
LINE
  5
5C9
330
1F
100
AcDbEntity
  8
0
  6
Continuous
 62
     7
100
AcDbLine
 10
7772.0187810853
 20
4081.318151068
 30
0.0
 11
4776.0187295869
 21
4081.318151068
 31
0.0
  0
LINE
  5
5CA
330
1F
100
AcDbEntity
  8
0
  6
Continuous
 62
     7
100
AcDbLine
 10
4927.9422668412
 20
4392.1430668347
 30
0.0
 11
4930.918803592
 21
4392.1430668347
 31
0.0
  0
LINE
  5
5CB
330
1F
100
AcDbEntity
  8
0
  6
Continuous
 62
     7
100
AcDbLine
 10
4927.118769069
 20
4392.1430668347
 30
0.0
 11
4927.9422668412
 21
4392.1430668347
 31
0.0
  0
LINE
  5
5CC
330
1F
100
AcDbEntity
  8
0
  6
Continuous
 62
     7
100
AcDbLine
 10
4926.8656877473
 20
4390.3230688088
 30
0.0
 11
4932.8187612489
 21
4390.3230688088
 31
0.0
  0
LINE
  5
5CD
330
1F
100
AcDbEntity
  8
0
  6
Continuous
 62
     7
100
AcDbLine
 10
4925.2188114121
 20
4390.3230688088
 30
0.0
 11
4926.8656877473
 21
4390.3230688088
 31
0.0
  0
LINE
  5
5CE
330
1F
100
AcDbEntity
  8
0
  6
Continuous
 62
     7
100
AcDbLine
 10
4789.1217378572
 20
4392.1430668347
 30
0.0
 11
4790.9186986878
 21
4392.1430668347
 31
0.0
  0
LINE
  5
5CF
330
1F
100
AcDbEntity
  8
0
  6
Continuous
 62
     7
100
AcDbLine
 10
4787.1187833741
 20
4392.1430668347
 30
0.0
 11
4789.1217378572
 21
4392.1430668347
 31
0.0
  0
LINE
  5
5D0
330
1F
100
AcDbEntity
  8
0
  6
Continuous
 62
     7
100
AcDbLine
 10
4789.224615474
 20
4390.3230688088
 30
0.0
 11
4792.818775554
 21
4390.3230688088
 31
0.0
  0
LINE
  5
5D1
330
1F
100
AcDbEntity
  8
0
  6
Continuous
 62
     7
100
AcDbLine
 10
4785.218706508
 20
4390.3230688088
 30
0.0
 11
4789.224615474
 21
4390.3230688088
 31
0.0
  0
LINE
  5
5D2
330
1F
100
AcDbEntity
  8
0
  6
Continuous
 62
     7
100
AcDbLine
 10
4783.7186960176
 20
4390.3230688088
 30
0.0
 11
4785.218706508
 21
4390.3230688088
 31
0.0
  0
LINE
  5
5D3
330
1F
100
AcDbEntity
  8
0
  6
Continuous
 62
     7
100
AcDbLine
 10
4787.0232967332
 20
4392.1430668347
 30
0.0
 11
4787.1479896501
 21
4392.1430668347
 31
0.0
  0
LINE
  5
5D4
330
1F
100
AcDbEntity
  8
0
  6
Continuous
 62
     7
100
AcDbLine
 10
4785.6187728837
 20
4392.1430668347
 30
0.0
 11
4787.0232967332
 21
4392.1430668347
 31
0.0
  0
LINE
  5
5D5
330
1F
100
AcDbEntity
  8
0
  6
Continuous
 62
     7
100
AcDbLine
 10
4892.3187164262
 20
4367.3826715463
 30
0.0
 11
4892.3187553361
 21
4368.6837287426
 31
0.0
  0
LINE
  5
5D6
330
1F
100
AcDbEntity
  8
0
  6
Continuous
 62
     7
100
AcDbLine
 10
4896.7187313035
 20
4363.3034488671
 30
0.0
 11
4896.7187553361
 21
4362.0024115072
 31
0.0
  0
LINE
  5
5D7
330
1F
100
AcDbEntity
  8
0
  6
Continuous
 62
     7
100
AcDbLine
 10
4896.7187313035
 20
4363.3034488671
 30
0.0
 11
4896.7187313035
 21
4367.3826715463
 31
0.0
  0
LINE
  5
5D8
330
1F
100
AcDbEntity
  8
0
  6
Continuous
 62
     7
100
AcDbLine
 10
4892.3187164262
 20
4363.3034488671
 30
0.0
 11
4892.3187164262
 21
4367.3826715463
 31
0.0
  0
LINE
  5
5D9
330
1F
100
AcDbEntity
  8
0
  6
Continuous
 62
     7
100
AcDbLine
 10
4925.7687553361
 20
4152.6392225476
 30
0.0
 11
4925.7687553361
 21
4142.2469177022
 31
0.0
  0
LINE
  5
5DA
330
1F
100
AcDbEntity
  8
0
  6
Continuous
 62
     7
100
AcDbLine
 10
4927.2687553361
 20
4142.2469177022
 30
0.0
 11
4927.2687553361
 21
4152.6392225476
 31
0.0
  0
LINE
  5
5DB
330
1F
100
AcDbEntity
  8
0
  6
Continuous
 62
     7
100
AcDbLine
 10
4963.4678272203
 20
4390.1114723199
 30
0.0
 11
4932.8187612489
 21
4390.1114723199
 31
0.0
  0
LINE
  5
5DC
330
1F
100
AcDbEntity
  8
0
  6
Continuous
 62
     7
100
AcDbLine
 10
4925.2188114121
 20
4390.1114723199
 30
0.0
 11
4886.5187076524
 21
4390.1114723199
 31
0.0
  0
LINE
  5
5DD
330
1F
100
AcDbEntity
  8
0
  6
Continuous
 62
     7
100
AcDbLine
 10
4966.5187505677
 20
4390.1114723199
 30
0.0
 11
4963.4678272203
 21
4390.1114723199
 31
0.0
  0
LINE
  5
5DE
330
1F
100
AcDbEntity
  8
0
  6
Continuous
 62
     7
100
AcDbLine
 10
4944.9933675721
 20
4400.1114627831
 30
0.0
 11
4906.5188077882
 21
4400.1114627831
 31
0.0
  0
LINE
  5
5DF
330
1F
100
AcDbEntity
  8
0
  6
Continuous
 62
     7
100
AcDbLine
 10
4946.5187696412
 20
4400.1114627831
 30
0.0
 11
4944.9933675721
 21
4400.1114627831
 31
0.0
  0
LINE
  5
5E0
330
1F
100
AcDbEntity
  8
0
  6
Continuous
 62
     7
100
AcDbLine
 10
6846.3404087022
 20
4337.4430796616
 30
0.0
 11
6904.0187505677
 21
4337.4430796616
 31
0.0
  0
LINE
  5
5E1
330
1F
100
AcDbEntity
  8
0
  6
Continuous
 62
     7
100
AcDbLine
 10
6844.0187481835
 20
4337.4430796616
 30
0.0
 11
6846.3404087022
 21
4337.4430796616
 31
0.0
  0
LINE
  5
5E2
330
1F
100
AcDbEntity
  8
0
  6
Continuous
 62
     7
100
AcDbLine
 10
6846.8017486528
 20
4336.9430562966
 30
0.0
 11
6844.5187715486
 21
4336.9430562966
 31
0.0
  0
LINE
  5
5E3
330
1F
100
AcDbEntity
  8
0
  6
Continuous
 62
     7
100
AcDbLine
 10
6903.5187272027
 20
4336.9430562966
 30
0.0
 11
6846.8017486528
 21
4336.9430562966
 31
0.0
  0
LINE
  5
5E4
330
1F
100
AcDbEntity
  8
0
  6
Continuous
 62
     7
100
AcDbLine
 10
5646.3404206231
 20
4337.4430796616
 30
0.0
 11
5704.0187624887
 21
4337.4430796616
 31
0.0
  0
LINE
  5
5E5
330
1F
100
AcDbEntity
  8
0
  6
Continuous
 62
     7
100
AcDbLine
 10
5644.0187601045
 20
4337.4430796616
 30
0.0
 11
5646.3404206231
 21
4337.4430796616
 31
0.0
  0
LINE
  5
5E6
330
1F
100
AcDbEntity
  8
0
  6
Continuous
 62
     7
100
AcDbLine
 10
5646.8017605737
 20
4336.9430562966
 30
0.0
 11
5644.5187834695
 21
4336.9430562966
 31
0.0
  0
LINE
  5
5E7
330
1F
100
AcDbEntity
  8
0
  6
Continuous
 62
     7
100
AcDbLine
 10
5703.5187391236
 20
4336.9430562966
 30
0.0
 11
5646.8017605737
 21
4336.9430562966
 31
0.0
  0
LINE
  5
5E8
330
1F
100
AcDbEntity
  8
0
  6
Continuous
 62
     7
100
AcDbLine
 10
6246.3404277012
 20
4337.4430796616
 30
0.0
 11
6304.0187546655
 21
4337.4430796616
 31
0.0
  0
LINE
  5
5E9
330
1F
100
AcDbEntity
  8
0
  6
Continuous
 62
     7
100
AcDbLine
 10
6244.0187560067
 20
4337.4430796616
 30
0.0
 11
6246.3404277012
 21
4337.4430796616
 31
0.0
  0
LINE
  5
5EA
330
1F
100
AcDbEntity
  8
0
  6
Continuous
 62
     7
100
AcDbLine
 10
6246.8017322615
 20
4336.9430562966
 30
0.0
 11
6244.5187551573
 21
4336.9430562966
 31
0.0
  0
LINE
  5
5EB
330
1F
100
AcDbEntity
  8
0
  6
Continuous
 62
     7
100
AcDbLine
 10
6303.5187555149
 20
4336.9430562966
 30
0.0
 11
6246.8017322615
 21
4336.9430562966
 31
0.0
  0
LINE
  5
5EC
330
1F
100
AcDbEntity
  8
0
  6
Continuous
 62
     7
100
AcDbLine
 10
5046.3404563859
 20
4337.4430796616
 30
0.0
 11
5104.0187982514
 21
4337.4430796616
 31
0.0
  0
LINE
  5
5ED
330
1F
100
AcDbEntity
  8
0
  6
Continuous
 62
     7
100
AcDbLine
 10
5044.0187362626
 20
4337.4430796616
 30
0.0
 11
5046.3404563859
 21
4337.4430796616
 31
0.0
  0
LINE
  5
5EE
330
1F
100
AcDbEntity
  8
0
  6
Continuous
 62
     7
100
AcDbLine
 10
5046.8016771272
 20
4336.9430562966
 30
0.0
 11
5044.518700023
 21
4336.9430562966
 31
0.0
  0
LINE
  5
5EF
330
1F
100
AcDbEntity
  8
0
  6
Continuous
 62
     7
100
AcDbLine
 10
5103.5187152818
 20
4336.9430562966
 30
0.0
 11
5046.8016771272
 21
4336.9430562966
 31
0.0
  0
LINE
  5
5F0
330
1F
100
AcDbEntity
  8
0
  6
Continuous
 62
     7
100
AcDbLine
 10
7446.340432544
 20
4337.4430796616
 30
0.0
 11
7504.0187744096
 21
4337.4430796616
 31
0.0
  0
LINE
  5
5F1
330
1F
100
AcDbEntity
  8
0
  6
Continuous
 62
     7
100
AcDbLine
 10
7444.0187124208
 20
4337.4430796616
 30
0.0
 11
7446.340432544
 21
4337.4430796616
 31
0.0
  0
LINE
  5
5F2
330
1F
100
AcDbEntity
  8
0
  6
Continuous
 62
     7
100
AcDbLine
 10
7446.8017724946
 20
4336.9430562966
 30
0.0
 11
7444.5187953904
 21
4336.9430562966
 31
0.0
  0
LINE
  5
5F3
330
1F
100
AcDbEntity
  8
0
  6
Continuous
 62
     7
100
AcDbLine
 10
7503.5188106492
 20
4336.9430562966
 30
0.0
 11
7446.8017724946
 21
4336.9430562966
 31
0.0
  0
LINE
  5
5F4
330
1F
100
AcDbEntity
  8
0
  6
Continuous
 62
     7
100
AcDbLine
 10
6260.018754904
 20
4171.9430646413
 30
0.0
 11
6288.0187557682
 21
4171.9430646413
 31
0.0
  0
LINE
  5
5F5
330
1F
100
AcDbEntity
  8
0
  6
Continuous
 62
     7
100
AcDbLine
 10
6287.0187556043
 20
4170.9430775159
 30
0.0
 11
6261.0187550679
 21
4170.9430775159
 31
0.0
  0
LINE
  5
5F6
330
1F
100
AcDbEntity
  8
0
  6
Continuous
 62
     7
100
AcDbLine
 10
7460.0187448457
 20
4171.9430646413
 30
0.0
 11
7488.0187419847
 21
4171.9430646413
 31
0.0
  0
LINE
  5
5F7
330
1F
100
AcDbEntity
  8
0
  6
Continuous
 62
     7
100
AcDbLine
 10
7487.0188144639
 20
4170.9430775159
 30
0.0
 11
7461.0187915757
 21
4170.9430775159
 31
0.0
  0
LINE
  5
5F8
330
1F
100
AcDbEntity
  8
0
  6
Continuous
 62
     7
100
AcDbLine
 10
5060.0187686875
 20
4171.9430646413
 30
0.0
 11
5088.0187658265
 21
4171.9430646413
 31
0.0
  0
LINE
  5
5F9
330
1F
100
AcDbEntity
  8
0
  6
Continuous
 62
     7
100
AcDbLine
 10
5087.0187190965
 20
4170.9430775159
 30
0.0
 11
5061.0186962083
 21
4170.9430775159
 31
0.0
  0
LINE
  5
5FA
330
1F
100
AcDbEntity
  8
0
  6
Continuous
 62
     7
100
AcDbLine
 10
5660.0187329248
 20
4171.9430646413
 30
0.0
 11
5688.0187300637
 21
4171.9430646413
 31
0.0
  0
LINE
  5
5FB
330
1F
100
AcDbEntity
  8
0
  6
Continuous
 62
     7
100
AcDbLine
 10
5687.0187429383
 20
4170.9430775159
 30
0.0
 11
5661.0187796548
 21
4170.9430775159
 31
0.0
  0
LINE
  5
5FC
330
1F
100
AcDbEntity
  8
0
  6
Continuous
 62
     7
100
AcDbLine
 10
6860.0187806085
 20
4171.9430646413
 30
0.0
 11
6888.0187777474
 21
4171.9430646413
 31
0.0
  0
LINE
  5
5FD
330
1F
100
AcDbEntity
  8
0
  6
Continuous
 62
     7
100
AcDbLine
 10
6887.0187310174
 20
4170.9430775159
 30
0.0
 11
6861.0187677339
 21
4170.9430775159
 31
0.0
  0
LINE
  5
5FE
330
1F
100
AcDbEntity
  8
0
  6
Continuous
 62
     7
100
AcDbLine
 10
7770.9187177613
 20
3909.9430701249
 30
0.0
 11
7770.9187177613
 21
3909.8430701274
 31
0.0
  0
LINE
  5
5FF
330
1F
100
AcDbEntity
  8
0
  6
Continuous
 62
     7
100
AcDbLine
 10
7732.1187166169
 20
3909.9430701249
 30
0.0
 11
7732.1187166169
 21
3909.8430701274
 31
0.0
  0
LINE
  5
600
330
1F
100
AcDbEntity
  8
0
  6
Continuous
 62
     7
100
AcDbLine
 10
4777.1187929109
 20
3909.9430701249
 30
0.0
 11
4777.1187929109
 21
3909.8430701274
 31
0.0
  0
LINE
  5
601
330
1F
100
AcDbEntity
  8
0
  6
Continuous
 62
     7
100
AcDbLine
 10
4815.9187940553
 20
3909.9430701249
 30
0.0
 11
4815.9187940553
 21
3909.8430701274
 31
0.0
  0
LINE
  5
602
330
1F
100
AcDbEntity
  8
0
  6
Continuous
 62
     7
100
AcDbLine
 10
4776.0187295869
 20
4339.6007081979
 30
0.0
 11
5044.0187362626
 21
4339.6007081979
 31
0.0
  0
LINE
  5
603
330
1F
100
AcDbEntity
  8
0
  6
Continuous
 62
     7
100
AcDbLine
 10
5104.0187982514
 20
4339.6007081979
 30
0.0
 11
5644.0187601045
 21
4339.6007081979
 31
0.0
  0
LINE
  5
604
330
1F
100
AcDbEntity
  8
0
  6
Continuous
 62
     7
100
AcDbLine
 10
5704.0187624887
 20
4339.6007081979
 30
0.0
 11
6244.0187560067
 21
4339.6007081979
 31
0.0
  0
LINE
  5
605
330
1F
100
AcDbEntity
  8
0
  6
Continuous
 62
     7
100
AcDbLine
 10
6304.0187546655
 20
4339.6007081979
 30
0.0
 11
6844.0187481835
 21
4339.6007081979
 31
0.0
  0
LINE
  5
606
330
1F
100
AcDbEntity
  8
0
  6
Continuous
 62
     7
100
AcDbLine
 10
6904.0187505677
 20
4339.6007081979
 30
0.0
 11
7444.0187124208
 21
4339.6007081979
 31
0.0
  0
LINE
  5
607
330
1F
100
AcDbEntity
  8
0
  6
Continuous
 62
     7
100
AcDbLine
 10
7504.0187744096
 20
4339.6007081979
 30
0.0
 11
7772.0187810853
 21
4339.6007081979
 31
0.0
  0
LINE
  5
608
330
1F
100
AcDbEntity
  8
0
  6
Continuous
 62
     7
100
AcDbLine
 10
7772.0187810853
 20
4214.2256161683
 30
0.0
 11
7488.0187419847
 21
4214.2256161683
 31
0.0
  0
LINE
  5
609
330
1F
100
AcDbEntity
  8
0
  6
Continuous
 62
     7
100
AcDbLine
 10
7460.0187448457
 20
4214.2256161683
 30
0.0
 11
6888.0187777474
 21
4214.2256161683
 31
0.0
  0
LINE
  5
60A
330
1F
100
AcDbEntity
  8
0
  6
Continuous
 62
     7
100
AcDbLine
 10
6860.0187806085
 20
4214.2256161683
 30
0.0
 11
6288.0187557682
 21
4214.2256161683
 31
0.0
  0
LINE
  5
60B
330
1F
100
AcDbEntity
  8
0
  6
Continuous
 62
     7
100
AcDbLine
 10
6260.018754904
 20
4214.2256161683
 30
0.0
 11
5688.0187300637
 21
4214.2256161683
 31
0.0
  0
LINE
  5
60C
330
1F
100
AcDbEntity
  8
0
  6
Continuous
 62
     7
100
AcDbLine
 10
5660.0187329248
 20
4214.2256161683
 30
0.0
 11
5088.0187658265
 21
4214.2256161683
 31
0.0
  0
LINE
  5
60D
330
1F
100
AcDbEntity
  8
0
  6
Continuous
 62
     7
100
AcDbLine
 10
5060.0187686875
 20
4214.2256161683
 30
0.0
 11
4776.0187295869
 21
4214.2256161683
 31
0.0
  0
LINE
  5
60E
330
1F
100
AcDbEntity
  8
0
  6
Continuous
 62
     7
100
AcDbLine
 10
4776.0187295869
 20
4213.5679981225
 30
0.0
 11
5060.0187686875
 21
4213.5679981225
 31
0.0
  0
LINE
  5
60F
330
1F
100
AcDbEntity
  8
0
  6
Continuous
 62
     7
100
AcDbLine
 10
5088.0187658265
 20
4213.5679981225
 30
0.0
 11
5660.0187329248
 21
4213.5679981225
 31
0.0
  0
LINE
  5
610
330
1F
100
AcDbEntity
  8
0
  6
Continuous
 62
     7
100
AcDbLine
 10
5688.0187300637
 20
4213.5679981225
 30
0.0
 11
6260.018754904
 21
4213.5679981225
 31
0.0
  0
LINE
  5
611
330
1F
100
AcDbEntity
  8
0
  6
Continuous
 62
     7
100
AcDbLine
 10
6288.0187557682
 20
4213.5679981225
 30
0.0
 11
6860.0187806085
 21
4213.5679981225
 31
0.0
  0
LINE
  5
612
330
1F
100
AcDbEntity
  8
0
  6
Continuous
 62
     7
100
AcDbLine
 10
6888.0187777474
 20
4213.5679981225
 30
0.0
 11
7460.0187448457
 21
4213.5679981225
 31
0.0
  0
LINE
  5
613
330
1F
100
AcDbEntity
  8
0
  6
Continuous
 62
     7
100
AcDbLine
 10
7488.0187419847
 20
4213.5679981225
 30
0.0
 11
7772.0187810853
 21
4213.5679981225
 31
0.0
  0
LWPOLYLINE
  5
614
330
1F
100
AcDbEntity
  8
0
  6
Continuous
 62
     7
100
AcDbPolyline
 90
        5
 70
   128
 43
0.0
 10
6866.4665222168
 20
5306.3657962046
 10
6862.7717584515
 20
5307.8701613767
 10
6861.1691824574
 20
5311.6713807575
 10
6862.7743239917
 20
5315.4657501043
 10
6866.4687780335
 20
5316.9657968244
  0
LWPOLYLINE
  5
615
330
1F
100
AcDbEntity
  8
0
  6
Continuous
 62
     7
100
AcDbPolyline
 90
        5
 70
   128
 43
0.0
 10
6881.5650939941
 20
5316.9657968244
 10
6885.2638887334
 20
5315.4652693862
 10
6886.868552603
 20
5311.6628166425
 10
6885.2644583511
 20
5307.8668915899
 10
6881.5687803224
 20
5306.3657962046
  0
LWPOLYLINE
  5
616
330
1F
100
AcDbEntity
  8
0
  6
Continuous
 62
     7
100
AcDbPolyline
 90
        5
 70
   128
 43
0.0
 10
5666.4657592773
 20
5306.3657962046
 10
5662.7717510061
 20
5307.8701802067
 10
5661.169194358
 20
5311.6713818229
 10
5662.7743183186
 20
5315.4657325067
 10
5666.4687303498
 20
5316.9657968244
  0
LWPOLYLINE
  5
617
330
1F
100
AcDbEntity
  8
0
  6
Continuous
 62
     7
100
AcDbPolyline
 90
        5
 70
   128
 43
0.0
 10
5681.568145752
 20
5316.9657968244
 10
5685.2638780133
 20
5315.4652916136
 10
5686.8685696966
 20
5311.6628103612
 10
5685.264448992
 20
5307.8668709916
 10
5681.5687326387
 20
5306.3657962046
  0
LWPOLYLINE
  5
618
330
1F
100
AcDbEntity
  8
0
  6
Continuous
 62
     7
100
AcDbPolyline
 90
        5
 70
   128
 43
0.0
 10
7466.4649963379
 20
5306.3657962046
 10
7462.7717740635
 20
5307.8701723846
 10
7461.1691356767
 20
5311.6713935582
 10
7462.7743120208
 20
5315.4657800225
 10
7466.4688018754
 20
5316.9657968244
  0
LWPOLYLINE
  5
619
330
1F
100
AcDbEntity
  8
0
  6
Continuous
 62
     7
100
AcDbPolyline
 90
        5
 70
   128
 43
0.0
 10
7481.5673828125
 20
5316.9657968244
 10
7485.2639044683
 20
5315.4652774101
 10
7486.868553462
 20
5311.6628037022
 10
7485.2644453415
 20
5307.8669171041
 10
7481.5688041642
 20
5306.3657962046
  0
LWPOLYLINE
  5
61A
330
1F
100
AcDbEntity
  8
0
  6
Continuous
 62
     7
100
AcDbPolyline
 90
        5
 70
   128
 43
0.0
 10
6266.4680480957
 20
5306.3657962046
 10
6262.771760764
 20
5307.870179298
 10
6261.1692033323
 20
5311.6713857914
 10
6262.7743171888
 20
5315.4657483853
 10
6266.468755123
 20
5316.9657968244
  0
LWPOLYLINE
  5
61B
330
1F
100
AcDbEntity
  8
0
  6
Continuous
 62
     7
100
AcDbPolyline
 90
        5
 70
   128
 43
0.0
 10
6281.566619873
 20
5316.9657968244
 10
6285.2638757671
 20
5315.4652752091
 10
6286.8685468888
 20
5311.6628026933
 10
6285.2644614137
 20
5307.8668734134
 10
6281.5687555492
 20
5306.3657962046
  0
LWPOLYLINE
  5
61C
330
1F
100
AcDbEntity
  8
0
  6
Continuous
 62
     7
100
AcDbPolyline
 90
        5
 70
   128
 43
0.0
 10
5066.4672851562
 20
5306.3657962046
 10
5062.7717602676
 20
5307.8702089744
 10
5061.1691595177
 20
5311.6713924237
 10
5062.7742967277
 20
5315.4657422491
 10
5066.468706508
 20
5316.9657968244
  0
LWPOLYLINE
  5
61D
330
1F
100
AcDbEntity
  8
0
  6
Continuous
 62
     7
100
AcDbPolyline
 90
        5
 70
   128
 43
0.0
 10
5081.5658569336
 20
5316.9657968244
 10
5085.2638838801
 20
5315.4653206103
 10
5086.8685413952
 20
5311.6628250903
 10
5085.2644264662
 20
5307.8668733242
 10
5081.5687087968
 20
5306.3657962046
  0
LWPOLYLINE
  5
61E
330
1F
100
AcDbEntity
  8
0
  6
Continuous
 62
     7
100
AcDbPolyline
 90
        3
 70
   128
 43
0.0
 10
5092.1821594238
 20
5321.3300042114
 10
5071.6066929235
 20
5320.4123190721
 10
5055.8518079713
 20
5321.3300042114
  0
LWPOLYLINE
  5
61F
330
1F
100
AcDbEntity
  8
0
  6
Continuous
 62
     7
100
AcDbPolyline
 90
        3
 70
   128
 43
0.0
 10
5092.1821594238
 20
5304.6015881262
 10
5093.9901286056
 20
5314.0353690397
 10
5092.1857265428
 20
5321.3300042114
  0
LWPOLYLINE
  5
620
330
1F
100
AcDbEntity
  8
0
  6
Continuous
 62
     7
100
AcDbPolyline
 90
        3
 70
   128
 43
0.0
 10
5055.850982666
 20
5304.6015881262
 10
5076.4308299477
 20
5305.5192734278
 10
5092.1857265428
 20
5304.6015881262
  0
LWPOLYLINE
  5
621
330
1F
100
AcDbEntity
  8
0
  6
Continuous
 62
     7
100
AcDbPolyline
 90
        3
 70
   128
 43
0.0
 10
5055.850982666
 20
5321.3300042114
 10
5054.0474160643
 20
5311.8962179486
 10
5055.8518079713
 20
5304.6015881262
  0
LWPOLYLINE
  5
622
330
1F
100
AcDbEntity
  8
0
  6
Continuous
 62
     7
100
AcDbPolyline
 90
        5
 70
   128
 43
0.0
 10
5066.5168762207
 20
5317.2657944522
 10
5062.6818992118
 20
5315.7042818952
 10
5061.0192438583
 20
5311.7599487553
 10
5062.6845183096
 20
5307.8228669678
 10
5066.5187744096
 20
5306.2657945118
  0
LWPOLYLINE
  5
623
330
1F
100
AcDbEntity
  8
0
  6
Continuous
 62
     7
100
AcDbPolyline
 90
        5
 70
   128
 43
0.0
 10
5081.5162658691
 20
5306.2657945118
 10
5085.355643984
 20
5307.8273164722
 10
5087.0182912083
 20
5311.771650244
 10
5085.3530182872
 20
5315.70872908
 10
5081.5187601045
 20
5317.2657944522
  0
LWPOLYLINE
  5
624
330
1F
100
AcDbEntity
  8
0
  6
Continuous
 62
     7
100
AcDbPolyline
 90
        3
 70
   128
 43
0.0
 10
5692.1844482422
 20
5321.3300042114
 10
5671.6066891463
 20
5320.4123195592
 10
5655.8517722085
 20
5321.3300042114
  0
LWPOLYLINE
  5
625
330
1F
100
AcDbEntity
  8
0
  6
Continuous
 62
     7
100
AcDbPolyline
 90
        3
 70
   128
 43
0.0
 10
5692.1844482422
 20
5304.6015881262
 10
5693.9900942813
 20
5314.0353700642
 10
5692.1857503846
 20
5321.3300042114
  0
LWPOLYLINE
  5
626
330
1F
100
AcDbEntity
  8
0
  6
Continuous
 62
     7
100
AcDbPolyline
 90
        3
 70
   128
 43
0.0
 10
5655.8494567871
 20
5304.6015881262
 10
5676.4308297569
 20
5305.5192729196
 10
5692.1857503846
 20
5304.6015881262
  0
LWPOLYLINE
  5
627
330
1F
100
AcDbEntity
  8
0
  6
Continuous
 62
     7
100
AcDbPolyline
 90
        3
 70
   128
 43
0.0
 10
5655.8494567871
 20
5321.3300042114
 10
5654.0473739625
 20
5311.8962177885
 10
5655.8517722085
 20
5304.6015881262
  0
LWPOLYLINE
  5
628
330
1F
100
AcDbEntity
  8
0
  6
Continuous
 62
     7
100
AcDbPolyline
 90
        5
 70
   128
 43
0.0
 10
5666.5153503418
 20
5317.2657944522
 10
5662.6818883767
 20
5315.7042576712
 10
5661.0192425996
 20
5311.7599551963
 10
5662.6844865424
 20
5307.822869535
 10
5666.5187386468
 20
5306.2657945118
  0
LWPOLYLINE
  5
629
330
1F
100
AcDbEntity
  8
0
  6
Continuous
 62
     7
100
AcDbPolyline
 90
        5
 70
   128
 43
0.0
 10
5681.5185546875
 20
5306.2657945118
 10
5685.3556271297
 20
5307.8273421683
 10
5687.0182854903
 20
5311.7716503242
 10
5685.35303233
 20
5315.708730774
 10
5681.5187839463
 20
5317.2657944522
  0
LWPOLYLINE
  5
62A
330
1F
100
AcDbEntity
  8
0
  6
Continuous
 62
     7
100
AcDbPolyline
 90
        3
 70
   128
 43
0.0
 10
7492.1836853027
 20
5321.3300042114
 10
7471.6066807245
 20
5320.4123189098
 10
7455.8517841294
 20
5321.3300042114
  0
LWPOLYLINE
  5
62B
330
1F
100
AcDbEntity
  8
0
  6
Continuous
 62
     7
100
AcDbPolyline
 90
        3
 70
   128
 43
0.0
 10
7492.1836853027
 20
5304.6015881262
 10
7493.9900946079
 20
5314.035374389
 10
7492.1857027009
 20
5321.3300042114
  0
LWPOLYLINE
  5
62C
330
1F
100
AcDbEntity
  8
0
  6
Continuous
 62
     7
100
AcDbPolyline
 90
        3
 70
   128
 43
0.0
 10
7455.8486938477
 20
5304.6015881262
 10
7476.4308177487
 20
5305.5192732655
 10
7492.1857027009
 20
5304.6015881262
  0
LWPOLYLINE
  5
62D
330
1F
100
AcDbEntity
  8
0
  6
Continuous
 62
     7
100
AcDbPolyline
 90
        3
 70
   128
 43
0.0
 10
7455.8486938477
 20
5321.3300042114
 10
7454.0473820666
 20
5311.8962232979
 10
7455.8517841294
 20
5304.6015881262
  0
LWPOLYLINE
  5
62E
330
1F
100
AcDbEntity
  8
0
  6
Continuous
 62
     7
100
AcDbPolyline
 90
        5
 70
   128
 43
0.0
 10
7466.5184020996
 20
5317.2657944522
 10
7462.6818658203
 20
5315.7042789412
 10
7461.0192198537
 20
5311.7599449488
 10
7462.6844929055
 20
5307.8228671549
 10
7466.5187505677
 20
5306.2657945118
  0
LWPOLYLINE
  5
62F
330
1F
100
AcDbEntity
  8
0
  6
Continuous
 62
     7
100
AcDbPolyline
 90
        5
 70
   128
 43
0.0
 10
7481.517791748
 20
5306.2657945118
 10
7485.3556105925
 20
5307.8273135183
 10
7487.0182672037
 20
5311.7716464375
 10
7485.3529928831
 20
5315.7087292671
 10
7481.5187362626
 20
5317.2657944522
  0
LWPOLYLINE
  5
630
330
1F
100
AcDbEntity
  8
0
  6
Continuous
 62
     7
100
AcDbPolyline
 90
        3
 70
   128
 43
0.0
 10
6292.1829223633
 20
5321.3300042114
 10
6271.6066819654
 20
5320.4123195802
 10
6255.8517532095
 20
5321.3300042114
  0
LWPOLYLINE
  5
631
330
1F
100
AcDbEntity
  8
0
  6
Continuous
 62
     7
100
AcDbPolyline
 90
        3
 70
   128
 43
0.0
 10
6292.1829223633
 20
5304.6015881262
 10
6293.9901126797
 20
5314.0353685189
 10
6292.1857574627
 20
5321.3300042114
  0
LWPOLYLINE
  5
632
330
1F
100
AcDbEntity
  8
0
  6
Continuous
 62
     7
100
AcDbPolyline
 90
        3
 70
   128
 43
0.0
 10
6255.8517456055
 20
5304.6015881262
 10
6276.4308287068
 20
5305.5192727574
 10
6292.1857574627
 20
5304.6015881262
  0
LWPOLYLINE
  5
633
330
1F
100
AcDbEntity
  8
0
  6
Continuous
 62
     7
100
AcDbPolyline
 90
        3
 70
   128
 43
0.0
 10
6255.8517456055
 20
5321.3300042114
 10
6254.0473979925
 20
5311.8962238187
 10
6255.8517532095
 20
5304.6015881262
  0
LWPOLYLINE
  5
634
330
1F
100
AcDbEntity
  8
0
  6
Continuous
 62
     7
100
AcDbPolyline
 90
        5
 70
   128
 43
0.0
 10
6266.5176391602
 20
5317.2657944522
 10
6262.6818829852
 20
5315.7042719582
 10
6261.0192321698
 20
5311.7599487121
 10
6262.6844938929
 20
5307.8228643427
 10
6266.5187555037
 20
5306.2657945118
  0
LWPOLYLINE
  5
635
330
1F
100
AcDbEntity
  8
0
  6
Continuous
 62
     7
100
AcDbPolyline
 90
        5
 70
   128
 43
0.0
 10
6281.5170288086
 20
5306.2657945118
 10
6285.3556268191
 20
5307.8273234552
 10
6287.0182788923
 20
5311.7716464806
 10
6285.3530172998
 20
5315.7087318922
 10
6281.5187551685
 20
5317.2657944522
  0
LWPOLYLINE
  5
636
330
1F
100
AcDbEntity
  8
0
  6
Continuous
 62
     7
100
AcDbPolyline
 90
        3
 70
   128
 43
0.0
 10
6892.1852111816
 20
5321.3300042114
 10
6871.6066809153
 20
5320.412319418
 10
6855.8517602876
 20
5321.3300042114
  0
LWPOLYLINE
  5
637
330
1F
100
AcDbEntity
  8
0
  6
Continuous
 62
     7
100
AcDbPolyline
 90
        3
 70
   128
 43
0.0
 10
6892.1852111816
 20
5304.6015881262
 10
6893.9901367097
 20
5314.0353745491
 10
6892.1857384637
 20
5321.3300042114
  0
LWPOLYLINE
  5
638
330
1F
100
AcDbEntity
  8
0
  6
Continuous
 62
     7
100
AcDbPolyline
 90
        3
 70
   128
 43
0.0
 10
6855.8502197266
 20
5304.6015881262
 10
6876.4308215259
 20
5305.5192727784
 10
6892.1857384637
 20
5304.6015881262
  0
LWPOLYLINE
  5
639
330
1F
100
AcDbEntity
  8
0
  6
Continuous
 62
     7
100
AcDbPolyline
 90
        3
 70
   128
 43
0.0
 10
6855.8502197266
 20
5321.3300042114
 10
6854.0474163909
 20
5311.8962222734
 10
6855.8517602876
 20
5304.6015881262
  0
LWPOLYLINE
  5
63A
330
1F
100
AcDbEntity
  8
0
  6
Continuous
 62
     7
100
AcDbPolyline
 90
        5
 70
   128
 43
0.0
 10
6866.5161132812
 20
5317.2657944522
 10
6862.6818826746
 20
5315.7042532451
 10
6861.0192255718
 20
5311.7599448685
 10
6862.6844788627
 20
5307.8228654609
 10
6866.5187267259
 20
5306.2657945118
  0
LWPOLYLINE
  5
63B
330
1F
100
AcDbEntity
  8
0
  6
Continuous
 62
     7
100
AcDbPolyline
 90
        5
 70
   128
 43
0.0
 10
6881.5155029297
 20
5306.2657945118
 10
6885.3556214276
 20
5307.8273377422
 10
6887.0182684625
 20
5311.7716399964
 10
6885.3530246503
 20
5315.7087266999
 10
6881.5187720254
 20
5317.2657944522
  0
LWPOLYLINE
  5
63C
330
1F
100
AcDbEntity
  8
0
  6
Continuous
 62
     7
100
AcDbPolyline
 90
       10
 70
   128
 43
0.0
 10
8401.1306762695
 20
4932.3134430013
 10
8404.7769359754
 20
4907.0930828062
 10
8395.2542526215
 20
4892.2657129148
 10
8394.2677935678
 20
4891.0219040205
 10
8394.2085114247
 20
4890.9478457409
 10
8394.2065985071
 20
4890.9454876282
 10
8394.2065918246
 20
4890.9454823789
 10
8394.2067168897
 20
4890.9456483454
 10
8394.2074856134
 20
4890.9466275773
 10
8394.2241474563
 20
4890.9675784669
  0
LWPOLYLINE
  5
63D
330
1F
100
AcDbEntity
  8
0
  6
Continuous
 62
     7
100
AcDbPolyline
 90
       12
 70
   128
 43
0.0
 10
8401.1306762695
 20
4932.2975285611
 10
8404.7771579737
 20
4907.0778458184
 10
8395.2551934667
 20
4892.2510023542
 10
8394.2678195292
 20
4891.0061411634
 10
8394.2290494448
 20
4890.9577386468
 10
8394.2264862846
 20
4890.9545494666
 10
8394.2263361268
 20
4890.9543649926
 10
8394.2263307029
 20
4890.9543592352
 10
8394.2264263674
 20
4890.9544814049
 10
8394.2266836495
 20
4890.9548053824
 10
8394.2316896552
 20
4890.9610717101
 10
8394.2509397441
 20
4890.9851320348
  0
LWPOLYLINE
  5
63E
330
1F
100
AcDbEntity
  8
0
  6
Continuous
 62
     7
100
AcDbPolyline
 90
        3
 70
   128
 43
0.0
 10
8399.3530273438
 20
4934.949875649
 10
8399.9492667456
 20
4934.0907295465
 10
8401.1343225414
 20
4932.2975285611
  0
LINE
  5
63F
330
1F
100
AcDbEntity
  8
0
  6
Continuous
 62
     7
100
AcDbLine
 10
8399.7116088867
 20
4934.949875649
 30
0.0
 11
8402.6515587741
 21
4934.949875649
 31
0.0
  0
LWPOLYLINE
  5
640
330
1F
100
AcDbEntity
  8
0
  6
Continuous
 62
     7
100
AcDbPolyline
 90
        5
 70
   128
 43
0.0
 10
8242.2790527344
 20
5306.3657962046
 10
8240.8470490356
 20
5307.8702089744
 10
8240.0090472501
 20
5311.6713924237
 10
8240.8487496532
 20
5315.4657422491
 10
8242.2857388431
 20
5316.9657968244
  0
LWPOLYLINE
  5
641
330
1F
100
AcDbEntity
  8
0
  6
Continuous
 62
     7
100
AcDbPolyline
 90
        3
 70
   128
 43
0.0
 10
8235.8551025391
 20
5321.3300042114
 10
8233.9040131058
 20
5311.8962179486
 10
8235.8560666019
 20
5304.6015881262
  0
LWPOLYLINE
  5
642
330
1F
100
AcDbEntity
  8
0
  6
Continuous
 62
     7
100
AcDbPolyline
 90
       10
 70
   128
 43
0.0
 10
8243.1640625
 20
5320.4081662259
 10
8243.2050125614
 20
5320.403679671
 10
8243.2051702641
 20
5320.4036590066
 10
8243.2051784523
 20
5320.4036579978
 10
8243.2051797482
 20
5320.4036579128
 10
8243.2051614339
 20
5320.4036605449
 10
8243.204442076
 20
5320.4037580272
 10
8243.1805263573
 20
5320.4069681648
 10
8242.7858240025
 20
5320.459610846
 10
8235.8560666019
 20
5321.3300042114
  0
LWPOLYLINE
  5
643
330
1F
100
AcDbEntity
  8
0
  6
Continuous
 62
     7
100
AcDbPolyline
 90
       11
 70
   128
 43
0.0
 10
8235.8551025391
 20
5304.6015881262
 10
8242.789839233
 20
5305.4725160091
 10
8243.1492121566
 20
5305.5204461742
 10
8243.1747728084
 20
5305.5238661692
 10
8243.1764948778
 20
5305.5240970674
 10
8243.1765525392
 20
5305.5241048927
 10
8243.1765551882
 20
5305.5241052684
 10
8243.1765553368
 20
5305.5241053097
 10
8243.17654826
 20
5305.5241044062
 10
8243.1763126127
 20
5305.524073151
 10
8243.1714638644
 20
5305.5234261117
  0
LWPOLYLINE
  5
644
330
1F
100
AcDbEntity
  8
0
  6
Continuous
 62
     7
100
AcDbPolyline
 90
        5
 70
   128
 43
0.0
 10
8242.1493530273
 20
5317.2657944522
 10
8240.6536857431
 20
5315.7042818952
 10
8239.7731504134
 20
5311.7599487553
 10
8240.6554292169
 20
5307.8228669678
 10
8242.150853532
 20
5306.2657945118
  0
LWPOLYLINE
  5
645
330
1F
100
AcDbEntity
  8
0
  6
Continuous
 62
     7
100
AcDbPolyline
 90
        3
 70
   128
 43
0.0
 10
4896.7170715332
 20
4368.6837287426
 10
4896.7187322303
 20
4367.9668184482
 10
4896.7187313035
 20
4367.3826715463
  0
LWPOLYLINE
  5
646
330
1F
100
AcDbEntity
  8
0
  6
Continuous
 62
     7
100
AcDbPolyline
 90
        3
 70
   128
 43
0.0
 10
4892.3187255859
 20
4362.0024115072
 10
4892.3187179267
 20
4362.7193027301
 10
4892.3187164262
 20
4363.3034488671
  0
LWPOLYLINE
  5
647
330
1F
100
AcDbEntity
  8
0
  6
Continuous
 62
     7
100
AcDbPolyline
 90
        3
 70
   128
 43
0.0
 10
5090.9690856934
 20
4336.9430562966
 10
5089.4007834102
 20
4335.5741094752
 10
5088.0187658265
 20
4334.7091934197
  0
LWPOLYLINE
  5
648
330
1F
100
AcDbEntity
  8
0
  6
Continuous
 62
     7
100
AcDbPolyline
 90
        3
 70
   128
 43
0.0
 10
5060.0166320801
 20
4334.6351048463
 10
5058.3217782581
 20
4335.8239582649
 10
5057.1105388597
 20
4336.9430562966
  0
LWPOLYLINE
  5
649
330
1F
100
AcDbEntity
  8
0
  6
Continuous
 62
     7
100
AcDbPolyline
 90
        3
 70
   128
 43
0.0
 10
5690.9713745117
 20
4336.9430562966
 10
5689.4007476474
 20
4335.5741094752
 10
5688.0187300637
 20
4334.7091934197
  0
LWPOLYLINE
  5
64A
330
1F
100
AcDbEntity
  8
0
  6
Continuous
 62
     7
100
AcDbPolyline
 90
        3
 70
   128
 43
0.0
 10
5660.0151062012
 20
4334.6351048463
 10
5658.3236150011
 20
4335.8273810071
 10
5657.1105627015
 20
4336.9430562966
  0
LWPOLYLINE
  5
64B
330
1F
100
AcDbEntity
  8
0
  6
Continuous
 62
     7
100
AcDbPolyline
 90
        3
 70
   128
 43
0.0
 10
7490.9706115723
 20
4336.9430562966
 10
7489.4007595684
 20
4335.5741094752
 10
7488.0187419847
 20
4334.7091934197
  0
LWPOLYLINE
  5
64C
330
1F
100
AcDbEntity
  8
0
  6
Continuous
 62
     7
100
AcDbPolyline
 90
        3
 70
   128
 43
0.0
 10
7460.018157959
 20
4334.6351048463
 10
7458.3236569809
 20
4335.8273771092
 10
7457.1106342271
 20
4336.9430562966
  0
LWPOLYLINE
  5
64D
330
1F
100
AcDbEntity
  8
0
  6
Continuous
 62
     7
100
AcDbPolyline
 90
        3
 70
   128
 43
0.0
 10
6290.9698486328
 20
4336.9430562966
 10
6289.400757663
 20
4335.5741334526
 10
6288.0187557682
 20
4334.7091934197
  0
LWPOLYLINE
  5
64E
330
1F
100
AcDbEntity
  8
0
  6
Continuous
 62
     7
100
AcDbPolyline
 90
        3
 70
   128
 43
0.0
 10
6260.0173950195
 20
4334.6351048463
 10
6258.322883056
 20
4335.8259809244
 10
6257.110588406
 20
4336.9430562966
  0
LWPOLYLINE
  5
64F
330
1F
100
AcDbEntity
  8
0
  6
Continuous
 62
     7
100
AcDbPolyline
 90
        3
 70
   128
 43
0.0
 10
6890.9683227539
 20
4336.9430562966
 10
6889.4007730177
 20
4335.5741435766
 10
6888.0187777474
 20
4334.7091934197
  0
LWPOLYLINE
  5
650
330
1F
100
AcDbEntity
  8
0
  6
Continuous
 62
     7
100
AcDbPolyline
 90
        3
 70
   128
 43
0.0
 10
6860.0158691406
 20
4334.6351048463
 10
6858.322733897
 20
4335.8256596454
 10
6857.1106103852
 20
4336.9430562966
  0
ENDSEC
  0
SECTION
  2
OBJECTS
  0
DICTIONARY
  5
C
330
0
100
AcDbDictionary
281
     1
  3
ACAD_GROUP
350
D
  3
ACAD_LAYOUT
350
1A
  3
ACAD_MLINESTYLE
350
17
  3
ACAD_PLOTSETTINGS
350
19
  3
ACAD_PLOTSTYLENAME
350
E
  3
ACAD_SCALELIST
350
47
  3
DWGPROPS
350
651
  0
DICTIONARY
  5
D
102
{ACAD_REACTORS
330
C
102
}
330
C
100
AcDbDictionary
281
     1
  0
DICTIONARY
  5
1A
102
{ACAD_REACTORS
330
C
102
}
330
C
100
AcDbDictionary
281
     1
  3
Layout1
350
1E
  3
Layout2
350
26
  3
Model
350
22
  0
DICTIONARY
  5
17
102
{ACAD_REACTORS
330
C
102
}
330
C
100
AcDbDictionary
281
     1
  3
Standard
350
18
  0
DICTIONARY
  5
19
102
{ACAD_REACTORS
330
C
102
}
330
C
100
AcDbDictionary
281
     1
  0
ACDBDICTIONARYWDFLT
  5
E
102
{ACAD_REACTORS
330
C
102
}
330
C
100
AcDbDictionary
281
     1
  3
Normal
350
F
100
AcDbDictionaryWithDefault
340
F
  0
DICTIONARY
  5
47
102
{ACAD_REACTORS
330
C
102
}
330
C
100
AcDbDictionary
281
     1
  3
A0
350
48
  3
A1
350
49
  3
A2
350
4A
  3
A3
350
4B
  3
A4
350
4C
  3
A5
350
4D
  3
A6
350
4E
  3
A7
350
4F
  3
A8
350
50
  3
A9
350
51
  3
B0
350
52
  3
B1
350
53
  3
B2
350
54
  3
B3
350
55
  3
B4
350
56
  3
B5
350
57
  3
B6
350
58
  3
B7
350
59
  3
B8
350
5A
  3
B9
350
5B
  3
C0
350
5C
  3
C1
350
5D
  3
C2
350
5E
  3
C3
350
5F
  3
C4
350
60
  3
C5
350
61
  3
C6
350
62
  3
C7
350
63
  3
C8
350
64
  3
C9
350
65
  3
D0
350
66
  3
D1
350
67
  3
D2
350
68
  0
XRECORD
  5
651
102
{ACAD_REACTORS
330
C
102
}
330
C
100
AcDbXrecord
280
     1
  1
DWGPROPS COOKIE
  2

  3

  4

  6

  7

  8
radek.stransky
  9

300
=
301
=
302
=
303
=
304
=
305
=
306
=
307
=
308
=
309
=
 40
0.0
 41
2459097.23998853
 42
2459097.240020602
  1

 90
        0
  0
LAYOUT
  5
1E
102
{ACAD_REACTORS
330
1A
102
}
330
1A
100
AcDbPlotSettings
  1

  2
none_device
  4

  6

 40
0.0
 41
0.0
 42
0.0
 43
0.0
 44
0.0
 45
0.0
 46
0.0
 47
0.0
 48
0.0
 49
0.0
140
0.0
141
0.0
142
1.0
143
1.0
 70
   688
 72
     1
 73
     0
 74
     5
  7

 75
    16
147
1.0
148
0.0
149
0.0
100
AcDbLayout
  1
Layout1
 70
     1
 71
     1
 10
0.0
 20
0.0
 11
420.0
 21
297.0
 12
0.0
 22
0.0
 32
0.0
 14
1.0000000000E+20
 24
1.0000000000E+20
 34
1.0000000000E+20
 15
-1.0000000000E+20
 25
-1.0000000000E+20
 35
-1.0000000000E+20
146
0.0
 13
0.0
 23
0.0
 33
0.0
 16
1.0
 26
0.0
 36
0.0
 17
0.0
 27
1.0
 37
0.0
 76
     0
330
1B
  0
LAYOUT
  5
26
102
{ACAD_REACTORS
330
1A
102
}
330
1A
100
AcDbPlotSettings
  1

  2
none_device
  4

  6

 40
0.0
 41
0.0
 42
0.0
 43
0.0
 44
0.0
 45
0.0
 46
0.0
 47
0.0
 48
0.0
 49
0.0
140
0.0
141
0.0
142
1.0
143
1.0
 70
   688
 72
     1
 73
     0
 74
     5
  7

 75
    16
147
1.0
148
0.0
149
0.0
100
AcDbLayout
  1
Layout2
 70
     1
 71
     2
 10
0.0
 20
0.0
 11
0.0
 21
0.0
 12
0.0
 22
0.0
 32
0.0
 14
0.0
 24
0.0
 34
0.0
 15
0.0
 25
0.0
 35
0.0
146
0.0
 13
0.0
 23
0.0
 33
0.0
 16
1.0
 26
0.0
 36
0.0
 17
0.0
 27
1.0
 37
0.0
 76
     0
330
23
  0
LAYOUT
  5
22
102
{ACAD_REACTORS
330
1A
102
}
330
1A
100
AcDbPlotSettings
  1

  2
none_device
  4
ANSI_A_(11.00_x_8.50_Inches)
  6

 40
6.35
 41
19.05
 42
6.35000508
 43
19.05000254
 44
279.4
 45
215.9
 46
-344.4243423384
 47
-250.011527397
 48
0.0
 49
0.0
140
0.0
141
0.0
142
0.002799531
143
1.0
 70
  1696
 72
     0
 73
     0
 74
     0
  7

 75
     0
147
0.0179189148
148
-1300.4909072572
149
0.0
100
AcDbLayout
  1
Model
 70
     1
 71
     0
 10
0.0
 20
0.0
 11
420.0
 21
297.0
 12
0.0
 22
0.0
 32
0.0
 14
4774.0187553361
 24
3909.8430701274
 34
0.0
 15
8663.9560696988
 25
5622.4490113816
 35
0.0
146
0.0
 13
0.0
 23
0.0
 33
0.0
 16
1.0
 26
0.0
 36
0.0
 17
0.0
 27
1.0
 37
0.0
 76
     0
330
1F
331
29
  0
MLINESTYLE
  5
18
102
{ACAD_REACTORS
330
17
102
}
330
17
100
AcDbMlineStyle
  2
Standard
 70
     0
  3

 62
   256
 51
90.0
 52
90.0
 71
     2
 49
0.5
 62
   256
  6
BYLAYER
 49
-0.5
 62
   256
  6
BYLAYER
  0
ACDBPLACEHOLDER
  5
F
102
{ACAD_REACTORS
330
E
102
}
330
E
  0
SCALE
  5
48
102
{ACAD_REACTORS
330
47
102
}
330
47
100
AcDbScale
 70
     0
300
1:1
140
1.0
141
1.0
290
     1
  0
SCALE
  5
49
102
{ACAD_REACTORS
330
47
102
}
330
47
100
AcDbScale
 70
     0
300
1:2
140
1.0
141
2.0
290
     0
  0
SCALE
  5
4A
102
{ACAD_REACTORS
330
47
102
}
330
47
100
AcDbScale
 70
     0
300
1:4
140
1.0
141
4.0
290
     0
  0
SCALE
  5
4B
102
{ACAD_REACTORS
330
47
102
}
330
47
100
AcDbScale
 70
     0
300
1:5
140
1.0
141
5.0
290
     0
  0
SCALE
  5
4C
102
{ACAD_REACTORS
330
47
102
}
330
47
100
AcDbScale
 70
     0
300
1:8
140
1.0
141
8.0
290
     0
  0
SCALE
  5
4D
102
{ACAD_REACTORS
330
47
102
}
330
47
100
AcDbScale
 70
     0
300
1:10
140
1.0
141
10.0
290
     0
  0
SCALE
  5
4E
102
{ACAD_REACTORS
330
47
102
}
330
47
100
AcDbScale
 70
     0
300
1:16
140
1.0
141
16.0
290
     0
  0
SCALE
  5
4F
102
{ACAD_REACTORS
330
47
102
}
330
47
100
AcDbScale
 70
     0
300
1:20
140
1.0
141
20.0
290
     0
  0
SCALE
  5
50
102
{ACAD_REACTORS
330
47
102
}
330
47
100
AcDbScale
 70
     0
300
1:30
140
1.0
141
30.0
290
     0
  0
SCALE
  5
51
102
{ACAD_REACTORS
330
47
102
}
330
47
100
AcDbScale
 70
     0
300
1:40
140
1.0
141
40.0
290
     0
  0
SCALE
  5
52
102
{ACAD_REACTORS
330
47
102
}
330
47
100
AcDbScale
 70
     0
300
1:50
140
1.0
141
50.0
290
     0
  0
SCALE
  5
53
102
{ACAD_REACTORS
330
47
102
}
330
47
100
AcDbScale
 70
     0
300
1:100
140
1.0
141
100.0
290
     0
  0
SCALE
  5
54
102
{ACAD_REACTORS
330
47
102
}
330
47
100
AcDbScale
 70
     0
300
2:1
140
2.0
141
1.0
290
     0
  0
SCALE
  5
55
102
{ACAD_REACTORS
330
47
102
}
330
47
100
AcDbScale
 70
     0
300
4:1
140
4.0
141
1.0
290
     0
  0
SCALE
  5
56
102
{ACAD_REACTORS
330
47
102
}
330
47
100
AcDbScale
 70
     0
300
8:1
140
8.0
141
1.0
290
     0
  0
SCALE
  5
57
102
{ACAD_REACTORS
330
47
102
}
330
47
100
AcDbScale
 70
     0
300
10:1
140
10.0
141
1.0
290
     0
  0
SCALE
  5
58
102
{ACAD_REACTORS
330
47
102
}
330
47
100
AcDbScale
 70
     0
300
100:1
140
100.0
141
1.0
290
     0
  0
SCALE
  5
59
102
{ACAD_REACTORS
330
47
102
}
330
47
100
AcDbScale
 70
     0
300
1/128" = 1'-0"
140
0.0078125
141
12.0
290
     0
  0
SCALE
  5
5A
102
{ACAD_REACTORS
330
47
102
}
330
47
100
AcDbScale
 70
     0
300
1/64" = 1'-0"
140
0.015625
141
12.0
290
     0
  0
SCALE
  5
5B
102
{ACAD_REACTORS
330
47
102
}
330
47
100
AcDbScale
 70
     0
300
1/32" = 1'-0"
140
0.03125
141
12.0
290
     0
  0
SCALE
  5
5C
102
{ACAD_REACTORS
330
47
102
}
330
47
100
AcDbScale
 70
     0
300
1/16" = 1'-0"
140
0.0625
141
12.0
290
     0
  0
SCALE
  5
5D
102
{ACAD_REACTORS
330
47
102
}
330
47
100
AcDbScale
 70
     0
300
3/32" = 1'-0"
140
0.09375
141
12.0
290
     0
  0
SCALE
  5
5E
102
{ACAD_REACTORS
330
47
102
}
330
47
100
AcDbScale
 70
     0
300
1/8" = 1'-0"
140
0.125
141
12.0
290
     0
  0
SCALE
  5
5F
102
{ACAD_REACTORS
330
47
102
}
330
47
100
AcDbScale
 70
     0
300
3/16" = 1'-0"
140
0.1875
141
12.0
290
     0
  0
SCALE
  5
60
102
{ACAD_REACTORS
330
47
102
}
330
47
100
AcDbScale
 70
     0
300
1/4" = 1'-0"
140
0.25
141
12.0
290
     0
  0
SCALE
  5
61
102
{ACAD_REACTORS
330
47
102
}
330
47
100
AcDbScale
 70
     0
300
3/8" = 1'-0"
140
0.375
141
12.0
290
     0
  0
SCALE
  5
62
102
{ACAD_REACTORS
330
47
102
}
330
47
100
AcDbScale
 70
     0
300
1/2" = 1'-0"
140
0.5
141
12.0
290
     0
  0
SCALE
  5
63
102
{ACAD_REACTORS
330
47
102
}
330
47
100
AcDbScale
 70
     0
300
3/4" = 1'-0"
140
0.75
141
12.0
290
     0
  0
SCALE
  5
64
102
{ACAD_REACTORS
330
47
102
}
330
47
100
AcDbScale
 70
     0
300
1" = 1'-0"
140
1.0
141
12.0
290
     0
  0
SCALE
  5
65
102
{ACAD_REACTORS
330
47
102
}
330
47
100
AcDbScale
 70
     0
300
1-1/2" = 1'-0"
140
1.5
141
12.0
290
     0
  0
SCALE
  5
66
102
{ACAD_REACTORS
330
47
102
}
330
47
100
AcDbScale
 70
     0
300
3" = 1'-0"
140
3.0
141
12.0
290
     0
  0
SCALE
  5
67
102
{ACAD_REACTORS
330
47
102
}
330
47
100
AcDbScale
 70
     0
300
6" = 1'-0"
140
6.0
141
12.0
290
     0
  0
SCALE
  5
68
102
{ACAD_REACTORS
330
47
102
}
330
47
100
AcDbScale
 70
     0
300
1'-0" = 1'-0"
140
12.0
141
12.0
290
     0
  0
ENDSEC
  0
EOF
