  0
SECTION
  2
HEADER
  9
$ACADVER
  1
AC1015
  9
$ACADMAINTVER
 70
     6
  9
$DWGCODEPAGE
  3
ANSI_1250
  9
$INSBASE
 10
0.0
 20
0.0
 30
0.0
  9
$EXTMIN
 10
6024.018755336
 20
4064.1748529002
 30
0.0
  9
$EXTMAX
 10
7409.1020527752
 20
5478.6994259825
 30
0.0
  9
$LIMMIN
 10
0.0
 20
0.0
  9
$LIMMAX
 10
420.0
 20
297.0
  9
$ORTHOMODE
 70
     0
  9
$REGENMODE
 70
     1
  9
$FILLMODE
 70
     1
  9
$QTEXTMODE
 70
     0
  9
$MIRRTEXT
 70
     1
  9
$LTSCALE
 40
1.0
  9
$ATTMODE
 70
     1
  9
$TEXTSIZE
 40
3.5
  9
$TRACEWID
 40
1.0
  9
$TEXTSTYLE
  7
Standard
  9
$CLAYER
  8
0
  9
$CELTYPE
  6
ByLayer
  9
$CECOLOR
 62
   256
  9
$CELTSCALE
 40
1.0
  9
$DISPSILH
 70
     0
  9
$DIMSCALE
 40
1.0
  9
$DIMASZ
 40
3.302
  9
$DIMEXO
 40
0.0
  9
$DIMDLI
 40
3.75
  9
$DIMRND
 40
0.0
  9
$DIMDLE
 40
0.0
  9
$DIMEXE
 40
1.0
  9
$DIMTP
 40
0.0
  9
$DIMTM
 40
0.0
  9
$DIMTXT
 40
3.5
  9
$DIMCEN
 40
2.5
  9
$DIMTSZ
 40
0.0
  9
$DIMTOL
 70
     0
  9
$DIMLIM
 70
     0
  9
$DIMTIH
 70
     1
  9
$DIMTOH
 70
     1
  9
$DIMSE1
 70
     0
  9
$DIMSE2
 70
     0
  9
$DIMTAD
 70
     1
  9
$DIMZIN
 70
     0
  9
$DIMBLK
  1

  9
$DIMASO
 70
     1
  9
$DIMSHO
 70
     1
  9
$DIMPOST
  1

  9
$DIMAPOST
  1

  9
$DIMALT
 70
     0
  9
$DIMALTD
 70
     3
  9
$DIMALTF
 40
0.0393700787
  9
$DIMLFAC
 40
1.0
  9
$DIMTOFL
 70
     1
  9
$DIMTVP
 40
0.0
  9
$DIMTIX
 70
     0
  9
$DIMSOXD
 70
     0
  9
$DIMSAH
 70
     0
  9
$DIMBLK1
  1

  9
$DIMBLK2
  1

  9
$DIMSTYLE
  2
ISO-25
  9
$DIMCLRD
 70
     0
  9
$DIMCLRE
 70
     0
  9
$DIMCLRT
 70
     0
  9
$DIMTFAC
 40
1.0
  9
$DIMGAP
 40
1.524
  9
$DIMJUST
 70
     0
  9
$DIMSD1
 70
     0
  9
$DIMSD2
 70
     0
  9
$DIMTOLJ
 70
     0
  9
$DIMTZIN
 70
     0
  9
$DIMALTZ
 70
     0
  9
$DIMALTTZ
 70
     0
  9
$DIMUPT
 70
     0
  9
$DIMDEC
 70
     2
  9
$DIMTDEC
 70
     2
  9
$DIMALTU
 70
     2
  9
$DIMALTTD
 70
     3
  9
$DIMTXSTY
  7
Standard
  9
$DIMAUNIT
 70
     0
  9
$DIMADEC
 70
     2
  9
$DIMALTRND
 40
0.0
  9
$DIMAZIN
 70
     0
  9
$DIMDSEP
 70
    44
  9
$DIMATFIT
 70
     3
  9
$DIMFRAC
 70
     0
  9
$DIMLDRBLK
  1

  9
$DIMLUNIT
 70
     2
  9
$DIMLWD
 70
    -2
  9
$DIMLWE
 70
    -2
  9
$DIMTMOVE
 70
     0
  9
$LUNITS
 70
     2
  9
$LUPREC
 70
     2
  9
$SKETCHINC
 40
1.0
  9
$FILLETRAD
 40
10.0
  9
$AUNITS
 70
     0
  9
$AUPREC
 70
     2
  9
$MENU
  1
.
  9
$ELEVATION
 40
0.0
  9
$PELEVATION
 40
0.0
  9
$THICKNESS
 40
0.0
  9
$LIMCHECK
 70
     0
  9
$CHAMFERA
 40
0.0
  9
$CHAMFERB
 40
0.0
  9
$CHAMFERC
 40
0.0
  9
$CHAMFERD
 40
0.0
  9
$SKPOLY
 70
     0
  9
$TDCREATE
 40
2459096.543839711
  9
$TDUCREATE
 40
2459096.460506377
  9
$TDUPDATE
 40
2459096.543880683
  9
$TDUUPDATE
 40
2459096.460547349
  9
$TDINDWG
 40
0.0000000116
  9
$TDUSRTIMER
 40
0.0000000116
  9
$USRTIMER
 70
     1
  9
$ANGBASE
 50
0.0
  9
$ANGDIR
 70
     0
  9
$PDMODE
 70
     0
  9
$PDSIZE
 40
-1.0
  9
$PLINEWID
 40
0.0
  9
$SPLFRAME
 70
     0
  9
$SPLINETYPE
 70
     6
  9
$SPLINESEGS
 70
     8
  9
$HANDSEED
  5
445
  9
$SURFTAB1
 70
     6
  9
$SURFTAB2
 70
     6
  9
$SURFTYPE
 70
     6
  9
$SURFU
 70
     6
  9
$SURFV
 70
     6
  9
$UCSBASE
  2

  9
$UCSNAME
  2

  9
$UCSORG
 10
0.0
 20
0.0
 30
0.0
  9
$UCSXDIR
 10
1.0
 20
0.0
 30
0.0
  9
$UCSYDIR
 10
0.0
 20
1.0
 30
0.0
  9
$UCSORTHOREF
  2

  9
$UCSORTHOVIEW
 70
     0
  9
$UCSORGTOP
 10
0.0
 20
0.0
 30
0.0
  9
$UCSORGBOTTOM
 10
0.0
 20
0.0
 30
0.0
  9
$UCSORGLEFT
 10
0.0
 20
0.0
 30
0.0
  9
$UCSORGRIGHT
 10
0.0
 20
0.0
 30
0.0
  9
$UCSORGFRONT
 10
0.0
 20
0.0
 30
0.0
  9
$UCSORGBACK
 10
0.0
 20
0.0
 30
0.0
  9
$PUCSBASE
  2

  9
$PUCSNAME
  2

  9
$PUCSORG
 10
0.0
 20
0.0
 30
0.0
  9
$PUCSXDIR
 10
1.0
 20
0.0
 30
0.0
  9
$PUCSYDIR
 10
0.0
 20
1.0
 30
0.0
  9
$PUCSORTHOREF
  2

  9
$PUCSORTHOVIEW
 70
     0
  9
$PUCSORGTOP
 10
0.0
 20
0.0
 30
0.0
  9
$PUCSORGBOTTOM
 10
0.0
 20
0.0
 30
0.0
  9
$PUCSORGLEFT
 10
0.0
 20
0.0
 30
0.0
  9
$PUCSORGRIGHT
 10
0.0
 20
0.0
 30
0.0
  9
$PUCSORGFRONT
 10
0.0
 20
0.0
 30
0.0
  9
$PUCSORGBACK
 10
0.0
 20
0.0
 30
0.0
  9
$USERI1
 70
     0
  9
$USERI2
 70
     0
  9
$USERI3
 70
     0
  9
$USERI4
 70
     0
  9
$USERI5
 70
     0
  9
$USERR1
 40
0.0
  9
$USERR2
 40
0.0
  9
$USERR3
 40
0.0
  9
$USERR4
 40
0.0
  9
$USERR5
 40
0.0
  9
$WORLDVIEW
 70
     1
  9
$SHADEDGE
 70
     3
  9
$SHADEDIF
 70
    70
  9
$TILEMODE
 70
     1
  9
$MAXACTVP
 70
    64
  9
$PINSBASE
 10
0.0
 20
0.0
 30
0.0
  9
$PLIMCHECK
 70
     0
  9
$PEXTMIN
 10
1.0000000000E+20
 20
1.0000000000E+20
 30
1.0000000000E+20
  9
$PEXTMAX
 10
-1.0000000000E+20
 20
-1.0000000000E+20
 30
-1.0000000000E+20
  9
$PLIMMIN
 10
0.0
 20
0.0
  9
$PLIMMAX
 10
420.0
 20
297.0
  9
$UNITMODE
 70
     0
  9
$VISRETAIN
 70
     1
  9
$PLINEGEN
 70
     0
  9
$PSLTSCALE
 70
     1
  9
$TREEDEPTH
 70
  3020
  9
$CMLSTYLE
  2
Standard
  9
$CMLJUST
 70
     0
  9
$CMLSCALE
 40
20.0
  9
$PROXYGRAPHICS
 70
     1
  9
$MEASUREMENT
 70
     1
  9
$CELWEIGHT
370
    -1
  9
$ENDCAPS
280
     0
  9
$JOINSTYLE
280
     0
  9
$LWDISPLAY
290
     1
  9
$INSUNITS
 70
     4
  9
$HYPERLINKBASE
  1

  9
$STYLESHEET
  1

  9
$XEDIT
290
     1
  9
$CEPSNTYPE
380
     0
  9
$PSTYLEMODE
290
     1
  9
$FINGERPRINTGUID
  2
{c4f71d9e-405a-4c1e-b7c6-fca1968e2149}
  9
$VERSIONGUID
  2
{FAEB1C32-E019-11D5-929B-00C0DF256EC4}
  9
$EXTNAMES
290
     1
  9
$PSVPSCALE
 40
0.0
  9
$OLESTARTUP
290
     0
  0
ENDSEC
  0
SECTION
  2
CLASSES
  0
CLASS
  1
ACDBDICTIONARYWDFLT
  2
AcDbDictionaryWithDefault
  3
ObjectDBX Classes
 90
        0
280
     0
281
     0
  0
CLASS
  1
VISUALSTYLE
  2
AcDbVisualStyle
  3
ObjectDBX Classes
 90
     4095
280
     0
281
     0
  0
CLASS
  1
MATERIAL
  2
AcDbMaterial
  3
ObjectDBX Classes
 90
     1153
280
     0
281
     0
  0
CLASS
  1
SCALE
  2
AcDbScale
  3
ObjectDBX Classes
 90
     1153
280
     0
281
     0
  0
CLASS
  1
TABLESTYLE
  2
AcDbTableStyle
  3
ObjectDBX Classes
 90
     4095
280
     0
281
     0
  0
CLASS
  1
MLEADERSTYLE
  2
AcDbMLeaderStyle
  3
ACDB_MLEADERSTYLE_CLASS
 90
     4095
280
     0
281
     0
  0
CLASS
  1
SUN
  2
AcDbSun
  3
SCENEOE
 90
     1153
280
     0
281
     0
  0
CLASS
  1
ACDBPLACEHOLDER
  2
AcDbPlaceHolder
  3
ObjectDBX Classes
 90
        0
280
     0
281
     0
  0
CLASS
  1
LAYOUT
  2
AcDbLayout
  3
ObjectDBX Classes
 90
        0
280
     0
281
     0
  0
ENDSEC
  0
SECTION
  2
TABLES
  0
TABLE
  2
VPORT
  5
8
330
0
100
AcDbSymbolTable
 70
     1
  0
VPORT
  5
29
330
8
100
AcDbSymbolTableRecord
100
AcDbViewportTableRecord
  2
*Active
 70
     0
 10
0.0
 20
0.0
 11
1.0
 21
1.0
 12
6716.5604040556
 22
4771.4371394414
 13
0.0
 23
0.0
 14
10.0
 24
10.0
 15
10.0
 25
10.0
 16
0.0
 26
0.0
 36
1.0
 17
0.0
 27
0.0
 37
0.0
 40
1442.8150645439
 41
0.9791864516
 42
50.0
 43
0.0
 44
0.0
 50
0.0
 51
0.0
 71
     0
 72
   100
 73
     1
 74
     3
 75
     0
 76
     0
 77
     0
 78
     0
281
     0
 65
     1
110
0.0
120
0.0
130
0.0
111
1.0
121
0.0
131
0.0
112
0.0
122
1.0
132
0.0
 79
     0
146
0.0
  0
ENDTAB
  0
TABLE
  2
LTYPE
  5
5
330
0
100
AcDbSymbolTable
 70
     6
  0
LTYPE
  5
14
330
5
100
AcDbSymbolTableRecord
100
AcDbLinetypeTableRecord
  2
ByBlock
 70
     0
  3

 72
    65
 73
     0
 40
0.0
  0
LTYPE
  5
15
330
5
100
AcDbSymbolTableRecord
100
AcDbLinetypeTableRecord
  2
ByLayer
 70
     0
  3

 72
    65
 73
     0
 40
0.0
  0
LTYPE
  5
16
330
5
100
AcDbSymbolTableRecord
100
AcDbLinetypeTableRecord
  2
Continuous
 70
     0
  3
Solid line
 72
    65
 73
     0
 40
0.0
  0
LTYPE
  5
6E
330
5
100
AcDbSymbolTableRecord
100
AcDbLinetypeTableRecord
  2
HIDDEN
 70
     0
  3
Hidden __ __ __ __ __ __ __ __ __ __ __ __ __ __
 72
    65
 73
     2
 40
1.905
 49
1.27
 74
     0
 49
-0.635
 74
     0
  0
LTYPE
  5
6F
330
5
100
AcDbSymbolTableRecord
100
AcDbLinetypeTableRecord
  2
PHANTOM
 70
     0
  3
Phantom ______  __  __  ______  __  __  ______
 72
    65
 73
     6
 40
12.7
 49
6.35
 74
     0
 49
-1.27
 74
     0
 49
1.27
 74
     0
 49
-1.27
 74
     0
 49
1.27
 74
     0
 49
-1.27
 74
     0
  0
LTYPE
  5
70
330
5
100
AcDbSymbolTableRecord
100
AcDbLinetypeTableRecord
  2
CENTER
 70
     0
  3
Center ____ _ ____ _ ____ _ ____ _ ____ _ ____
 72
    65
 73
     4
 40
10.16
 49
6.35
 74
     0
 49
-1.27
 74
     0
 49
1.27
 74
     0
 49
-1.27
 74
     0
  0
LTYPE
  5
71
330
5
100
AcDbSymbolTableRecord
100
AcDbLinetypeTableRecord
  2
CENTERX2
 70
     0
  3
Center (2x) ________  __  ________  __  _____
 72
    65
 73
     4
 40
20.32
 49
12.7
 74
     0
 49
-2.54
 74
     0
 49
2.54
 74
     0
 49
-2.54
 74
     0
  0
LTYPE
  5
72
330
5
100
AcDbSymbolTableRecord
100
AcDbLinetypeTableRecord
  2
DOT2
 70
     0
  3
Dot (.5x) ........................................
 72
    65
 73
     2
 40
0.635
 49
0.0
 74
     0
 49
-0.635
 74
     0
  0
ENDTAB
  0
TABLE
  2
LAYER
  5
2
330
0
100
AcDbSymbolTable
 70
     1
  0
LAYER
  5
10
330
2
100
AcDbSymbolTableRecord
100
AcDbLayerTableRecord
  2
0
 70
     0
 62
     7
  6
Continuous
370
    -3
390
F
  0
ENDTAB
  0
TABLE
  2
STYLE
  5
3
330
0
100
AcDbSymbolTable
 70
     1
  0
STYLE
  5
11
330
3
100
AcDbSymbolTableRecord
100
AcDbTextStyleTableRecord
  2
Standard
 70
     0
 40
0.0
 41
1.0
 50
0.0
 71
     0
 42
3.5
  3
txt
  4

  0
ENDTAB
  0
TABLE
  2
VIEW
  5
6
330
0
100
AcDbSymbolTable
 70
     0
  0
ENDTAB
  0
TABLE
  2
UCS
  5
7
330
0
100
AcDbSymbolTable
 70
     0
  0
ENDTAB
  0
TABLE
  2
APPID
  5
9
330
0
100
AcDbSymbolTable
 70
     1
  0
APPID
  5
12
330
9
100
AcDbSymbolTableRecord
100
AcDbRegAppTableRecord
  2
ACAD
 70
     0
  0
ENDTAB
  0
TABLE
  2
DIMSTYLE
  5
A
330
0
100
AcDbSymbolTable
 70
     1
100
AcDbDimStyleTable
  0
DIMSTYLE
105
27
330
A
100
AcDbSymbolTableRecord
100
AcDbDimStyleTableRecord
  2
ISO-25
 70
     0
 41
2.5
 42
0.625
 43
3.75
 44
1.25
 73
     0
 74
     0
 77
     1
 78
     8
140
2.5
141
2.5
143
0.0393700787
147
0.625
171
     3
172
     1
178
     0
271
     2
272
     2
274
     3
278
    44
283
     0
284
     8
340
11
  0
ENDTAB
  0
TABLE
  2
BLOCK_RECORD
  5
1
330
0
100
AcDbSymbolTable
 70
     1
  0
BLOCK_RECORD
  5
1F
330
1
100
AcDbSymbolTableRecord
100
AcDbBlockTableRecord
  2
*Model_Space
340
22
  0
BLOCK_RECORD
  5
1B
330
1
100
AcDbSymbolTableRecord
100
AcDbBlockTableRecord
  2
*Paper_Space
340
1E
  0
BLOCK_RECORD
  5
23
330
1
100
AcDbSymbolTableRecord
100
AcDbBlockTableRecord
  2
*Paper_Space0
340
26
  0
ENDTAB
  0
ENDSEC
  0
SECTION
  2
BLOCKS
  0
BLOCK
  5
20
330
1F
100
AcDbEntity
  8
0
100
AcDbBlockBegin
  2
*Model_Space
 70
     0
 10
0.0
 20
0.0
 30
0.0
  3
*Model_Space
  1

  0
ENDBLK
  5
21
330
1F
100
AcDbEntity
  8
0
100
AcDbBlockEnd
  0
BLOCK
  5
1C
330
1B
100
AcDbEntity
 67
     1
  8
0
100
AcDbBlockBegin
  2
*Paper_Space
 70
     0
 10
0.0
 20
0.0
 30
0.0
  3
*Paper_Space
  1

  0
ENDBLK
  5
1D
330
1B
100
AcDbEntity
 67
     1
  8
0
100
AcDbBlockEnd
  0
BLOCK
  5
24
330
23
100
AcDbEntity
  8
0
100
AcDbBlockBegin
  2
*Paper_Space0
 70
     0
 10
0.0
 20
0.0
 30
0.0
  3
*Paper_Space0
  1

  0
ENDBLK
  5
25
330
23
100
AcDbEntity
  8
0
100
AcDbBlockEnd
  0
ENDSEC
  0
SECTION
  2
ENTITIES
  0
ARC
  5
73
330
1F
100
AcDbEntity
  8
0
  6
Continuous
 62
     7
100
AcDbCircle
 10
6398.2668464675
 20
5419.7707276812
 30
0.0
 40
0.6676204502500696
100
AcDbArc
 50
180.0
 51
0.0
  0
ARC
  5
74
330
1F
100
AcDbEntity
  8
0
  6
Continuous
 62
     7
100
AcDbCircle
 10
6399.7989873325
 20
5422.711747259
 30
0.0
 40
0.2401101162878661
100
AcDbArc
 50
0.00539454
 51
89.9981614286
  0
ARC
  5
75
330
1F
100
AcDbEntity
  8
0
  6
Continuous
 62
     7
100
AcDbCircle
 10
6400.7067141727
 20
5419.7707276812
 30
0.0
 40
0.6676167249506761
100
AcDbArc
 50
180.0
 51
0.0
  0
ARC
  5
76
330
1F
100
AcDbEntity
  8
0
  6
Continuous
 62
     7
100
AcDbCircle
 10
6403.2692966655
 20
5419.7707276812
 30
0.0
 40
0.6676167250006984
100
AcDbArc
 50
180.0
 51
0.0
  0
ARC
  5
77
330
1F
100
AcDbEntity
  8
0
  6
Continuous
 62
     7
100
AcDbCircle
 10
6404.1770235057
 20
5421.2862425745
 30
0.0
 40
0.2401101162891489
100
AcDbArc
 50
89.9982828277
 51
179.994605432
  0
ARC
  5
78
330
1F
100
AcDbEntity
  8
0
  6
Continuous
 62
     7
100
AcDbCircle
 10
6401.5531613512
 20
5413.4031022571
 30
0.0
 40
3.526000550638317
100
AcDbArc
 50
269.9999737073
 51
0.0000262927
  0
ARC
  5
79
330
1F
100
AcDbEntity
  8
0
  6
Continuous
 62
     7
100
AcDbCircle
 10
6399.1859395329
 20
5415.1700320342
 30
0.0
 40
5.292930327734905
100
AcDbArc
 50
180.0000873502
 51
269.9999126487
  0
ARC
  5
7A
330
1F
100
AcDbEntity
  8
0
  6
Continuous
 62
     7
100
AcDbCircle
 10
6393.5496901767
 20
5418.1155018127
 30
0.0
 40
1.539412885871352
100
AcDbArc
 50
359.999072524
 51
77.1135575098
  0
ARC
  5
7B
330
1F
100
AcDbEntity
  8
0
  6
Continuous
 62
     7
100
AcDbCircle
 10
6397.0117849901
 20
5427.4415772429
 30
0.0
 40
0.5874410271499073
100
AcDbArc
 50
0.0
 51
180.0
  0
ARC
  5
7C
330
1F
100
AcDbEntity
  8
0
  6
Continuous
 62
     7
100
AcDbCircle
 10
6399.174577033
 20
5422.7117472589
 30
0.0
 40
0.2401101162878777
100
AcDbArc
 50
90.0000606875
 51
179.9946054304
  0
ARC
  5
7D
330
1F
100
AcDbEntity
  8
0
  6
Continuous
 62
     7
100
AcDbCircle
 10
6404.8390517866
 20
5421.2862425745
 30
0.0
 40
0.2401101162869658
100
AcDbArc
 50
0.0053945635
 51
89.9981614527
  0
ARC
  5
7E
330
1F
100
AcDbEntity
  8
0
  6
Continuous
 62
     7
100
AcDbCircle
 10
6401.6144410138
 20
5422.2026043833
 30
0.0
 40
0.2401101162873042
100
AcDbArc
 50
89.9982830317
 51
180.0017169681
  0
ARC
  5
7F
330
1F
100
AcDbEntity
  8
0
  6
Continuous
 62
     7
100
AcDbCircle
 10
6402.3615698243
 20
5422.2026043833
 30
0.0
 40
0.2401101162873042
100
AcDbArc
 50
359.9982830319
 51
90.0017169683
  0
ARC
  5
80
330
1F
100
AcDbEntity
  8
0
  6
Continuous
 62
     7
100
AcDbCircle
 10
6395.7567235127
 20
5416.1610703936
 30
0.0
 40
0.6676204503000918
100
AcDbArc
 50
180.0
 51
0.0
  0
CIRCLE
  5
81
330
1F
100
AcDbEntity
  8
0
  6
Continuous
 62
     7
100
AcDbCircle
 10
6399.0187553361
 20
5418.6994545927
 30
0.0
 40
12.49999999999909
  0
ARC
  5
82
330
1F
100
AcDbEntity
  8
0
  6
Continuous
 62
     7
100
AcDbCircle
 10
6393.5496938423
 20
5418.1154773625
 30
0.0
 40
2.569012885872882
100
AcDbArc
 50
44.0945123102
 51
105.494190576
  0
ARC
  5
83
330
1F
100
AcDbEntity
  8
0
  6
Continuous
 62
     7
100
AcDbCircle
 10
6399.1859363496
 20
5415.1700214004
 30
0.0
 40
6.322530327733668
100
AcDbArc
 50
179.9999767604
 51
269.9999557211
  0
ARC
  5
84
330
1F
100
AcDbEntity
  8
0
  6
Continuous
 62
     7
100
AcDbCircle
 10
6402.2776642956
 20
5422.1884513215
 30
0.0
 40
1.353611246209167
100
AcDbArc
 50
10.1401262668
 51
89.9997969993
  0
ARC
  5
85
330
1F
100
AcDbEntity
  8
0
  6
Continuous
 62
     7
100
AcDbCircle
 10
6404.7551463883
 20
5421.2398732022
 30
0.0
 40
1.353611246210274
100
AcDbArc
 50
359.9995667043
 51
89.9998025618
  0
ARC
  5
86
330
1F
100
AcDbEntity
  8
0
  6
Continuous
 62
     7
100
AcDbCircle
 10
6401.5531570839
 20
5413.4030916233
 30
0.0
 40
4.555600550636986
100
AcDbArc
 50
270.0000333192
 51
0.0001540917
  0
ARC
  5
87
330
1F
100
AcDbEntity
  8
0
  6
Continuous
 62
     7
100
AcDbCircle
 10
6404.2609442451
 20
5421.2398732023
 30
0.0
 40
1.353611246210264
100
AcDbArc
 50
90.0008468002
 51
118.7374546769
  0
ARC
  5
88
330
1F
100
AcDbEntity
  8
0
  6
Continuous
 62
     7
100
AcDbCircle
 10
6397.0117849901
 20
5427.4415772429
 30
0.0
 40
1.617044210450331
100
AcDbArc
 50
0.0
 51
180.0
  0
ARC
  5
89
330
1F
100
AcDbEntity
  8
0
  6
Continuous
 62
     7
100
AcDbCircle
 10
6399.7150901243
 20
5422.6975941972
 30
0.0
 40
1.353611246208006
100
AcDbArc
 50
26.4594098519
 51
90.0001492301
  0
ARC
  5
8A
330
1F
100
AcDbEntity
  8
0
  6
Continuous
 62
     7
100
AcDbCircle
 10
6399.2584768596
 20
5422.6975941972
 30
0.0
 40
1.353611246209378
100
AcDbArc
 50
90.0002769677
 51
117.7206660043
  0
ARC
  5
8B
330
1F
100
AcDbEntity
  8
0
  6
Continuous
 62
     7
100
AcDbCircle
 10
6401.6983606009
 20
5422.1884513216
 30
0.0
 40
1.3536112462092
100
AcDbArc
 50
90.0007980679
 51
124.744624908
  0
CIRCLE
  5
8C
330
1F
100
AcDbEntity
  8
0
  6
Continuous
 62
     7
100
AcDbCircle
 10
6399.0187553361
 20
5418.6994545927
 30
0.0
 40
13.99999999999909
  0
ARC
  5
8D
330
1F
100
AcDbEntity
  8
0
  6
Continuous
 62
     7
100
AcDbCircle
 10
6462.5116988123
 20
4953.1829826262
 30
0.0
 40
4.533935063656738
100
AcDbArc
 50
278.5516264934
 51
6.5409034042
  0
ARC
  5
8E
330
1F
100
AcDbEntity
  8
0
  6
Continuous
 62
     7
100
AcDbCircle
 10
6462.5116738067
 20
5244.2159167273
 30
0.0
 40
4.53396029293593
100
AcDbArc
 50
353.459089995
 51
81.4481019001
  0
ARC
  5
8F
330
1F
100
AcDbEntity
  8
0
  6
Continuous
 62
     7
100
AcDbCircle
 10
6085.5258368655
 20
5244.2159167273
 30
0.0
 40
4.533960292937619
100
AcDbArc
 50
98.5518980999
 51
186.540910005
  0
ARC
  5
90
330
1F
100
AcDbEntity
  8
0
  6
Continuous
 62
     7
100
AcDbCircle
 10
6085.5258118599
 20
4953.1829826262
 30
0.0
 40
4.533935063656635
100
AcDbArc
 50
173.4590965958
 51
261.4483735066
  0
ARC
  5
91
330
1F
100
AcDbEntity
  8
0
  6
Continuous
 62
     7
100
AcDbCircle
 10
6047.2396501692
 20
5244.2159109752
 30
0.0
 40
4.533967097783361
100
AcDbArc
 50
98.5519811275
 51
186.5408269788
  0
ARC
  5
92
330
1F
100
AcDbEntity
  8
0
  6
Continuous
 62
     7
100
AcDbCircle
 10
6047.2396251636
 20
4953.1829883784
 30
0.0
 40
4.533941868454561
100
AcDbArc
 50
173.4591796223
 51
261.4482904787
  0
ARC
  5
93
330
1F
100
AcDbEntity
  8
0
  6
Continuous
 62
     7
100
AcDbCircle
 10
6500.7978855086
 20
4953.1829883784
 30
0.0
 40
4.533941868452058
100
AcDbArc
 50
278.5517095213
 51
6.5408203777
  0
ARC
  5
94
330
1F
100
AcDbEntity
  8
0
  6
Continuous
 62
     7
100
AcDbCircle
 10
6500.797860503
 20
5244.2159109752
 30
0.0
 40
4.533967097783361
100
AcDbArc
 50
353.4591730212
 51
81.4480188725
  0
ARC
  5
95
330
1F
100
AcDbEntity
  8
0
  6
Continuous
 62
     7
100
AcDbCircle
 10
6029.0187553361
 20
4953.6994545927
 30
0.0
 40
5.000000000000002
100
AcDbArc
 50
180.00000128
 51
269.9999453582
  0
ARC
  5
96
330
1F
100
AcDbEntity
  8
0
  6
Continuous
 62
     7
100
AcDbCircle
 10
6029.018755336
 20
5243.6994665136
 30
0.0
 40
4.999999999999915
100
AcDbArc
 50
90.0000546411
 51
180.0002868674
  0
ARC
  5
97
330
1F
100
AcDbEntity
  8
0
  6
Continuous
 62
     7
100
AcDbCircle
 10
6519.0187553362
 20
5243.6994665136
 30
0.0
 40
4.999999999999915
100
AcDbArc
 50
359.9997131326
 51
89.9999453589
  0
ARC
  5
98
330
1F
100
AcDbEntity
  8
0
  6
Continuous
 62
     7
100
AcDbCircle
 10
6519.0187553361
 20
4953.6994545927
 30
0.0
 40
5.000000000000002
100
AcDbArc
 50
270.0000546418
 51
359.99999872
  0
ARC
  5
99
330
1F
100
AcDbEntity
  8
0
  6
Continuous
 62
     7
100
AcDbCircle
 10
6519.0187553361
 20
5473.6994259825
 30
0.0
 40
5.000000000000455
100
AcDbArc
 50
0.0000546418
 51
89.9999453582
  0
ARC
  5
9A
330
1F
100
AcDbEntity
  8
0
  6
Continuous
 62
     7
100
AcDbCircle
 10
6029.0187553361
 20
5473.6994259825
 30
0.0
 40
5.000000000000455
100
AcDbArc
 50
90.0000546418
 51
179.9999453582
  0
ARC
  5
9B
330
1F
100
AcDbEntity
  8
0
  6
Continuous
 62
     7
100
AcDbCircle
 10
6274.0187553361
 20
5365.0508851883
 30
0.0
 40
18.39069304258822
100
AcDbArc
 50
85.3215875782
 51
94.6784124218
  0
ARC
  5
9C
330
1F
100
AcDbEntity
  8
0
  6
Continuous
 62
     7
100
AcDbCircle
 10
6271.5995861289
 20
5373.9736515625
 30
0.0
 40
9.100092179108463
100
AcDbArc
 50
109.0774996184
 51
124.0527939109
  0
ARC
  5
9D
330
1F
100
AcDbEntity
  8
0
  6
Continuous
 62
     7
100
AcDbCircle
 10
6267.1349027396
 20
5378.8165252676
 30
0.0
 40
2.365749081216032
100
AcDbArc
 50
161.5168024148
 51
198.4831975852
  0
ARC
  5
9E
330
1F
100
AcDbEntity
  8
0
  6
Continuous
 62
     7
100
AcDbCircle
 10
6269.2306045467
 20
5381.0471745091
 30
0.0
 40
4.891782000218269
100
AcDbArc
 50
217.5402603361
 51
236.1238833249
  0
ARC
  5
9F
330
1F
100
AcDbEntity
  8
0
  6
Continuous
 62
     7
100
AcDbCircle
 10
6271.5978805044
 20
5383.655987738
 30
0.0
 40
9.096310834231037
100
AcDbArc
 50
235.9440756146
 51
250.9256308561
  0
ARC
  5
A0
330
1F
100
AcDbEntity
  8
0
  6
Continuous
 62
     7
100
AcDbCircle
 10
6273.6947570378
 20
5390.6735001187
 30
0.0
 40
15.59911975337274
100
AcDbArc
 50
252.4222328088
 51
265.6764275527
  0
ARC
  5
A1
330
1F
100
AcDbEntity
  8
0
  6
Continuous
 62
     7
100
AcDbCircle
 10
6274.0187553361
 20
5392.5791793324
 30
0.0
 40
18.38771697845046
100
AcDbArc
 50
265.3208286863
 51
274.6791713137
  0
ARC
  5
A2
330
1F
100
AcDbEntity
  8
0
  6
Continuous
 62
     7
100
AcDbCircle
 10
6274.3427536344
 20
5390.6735001187
 30
0.0
 40
15.59911975337274
100
AcDbArc
 50
274.3235724473
 51
287.5777671912
  0
ARC
  5
A3
330
1F
100
AcDbEntity
  8
0
  6
Continuous
 62
     7
100
AcDbCircle
 10
6276.4396301678
 20
5383.655987738
 30
0.0
 40
9.09631083423179
100
AcDbArc
 50
289.0743691439
 51
304.0559243854
  0
ARC
  5
A4
330
1F
100
AcDbEntity
  8
0
  6
Continuous
 62
     7
100
AcDbCircle
 10
6278.8069061255
 20
5381.0471745091
 30
0.0
 40
4.891782000218279
100
AcDbArc
 50
303.8761166752
 51
322.4597396639
  0
ARC
  5
A5
330
1F
100
AcDbEntity
  8
0
  6
Continuous
 62
     7
100
AcDbCircle
 10
6280.9026079326
 20
5378.8165252676
 30
0.0
 40
2.365749081215169
100
AcDbArc
 50
341.5168024148
 51
18.4831975852
  0
ARC
  5
A6
330
1F
100
AcDbEntity
  8
0
  6
Continuous
 62
     7
100
AcDbCircle
 10
6276.4379245433
 20
5373.9736515625
 30
0.0
 40
9.100092179108463
100
AcDbArc
 50
55.9472060891
 51
70.9225003816
  0
ARC
  5
A7
330
1F
100
AcDbEntity
  8
0
  6
Continuous
 62
     7
100
AcDbCircle
 10
6274.0187553361
 20
5365.8054742527
 30
0.0
 40
17.38609922434675
100
AcDbArc
 50
85.0506063399
 51
94.9493936601
  0
ARC
  5
A8
330
1F
100
AcDbEntity
  8
0
  6
Continuous
 62
     7
100
AcDbCircle
 10
6279.5345742459
 20
5379.5157754611
 30
0.0
 40
2.739262684491376
100
AcDbArc
 50
3.4905177826
 51
45.5828312865
  0
ARC
  5
A9
330
1F
100
AcDbEntity
  8
0
  6
Continuous
 62
     7
100
AcDbCircle
 10
6276.3055234134
 20
5384.2523741869
 30
0.0
 40
8.598923820356124
100
AcDbArc
 50
288.6383725549
 51
304.4919209701
  0
ARC
  5
AA
330
1F
100
AcDbEntity
  8
0
  6
Continuous
 62
     7
100
AcDbCircle
 10
6274.0187553361
 20
5392.6935721665
 30
0.0
 40
17.38609922434675
100
AcDbArc
 50
265.0506063399
 51
274.9493936601
  0
ARC
  5
AB
330
1F
100
AcDbEntity
  8
0
  6
Continuous
 62
     7
100
AcDbCircle
 10
6271.7319872588
 20
5384.2523741869
 30
0.0
 40
8.598923820357287
100
AcDbArc
 50
235.5080790299
 51
251.3616274451
  0
ARC
  5
AC
330
1F
100
AcDbEntity
  8
0
  6
Continuous
 62
     7
100
AcDbCircle
 10
6279.2201092732
 20
5380.8997207984
 30
0.0
 40
3.103760032755468
100
AcDbArc
 50
306.6801161626
 51
345.3654866571
  0
ARC
  5
AD
330
1F
100
AcDbEntity
  8
0
  6
Continuous
 62
     7
100
AcDbCircle
 10
6268.817401399
 20
5380.8997207984
 30
0.0
 40
3.103760032756319
100
AcDbArc
 50
194.6345133429
 51
233.3198838374
  0
ARC
  5
AE
330
1F
100
AcDbEntity
  8
0
  6
Continuous
 62
     7
100
AcDbCircle
 10
6276.3040003449
 20
5374.243655911
 30
0.0
 40
8.60229696512757
100
AcDbArc
 50
55.5112072575
 51
71.3584992132
  0
ARC
  5
AF
330
1F
100
AcDbEntity
  8
0
  6
Continuous
 62
     7
100
AcDbCircle
 10
6271.7335103273
 20
5374.243655911
 30
0.0
 40
8.6022969651271
100
AcDbArc
 50
108.6415007868
 51
124.4887927425
  0
ARC
  5
B0
330
1F
100
AcDbEntity
  8
0
  6
Continuous
 62
     7
100
AcDbCircle
 10
6273.5220584641
 20
5371.9642603223
 30
0.0
 40
11.43662304974809
100
AcDbArc
 50
95.0328691083
 51
113.3792843799
  0
ARC
  5
B1
330
1F
100
AcDbEntity
  8
0
  6
Continuous
 62
     7
100
AcDbCircle
 10
6274.5222431127
 20
5371.9910857519
 30
0.0
 40
11.40930615024546
100
AcDbArc
 50
66.5985622371
 51
84.9892842747
  0
ARC
  5
B2
330
1F
100
AcDbEntity
  8
0
  6
Continuous
 62
     7
100
AcDbCircle
 10
6278.2793597394
 20
5379.1870681179
 30
0.0
 40
3.277069725676469
100
AcDbArc
 50
8.6962959553
 51
66.0243414578
  0
ARC
  5
B3
330
1F
100
AcDbEntity
  8
0
  6
Continuous
 62
     7
100
AcDbCircle
 10
6280.524516915
 20
5378.8165252676
 30
0.0
 40
2.243768896078265
100
AcDbArc
 50
340.472372038
 51
19.527627962
  0
ARC
  5
B4
330
1F
100
AcDbEntity
  8
0
  6
Continuous
 62
     7
100
AcDbCircle
 10
6267.5129937572
 20
5378.8165252676
 30
0.0
 40
2.243768896077408
100
AcDbArc
 50
160.472372038
 51
199.527627962
  0
ARC
  5
B5
330
1F
100
AcDbEntity
  8
0
  6
Continuous
 62
     7
100
AcDbCircle
 10
6276.3055234131
 20
5383.3863485005
 30
0.0
 40
8.598923820356616
100
AcDbArc
 50
288.6383725569
 51
304.4919209724
  0
ARC
  5
B6
330
1F
100
AcDbEntity
  8
0
  6
Continuous
 62
     7
100
AcDbCircle
 10
6271.7319872591
 20
5383.3863485005
 30
0.0
 40
8.598923820356916
100
AcDbArc
 50
235.5080790276
 51
251.3616274431
  0
ARC
  5
B7
330
1F
100
AcDbEntity
  8
0
  6
Continuous
 62
     7
100
AcDbCircle
 10
6274.0187553361
 20
5391.8275464802
 30
0.0
 40
17.38609922434675
100
AcDbArc
 50
265.0506063399
 51
274.9493936601
  0
ARC
  5
B8
330
1F
100
AcDbEntity
  8
0
  6
Continuous
 62
     7
100
AcDbCircle
 10
7034.1020474107
 20
5253.6994414797
 30
0.0
 40
10.00000000000234
100
AcDbArc
 50
179.9998838867
 51
269.9999880471
  0
ARC
  5
B9
330
1F
100
AcDbEntity
  8
0
  6
Continuous
 62
     7
100
AcDbCircle
 10
6954.1020444305
 20
5473.6994258708
 30
0.0
 40
4.999999888303138
100
AcDbArc
 50
90.0000012811
 51
179.9999453581
  0
ARC
  5
BA
330
1F
100
AcDbEntity
  8
0
  6
Continuous
 62
     7
100
AcDbCircle
 10
6954.1020444305
 20
4953.699454481
 30
0.0
 40
4.99999988830041
100
AcDbArc
 50
180.00000128
 51
269.9999987189
  0
ARC
  5
BB
330
1F
100
AcDbEntity
  8
0
  6
Continuous
 62
     7
100
AcDbCircle
 10
7034.1020425306
 20
5253.6994665136
 30
0.0
 40
5.000000000001364
100
AcDbArc
 50
180.0000546407
 51
270.0000320157
  0
ARC
  5
BC
330
1F
100
AcDbEntity
  8
0
  6
Continuous
 62
     7
100
AcDbCircle
 10
7024.1020426423
 20
5473.6994258708
 30
0.0
 40
4.99999988830632
100
AcDbArc
 50
0.0000546418
 51
89.9999453582
  0
ARC
  5
BD
330
1F
100
AcDbEntity
  8
0
  6
Continuous
 62
     7
100
AcDbCircle
 10
7404.1020527752
 20
5243.6994665136
 30
0.0
 40
5.000000000000824
100
AcDbArc
 50
359.9997131326
 51
89.9999453589
  0
ARC
  5
BE
330
1F
100
AcDbEntity
  8
0
  6
Continuous
 62
     7
100
AcDbCircle
 10
7404.1020527751
 20
4953.6994545927
 30
0.0
 40
5.000000000000455
100
AcDbArc
 50
270.0000546418
 51
359.99999872
  0
ARC
  5
BF
330
1F
100
AcDbEntity
  8
0
  6
Continuous
 62
     7
100
AcDbCircle
 10
6274.0187553361
 20
4248.8620627978
 30
0.0
 40
5.250000000001333
100
AcDbArc
 50
98.2132107017
 51
261.7867892983
  0
ARC
  5
C0
330
1F
100
AcDbEntity
  8
0
  6
Continuous
 62
     7
100
AcDbCircle
 10
6274.0187553361
 20
4248.8620627978
 30
0.0
 40
5.250000000000553
100
AcDbArc
 50
278.2132107017
 51
81.7867892983
  0
ARC
  5
C1
330
1F
100
AcDbEntity
  8
0
  6
Continuous
 62
     7
100
AcDbCircle
 10
6274.0187553361
 20
4248.8620627978
 30
0.0
 40
5.250000000001333
100
AcDbArc
 50
81.7867892983
 51
98.2132107017
  0
ARC
  5
C2
330
1F
100
AcDbEntity
  8
0
  6
Continuous
 62
     7
100
AcDbCircle
 10
6274.0187553361
 20
4248.8620627978
 30
0.0
 40
5.250000000000433
100
AcDbArc
 50
261.7867892983
 51
278.2132107017
  0
ARC
  5
C3
330
1F
100
AcDbEntity
  8
0
  6
Continuous
 62
     7
100
AcDbCircle
 10
6519.0187553361
 20
4519.1748685711
 30
0.0
 40
5.000000000000002
100
AcDbArc
 50
0.00000128
 51
89.9999453582
  0
ARC
  5
C4
330
1F
100
AcDbEntity
  8
0
  6
Continuous
 62
     7
100
AcDbCircle
 10
6029.0187553361
 20
4519.1748685711
 30
0.0
 40
5.000000000000911
100
AcDbArc
 50
90.0000546418
 51
179.99999872
  0
ARC
  5
C5
330
1F
100
AcDbEntity
  8
0
  6
Continuous
 62
     7
100
AcDbCircle
 10
6029.0187553361
 20
4449.1748703592
 30
0.0
 40
4.999999999999545
100
AcDbArc
 50
180.0000546418
 51
269.9999453582
  0
ARC
  5
C6
330
1F
100
AcDbEntity
  8
0
  6
Continuous
 62
     7
100
AcDbCircle
 10
6519.0187553361
 20
4449.1748703592
 30
0.0
 40
4.999999999999545
100
AcDbArc
 50
270.0000546418
 51
359.9999453582
  0
ARC
  5
C7
330
1F
100
AcDbEntity
  8
0
  6
Continuous
 62
     7
100
AcDbCircle
 10
6444.0187601045
 20
4164.797702955
 30
0.0
 40
74.99999999999976
100
AcDbArc
 50
319.9999896421
 51
359.9999923961
  0
ARC
  5
C8
330
1F
100
AcDbEntity
  8
0
  6
Continuous
 62
     7
100
AcDbCircle
 10
6459.3556539711
 20
4074.1748525914
 30
0.0
 40
4.999995540387058
100
AcDbArc
 50
270.0001786195
 51
320.0003146077
  0
ARC
  5
C9
330
1F
100
AcDbEntity
  8
0
  6
Continuous
 62
     7
100
AcDbCircle
 10
6088.6818498685
 20
4074.1748525914
 30
0.0
 40
4.99999554038685
100
AcDbArc
 50
219.9996853923
 51
269.9998213805
  0
ARC
  5
CA
330
1F
100
AcDbEntity
  8
0
  6
Continuous
 62
     7
100
AcDbCircle
 10
6104.0187505677
 20
4164.7976948123
 30
0.0
 40
75.00000000000003
100
AcDbArc
 50
180.0000013834
 51
220.0000022375
  0
ARC
  5
CB
330
1F
100
AcDbEntity
  8
0
  6
Continuous
 62
     7
100
AcDbCircle
 10
6421.2589231643
 20
4424.1748648737
 30
0.0
 40
12.07106408661752
100
AcDbArc
 50
90.0000458405
 51
179.9999895231
  0
ARC
  5
CC
330
1F
100
AcDbEntity
  8
0
  6
Continuous
 62
     7
100
AcDbCircle
 10
6396.2589254072
 20
4424.1748648737
 30
0.0
 40
12.07107382061918
100
AcDbArc
 50
0.0000104769
 51
90.0000248881
  0
ARC
  5
CD
330
1F
100
AcDbEntity
  8
0
  6
Continuous
 62
     7
100
AcDbCircle
 10
6044.018762413
 20
4424.1748648737
 30
0.0
 40
12.07106940327708
100
AcDbArc
 50
90.0000458409
 51
179.9999895231
  0
ARC
  5
CE
330
1F
100
AcDbEntity
  8
0
  6
Continuous
 62
     7
100
AcDbCircle
 10
6104.0187608216
 20
4164.7977098392
 30
0.0
 40
72.071067811865
100
AcDbArc
 50
180.0000133858
 51
219.9999963454
  0
ARC
  5
CF
330
1F
100
AcDbEntity
  8
0
  6
Continuous
 62
     7
100
AcDbCircle
 10
6093.3449137804
 20
4084.1748657119
 30
0.0
 40
12.0710678118667
100
AcDbArc
 50
219.9999130803
 51
269.9999476927
  0
ARC
  5
D0
330
1F
100
AcDbEntity
  8
0
  6
Continuous
 62
     7
100
AcDbCircle
 10
6454.692596866
 20
4084.1748657119
 30
0.0
 40
12.07106781186707
100
AcDbArc
 50
270.0000523073
 51
320.0000869197
  0
ARC
  5
D1
330
1F
100
AcDbEntity
  8
0
  6
Continuous
 62
     7
100
AcDbCircle
 10
6444.0187669952
 20
4164.7977303021
 30
0.0
 40
72.07106781186529
100
AcDbArc
 50
319.9999824185
 51
359.9999768198
  0
ARC
  5
D2
330
1F
100
AcDbEntity
  8
0
  6
Continuous
 62
     7
100
AcDbCircle
 10
6504.0187595445
 20
4340.7376977657
 30
0.0
 40
12.07107526251639
100
AcDbArc
 50
0.0000491263
 51
90.0000001714
  0
ARC
  5
D3
330
1F
100
AcDbEntity
  8
0
  6
Continuous
 62
     7
100
AcDbCircle
 10
6504.0187498506
 20
4365.7377081406
 30
0.0
 40
12.07107526246478
100
AcDbArc
 50
270.000045841
 51
0.0000248881
  0
ARC
  5
D4
330
1F
100
AcDbEntity
  8
0
  6
Continuous
 62
     7
100
AcDbCircle
 10
6504.0187461253
 20
4424.1748648737
 30
0.0
 40
12.07106408666664
100
AcDbArc
 50
0.0000458416
 51
89.9999541588
  0
ARC
  5
D5
330
1F
100
AcDbEntity
  8
0
  6
Continuous
 62
     7
100
AcDbCircle
 10
6504.0187461253
 20
4424.1748648737
 30
0.0
 40
8.535540075966317
100
AcDbArc
 50
0.0000648298
 51
89.9999351708
  0
ARC
  5
D6
330
1F
100
AcDbEntity
  8
0
  6
Continuous
 62
     7
100
AcDbCircle
 10
6396.2589254072
 20
4424.1748648737
 30
0.0
 40
8.535534908820201
100
AcDbArc
 50
0.0000148166
 51
90.0000351971
  0
ARC
  5
D7
330
1F
100
AcDbEntity
  8
0
  6
Continuous
 62
     7
100
AcDbCircle
 10
6421.2589231643
 20
4424.1748648737
 30
0.0
 40
8.535540075917204
100
AcDbArc
 50
90.0000648282
 51
179.9999851835
  0
ARC
  5
D8
330
1F
100
AcDbEntity
  8
0
  6
Continuous
 62
     7
100
AcDbCircle
 10
6044.018762413
 20
4424.1748648737
 30
0.0
 40
8.53554242168258
100
AcDbArc
 50
90.0000648288
 51
179.9999851835
  0
ARC
  5
D9
330
1F
100
AcDbEntity
  8
0
  6
Continuous
 62
     7
100
AcDbCircle
 10
6504.0187498506
 20
4365.7377081406
 30
0.0
 40
8.535536350666922
100
AcDbArc
 50
270.0000648289
 51
0.0000351972
  0
ARC
  5
DA
330
1F
100
AcDbEntity
  8
0
  6
Continuous
 62
     7
100
AcDbCircle
 10
6504.0187595445
 20
4340.7376977657
 30
0.0
 40
8.535536350615985
100
AcDbArc
 50
0.0000694751
 51
90.0000002424
  0
ARC
  5
DB
330
1F
100
AcDbEntity
  8
0
  6
Continuous
 62
     7
100
AcDbCircle
 10
6444.0187553361
 20
4164.7976908148
 30
0.0
 40
80.00000000000003
100
AcDbArc
 50
319.9999978976
 51
0.0000015661
  0
ARC
  5
DC
330
1F
100
AcDbEntity
  8
0
  6
Continuous
 62
     7
100
AcDbCircle
 10
6104.0187505677
 20
4164.7976948123
 30
0.0
 40
68.53553057640605
100
AcDbArc
 50
180.0000015138
 51
220.0000053328
  0
ARC
  5
DD
330
1F
100
AcDbEntity
  8
0
  6
Continuous
 62
     7
100
AcDbCircle
 10
6104.0187553361
 20
4164.7976826721
 30
0.0
 40
79.99999999999976
100
AcDbArc
 50
179.9999926021
 51
219.9999944895
  0
ARC
  5
DE
330
1F
100
AcDbEntity
  8
0
  6
Continuous
 62
     7
100
AcDbCircle
 10
6444.0187601045
 20
4164.797702955
 30
0.0
 40
68.53553579062194
100
AcDbArc
 50
319.9999894386
 51
359.9999984862
  0
ARC
  5
DF
330
1F
100
AcDbEntity
  8
0
  6
Continuous
 62
     7
100
AcDbCircle
 10
6454.6926195829
 20
4084.1748707177
 30
0.0
 40
8.535533905934528
100
AcDbArc
 50
269.9999214835
 51
319.9998924585
  0
ARC
  5
E0
330
1F
100
AcDbEntity
  8
0
  6
Continuous
 62
     7
100
AcDbCircle
 10
6093.3448910634
 20
4084.1748707177
 30
0.0
 40
8.535533905933619
100
AcDbArc
 50
220.0001075415
 51
270.0000785165
  0
ARC
  5
E1
330
1F
100
AcDbEntity
  8
0
  6
Continuous
 62
     7
100
AcDbCircle
 10
6459.3556539711
 20
4074.1748525914
 30
0.0
 40
9.999999691201408
100
AcDbArc
 50
270.0000893097
 51
320.0001473228
  0
ARC
  5
E2
330
1F
100
AcDbEntity
  8
0
  6
Continuous
 62
     7
100
AcDbCircle
 10
6088.6818498685
 20
4074.1748525914
 30
0.0
 40
9.999999691200744
100
AcDbArc
 50
219.9998526772
 51
269.9999106903
  0
ARC
  5
E3
330
1F
100
AcDbEntity
  8
0
  6
Continuous
 62
     7
100
AcDbCircle
 10
6411.2589131481
 20
4380.7377015235
 30
0.0
 40
3.53553390593324
100
AcDbArc
 50
270.0002207293
 51
0.0000811238
  0
ARC
  5
E4
330
1F
100
AcDbEntity
  8
0
  6
Continuous
 62
     7
100
AcDbCircle
 10
6436.2589277232
 20
4350.7377084741
 30
0.0
 40
3.535533905956554
100
AcDbArc
 50
180.0000508346
 51
269.9998396409
  0
ARC
  5
E5
330
1F
100
AcDbEntity
  8
0
  6
Continuous
 62
     7
100
AcDbCircle
 10
6406.258926531
 20
4380.7377015235
 30
0.0
 40
3.53553390593324
100
AcDbArc
 50
179.9999188764
 51
270.0000811252
  0
ARC
  5
E6
330
1F
100
AcDbEntity
  8
0
  6
Continuous
 62
     7
100
AcDbCircle
 10
6436.2589277231
 20
4355.7377055749
 30
0.0
 40
3.53553390593415
100
AcDbArc
 50
90.0001603591
 51
180.0000811254
  0
ARC
  5
E7
330
1F
100
AcDbEntity
  8
0
  6
Continuous
 62
     7
100
AcDbCircle
 10
6504.0187598669
 20
4424.1748748901
 30
0.0
 40
6.464466094067046
100
AcDbArc
 50
359.9999968223
 51
90.0000361953
  0
ARC
  5
E8
330
1F
100
AcDbEntity
  8
0
  6
Continuous
 62
     7
100
AcDbCircle
 10
6421.2589131481
 20
4424.1748748901
 30
0.0
 40
6.464466094067585
100
AcDbArc
 50
89.9999968223
 51
180.0000692138
  0
ARC
  5
E9
330
1F
100
AcDbEntity
  8
0
  6
Continuous
 62
     7
100
AcDbCircle
 10
6044.0187508053
 20
4424.1748674395
 30
0.0
 40
6.464466094066959
100
AcDbArc
 50
89.9999827173
 51
180.0000031777
  0
ARC
  5
EA
330
1F
100
AcDbEntity
  8
0
  6
Continuous
 62
     7
100
AcDbCircle
 10
6396.2589254072
 20
4424.1748648737
 30
0.0
 40
6.464467217919641
100
AcDbArc
 50
0.0000195635
 51
90.0000464734
  0
ARC
  5
EB
330
1F
100
AcDbEntity
  8
0
  6
Continuous
 62
     7
100
AcDbCircle
 10
6504.0187598669
 20
4365.7377055749
 30
0.0
 40
6.464466094067585
100
AcDbArc
 50
269.9999968222
 51
0.0000692138
  0
ARC
  5
EC
330
1F
100
AcDbEntity
  8
0
  6
Continuous
 62
     7
100
AcDbCircle
 10
6504.0187598411
 20
4340.7377084742
 30
0.0
 40
6.464466094066675
100
AcDbArc
 50
359.9999968223
 51
90.0000029484
  0
ARC
  5
ED
330
1F
100
AcDbEntity
  8
0
  6
Continuous
 62
     7
100
AcDbCircle
 10
6444.0187598411
 20
4164.7977087219
 30
0.0
 40
66.46446609406802
100
AcDbArc
 50
319.9999959003
 51
359.9999934676
  0
ARC
  5
EE
330
1F
100
AcDbEntity
  8
0
  6
Continuous
 62
     7
100
AcDbCircle
 10
6104.0187508053
 20
4164.7977087219
 30
0.0
 40
66.46446609406671
100
AcDbArc
 50
180.0000135518
 51
220.0000040997
  0
ARC
  5
EF
330
1F
100
AcDbEntity
  8
0
  6
Continuous
 62
     7
100
AcDbCircle
 10
6093.3449261194
 20
4084.1748556847
 30
0.0
 40
6.464466077178405
100
AcDbArc
 50
219.9998176284
 51
269.9997929634
  0
ARC
  5
F0
330
1F
100
AcDbEntity
  8
0
  6
Continuous
 62
     7
100
AcDbCircle
 10
6454.6925845269
 20
4084.1748556847
 30
0.0
 40
6.464466077178405
100
AcDbArc
 50
270.0002070366
 51
320.0001823716
  0
ARC
  5
F1
330
1F
100
AcDbEntity
  8
0
  6
Continuous
 62
     7
100
AcDbCircle
 10
6396.2589254072
 20
4424.1748648737
 30
0.0
 40
2.928929747968973
100
AcDbArc
 50
0.0000431787
 51
90.0001025719
  0
ARC
  5
F2
330
1F
100
AcDbEntity
  8
0
  6
Continuous
 62
     7
100
AcDbCircle
 10
6044.018762413
 20
4424.1748648737
 30
0.0
 40
2.928937198573755
100
AcDbArc
 50
90.0001889249
 51
179.9999568216
  0
ARC
  5
F3
330
1F
100
AcDbEntity
  8
0
  6
Continuous
 62
     7
100
AcDbCircle
 10
6504.0187461253
 20
4424.1748648737
 30
0.0
 40
2.928938640375698
100
AcDbArc
 50
0.0001889276
 51
89.9998110742
  0
ARC
  5
F4
330
1F
100
AcDbEntity
  8
0
  6
Continuous
 62
     7
100
AcDbCircle
 10
6421.2589231643
 20
4424.1748648737
 30
0.0
 40
2.928938640326584
100
AcDbArc
 50
90.0001889229
 51
179.9999568216
  0
ARC
  5
F5
330
1F
100
AcDbEntity
  8
0
  6
Continuous
 62
     7
100
AcDbCircle
 10
6411.2589131481
 20
4380.7377015235
 30
0.0
 40
7.071071375871201
100
AcDbArc
 50
270.0001103646
 51
0.0000405619
  0
ARC
  5
F6
330
1F
100
AcDbEntity
  8
0
  6
Continuous
 62
     7
100
AcDbCircle
 10
6406.258926531
 20
4380.7377015235
 30
0.0
 40
7.071071375883501
100
AcDbArc
 50
179.9999594382
 51
270.0000405626
  0
ARC
  5
F7
330
1F
100
AcDbEntity
  8
0
  6
Continuous
 62
     7
100
AcDbCircle
 10
6436.2589277231
 20
4355.7377055749
 30
0.0
 40
7.071067650634734
100
AcDbArc
 50
90.0000801796
 51
180.0000405627
  0
ARC
  5
F8
330
1F
100
AcDbEntity
  8
0
  6
Continuous
 62
     7
100
AcDbCircle
 10
6504.0187498506
 20
4365.7377081406
 30
0.0
 40
2.928934915068713
100
AcDbArc
 50
270.0001889252
 51
0.000102572
  0
ARC
  5
F9
330
1F
100
AcDbEntity
  8
0
  6
Continuous
 62
     7
100
AcDbCircle
 10
6436.2589277232
 20
4350.7377084741
 30
0.0
 40
7.071067650635782
100
AcDbArc
 50
180.0000254173
 51
269.9999198205
  0
ARC
  5
FA
330
1F
100
AcDbEntity
  8
0
  6
Continuous
 62
     7
100
AcDbCircle
 10
6504.0187595445
 20
4340.7376977657
 30
0.0
 40
2.928943057822835
100
AcDbArc
 50
0.0002024647
 51
90.0000007064
  0
ARC
  5
FB
330
1F
100
AcDbEntity
  8
0
  6
Continuous
 62
     7
100
AcDbCircle
 10
6444.0187669952
 20
4164.7977303021
 30
0.0
 40
62.92893560715896
100
AcDbArc
 50
319.9999827447
 51
359.9999734522
  0
ARC
  5
FC
330
1F
100
AcDbEntity
  8
0
  6
Continuous
 62
     7
100
AcDbCircle
 10
6104.0187608216
 20
4164.7977098392
 30
0.0
 40
62.92893560716082
100
AcDbArc
 50
180.0000153304
 51
219.9999929341
  0
ARC
  5
FD
330
1F
100
AcDbEntity
  8
0
  6
Continuous
 62
     7
100
AcDbCircle
 10
6454.6925845269
 20
4084.1748556847
 30
0.0
 40
2.928927199208754
100
AcDbArc
 50
270.0004569527
 51
320.0005381539
  0
ARC
  5
FE
330
1F
100
AcDbEntity
  8
0
  6
Continuous
 62
     7
100
AcDbCircle
 10
6093.3449261194
 20
4084.1748556847
 30
0.0
 40
2.928927199209182
100
AcDbArc
 50
219.9994618461
 51
269.9995430474
  0
ARC
  5
FF
330
1F
100
AcDbEntity
  8
0
  6
Continuous
 62
     7
100
AcDbCircle
 10
6274.0187553361
 20
4248.8620627978
 30
0.0
 40
163.7833935415929
100
AcDbArc
 50
94.9035555093
 51
270.0
  0
ARC
  5
100
330
1F
100
AcDbEntity
  8
0
  6
Continuous
 62
     7
100
AcDbCircle
 10
6274.0187553361
 20
4248.8620627978
 30
0.0
 40
163.7833935415929
100
AcDbArc
 50
270.0
 51
85.0964444907
  0
ARC
  5
101
330
1F
100
AcDbEntity
  8
0
  6
Continuous
 62
     7
100
AcDbCircle
 10
6274.0187553361
 20
4248.8620627978
 30
0.0
 40
158.8202604039689
100
AcDbArc
 50
270.0
 51
84.9428153022
  0
ARC
  5
102
330
1F
100
AcDbEntity
  8
0
  6
Continuous
 62
     7
100
AcDbCircle
 10
6274.0187553361
 20
4248.8620627978
 30
0.0
 40
158.8202604039689
100
AcDbArc
 50
95.0571846978
 51
270.0
  0
ELLIPSE
  5
103
330
1F
100
AcDbEntity
  8
0
  6
Continuous
 62
     7
100
AcDbEllipse
 10
6274.0187553361
 20
5416.1483747457
 30
0.0
 11
0.0
 21
18.27570205065149
 31
0.0
210
0.0
220
0.0
230
1.0
 40
0.7660444431
 41
0.0
 42
1.570796326794897
  0
ELLIPSE
  5
104
330
1F
100
AcDbEntity
  8
0
  6
Continuous
 62
     7
100
AcDbEllipse
 10
6274.0187553361
 20
5416.1483747457
 30
0.0
 11
0.0
 21
18.27570205065149
 31
0.0
210
0.0
220
0.0
230
1.0
 40
0.7660444431
 41
4.7123889803847
 42
6.283185307179586
  0
LINE
  5
105
330
1F
100
AcDbEntity
  8
0
  6
Continuous
 62
     7
100
AcDbLine
 10
6404.8956242993
 20
5410.343329238
 30
0.0
 11
6405.019005914
 21
5410.2667372694
 31
0.0
  0
LINE
  5
106
330
1F
100
AcDbEntity
  8
0
  6
Continuous
 62
     7
100
AcDbLine
 10
6264.7687552169
 20
5379.5794349184
 30
0.0
 11
6264.7687552169
 21
5378.8165252676
 31
0.0
  0
LINE
  5
107
330
1F
100
AcDbEntity
  8
0
  6
Continuous
 62
     7
100
AcDbLine
 10
6283.2687554553
 20
5378.8165252676
 30
0.0
 11
6283.2687554553
 21
5379.5794349184
 31
0.0
  0
LINE
  5
108
330
1F
100
AcDbEntity
  8
0
  6
Continuous
 62
     7
100
AcDbLine
 10
6281.5187551685
 20
5379.6825509539
 30
0.0
 11
6281.5187551685
 21
5380.5485766401
 31
0.0
  0
LINE
  5
109
330
1F
100
AcDbEntity
  8
0
  6
Continuous
 62
     7
100
AcDbLine
 10
6266.5187555037
 20
5380.5485766401
 30
0.0
 11
6266.5187555037
 21
5379.6825509539
 31
0.0
  0
LINE
  5
10A
330
1F
100
AcDbEntity
  8
0
  6
Continuous
 62
     7
100
AcDbLine
 10
6260.0187553364
 20
5416.1483747457
 30
0.0
 11
6260.018754904
 21
5379.9137275686
 31
0.0
  0
LINE
  5
10B
330
1F
100
AcDbEntity
  8
0
  6
Continuous
 62
     7
100
AcDbLine
 10
6288.0187557682
 20
5379.9137275686
 30
0.0
 11
6288.0187553358
 21
5416.1483747457
 31
0.0
  0
LINE
  5
10C
330
1F
100
AcDbEntity
  8
0
  6
Continuous
 62
     7
100
AcDbLine
 10
6509.0187547401
 20
5463.6994402876
 30
0.0
 11
6474.0187583163
 21
5463.6994402876
 31
0.0
  0
LINE
  5
10D
330
1F
100
AcDbEntity
  8
0
  6
Continuous
 62
     7
100
AcDbLine
 10
6509.0187547401
 20
5449.5865505209
 30
0.0
 11
6509.0187547401
 21
5463.6994402876
 31
0.0
  0
LINE
  5
10E
330
1F
100
AcDbEntity
  8
0
  6
Continuous
 62
     7
100
AcDbLine
 10
6474.0187583163
 20
5463.6994402876
 30
0.0
 11
6474.0187583163
 21
5449.5865505209
 31
0.0
  0
LINE
  5
10F
330
1F
100
AcDbEntity
  8
0
  6
Continuous
 62
     7
100
AcDbLine
 10
6474.0187583163
 20
5449.5865505209
 30
0.0
 11
6509.0187547401
 21
5449.5865505209
 31
0.0
  0
LINE
  5
110
330
1F
100
AcDbEntity
  8
0
  6
Continuous
 62
     7
100
AcDbLine
 10
6398.9344669178
 20
5422.711769866
 30
0.0
 11
6398.9344669178
 21
5419.7707276812
 31
0.0
  0
LINE
  5
111
330
1F
100
AcDbEntity
  8
0
  6
Continuous
 62
     7
100
AcDbLine
 10
6399.7989950374
 20
5422.9518573752
 30
0.0
 11
6399.1745767787
 21
5422.9518573752
 31
0.0
  0
LINE
  5
112
330
1F
100
AcDbEntity
  8
0
  6
Continuous
 62
     7
100
AcDbLine
 10
6400.0390974477
 20
5419.7707276812
 30
0.0
 11
6400.0390974477
 21
5422.711769866
 31
0.0
  0
LINE
  5
113
330
1F
100
AcDbEntity
  8
0
  6
Continuous
 62
     7
100
AcDbLine
 10
6402.361562629
 20
5422.4427144995
 30
0.0
 11
6401.6144482091
 21
5422.4427144995
 31
0.0
  0
LINE
  5
114
330
1F
100
AcDbEntity
  8
0
  6
Continuous
 62
     7
100
AcDbLine
 10
6402.6016799405
 20
5419.7707276812
 30
0.0
 11
6402.6016799405
 21
5422.202597188
 31
0.0
  0
LINE
  5
115
330
1F
100
AcDbEntity
  8
0
  6
Continuous
 62
     7
100
AcDbLine
 10
6403.9369133905
 20
5421.2862651816
 30
0.0
 11
6403.9369133905
 21
5419.7707276812
 31
0.0
  0
LINE
  5
116
330
1F
100
AcDbEntity
  8
0
  6
Continuous
 62
     7
100
AcDbLine
 10
6404.8390594914
 20
5421.5263526907
 30
0.0
 11
6404.1770307019
 21
5421.5263526907
 31
0.0
  0
LINE
  5
117
330
1F
100
AcDbEntity
  8
0
  6
Continuous
 62
     7
100
AcDbLine
 10
6399.1859314635
 20
5409.8771017065
 30
0.0
 11
6401.5531597331
 21
5409.8771017065
 31
0.0
  0
LINE
  5
118
330
1F
100
AcDbEntity
  8
0
  6
Continuous
 62
     7
100
AcDbLine
 10
6396.424343963
 20
5427.4415772429
 30
0.0
 11
6396.424343963
 21
5416.1610703936
 31
0.0
  0
LINE
  5
119
330
1F
100
AcDbEntity
  8
0
  6
Continuous
 62
     7
100
AcDbLine
 10
6397.5992260173
 20
5419.7707276812
 30
0.0
 11
6397.5992260173
 21
5427.4415772429
 31
0.0
  0
LINE
  5
11A
330
1F
100
AcDbEntity
  8
0
  6
Continuous
 62
     7
100
AcDbLine
 10
6393.8930092052
 20
5419.6161430349
 30
0.0
 11
6393.8930092052
 21
5415.1700239649
 31
0.0
  0
LINE
  5
11B
330
1F
100
AcDbEntity
  8
0
  6
Continuous
 62
     7
100
AcDbLine
 10
6401.3743308976
 20
5422.202597188
 30
0.0
 11
6401.3743308976
 21
5419.7707276812
 31
0.0
  0
LINE
  5
11C
330
1F
100
AcDbEntity
  8
0
  6
Continuous
 62
     7
100
AcDbLine
 10
6405.0791619018
 20
5413.4031038752
 30
0.0
 11
6405.0791619018
 21
5421.2862651816
 31
0.0
  0
LINE
  5
11D
330
1F
100
AcDbEntity
  8
0
  6
Continuous
 62
     7
100
AcDbLine
 10
6395.0891030624
 20
5416.1610703936
 30
0.0
 11
6395.0891030624
 21
5418.1154768934
 31
0.0
  0
LINE
  5
11E
330
1F
100
AcDbEntity
  8
0
  6
Continuous
 62
     7
100
AcDbLine
 10
6392.8634060219
 20
5420.5911260119
 30
0.0
 11
6392.8634060219
 21
5415.1700239649
 31
0.0
  0
LINE
  5
11F
330
1F
100
AcDbEntity
  8
0
  6
Continuous
 62
     7
100
AcDbLine
 10
6404.7551510528
 20
5422.5934844484
 30
0.0
 11
6404.2609242395
 21
5422.5934844484
 31
0.0
  0
LINE
  5
120
330
1F
100
AcDbEntity
  8
0
  6
Continuous
 62
     7
100
AcDbLine
 10
6399.7150865987
 20
5424.0512054434
 30
0.0
 11
6399.2584703162
 21
5424.0512054434
 31
0.0
  0
LINE
  5
121
330
1F
100
AcDbEntity
  8
0
  6
Continuous
 62
     7
100
AcDbLine
 10
6406.1087576345
 20
5413.4031038752
 30
0.0
 11
6406.1087576345
 21
5421.2398629656
 31
0.0
  0
LINE
  5
122
330
1F
100
AcDbEntity
  8
0
  6
Continuous
 62
     7
100
AcDbLine
 10
6395.3947407797
 20
5427.4415772429
 30
0.0
 11
6395.3947407797
 21
5419.9031095972
 31
0.0
  0
LINE
  5
123
330
1F
100
AcDbEntity
  8
0
  6
Continuous
 62
     7
100
AcDbLine
 10
6399.1859314635
 20
5408.8474910727
 30
0.0
 11
6401.5531597331
 21
5408.8474910727
 31
0.0
  0
LINE
  5
124
330
1F
100
AcDbEntity
  8
0
  6
Continuous
 62
     7
100
AcDbLine
 10
6402.2776690915
 20
5423.5420625677
 30
0.0
 11
6401.6983417466
 21
5423.5420625677
 31
0.0
  0
LINE
  5
125
330
1F
100
AcDbEntity
  8
0
  6
Continuous
 62
     7
100
AcDbLine
 10
6398.6288292006
 20
5423.8958459368
 30
0.0
 11
6398.6288292006
 21
5427.4415772429
 31
0.0
  0
LINE
  5
126
330
1F
100
AcDbEntity
  8
0
  6
Continuous
 62
     7
100
AcDbLine
 10
6463.1858972505
 20
4948.6994545927
 30
0.0
 11
6459.3556729749
 21
4948.6994545927
 31
0.0
  0
LINE
  5
127
330
1F
100
AcDbEntity
  8
0
  6
Continuous
 62
     7
100
AcDbLine
 10
6459.3556729749
 20
4948.6994545927
 30
0.0
 11
6459.3556729749
 21
4953.699454481
 31
0.0
  0
LINE
  5
128
330
1F
100
AcDbEntity
  8
0
  6
Continuous
 62
     7
100
AcDbLine
 10
6459.3556729749
 20
4953.699454481
 30
0.0
 11
6467.0161215261
 21
4953.699454481
 31
0.0
  0
LINE
  5
129
330
1F
100
AcDbEntity
  8
0
  6
Continuous
 62
     7
100
AcDbLine
 10
6459.3556729749
 20
4948.6994545927
 30
0.0
 11
6088.6818376973
 21
4948.6994545927
 31
0.0
  0
LINE
  5
12A
330
1F
100
AcDbEntity
  8
0
  6
Continuous
 62
     7
100
AcDbLine
 10
6088.6818376973
 20
4948.6994545927
 30
0.0
 11
6088.6818376973
 21
4953.699454481
 31
0.0
  0
LINE
  5
12B
330
1F
100
AcDbEntity
  8
0
  6
Continuous
 62
     7
100
AcDbLine
 10
6088.6818376973
 20
4953.699454481
 30
0.0
 11
6459.3556729749
 21
4953.699454481
 31
0.0
  0
LINE
  5
12C
330
1F
100
AcDbEntity
  8
0
  6
Continuous
 62
     7
100
AcDbLine
 10
6467.0161215261
 20
5243.6994414797
 30
0.0
 11
6459.3556729749
 21
5243.6994414797
 31
0.0
  0
LINE
  5
12D
330
1F
100
AcDbEntity
  8
0
  6
Continuous
 62
     7
100
AcDbLine
 10
6459.3556729749
 20
5243.6994414797
 30
0.0
 11
6459.3556729749
 21
5248.6994665136
 31
0.0
  0
LINE
  5
12E
330
1F
100
AcDbEntity
  8
0
  6
Continuous
 62
     7
100
AcDbLine
 10
6459.3556729749
 20
5248.6994665136
 30
0.0
 11
6463.1858972505
 21
5248.6994665136
 31
0.0
  0
LINE
  5
12F
330
1F
100
AcDbEntity
  8
0
  6
Continuous
 62
     7
100
AcDbLine
 10
6459.3556729749
 20
4953.699454481
 30
0.0
 11
6459.3556729749
 21
5243.6994414797
 31
0.0
  0
LINE
  5
130
330
1F
100
AcDbEntity
  8
0
  6
Continuous
 62
     7
100
AcDbLine
 10
6467.0161215261
 20
5243.6994414797
 30
0.0
 11
6467.0161215261
 21
4953.699454481
 31
0.0
  0
LINE
  5
131
330
1F
100
AcDbEntity
  8
0
  6
Continuous
 62
     7
100
AcDbLine
 10
6081.0213891461
 20
4953.699454481
 30
0.0
 11
6088.6818376973
 21
4953.699454481
 31
0.0
  0
LINE
  5
132
330
1F
100
AcDbEntity
  8
0
  6
Continuous
 62
     7
100
AcDbLine
 10
6081.0213891461
 20
4953.699454481
 30
0.0
 11
6081.0213891461
 21
5243.6994414797
 31
0.0
  0
LINE
  5
133
330
1F
100
AcDbEntity
  8
0
  6
Continuous
 62
     7
100
AcDbLine
 10
6088.6818376973
 20
5243.6994414797
 30
0.0
 11
6081.0213891461
 21
5243.6994414797
 31
0.0
  0
LINE
  5
134
330
1F
100
AcDbEntity
  8
0
  6
Continuous
 62
     7
100
AcDbLine
 10
6088.6818376973
 20
5243.6994414797
 30
0.0
 11
6088.6818376973
 21
4953.699454481
 31
0.0
  0
LINE
  5
135
330
1F
100
AcDbEntity
  8
0
  6
Continuous
 62
     7
100
AcDbLine
 10
6459.3556729749
 20
5243.6994414797
 30
0.0
 11
6088.6818376973
 21
5243.6994414797
 31
0.0
  0
LINE
  5
136
330
1F
100
AcDbEntity
  8
0
  6
Continuous
 62
     7
100
AcDbLine
 10
6088.6818376973
 20
5243.6994414797
 30
0.0
 11
6088.6818376973
 21
5248.6994665136
 31
0.0
  0
LINE
  5
137
330
1F
100
AcDbEntity
  8
0
  6
Continuous
 62
     7
100
AcDbLine
 10
6088.6818376973
 20
5248.6994665136
 30
0.0
 11
6459.3556729749
 21
5248.6994665136
 31
0.0
  0
LINE
  5
138
330
1F
100
AcDbEntity
  8
0
  6
Continuous
 62
     7
100
AcDbLine
 10
6084.8516134217
 20
5248.6994665136
 30
0.0
 11
6088.6818376973
 21
5248.6994665136
 31
0.0
  0
LINE
  5
139
330
1F
100
AcDbEntity
  8
0
  6
Continuous
 62
     7
100
AcDbLine
 10
6088.6818376973
 20
4948.6994545927
 30
0.0
 11
6084.8516134217
 21
4948.6994545927
 31
0.0
  0
LINE
  5
13A
330
1F
100
AcDbEntity
  8
0
  6
Continuous
 62
     7
100
AcDbLine
 10
6081.0213891461
 20
5243.6994414797
 30
0.0
 11
6042.7351949409
 21
5243.6994414797
 31
0.0
  0
LINE
  5
13B
330
1F
100
AcDbEntity
  8
0
  6
Continuous
 62
     7
100
AcDbLine
 10
6046.5654192164
 20
5248.6994665136
 30
0.0
 11
6084.8516134217
 21
5248.6994665136
 31
0.0
  0
LINE
  5
13C
330
1F
100
AcDbEntity
  8
0
  6
Continuous
 62
     7
100
AcDbLine
 10
6084.8516134217
 20
4948.6994545927
 30
0.0
 11
6046.5654192164
 21
4948.6994545927
 31
0.0
  0
LINE
  5
13D
330
1F
100
AcDbEntity
  8
0
  6
Continuous
 62
     7
100
AcDbLine
 10
6042.7351949409
 20
4953.699454481
 30
0.0
 11
6081.0213891461
 21
4953.699454481
 31
0.0
  0
LINE
  5
13E
330
1F
100
AcDbEntity
  8
0
  6
Continuous
 62
     7
100
AcDbLine
 10
6042.7351949409
 20
5243.6994414797
 30
0.0
 11
6042.7351949409
 21
4953.699454481
 31
0.0
  0
LINE
  5
13F
330
1F
100
AcDbEntity
  8
0
  6
Continuous
 62
     7
100
AcDbLine
 10
6467.0161215261
 20
4953.699454481
 30
0.0
 11
6505.3023157313
 21
4953.699454481
 31
0.0
  0
LINE
  5
140
330
1F
100
AcDbEntity
  8
0
  6
Continuous
 62
     7
100
AcDbLine
 10
6501.4720914558
 20
4948.6994545927
 30
0.0
 11
6463.1858972505
 21
4948.6994545927
 31
0.0
  0
LINE
  5
141
330
1F
100
AcDbEntity
  8
0
  6
Continuous
 62
     7
100
AcDbLine
 10
6505.3023157313
 20
5243.6994414797
 30
0.0
 11
6467.0161215261
 21
5243.6994414797
 31
0.0
  0
LINE
  5
142
330
1F
100
AcDbEntity
  8
0
  6
Continuous
 62
     7
100
AcDbLine
 10
6463.1858972505
 20
5248.6994665136
 30
0.0
 11
6501.4720914558
 21
5248.6994665136
 31
0.0
  0
LINE
  5
143
330
1F
100
AcDbEntity
  8
0
  6
Continuous
 62
     7
100
AcDbLine
 10
6505.3023157313
 20
5243.6994414797
 30
0.0
 11
6505.3023157313
 21
4953.699454481
 31
0.0
  0
LINE
  5
144
330
1F
100
AcDbEntity
  8
0
  6
Continuous
 62
     7
100
AcDbLine
 10
6024.0187553361
 20
4953.699454481
 30
0.0
 11
6042.7351949409
 21
4953.699454481
 31
0.0
  0
LINE
  5
145
330
1F
100
AcDbEntity
  8
0
  6
Continuous
 62
     7
100
AcDbLine
 10
6024.0187553361
 20
5243.6994414797
 30
0.0
 11
6024.0187553361
 21
4953.699454481
 31
0.0
  0
LINE
  5
146
330
1F
100
AcDbEntity
  8
0
  6
Continuous
 62
     7
100
AcDbLine
 10
6042.7351949409
 20
5243.6994414797
 30
0.0
 11
6024.0187553361
 21
5243.6994414797
 31
0.0
  0
LINE
  5
147
330
1F
100
AcDbEntity
  8
0
  6
Continuous
 62
     7
100
AcDbLine
 10
6046.5654192164
 20
4948.6994545927
 30
0.0
 11
6029.0187505677
 21
4948.6994545927
 31
0.0
  0
LINE
  5
148
330
1F
100
AcDbEntity
  8
0
  6
Continuous
 62
     7
100
AcDbLine
 10
6029.0187505677
 20
5248.6994665136
 30
0.0
 11
6046.5654192164
 21
5248.6994665136
 31
0.0
  0
LINE
  5
149
330
1F
100
AcDbEntity
  8
0
  6
Continuous
 62
     7
100
AcDbLine
 10
6524.0187553361
 20
5243.6994414797
 30
0.0
 11
6505.3023157313
 21
5243.6994414797
 31
0.0
  0
LINE
  5
14A
330
1F
100
AcDbEntity
  8
0
  6
Continuous
 62
     7
100
AcDbLine
 10
6501.4720914558
 20
5248.6994665136
 30
0.0
 11
6519.0187601045
 21
5248.6994665136
 31
0.0
  0
LINE
  5
14B
330
1F
100
AcDbEntity
  8
0
  6
Continuous
 62
     7
100
AcDbLine
 10
6505.3023157313
 20
4953.699454481
 30
0.0
 11
6524.0187553361
 21
4953.699454481
 31
0.0
  0
LINE
  5
14C
330
1F
100
AcDbEntity
  8
0
  6
Continuous
 62
     7
100
AcDbLine
 10
6524.0187553361
 20
5243.6994414797
 30
0.0
 11
6524.0187553361
 21
4953.699454481
 31
0.0
  0
LINE
  5
14D
330
1F
100
AcDbEntity
  8
0
  6
Continuous
 62
     7
100
AcDbLine
 10
6519.0187601045
 20
4948.6994545927
 30
0.0
 11
6501.4720914558
 21
4948.6994545927
 31
0.0
  0
LINE
  5
14E
330
1F
100
AcDbEntity
  8
0
  6
Continuous
 62
     7
100
AcDbLine
 10
6029.0187505677
 20
5248.6994665136
 30
0.0
 11
6029.0187505677
 21
5253.6994617453
 31
0.0
  0
LINE
  5
14F
330
1F
100
AcDbEntity
  8
0
  6
Continuous
 62
     7
100
AcDbLine
 10
6029.0187505677
 20
5253.6994617453
 30
0.0
 11
6519.0187601045
 21
5253.6994617453
 31
0.0
  0
LINE
  5
150
330
1F
100
AcDbEntity
  8
0
  6
Continuous
 62
     7
100
AcDbLine
 10
6519.0187601045
 20
5248.6994665136
 30
0.0
 11
6519.0187601045
 21
5253.6994617453
 31
0.0
  0
LINE
  5
151
330
1F
100
AcDbEntity
  8
0
  6
Continuous
 62
     7
100
AcDbLine
 10
6524.0187553361
 20
5253.6994617453
 30
0.0
 11
6519.0187601045
 21
5253.6994617453
 31
0.0
  0
LINE
  5
152
330
1F
100
AcDbEntity
  8
0
  6
Continuous
 62
     7
100
AcDbLine
 10
6524.0187553361
 20
5243.6994414797
 30
0.0
 11
6524.0187553361
 21
5253.6994617453
 31
0.0
  0
LINE
  5
153
330
1F
100
AcDbEntity
  8
0
  6
Continuous
 62
     7
100
AcDbLine
 10
6029.0187505677
 20
5253.6994617453
 30
0.0
 11
6024.0187553361
 21
5253.6994617453
 31
0.0
  0
LINE
  5
154
330
1F
100
AcDbEntity
  8
0
  6
Continuous
 62
     7
100
AcDbLine
 10
6024.0187553361
 20
5253.6994617453
 30
0.0
 11
6024.0187553361
 21
5243.6994414797
 31
0.0
  0
LINE
  5
155
330
1F
100
AcDbEntity
  8
0
  6
Continuous
 62
     7
100
AcDbLine
 10
6519.0187553361
 20
5473.6994259825
 30
0.0
 11
6029.0187553361
 21
5473.6994259825
 31
0.0
  0
LINE
  5
156
330
1F
100
AcDbEntity
  8
0
  6
Continuous
 62
     7
100
AcDbLine
 10
6519.0187601045
 20
5253.6994617453
 30
0.0
 11
6519.0187553361
 21
5473.6994259825
 31
0.0
  0
LINE
  5
157
330
1F
100
AcDbEntity
  8
0
  6
Continuous
 62
     7
100
AcDbLine
 10
6029.0187553361
 20
5473.6994259825
 30
0.0
 11
6029.0187505677
 21
5253.6994617453
 31
0.0
  0
LINE
  5
158
330
1F
100
AcDbEntity
  8
0
  6
Continuous
 62
     7
100
AcDbLine
 10
6524.0187553361
 20
5473.6994307509
 30
0.0
 11
6519.0187553361
 21
5473.6994259825
 31
0.0
  0
LINE
  5
159
330
1F
100
AcDbEntity
  8
0
  6
Continuous
 62
     7
100
AcDbLine
 10
6524.0187553361
 20
5473.6994307509
 30
0.0
 11
6524.0187553361
 21
5253.6994617453
 31
0.0
  0
LINE
  5
15A
330
1F
100
AcDbEntity
  8
0
  6
Continuous
 62
     7
100
AcDbLine
 10
6519.0187553361
 20
5473.6994259825
 30
0.0
 11
6519.0187601045
 21
5478.6994259825
 31
0.0
  0
LINE
  5
15B
330
1F
100
AcDbEntity
  8
0
  6
Continuous
 62
     7
100
AcDbLine
 10
6029.0187553361
 20
5473.6994259825
 30
0.0
 11
6029.0187505677
 21
5478.6994259825
 31
0.0
  0
LINE
  5
15C
330
1F
100
AcDbEntity
  8
0
  6
Continuous
 62
     7
100
AcDbLine
 10
6029.0187505677
 20
5478.6994259825
 30
0.0
 11
6519.0187601045
 21
5478.6994259825
 31
0.0
  0
LINE
  5
15D
330
1F
100
AcDbEntity
  8
0
  6
Continuous
 62
     7
100
AcDbLine
 10
6029.0187553361
 20
5473.6994259825
 30
0.0
 11
6024.0187553361
 21
5473.6994307509
 31
0.0
  0
LINE
  5
15E
330
1F
100
AcDbEntity
  8
0
  6
Continuous
 62
     7
100
AcDbLine
 10
6024.0187553361
 20
5253.6994617453
 30
0.0
 11
6024.0187553361
 21
5473.6994307509
 31
0.0
  0
LINE
  5
15F
330
1F
100
AcDbEntity
  8
0
  6
Continuous
 62
     7
100
AcDbLine
 10
6275.5187553491
 20
5383.4436338415
 30
0.0
 11
6275.5187553491
 21
5383.3803039065
 31
0.0
  0
LINE
  5
160
330
1F
100
AcDbEntity
  8
0
  6
Continuous
 62
     7
100
AcDbLine
 10
6272.5187553231
 20
5383.4436338415
 30
0.0
 11
6272.5187553231
 21
5383.3803039065
 31
0.0
  0
LINE
  5
161
330
1F
100
AcDbEntity
  8
0
  6
Continuous
 62
     7
100
AcDbLine
 10
6268.6252502397
 20
5382.6505940428
 30
0.0
 11
6268.6252502397
 21
5382.5739424696
 31
0.0
  0
LINE
  5
162
330
1F
100
AcDbEntity
  8
0
  6
Continuous
 62
     7
100
AcDbLine
 10
6266.5039297797
 20
5381.6191058626
 30
0.0
 11
6266.5039297797
 21
5381.5132778158
 31
0.0
  0
LINE
  5
163
330
1F
100
AcDbEntity
  8
0
  6
Continuous
 62
     7
100
AcDbLine
 10
6264.8911868825
 20
5379.8863392344
 30
0.0
 11
6264.8911868825
 21
5379.5665305128
 31
0.0
  0
LINE
  5
164
330
1F
100
AcDbEntity
  8
0
  6
Continuous
 62
     7
100
AcDbLine
 10
6266.5039297797
 20
5376.9857984057
 30
0.0
 11
6266.5039297797
 21
5376.1197727194
 31
0.0
  0
LINE
  5
165
330
1F
100
AcDbEntity
  8
0
  6
Continuous
 62
     7
100
AcDbLine
 10
6281.5335808925
 20
5376.9857984057
 30
0.0
 11
6281.5335808925
 21
5376.1197727194
 31
0.0
  0
LINE
  5
166
330
1F
100
AcDbEntity
  8
0
  6
Continuous
 62
     7
100
AcDbLine
 10
6283.1463237897
 20
5379.8863392344
 30
0.0
 11
6283.1463237897
 21
5379.5665305128
 31
0.0
  0
LINE
  5
167
330
1F
100
AcDbEntity
  8
0
  6
Continuous
 62
     7
100
AcDbLine
 10
6281.5335808925
 20
5381.6191058626
 30
0.0
 11
6281.5335808925
 21
5381.5132778158
 31
0.0
  0
LINE
  5
168
330
1F
100
AcDbEntity
  8
0
  6
Continuous
 62
     7
100
AcDbLine
 10
6279.4122604325
 20
5382.6505940428
 30
0.0
 11
6279.4122604325
 21
5382.5739424696
 31
0.0
  0
LINE
  5
169
330
1F
100
AcDbEntity
  8
0
  6
Continuous
 62
     7
100
AcDbLine
 10
6272.5187553231
 20
5383.3803039065
 30
0.0
 11
6272.5187553231
 21
5383.1267457476
 31
0.0
  0
LINE
  5
16A
330
1F
100
AcDbEntity
  8
0
  6
Continuous
 62
     7
100
AcDbLine
 10
6275.5187553491
 20
5383.3803039065
 30
0.0
 11
6275.5187553491
 21
5383.1267457476
 31
0.0
  0
LINE
  5
16B
330
1F
100
AcDbEntity
  8
0
  6
Continuous
 62
     7
100
AcDbLine
 10
6282.2687552914
 20
5379.6825509539
 30
0.0
 11
6282.0884726614
 21
5378.8248997202
 31
0.0
  0
LINE
  5
16C
330
1F
100
AcDbEntity
  8
0
  6
Continuous
 62
     7
100
AcDbLine
 10
6282.0884726614
 20
5378.8248997202
 30
0.0
 11
6281.5555051573
 21
5378.0047398081
 31
0.0
  0
LINE
  5
16D
330
1F
100
AcDbEntity
  8
0
  6
Continuous
 62
     7
100
AcDbLine
 10
6281.5555051573
 20
5378.0047398081
 30
0.0
 11
6280.6931456223
 21
5377.2579234114
 31
0.0
  0
LINE
  5
16E
330
1F
100
AcDbEntity
  8
0
  6
Continuous
 62
     7
100
AcDbLine
 10
6280.6931456223
 20
5377.2579234114
 30
0.0
 11
6279.5390828185
 21
5376.6170840731
 31
0.0
  0
LINE
  5
16F
330
1F
100
AcDbEntity
  8
0
  6
Continuous
 62
     7
100
AcDbLine
 10
6279.5390828185
 20
5376.6170840731
 30
0.0
 11
6278.1437553137
 21
5376.1101763716
 31
0.0
  0
LINE
  5
170
330
1F
100
AcDbEntity
  8
0
  6
Continuous
 62
     7
100
AcDbLine
 10
6278.1437553137
 20
5376.1101763716
 30
0.0
 11
6276.5681456447
 21
5375.7594328394
 31
0.0
  0
LINE
  5
171
330
1F
100
AcDbEntity
  8
0
  6
Continuous
 62
     7
100
AcDbLine
 10
6276.5681456447
 20
5375.7594328394
 30
0.0
 11
6274.8811151621
 21
5375.5801420679
 31
0.0
  0
LINE
  5
172
330
1F
100
AcDbEntity
  8
0
  6
Continuous
 62
     7
100
AcDbLine
 10
6274.8811151621
 20
5375.5801420679
 30
0.0
 11
6273.1563955101
 21
5375.5801420679
 31
0.0
  0
LINE
  5
173
330
1F
100
AcDbEntity
  8
0
  6
Continuous
 62
     7
100
AcDbLine
 10
6273.1563955101
 20
5375.5801420679
 30
0.0
 11
6271.4693650275
 21
5375.7594328394
 31
0.0
  0
LINE
  5
174
330
1F
100
AcDbEntity
  8
0
  6
Continuous
 62
     7
100
AcDbLine
 10
6271.4693650275
 20
5375.7594328394
 30
0.0
 11
6269.8937553585
 21
5376.1101763716
 31
0.0
  0
LINE
  5
175
330
1F
100
AcDbEntity
  8
0
  6
Continuous
 62
     7
100
AcDbLine
 10
6269.8937553585
 20
5376.1101763716
 30
0.0
 11
6268.4984278537
 21
5376.6170840731
 31
0.0
  0
LINE
  5
176
330
1F
100
AcDbEntity
  8
0
  6
Continuous
 62
     7
100
AcDbLine
 10
6268.4984278537
 20
5376.6170840731
 30
0.0
 11
6267.3443650499
 21
5377.2579234114
 31
0.0
  0
LINE
  5
177
330
1F
100
AcDbEntity
  8
0
  6
Continuous
 62
     7
100
AcDbLine
 10
6267.3443650499
 20
5377.2579234114
 30
0.0
 11
6266.4820055149
 21
5378.0047398081
 31
0.0
  0
LINE
  5
178
330
1F
100
AcDbEntity
  8
0
  6
Continuous
 62
     7
100
AcDbLine
 10
6266.4820055149
 20
5378.0047398081
 30
0.0
 11
6265.9490380108
 21
5378.8248997202
 31
0.0
  0
LINE
  5
179
330
1F
100
AcDbEntity
  8
0
  6
Continuous
 62
     7
100
AcDbLine
 10
6265.9490380108
 20
5378.8248997202
 30
0.0
 11
6265.7687553808
 21
5379.6825509539
 31
0.0
  0
LINE
  5
17A
330
1F
100
AcDbEntity
  8
0
  6
Continuous
 62
     7
100
AcDbLine
 10
6265.7687553808
 20
5379.6825509539
 30
0.0
 11
6265.9490380108
 21
5380.5401723852
 31
0.0
  0
LINE
  5
17B
330
1F
100
AcDbEntity
  8
0
  6
Continuous
 62
     7
100
AcDbLine
 10
6265.9490380108
 20
5380.5401723852
 30
0.0
 11
6266.4820055149
 21
5381.3603322973
 31
0.0
  0
LINE
  5
17C
330
1F
100
AcDbEntity
  8
0
  6
Continuous
 62
     7
100
AcDbLine
 10
6266.4820055149
 20
5381.3603322973
 30
0.0
 11
6266.5857883774
 21
5381.4723294249
 31
0.0
  0
LINE
  5
17D
330
1F
100
AcDbEntity
  8
0
  6
Continuous
 62
     7
100
AcDbLine
 10
6265.2185011327
 20
5380.4325561991
 30
0.0
 11
6265.3982855052
 21
5380.4325561991
 31
0.0
  0
LINE
  5
17E
330
1F
100
AcDbEntity
  8
0
  6
Continuous
 62
     7
100
AcDbLine
 10
6282.8190095395
 20
5380.4325561991
 30
0.0
 11
6282.639225167
 21
5380.4325561991
 31
0.0
  0
LINE
  5
17F
330
1F
100
AcDbEntity
  8
0
  6
Continuous
 62
     7
100
AcDbLine
 10
6282.7257925317
 20
5379.2495232096
 30
0.0
 11
6282.695816052
 21
5379.1188102236
 31
0.0
  0
LINE
  5
180
330
1F
100
AcDbEntity
  8
0
  6
Continuous
 62
     7
100
AcDbLine
 10
6282.695816052
 20
5379.1188102236
 30
0.0
 11
6282.639225167
 21
5378.9325457087
 31
0.0
  0
LINE
  5
181
330
1F
100
AcDbEntity
  8
0
  6
Continuous
 62
     7
100
AcDbLine
 10
6281.1750081971
 20
5377.1650891771
 30
0.0
 11
6281.5335808925
 21
5376.9857984057
 31
0.0
  0
LINE
  5
182
330
1F
100
AcDbEntity
  8
0
  6
Continuous
 62
     7
100
AcDbLine
 10
6266.8625024751
 20
5377.1650891771
 30
0.0
 11
6266.5039297797
 21
5376.9857984057
 31
0.0
  0
LINE
  5
183
330
1F
100
AcDbEntity
  8
0
  6
Continuous
 62
     7
100
AcDbLine
 10
6265.3982855052
 20
5378.9325457087
 30
0.0
 11
6265.3416946202
 21
5379.1188102236
 31
0.0
  0
LINE
  5
184
330
1F
100
AcDbEntity
  8
0
  6
Continuous
 62
     7
100
AcDbLine
 10
6265.3416946202
 20
5379.1188102236
 30
0.0
 11
6265.3117181405
 21
5379.2495232096
 31
0.0
  0
LINE
  5
185
330
1F
100
AcDbEntity
  8
0
  6
Continuous
 62
     7
100
AcDbLine
 10
6279.0536877371
 20
5382.7706377974
 30
0.0
 11
6279.0536877371
 21
5382.3946516981
 31
0.0
  0
LINE
  5
186
330
1F
100
AcDbEntity
  8
0
  6
Continuous
 62
     7
100
AcDbLine
 10
6279.0536877371
 20
5382.3946516981
 30
0.0
 11
6279.4122604325
 21
5382.5739424696
 31
0.0
  0
LINE
  5
187
330
1F
100
AcDbEntity
  8
0
  6
Continuous
 62
     7
100
AcDbLine
 10
6281.1750081971
 20
5381.3339870443
 30
0.0
 11
6281.5335808925
 21
5381.5132778158
 31
0.0
  0
LINE
  5
188
330
1F
100
AcDbEntity
  8
0
  6
Continuous
 62
     7
100
AcDbLine
 10
6268.9838229351
 20
5382.7706377974
 30
0.0
 11
6268.9838229351
 21
5382.3946516981
 31
0.0
  0
LINE
  5
189
330
1F
100
AcDbEntity
  8
0
  6
Continuous
 62
     7
100
AcDbLine
 10
6268.9838229351
 20
5382.3946516981
 30
0.0
 11
6268.6252502397
 21
5382.5739424696
 31
0.0
  0
LINE
  5
18A
330
1F
100
AcDbEntity
  8
0
  6
Continuous
 62
     7
100
AcDbLine
 10
6266.8625024751
 20
5381.3339870443
 30
0.0
 11
6266.5039297797
 21
5381.5132778158
 31
0.0
  0
LINE
  5
18B
330
1F
100
AcDbEntity
  8
0
  6
Continuous
 62
     7
100
AcDbLine
 10
6266.5187555037
 20
5380.5485766401
 30
0.0
 11
6266.5627204485
 21
5380.9540074339
 31
0.0
  0
LINE
  5
18C
330
1F
100
AcDbEntity
  8
0
  6
Continuous
 62
     7
100
AcDbLine
 10
6266.5627204485
 20
5380.9540074339
 30
0.0
 11
6266.7176338516
 21
5381.4064066878
 31
0.0
  0
LINE
  5
18D
330
1F
100
AcDbEntity
  8
0
  6
Continuous
 62
     7
100
AcDbLine
 10
6281.3198768206
 20
5381.4064066878
 30
0.0
 11
6281.3434094794
 21
5381.3546996584
 31
0.0
  0
LINE
  5
18E
330
1F
100
AcDbEntity
  8
0
  6
Continuous
 62
     7
100
AcDbLine
 10
6281.3434094794
 20
5381.3546996584
 30
0.0
 11
6281.5187551685
 21
5380.5485766401
 31
0.0
  0
LINE
  5
18F
330
1F
100
AcDbEntity
  8
0
  6
Continuous
 62
     7
100
AcDbLine
 10
6281.5187551685
 20
5379.6825509539
 30
0.0
 11
6281.3434094794
 21
5378.8763981333
 31
0.0
  0
LINE
  5
190
330
1F
100
AcDbEntity
  8
0
  6
Continuous
 62
     7
100
AcDbLine
 10
6281.3434094794
 20
5378.8763981333
 30
0.0
 11
6280.8255708449
 21
5378.1079452505
 31
0.0
  0
LINE
  5
191
330
1F
100
AcDbEntity
  8
0
  6
Continuous
 62
     7
100
AcDbLine
 10
6280.8255708449
 20
5378.1079452505
 30
0.0
 11
6279.9894531861
 21
5377.4131339064
 31
0.0
  0
LINE
  5
192
330
1F
100
AcDbEntity
  8
0
  6
Continuous
 62
     7
100
AcDbLine
 10
6279.9894531861
 20
5377.4131339064
 30
0.0
 11
6278.8741524935
 21
5376.8244486323
 31
0.0
  0
LINE
  5
193
330
1F
100
AcDbEntity
  8
0
  6
Continuous
 62
     7
100
AcDbLine
 10
6278.8741524935
 20
5376.8244486323
 30
0.0
 11
6277.5318186402
 21
5376.3693671694
 31
0.0
  0
LINE
  5
194
330
1F
100
AcDbEntity
  8
0
  6
Continuous
 62
     7
100
AcDbLine
 10
6277.5318186402
 20
5376.3693671694
 30
0.0
 11
6276.0252178784
 21
5376.0692279806
 31
0.0
  0
LINE
  5
195
330
1F
100
AcDbEntity
  8
0
  6
Continuous
 62
     7
100
AcDbLine
 10
6276.0252178784
 20
5376.0692279806
 30
0.0
 11
6274.4247971648
 21
5375.9380381575
 31
0.0
  0
LINE
  5
196
330
1F
100
AcDbEntity
  8
0
  6
Continuous
 62
     7
100
AcDbLine
 10
6274.4247971648
 20
5375.9380381575
 30
0.0
 11
6272.8053903345
 21
5375.9819369784
 31
0.0
  0
LINE
  5
197
330
1F
100
AcDbEntity
  8
0
  6
Continuous
 62
     7
100
AcDbLine
 10
6272.8053903345
 20
5375.9819369784
 30
0.0
 11
6271.2427190643
 21
5376.198868083
 31
0.0
  0
LINE
  5
198
330
1F
100
AcDbEntity
  8
0
  6
Continuous
 62
     7
100
AcDbLine
 10
6271.2427190643
 20
5376.198868083
 30
0.0
 11
6269.8098525077
 21
5376.5786986818
 31
0.0
  0
LINE
  5
199
330
1F
100
AcDbEntity
  8
0
  6
Continuous
 62
     7
100
AcDbLine
 10
6269.8098525077
 20
5376.5786986818
 30
0.0
 11
6268.5737890795
 21
5377.1036665907
 31
0.0
  0
LINE
  5
19A
330
1F
100
AcDbEntity
  8
0
  6
Continuous
 62
     7
100
AcDbLine
 10
6268.5737890795
 20
5377.1036665907
 30
0.0
 11
6267.5923264258
 21
5377.7492146959
 31
0.0
  0
LINE
  5
19B
330
1F
100
AcDbEntity
  8
0
  6
Continuous
 62
     7
100
AcDbLine
 10
6267.5923264258
 20
5377.7492146959
 30
0.0
 11
6266.9113563977
 21
5378.485153245
 31
0.0
  0
LINE
  5
19C
330
1F
100
AcDbEntity
  8
0
  6
Continuous
 62
     7
100
AcDbLine
 10
6266.9113563977
 20
5378.485153245
 30
0.0
 11
6266.5627204485
 21
5379.2770903578
 31
0.0
  0
LINE
  5
19D
330
1F
100
AcDbEntity
  8
0
  6
Continuous
 62
     7
100
AcDbLine
 10
6266.5627204485
 20
5379.2770903578
 30
0.0
 11
6266.5627204485
 21
5380.0879817476
 31
0.0
  0
LINE
  5
19E
330
1F
100
AcDbEntity
  8
0
  6
Continuous
 62
     7
100
AcDbLine
 10
6266.5627204485
 20
5380.0879817476
 30
0.0
 11
6266.9113563977
 21
5380.8799188604
 31
0.0
  0
LINE
  5
19F
330
1F
100
AcDbEntity
  8
0
  6
Continuous
 62
     7
100
AcDbLine
 10
6266.9113563977
 20
5380.8799188604
 30
0.0
 11
6267.5923264258
 21
5381.6158574095
 31
0.0
  0
LINE
  5
1A0
330
1F
100
AcDbEntity
  8
0
  6
Continuous
 62
     7
100
AcDbLine
 10
6267.5923264258
 20
5381.6158574095
 30
0.0
 11
6268.4265185751
 21
5382.1813862791
 31
0.0
  0
LINE
  5
1A1
330
1F
100
AcDbEntity
  8
0
  6
Continuous
 62
     7
100
AcDbLine
 10
6283.1463237897
 20
5378.0665200224
 30
0.0
 11
6282.639225167
 21
5378.0665200224
 31
0.0
  0
LINE
  5
1A2
330
1F
100
AcDbEntity
  8
0
  6
Continuous
 62
     7
100
AcDbLine
 10
6283.1463237897
 20
5379.5665305128
 30
0.0
 11
6282.639225167
 21
5379.5665305128
 31
0.0
  0
LINE
  5
1A3
330
1F
100
AcDbEntity
  8
0
  6
Continuous
 62
     7
100
AcDbLine
 10
6282.639225167
 20
5380.4325561991
 30
0.0
 11
6282.639225167
 21
5379.5665305128
 31
0.0
  0
LINE
  5
1A4
330
1F
100
AcDbEntity
  8
0
  6
Continuous
 62
     7
100
AcDbLine
 10
6282.639225167
 20
5378.9325457087
 30
0.0
 11
6282.639225167
 21
5378.0665200224
 31
0.0
  0
LINE
  5
1A5
330
1F
100
AcDbEntity
  8
0
  6
Continuous
 62
     7
100
AcDbLine
 10
6265.3982855052
 20
5380.4325561991
 30
0.0
 11
6265.3982855052
 21
5379.5665305128
 31
0.0
  0
LINE
  5
1A6
330
1F
100
AcDbEntity
  8
0
  6
Continuous
 62
     7
100
AcDbLine
 10
6264.8911868825
 20
5379.5665305128
 30
0.0
 11
6265.3982855052
 21
5379.5665305128
 31
0.0
  0
LINE
  5
1A7
330
1F
100
AcDbEntity
  8
0
  6
Continuous
 62
     7
100
AcDbLine
 10
6264.8911868825
 20
5378.0665200224
 30
0.0
 11
6265.3982855052
 21
5378.0665200224
 31
0.0
  0
LINE
  5
1A8
330
1F
100
AcDbEntity
  8
0
  6
Continuous
 62
     7
100
AcDbLine
 10
6265.3982855052
 20
5378.9325457087
 30
0.0
 11
6265.3982855052
 21
5378.0665200224
 31
0.0
  0
LINE
  5
1A9
330
1F
100
AcDbEntity
  8
0
  6
Continuous
 62
     7
100
AcDbLine
 10
6281.1750081971
 20
5377.1650891771
 30
0.0
 11
6281.1750081971
 21
5376.2990634909
 31
0.0
  0
LINE
  5
1AA
330
1F
100
AcDbEntity
  8
0
  6
Continuous
 62
     7
100
AcDbLine
 10
6279.0536877371
 20
5376.1044245234
 30
0.0
 11
6279.0536877371
 21
5375.2383988371
 31
0.0
  0
LINE
  5
1AB
330
1F
100
AcDbEntity
  8
0
  6
Continuous
 62
     7
100
AcDbLine
 10
6281.1750081971
 20
5376.2990634909
 30
0.0
 11
6281.5335808925
 21
5376.1197727194
 31
0.0
  0
LINE
  5
1AC
330
1F
100
AcDbEntity
  8
0
  6
Continuous
 62
     7
100
AcDbLine
 10
6266.8625024751
 20
5376.2990634909
 30
0.0
 11
6266.5039297797
 21
5376.1197727194
 31
0.0
  0
LINE
  5
1AD
330
1F
100
AcDbEntity
  8
0
  6
Continuous
 62
     7
100
AcDbLine
 10
6268.9838229351
 20
5375.2383988371
 30
0.0
 11
6268.6252502397
 21
5375.0591080656
 31
0.0
  0
LINE
  5
1AE
330
1F
100
AcDbEntity
  8
0
  6
Continuous
 62
     7
100
AcDbLine
 10
6266.8625024751
 20
5377.1650891771
 30
0.0
 11
6266.8625024751
 21
5376.2990634909
 31
0.0
  0
LINE
  5
1AF
330
1F
100
AcDbEntity
  8
0
  6
Continuous
 62
     7
100
AcDbLine
 10
6268.9838229351
 20
5376.1044245234
 30
0.0
 11
6268.9838229351
 21
5375.2383988371
 31
0.0
  0
LINE
  5
1B0
330
1F
100
AcDbEntity
  8
0
  6
Continuous
 62
     7
100
AcDbLine
 10
6279.0536877371
 20
5375.2383988371
 30
0.0
 11
6279.4122604325
 21
5375.0591080656
 31
0.0
  0
LINE
  5
1B1
330
1F
100
AcDbEntity
  8
0
  6
Continuous
 62
     7
100
AcDbLine
 10
6275.5187553491
 20
5374.2527466288
 30
0.0
 11
6275.5187553491
 21
5374.5062749853
 31
0.0
  0
LINE
  5
1B2
330
1F
100
AcDbEntity
  8
0
  6
Continuous
 62
     7
100
AcDbLine
 10
6272.5187553231
 20
5374.2527466288
 30
0.0
 11
6272.5187553231
 21
5374.5062749853
 31
0.0
  0
LINE
  5
1B3
330
1F
100
AcDbEntity
  8
0
  6
Continuous
 62
     7
100
AcDbLine
 10
6275.5187553491
 20
5375.3723006716
 30
0.0
 11
6275.5187553491
 21
5374.5062749853
 31
0.0
  0
LINE
  5
1B4
330
1F
100
AcDbEntity
  8
0
  6
Continuous
 62
     7
100
AcDbLine
 10
6272.5187553231
 20
5375.3723006716
 30
0.0
 11
6272.5187553231
 21
5374.5062749853
 31
0.0
  0
LINE
  5
1B5
330
1F
100
AcDbEntity
  8
0
  6
Continuous
 62
     7
100
AcDbLine
 10
6274.0187553361
 20
5374.1290073862
 30
0.0
 11
6275.8477271207
 21
5374.2190998068
 31
0.0
  0
LINE
  5
1B6
330
1F
100
AcDbEntity
  8
0
  6
Continuous
 62
     7
100
AcDbLine
 10
6275.8477271207
 20
5374.2190998068
 30
0.0
 11
6277.6064124562
 21
5374.4858305922
 31
0.0
  0
LINE
  5
1B7
330
1F
100
AcDbEntity
  8
0
  6
Continuous
 62
     7
100
AcDbLine
 10
6277.6064124562
 20
5374.4858305922
 30
0.0
 11
6279.2272261947
 21
5374.9190073481
 31
0.0
  0
LINE
  5
1B8
330
1F
100
AcDbEntity
  8
0
  6
Continuous
 62
     7
100
AcDbLine
 10
6279.2272261947
 20
5374.9190073481
 30
0.0
 11
6280.6478814825
 21
5375.501940774
 31
0.0
  0
LINE
  5
1B9
330
1F
100
AcDbEntity
  8
0
  6
Continuous
 62
     7
100
AcDbLine
 10
6280.6478814825
 20
5375.501940774
 30
0.0
 11
6281.8137827933
 21
5376.2122791281
 31
0.0
  0
LINE
  5
1BA
330
1F
100
AcDbEntity
  8
0
  6
Continuous
 62
     7
100
AcDbLine
 10
6281.8137827933
 20
5376.2122791281
 30
0.0
 11
6282.6801260605
 21
5377.0226936808
 31
0.0
  0
LINE
  5
1BB
330
1F
100
AcDbEntity
  8
0
  6
Continuous
 62
     7
100
AcDbLine
 10
6282.6801260605
 20
5377.0226936808
 30
0.0
 11
6283.2136174336
 21
5377.9020410051
 31
0.0
  0
LINE
  5
1BC
330
1F
100
AcDbEntity
  8
0
  6
Continuous
 62
     7
100
AcDbLine
 10
6283.2136174336
 20
5377.9020410051
 30
0.0
 11
6283.3937557086
 21
5378.8165252676
 31
0.0
  0
LINE
  5
1BD
330
1F
100
AcDbEntity
  8
0
  6
Continuous
 62
     7
100
AcDbLine
 10
6283.3937557086
 20
5378.8165252676
 30
0.0
 11
6283.2136174336
 21
5379.7310095301
 31
0.0
  0
LINE
  5
1BE
330
1F
100
AcDbEntity
  8
0
  6
Continuous
 62
     7
100
AcDbLine
 10
6283.2136174336
 20
5379.7310095301
 30
0.0
 11
6282.6801260605
 21
5380.6103568545
 31
0.0
  0
LINE
  5
1BF
330
1F
100
AcDbEntity
  8
0
  6
Continuous
 62
     7
100
AcDbLine
 10
6282.6801260605
 20
5380.6103568545
 30
0.0
 11
6281.8137827933
 21
5381.4207416048
 31
0.0
  0
LINE
  5
1C0
330
1F
100
AcDbEntity
  8
0
  6
Continuous
 62
     7
100
AcDbLine
 10
6281.8137827933
 20
5381.4207416048
 30
0.0
 11
6280.6478814825
 21
5382.1310799589
 31
0.0
  0
LINE
  5
1C1
330
1F
100
AcDbEntity
  8
0
  6
Continuous
 62
     7
100
AcDbLine
 10
6280.6478814825
 20
5382.1310799589
 30
0.0
 11
6279.2272261947
 21
5382.7140431872
 31
0.0
  0
LINE
  5
1C2
330
1F
100
AcDbEntity
  8
0
  6
Continuous
 62
     7
100
AcDbLine
 10
6279.2272261947
 20
5382.7140431872
 30
0.0
 11
6277.6064124562
 21
5383.1471901407
 31
0.0
  0
LINE
  5
1C3
330
1F
100
AcDbEntity
  8
0
  6
Continuous
 62
     7
100
AcDbLine
 10
6277.6064124562
 20
5383.1471901407
 30
0.0
 11
6275.8477271207
 21
5383.4139507284
 31
0.0
  0
LINE
  5
1C4
330
1F
100
AcDbEntity
  8
0
  6
Continuous
 62
     7
100
AcDbLine
 10
6275.8477271207
 20
5383.4139507284
 30
0.0
 11
6274.0187553361
 21
5383.5040133467
 31
0.0
  0
LINE
  5
1C5
330
1F
100
AcDbEntity
  8
0
  6
Continuous
 62
     7
100
AcDbLine
 10
6274.0187553361
 20
5383.5040133467
 30
0.0
 11
6272.1897835515
 21
5383.4139507284
 31
0.0
  0
LINE
  5
1C6
330
1F
100
AcDbEntity
  8
0
  6
Continuous
 62
     7
100
AcDbLine
 10
6272.1897835515
 20
5383.4139507284
 30
0.0
 11
6270.431098216
 21
5383.1471901407
 31
0.0
  0
LINE
  5
1C7
330
1F
100
AcDbEntity
  8
0
  6
Continuous
 62
     7
100
AcDbLine
 10
6270.431098216
 20
5383.1471901407
 30
0.0
 11
6268.8102844775
 21
5382.7140431872
 31
0.0
  0
LINE
  5
1C8
330
1F
100
AcDbEntity
  8
0
  6
Continuous
 62
     7
100
AcDbLine
 10
6268.8102844775
 20
5382.7140431872
 30
0.0
 11
6267.3896291897
 21
5382.1310799589
 31
0.0
  0
LINE
  5
1C9
330
1F
100
AcDbEntity
  8
0
  6
Continuous
 62
     7
100
AcDbLine
 10
6267.3896291897
 20
5382.1310799589
 30
0.0
 11
6266.2237278789
 21
5381.4207416048
 31
0.0
  0
LINE
  5
1CA
330
1F
100
AcDbEntity
  8
0
  6
Continuous
 62
     7
100
AcDbLine
 10
6266.2237278789
 20
5381.4207416048
 30
0.0
 11
6265.3573846117
 21
5380.6103568545
 31
0.0
  0
LINE
  5
1CB
330
1F
100
AcDbEntity
  8
0
  6
Continuous
 62
     7
100
AcDbLine
 10
6265.3573846117
 20
5380.6103568545
 30
0.0
 11
6264.8238932386
 21
5379.7310095301
 31
0.0
  0
LINE
  5
1CC
330
1F
100
AcDbEntity
  8
0
  6
Continuous
 62
     7
100
AcDbLine
 10
6264.8238932386
 20
5379.7310095301
 30
0.0
 11
6264.6437549636
 21
5378.8165252676
 31
0.0
  0
LINE
  5
1CD
330
1F
100
AcDbEntity
  8
0
  6
Continuous
 62
     7
100
AcDbLine
 10
6264.6437549636
 20
5378.8165252676
 30
0.0
 11
6264.8238932386
 21
5377.9020410051
 31
0.0
  0
LINE
  5
1CE
330
1F
100
AcDbEntity
  8
0
  6
Continuous
 62
     7
100
AcDbLine
 10
6264.8238932386
 20
5377.9020410051
 30
0.0
 11
6265.3573846117
 21
5377.0226936808
 31
0.0
  0
LINE
  5
1CF
330
1F
100
AcDbEntity
  8
0
  6
Continuous
 62
     7
100
AcDbLine
 10
6265.3573846117
 20
5377.0226936808
 30
0.0
 11
6266.2237278789
 21
5376.2122791281
 31
0.0
  0
LINE
  5
1D0
330
1F
100
AcDbEntity
  8
0
  6
Continuous
 62
     7
100
AcDbLine
 10
6266.2237278789
 20
5376.2122791281
 30
0.0
 11
6267.3896291897
 21
5375.501940774
 31
0.0
  0
LINE
  5
1D1
330
1F
100
AcDbEntity
  8
0
  6
Continuous
 62
     7
100
AcDbLine
 10
6267.3896291897
 20
5375.501940774
 30
0.0
 11
6268.8102844775
 21
5374.9190073481
 31
0.0
  0
LINE
  5
1D2
330
1F
100
AcDbEntity
  8
0
  6
Continuous
 62
     7
100
AcDbLine
 10
6268.8102844775
 20
5374.9190073481
 30
0.0
 11
6270.431098216
 21
5374.4858305922
 31
0.0
  0
LINE
  5
1D3
330
1F
100
AcDbEntity
  8
0
  6
Continuous
 62
     7
100
AcDbLine
 10
6270.431098216
 20
5374.4858305922
 30
0.0
 11
6272.1897835515
 21
5374.2190998068
 31
0.0
  0
LINE
  5
1D4
330
1F
100
AcDbEntity
  8
0
  6
Continuous
 62
     7
100
AcDbLine
 10
6272.1897835515
 20
5374.2190998068
 30
0.0
 11
6274.0187553361
 21
5374.1290073862
 31
0.0
  0
LINE
  5
1D5
330
1F
100
AcDbEntity
  8
0
  6
Continuous
 62
     7
100
AcDbLine
 10
6969.1908352694
 20
5346.7508702162
 30
0.0
 11
6969.8825645711
 21
5346.9535441656
 31
0.0
  0
LINE
  5
1D6
330
1F
100
AcDbEntity
  8
0
  6
Continuous
 62
     7
100
AcDbLine
 10
6969.8825645711
 20
5346.9535441656
 30
0.0
 11
6970.3834215869
 21
5347.2926208159
 31
0.0
  0
LINE
  5
1D7
330
1F
100
AcDbEntity
  8
0
  6
Continuous
 62
     7
100
AcDbLine
 10
6970.3834215869
 20
5347.2926208159
 30
0.0
 11
6970.6171553766
 21
5347.7164788206
 31
0.0
  0
LINE
  5
1D8
330
1F
100
AcDbEntity
  8
0
  6
Continuous
 62
     7
100
AcDbLine
 10
6970.6171553766
 20
5347.7164788206
 30
0.0
 11
6970.5481820894
 21
5348.160589641
 31
0.0
  0
LINE
  5
1D9
330
1F
100
AcDbEntity
  8
0
  6
Continuous
 62
     7
100
AcDbLine
 10
6970.5481820894
 20
5348.160589641
 30
0.0
 11
6970.187002283
 21
5348.5573414303
 31
0.0
  0
LINE
  5
1DA
330
1F
100
AcDbEntity
  8
0
  6
Continuous
 62
     7
100
AcDbLine
 10
6970.187002283
 20
5348.5573414303
 30
0.0
 11
6969.588602309
 21
5348.8463323254
 31
0.0
  0
LINE
  5
1DB
330
1F
100
AcDbEntity
  8
0
  6
Continuous
 62
     7
100
AcDbLine
 10
6969.588602309
 20
5348.8463323254
 30
0.0
 11
6968.8440831388
 21
5348.9835660821
 31
0.0
  0
LINE
  5
1DC
330
1F
100
AcDbEntity
  8
0
  6
Continuous
 62
     7
100
AcDbLine
 10
6968.8440831388
 20
5348.9835660821
 30
0.0
 11
6968.0667910669
 21
5348.9481501049
 31
0.0
  0
LINE
  5
1DD
330
1F
100
AcDbEntity
  8
0
  6
Continuous
 62
     7
100
AcDbLine
 10
6968.0667910669
 20
5348.9481501049
 30
0.0
 11
6967.3750617653
 21
5348.7454761555
 31
0.0
  0
LINE
  5
1DE
330
1F
100
AcDbEntity
  8
0
  6
Continuous
 62
     7
100
AcDbLine
 10
6967.3750617653
 20
5348.7454761555
 30
0.0
 11
6966.8742047494
 21
5348.4063995052
 31
0.0
  0
LINE
  5
1DF
330
1F
100
AcDbEntity
  8
0
  6
Continuous
 62
     7
100
AcDbLine
 10
6966.8742047494
 20
5348.4063995052
 30
0.0
 11
6966.6404709598
 21
5347.9825415005
 31
0.0
  0
LINE
  5
1E0
330
1F
100
AcDbEntity
  8
0
  6
Continuous
 62
     7
100
AcDbLine
 10
6966.6404709598
 20
5347.9825415005
 30
0.0
 11
6966.709444247
 21
5347.5384306801
 31
0.0
  0
LINE
  5
1E1
330
1F
100
AcDbEntity
  8
0
  6
Continuous
 62
     7
100
AcDbLine
 10
6966.709444247
 20
5347.5384306801
 30
0.0
 11
6967.0706240533
 21
5347.1416788908
 31
0.0
  0
LINE
  5
1E2
330
1F
100
AcDbEntity
  8
0
  6
Continuous
 62
     7
100
AcDbLine
 10
6967.0706240533
 20
5347.1416788908
 30
0.0
 11
6967.6690240273
 21
5346.8526879957
 31
0.0
  0
LINE
  5
1E3
330
1F
100
AcDbEntity
  8
0
  6
Continuous
 62
     7
100
AcDbLine
 10
6967.6690240273
 20
5346.8526879957
 30
0.0
 11
6968.4135431976
 21
5346.715454239
 31
0.0
  0
LINE
  5
1E4
330
1F
100
AcDbEntity
  8
0
  6
Continuous
 62
     7
100
AcDbLine
 10
6968.4135431976
 20
5346.715454239
 30
0.0
 11
6969.1908352694
 21
5346.7508702162
 31
0.0
  0
LINE
  5
1E5
330
1F
100
AcDbEntity
  8
0
  6
Continuous
 62
     7
100
AcDbLine
 10
7029.1020426423
 20
5397.8726666441
 30
0.0
 11
7059.7463253409
 21
5372.1590738764
 31
0.0
  0
LINE
  5
1E6
330
1F
100
AcDbEntity
  8
0
  6
Continuous
 62
     7
100
AcDbLine
 10
7084.8233256013
 20
5387.6683812609
 30
0.0
 11
7029.1020426423
 21
5434.4240825644
 31
0.0
  0
LINE
  5
1E7
330
1F
100
AcDbEntity
  8
0
  6
Continuous
 62
     7
100
AcDbLine
 10
7059.7463253409
 20
5372.1590738764
 30
0.0
 11
7060.5854246289
 21
5371.9323974123
 31
0.0
  0
LINE
  5
1E8
330
1F
100
AcDbEntity
  8
0
  6
Continuous
 62
     7
100
AcDbLine
 10
7060.5854246289
 20
5371.9323974123
 30
0.0
 11
7061.4245239169
 21
5371.7056911459
 31
0.0
  0
LINE
  5
1E9
330
1F
100
AcDbEntity
  8
0
  6
Continuous
 62
     7
100
AcDbLine
 10
7084.8233256013
 20
5385.2149944773
 30
0.0
 11
7084.8233256013
 21
5387.6683812609
 31
0.0
  0
LINE
  5
1EA
330
1F
100
AcDbEntity
  8
0
  6
Continuous
 62
     7
100
AcDbLine
 10
6937.6498221875
 20
5119.4226246348
 30
0.0
 11
6937.8522758827
 21
5119.7726976147
 31
0.0
  0
LINE
  5
1EB
330
1F
100
AcDbEntity
  8
0
  6
Continuous
 62
     7
100
AcDbLine
 10
6946.748871914
 20
5118.6994563809
 30
0.0
 11
6948.7467996125
 21
5118.6994563809
 31
0.0
  0
LINE
  5
1EC
330
1F
100
AcDbEntity
  8
0
  6
Continuous
 62
     7
100
AcDbLine
 10
6944.7950258375
 20
5118.6994563809
 30
0.0
 11
6945.0393261843
 21
5118.6994563809
 31
0.0
  0
LINE
  5
1ED
330
1F
100
AcDbEntity
  8
0
  6
Continuous
 62
     7
100
AcDbLine
 10
6942.8411795282
 20
5118.6994563809
 30
0.0
 11
6943.085479875
 21
5118.6994563809
 31
0.0
  0
LINE
  5
1EE
330
1F
100
AcDbEntity
  8
0
  6
Continuous
 62
     7
100
AcDbLine
 10
6940.8873332188
 20
5118.6994563809
 30
0.0
 11
6941.1316340313
 21
5118.6994563809
 31
0.0
  0
LINE
  5
1EF
330
1F
100
AcDbEntity
  8
0
  6
Continuous
 62
     7
100
AcDbLine
 10
6938.9334873752
 20
5118.6994563809
 30
0.0
 11
6939.1777872563
 21
5118.6994563809
 31
0.0
  0
LINE
  5
1F0
330
1F
100
AcDbEntity
  8
0
  6
Continuous
 62
     7
100
AcDbLine
 10
6940.1544419573
 20
5138.6994522085
 30
0.0
 11
6939.9100163476
 21
5138.6994522085
 31
0.0
  0
LINE
  5
1F1
330
1F
100
AcDbEntity
  8
0
  6
Continuous
 62
     7
100
AcDbLine
 10
6942.1082878009
 20
5138.6994522085
 30
0.0
 11
6941.8638626569
 21
5138.6994522085
 31
0.0
  0
LINE
  5
1F2
330
1F
100
AcDbEntity
  8
0
  6
Continuous
 62
     7
100
AcDbLine
 10
6944.0621341103
 20
5138.6994522085
 30
0.0
 11
6943.8177089662
 21
5138.6994522085
 31
0.0
  0
LINE
  5
1F3
330
1F
100
AcDbEntity
  8
0
  6
Continuous
 62
     7
100
AcDbLine
 10
6946.0159799539
 20
5138.6994522085
 30
0.0
 11
6945.7715550427
 21
5138.6994522085
 31
0.0
  0
LINE
  5
1F4
330
1F
100
AcDbEntity
  8
0
  6
Continuous
 62
     7
100
AcDbLine
 10
6948.7467996125
 20
5138.6994522085
 30
0.0
 11
6947.7254011192
 21
5138.6994522085
 31
0.0
  0
LINE
  5
1F5
330
1F
100
AcDbEntity
  8
0
  6
Continuous
 62
     7
100
AcDbLine
 10
6948.7467996125
 20
5118.4994529953
 30
0.0
 11
6949.1020444305
 21
5118.4994529953
 31
0.0
  0
LINE
  5
1F6
330
1F
100
AcDbEntity
  8
0
  6
Continuous
 62
     7
100
AcDbLine
 10
6949.1020444305
 20
5138.8994555941
 30
0.0
 11
6948.7467996125
 21
5138.8994555941
 31
0.0
  0
LINE
  5
1F7
330
1F
100
AcDbEntity
  8
0
  6
Continuous
 62
     7
100
AcDbLine
 10
6937.1892496467
 20
5137.6419018974
 30
0.0
 11
6936.746799712
 21
5137.1994566193
 31
0.0
  0
LINE
  5
1F8
330
1F
100
AcDbEntity
  8
0
  6
Continuous
 62
     7
100
AcDbLine
 10
6938.1776157291
 20
5138.6302661171
 30
0.0
 11
6937.5597418741
 21
5138.0124043694
 31
0.0
  0
LINE
  5
1F9
330
1F
100
AcDbEntity
  8
0
  6
Continuous
 62
     7
100
AcDbLine
 10
6936.746799712
 20
5120.1994519701
 30
0.0
 11
6937.5837672026
 21
5119.3624835482
 31
0.0
  0
LINE
  5
1FA
330
1F
100
AcDbEntity
  8
0
  6
Continuous
 62
     7
100
AcDbLine
 10
6939.2996843428
 20
5137.6419018974
 30
0.0
 11
6938.8201230661
 21
5137.6419018974
 31
0.0
  0
LINE
  5
1FB
330
1F
100
AcDbEntity
  8
0
  6
Continuous
 62
     7
100
AcDbLine
 10
6941.2535301865
 20
5137.6419018974
 30
0.0
 11
6940.7739698411
 21
5137.6419018974
 31
0.0
  0
LINE
  5
1FC
330
1F
100
AcDbEntity
  8
0
  6
Continuous
 62
     7
100
AcDbLine
 10
6943.2073764958
 20
5137.6419018974
 30
0.0
 11
6942.7278156848
 21
5137.6419018974
 31
0.0
  0
LINE
  5
1FD
330
1F
100
AcDbEntity
  8
0
  6
Continuous
 62
     7
100
AcDbLine
 10
6945.1612228052
 20
5137.6419018974
 30
0.0
 11
6944.6816619941
 21
5137.6419018974
 31
0.0
  0
LINE
  5
1FE
330
1F
100
AcDbEntity
  8
0
  6
Continuous
 62
     7
100
AcDbLine
 10
6947.1150688817
 20
5137.6419018974
 30
0.0
 11
6946.6355080706
 21
5137.6419018974
 31
0.0
  0
LINE
  5
1FF
330
1F
100
AcDbEntity
  8
0
  6
Continuous
 62
     7
100
AcDbLine
 10
6941.2535301865
 20
5137.6419018974
 30
0.0
 11
6940.7739698411
 21
5137.6419018974
 31
0.0
  0
LINE
  5
200
330
1F
100
AcDbEntity
  8
0
  6
Continuous
 62
     7
100
AcDbLine
 10
6943.2073764958
 20
5137.6419018974
 30
0.0
 11
6942.7278156848
 21
5137.6419018974
 31
0.0
  0
LINE
  5
201
330
1F
100
AcDbEntity
  8
0
  6
Continuous
 62
     7
100
AcDbLine
 10
6945.1612228052
 20
5137.6419018974
 30
0.0
 11
6944.6816619941
 21
5137.6419018974
 31
0.0
  0
LINE
  5
202
330
1F
100
AcDbEntity
  8
0
  6
Continuous
 62
     7
100
AcDbLine
 10
6947.1150688817
 20
5137.6419018974
 30
0.0
 11
6946.6355080706
 21
5137.6419018974
 31
0.0
  0
LINE
  5
203
330
1F
100
AcDbEntity
  8
0
  6
Continuous
 62
     7
100
AcDbLine
 10
6939.7881453381
 20
5119.7570066919
 30
0.0
 11
6940.2677075461
 21
5119.7570066919
 31
0.0
  0
LINE
  5
204
330
1F
100
AcDbEntity
  8
0
  6
Continuous
 62
     7
100
AcDbLine
 10
6941.7419921131
 20
5119.7570066919
 30
0.0
 11
6942.2215533898
 21
5119.7570066919
 31
0.0
  0
LINE
  5
205
330
1F
100
AcDbEntity
  8
0
  6
Continuous
 62
     7
100
AcDbLine
 10
6943.6958379567
 20
5119.7570066919
 30
0.0
 11
6944.1753996991
 21
5119.7570066919
 31
0.0
  0
LINE
  5
206
330
1F
100
AcDbEntity
  8
0
  6
Continuous
 62
     7
100
AcDbLine
 10
6945.6496842661
 20
5119.7570066919
 30
0.0
 11
6946.1292457756
 21
5119.7570066919
 31
0.0
  0
LINE
  5
207
330
1F
100
AcDbEntity
  8
0
  6
Continuous
 62
     7
100
AcDbLine
 10
6937.8342994944
 20
5119.7570066919
 30
0.0
 11
6938.3138607711
 21
5119.7570066919
 31
0.0
  0
LINE
  5
208
330
1F
100
AcDbEntity
  8
0
  6
Continuous
 62
     7
100
AcDbLine
 10
6939.2996843428
 20
5137.6419018974
 30
0.0
 11
6938.8201230661
 21
5137.6419018974
 31
0.0
  0
LINE
  5
209
330
1F
100
AcDbEntity
  8
0
  6
Continuous
 62
     7
100
AcDbLine
 10
7029.2020443351
 20
5463.6994402876
 30
0.0
 11
7029.1020426423
 21
5463.6994402876
 31
0.0
  0
LINE
  5
20A
330
1F
100
AcDbEntity
  8
0
  6
Continuous
 62
     7
100
AcDbLine
 10
7029.2020443351
 20
5449.5865505209
 30
0.0
 11
7029.1020426423
 21
5449.5865505209
 31
0.0
  0
LINE
  5
20B
330
1F
100
AcDbEntity
  8
0
  6
Continuous
 62
     7
100
AcDbLine
 10
7029.2020443351
 20
5463.6994402876
 30
0.0
 11
7029.2020443351
 21
5449.5865505209
 31
0.0
  0
LINE
  5
20C
330
1F
100
AcDbEntity
  8
0
  6
Continuous
 62
     7
100
AcDbLine
 10
6954.1020444305
 20
4953.699454481
 30
0.0
 11
7308.47922
 21
4953.699454481
 31
0.0
  0
LINE
  5
20D
330
1F
100
AcDbEntity
  8
0
  6
Continuous
 62
     7
100
AcDbLine
 10
6954.1020444305
 20
5473.6994258708
 30
0.0
 11
6954.1020444305
 21
4953.699454481
 31
0.0
  0
LINE
  5
20E
330
1F
100
AcDbEntity
  8
0
  6
Continuous
 62
     7
100
AcDbLine
 10
7024.1020426423
 20
5473.6994258708
 30
0.0
 11
6954.1020444305
 21
5473.6994258708
 31
0.0
  0
LINE
  5
20F
330
1F
100
AcDbEntity
  8
0
  6
Continuous
 62
     7
100
AcDbLine
 10
7024.1020474107
 20
5253.6994617453
 30
0.0
 11
7024.1020426423
 21
5473.6994258708
 31
0.0
  0
LINE
  5
210
330
1F
100
AcDbEntity
  8
0
  6
Continuous
 62
     7
100
AcDbLine
 10
7308.47922
 20
5243.6994414797
 30
0.0
 11
7034.1020453245
 21
5243.6994414797
 31
0.0
  0
LINE
  5
211
330
1F
100
AcDbEntity
  8
0
  6
Continuous
 62
     7
100
AcDbLine
 10
7308.47922
 20
5243.6994414797
 30
0.0
 11
7308.47922
 21
4953.699454481
 31
0.0
  0
LINE
  5
212
330
1F
100
AcDbEntity
  8
0
  6
Continuous
 62
     7
100
AcDbLine
 10
6954.1020443187
 20
5478.6994257591
 30
0.0
 11
6954.1020444305
 21
5473.6994258708
 31
0.0
  0
LINE
  5
213
330
1F
100
AcDbEntity
  8
0
  6
Continuous
 62
     7
100
AcDbLine
 10
6949.1020445422
 20
5473.6994306392
 30
0.0
 11
6954.1020444305
 21
5473.6994258708
 31
0.0
  0
LINE
  5
214
330
1F
100
AcDbEntity
  8
0
  6
Continuous
 62
     7
100
AcDbLine
 10
6954.1020443187
 20
5478.6994257591
 30
0.0
 11
7024.1020474107
 21
5478.6994257591
 31
0.0
  0
LINE
  5
215
330
1F
100
AcDbEntity
  8
0
  6
Continuous
 62
     7
100
AcDbLine
 10
7024.1020474107
 20
5478.6994257591
 30
0.0
 11
7024.1020426423
 21
5473.6994258708
 31
0.0
  0
LINE
  5
216
330
1F
100
AcDbEntity
  8
0
  6
Continuous
 62
     7
100
AcDbLine
 10
6949.1020445422
 20
4953.6994543693
 30
0.0
 11
6954.1020444305
 21
4953.699454481
 31
0.0
  0
LINE
  5
217
330
1F
100
AcDbEntity
  8
0
  6
Continuous
 62
     7
100
AcDbLine
 10
6954.1020443187
 20
4948.6994545927
 30
0.0
 11
6954.1020444305
 21
4953.699454481
 31
0.0
  0
LINE
  5
218
330
1F
100
AcDbEntity
  8
0
  6
Continuous
 62
     7
100
AcDbLine
 10
6949.1020445422
 20
4953.6994543693
 30
0.0
 11
6949.1020445422
 21
5473.6994306392
 31
0.0
  0
LINE
  5
219
330
1F
100
AcDbEntity
  8
0
  6
Continuous
 62
     7
100
AcDbLine
 10
7308.47922
 20
4948.6994545927
 30
0.0
 11
6954.1020443187
 21
4948.6994545927
 31
0.0
  0
LINE
  5
21A
330
1F
100
AcDbEntity
  8
0
  6
Continuous
 62
     7
100
AcDbLine
 10
7308.47922
 20
4948.6994545927
 30
0.0
 11
7308.47922
 21
4953.699454481
 31
0.0
  0
LINE
  5
21B
330
1F
100
AcDbEntity
  8
0
  6
Continuous
 62
     7
100
AcDbLine
 10
7034.1020453245
 20
5248.6994665136
 30
0.0
 11
7034.1020453245
 21
5243.6994414797
 31
0.0
  0
LINE
  5
21C
330
1F
100
AcDbEntity
  8
0
  6
Continuous
 62
     7
100
AcDbLine
 10
7029.1020425306
 20
5253.6994617453
 30
0.0
 11
7024.1020474107
 21
5253.6994617453
 31
0.0
  0
LINE
  5
21D
330
1F
100
AcDbEntity
  8
0
  6
Continuous
 62
     7
100
AcDbLine
 10
7029.1020425306
 20
5473.6994306392
 30
0.0
 11
7024.1020426423
 21
5473.6994258708
 31
0.0
  0
LINE
  5
21E
330
1F
100
AcDbEntity
  8
0
  6
Continuous
 62
     7
100
AcDbLine
 10
7029.1020425306
 20
5473.6994306392
 30
0.0
 11
7029.1020425306
 21
5253.6994617453
 31
0.0
  0
LINE
  5
21F
330
1F
100
AcDbEntity
  8
0
  6
Continuous
 62
     7
100
AcDbLine
 10
7034.1020453245
 20
5248.6994665136
 30
0.0
 11
7308.47922
 21
5248.6994665136
 31
0.0
  0
LINE
  5
220
330
1F
100
AcDbEntity
  8
0
  6
Continuous
 62
     7
100
AcDbLine
 10
7308.47922
 20
5248.6994665136
 30
0.0
 11
7308.47922
 21
5243.6994414797
 31
0.0
  0
LINE
  5
221
330
1F
100
AcDbEntity
  8
0
  6
Continuous
 62
     7
100
AcDbLine
 10
7356.6882911594
 20
4948.6994545927
 30
0.0
 11
7308.47922
 21
4948.6994545927
 31
0.0
  0
LINE
  5
222
330
1F
100
AcDbEntity
  8
0
  6
Continuous
 62
     7
100
AcDbLine
 10
7308.47922
 20
4953.699454481
 30
0.0
 11
7359.9022332103
 21
4953.699454481
 31
0.0
  0
LINE
  5
223
330
1F
100
AcDbEntity
  8
0
  6
Continuous
 62
     7
100
AcDbLine
 10
7356.6882911594
 20
4948.6994545927
 30
0.0
 11
7357.3153022201
 21
4948.7955281924
 31
0.0
  0
LINE
  5
224
330
1F
100
AcDbEntity
  8
0
  6
Continuous
 62
     7
100
AcDbLine
 10
7357.3153022201
 20
4948.7955281924
 30
0.0
 11
7357.918203202
 21
4949.0800569378
 31
0.0
  0
LINE
  5
225
330
1F
100
AcDbEntity
  8
0
  6
Continuous
 62
     7
100
AcDbLine
 10
7357.918203202
 20
4949.0800569378
 30
0.0
 11
7358.4738377006
 21
4949.5421065271
 31
0.0
  0
LINE
  5
226
330
1F
100
AcDbEntity
  8
0
  6
Continuous
 62
     7
100
AcDbLine
 10
7358.4738377006
 20
4949.5421065271
 30
0.0
 11
7358.960867253
 21
4950.1639206914
 31
0.0
  0
LINE
  5
227
330
1F
100
AcDbEntity
  8
0
  6
Continuous
 62
     7
100
AcDbLine
 10
7358.960867253
 20
4950.1639206914
 30
0.0
 11
7359.3605760009
 21
4950.9216035271
 31
0.0
  0
LINE
  5
228
330
1F
100
AcDbEntity
  8
0
  6
Continuous
 62
     7
100
AcDbLine
 10
7359.3605760009
 20
4950.9216035271
 30
0.0
 11
7359.6575859458
 21
4951.7860373503
 31
0.0
  0
LINE
  5
229
330
1F
100
AcDbEntity
  8
0
  6
Continuous
 62
     7
100
AcDbLine
 10
7359.6575859458
 20
4951.7860373503
 30
0.0
 11
7359.840452996
 21
4952.7240030488
 31
0.0
  0
LINE
  5
22A
330
1F
100
AcDbEntity
  8
0
  6
Continuous
 62
     7
100
AcDbLine
 10
7359.840452996
 20
4952.7240030488
 30
0.0
 11
7359.9022332103
 21
4953.699454481
 31
0.0
  0
LINE
  5
22B
330
1F
100
AcDbEntity
  8
0
  6
Continuous
 62
     7
100
AcDbLine
 10
7359.9022332103
 20
5243.6994414797
 30
0.0
 11
7308.47922
 21
5243.6994414797
 31
0.0
  0
LINE
  5
22C
330
1F
100
AcDbEntity
  8
0
  6
Continuous
 62
     7
100
AcDbLine
 10
7359.9022332103
 20
5243.6994414797
 30
0.0
 11
7359.9022332103
 21
4953.699454481
 31
0.0
  0
LINE
  5
22D
330
1F
100
AcDbEntity
  8
0
  6
Continuous
 62
     7
100
AcDbLine
 10
7308.47922
 20
5248.6994665136
 30
0.0
 11
7356.6882911594
 21
5248.6994665136
 31
0.0
  0
LINE
  5
22E
330
1F
100
AcDbEntity
  8
0
  6
Continuous
 62
     7
100
AcDbLine
 10
7359.9022332103
 20
5243.6994414797
 30
0.0
 11
7359.840452996
 21
5244.6749012938
 31
0.0
  0
LINE
  5
22F
330
1F
100
AcDbEntity
  8
0
  6
Continuous
 62
     7
100
AcDbLine
 10
7359.840452996
 20
5244.6749012938
 30
0.0
 11
7359.6575859458
 21
5245.6128697863
 31
0.0
  0
LINE
  5
230
330
1F
100
AcDbEntity
  8
0
  6
Continuous
 62
     7
100
AcDbLine
 10
7359.6575859458
 20
5245.6128697863
 30
0.0
 11
7359.3605760009
 21
5246.4773159495
 31
0.0
  0
LINE
  5
231
330
1F
100
AcDbEntity
  8
0
  6
Continuous
 62
     7
100
AcDbLine
 10
7359.3605760009
 20
5246.4773159495
 30
0.0
 11
7358.960867253
 21
5247.2349803915
 31
0.0
  0
LINE
  5
232
330
1F
100
AcDbEntity
  8
0
  6
Continuous
 62
     7
100
AcDbLine
 10
7358.960867253
 20
5247.2349803915
 30
0.0
 11
7358.4738377006
 21
5247.8568058481
 31
0.0
  0
LINE
  5
233
330
1F
100
AcDbEntity
  8
0
  6
Continuous
 62
     7
100
AcDbLine
 10
7358.4738377006
 20
5247.8568058481
 30
0.0
 11
7357.918203202
 21
5248.3188610544
 31
0.0
  0
LINE
  5
234
330
1F
100
AcDbEntity
  8
0
  6
Continuous
 62
     7
100
AcDbLine
 10
7357.918203202
 20
5248.3188610544
 30
0.0
 11
7357.3153022201
 21
5248.6033838263
 31
0.0
  0
LINE
  5
235
330
1F
100
AcDbEntity
  8
0
  6
Continuous
 62
     7
100
AcDbLine
 10
7357.3153022201
 20
5248.6033838263
 30
0.0
 11
7356.6882911594
 21
5248.6994665136
 31
0.0
  0
LINE
  5
236
330
1F
100
AcDbEntity
  8
0
  6
Continuous
 62
     7
100
AcDbLine
 10
7405.5299166114
 20
5243.6994414797
 30
0.0
 11
7359.9022332103
 21
5243.6994414797
 31
0.0
  0
LINE
  5
237
330
1F
100
AcDbEntity
  8
0
  6
Continuous
 62
     7
100
AcDbLine
 10
7405.5299166114
 20
5243.6994414797
 30
0.0
 11
7405.4681661994
 21
5244.6749012938
 31
0.0
  0
LINE
  5
238
330
1F
100
AcDbEntity
  8
0
  6
Continuous
 62
     7
100
AcDbLine
 10
7405.4681661994
 20
5244.6749012938
 30
0.0
 11
7405.2852693469
 21
5245.6128697863
 31
0.0
  0
LINE
  5
239
330
1F
100
AcDbEntity
  8
0
  6
Continuous
 62
     7
100
AcDbLine
 10
7405.2852693469
 20
5245.6128697863
 30
0.0
 11
7404.988259402
 21
5246.4773159495
 31
0.0
  0
LINE
  5
23A
330
1F
100
AcDbEntity
  8
0
  6
Continuous
 62
     7
100
AcDbLine
 10
7404.988259402
 20
5246.4773159495
 30
0.0
 11
7404.5885804565
 21
5247.2349803915
 31
0.0
  0
LINE
  5
23B
330
1F
100
AcDbEntity
  8
0
  6
Continuous
 62
     7
100
AcDbLine
 10
7404.5885804565
 20
5247.2349803915
 30
0.0
 11
7404.101550904
 21
5247.8568058481
 31
0.0
  0
LINE
  5
23C
330
1F
100
AcDbEntity
  8
0
  6
Continuous
 62
     7
100
AcDbLine
 10
7404.101550904
 20
5247.8568058481
 30
0.0
 11
7403.5459164054
 21
5248.3188610544
 31
0.0
  0
LINE
  5
23D
330
1F
100
AcDbEntity
  8
0
  6
Continuous
 62
     7
100
AcDbLine
 10
7403.5459164054
 20
5248.3188610544
 30
0.0
 11
7402.9429856212
 21
5248.6033838263
 31
0.0
  0
LINE
  5
23E
330
1F
100
AcDbEntity
  8
0
  6
Continuous
 62
     7
100
AcDbLine
 10
7402.9429856212
 20
5248.6033838263
 30
0.0
 11
7402.3159745605
 21
5248.6994665136
 31
0.0
  0
LINE
  5
23F
330
1F
100
AcDbEntity
  8
0
  6
Continuous
 62
     7
100
AcDbLine
 10
7356.6882911594
 20
5248.6994665136
 30
0.0
 11
7402.3159745605
 21
5248.6994665136
 31
0.0
  0
LINE
  5
240
330
1F
100
AcDbEntity
  8
0
  6
Continuous
 62
     7
100
AcDbLine
 10
7359.9022332103
 20
4953.699454481
 30
0.0
 11
7405.5299166114
 21
4953.699454481
 31
0.0
  0
LINE
  5
241
330
1F
100
AcDbEntity
  8
0
  6
Continuous
 62
     7
100
AcDbLine
 10
7402.3159745605
 20
4948.6994545927
 30
0.0
 11
7402.9429856212
 21
4948.7955281924
 31
0.0
  0
LINE
  5
242
330
1F
100
AcDbEntity
  8
0
  6
Continuous
 62
     7
100
AcDbLine
 10
7402.9429856212
 20
4948.7955281924
 30
0.0
 11
7403.5459164054
 21
4949.0800569378
 31
0.0
  0
LINE
  5
243
330
1F
100
AcDbEntity
  8
0
  6
Continuous
 62
     7
100
AcDbLine
 10
7403.5459164054
 20
4949.0800569378
 30
0.0
 11
7404.101550904
 21
4949.5421065271
 31
0.0
  0
LINE
  5
244
330
1F
100
AcDbEntity
  8
0
  6
Continuous
 62
     7
100
AcDbLine
 10
7404.101550904
 20
4949.5421065271
 30
0.0
 11
7404.5885804565
 21
4950.1639206914
 31
0.0
  0
LINE
  5
245
330
1F
100
AcDbEntity
  8
0
  6
Continuous
 62
     7
100
AcDbLine
 10
7404.5885804565
 20
4950.1639206914
 30
0.0
 11
7404.988259402
 21
4950.9216035271
 31
0.0
  0
LINE
  5
246
330
1F
100
AcDbEntity
  8
0
  6
Continuous
 62
     7
100
AcDbLine
 10
7404.988259402
 20
4950.9216035271
 30
0.0
 11
7405.2852693469
 21
4951.7860373503
 31
0.0
  0
LINE
  5
247
330
1F
100
AcDbEntity
  8
0
  6
Continuous
 62
     7
100
AcDbLine
 10
7405.2852693469
 20
4951.7860373503
 30
0.0
 11
7405.4681661994
 21
4952.7240030488
 31
0.0
  0
LINE
  5
248
330
1F
100
AcDbEntity
  8
0
  6
Continuous
 62
     7
100
AcDbLine
 10
7405.4681661994
 20
4952.7240030488
 30
0.0
 11
7405.5299166114
 21
4953.699454481
 31
0.0
  0
LINE
  5
249
330
1F
100
AcDbEntity
  8
0
  6
Continuous
 62
     7
100
AcDbLine
 10
7402.3159745605
 20
4948.6994545927
 30
0.0
 11
7356.6882911594
 21
4948.6994545927
 31
0.0
  0
LINE
  5
24A
330
1F
100
AcDbEntity
  8
0
  6
Continuous
 62
     7
100
AcDbLine
 10
7405.5299166114
 20
4953.699454481
 30
0.0
 11
7405.5299166114
 21
5243.6994414797
 31
0.0
  0
LINE
  5
24B
330
1F
100
AcDbEntity
  8
0
  6
Continuous
 62
     7
100
AcDbLine
 10
7405.5299166114
 20
4953.699454481
 30
0.0
 11
7409.1020527751
 21
4953.699454481
 31
0.0
  0
LINE
  5
24C
330
1F
100
AcDbEntity
  8
0
  6
Continuous
 62
     7
100
AcDbLine
 10
7409.1020527751
 20
5243.6994414797
 30
0.0
 11
7405.5299166114
 21
5243.6994414797
 31
0.0
  0
LINE
  5
24D
330
1F
100
AcDbEntity
  8
0
  6
Continuous
 62
     7
100
AcDbLine
 10
7409.1020527751
 20
5243.6994414797
 30
0.0
 11
7409.1020527751
 21
4953.699454481
 31
0.0
  0
LINE
  5
24E
330
1F
100
AcDbEntity
  8
0
  6
Continuous
 62
     7
100
AcDbLine
 10
7402.3159745605
 20
5248.6994665136
 30
0.0
 11
7404.1020575435
 21
5248.6994665136
 31
0.0
  0
LINE
  5
24F
330
1F
100
AcDbEntity
  8
0
  6
Continuous
 62
     7
100
AcDbLine
 10
7404.1020575435
 20
4948.6994545927
 30
0.0
 11
7402.3159745605
 21
4948.6994545927
 31
0.0
  0
LINE
  5
250
330
1F
100
AcDbEntity
  8
0
  6
Continuous
 62
     7
100
AcDbLine
 10
7081.6455188663
 20
5383.3803039065
 30
0.0
 11
7081.6918614776
 21
5383.4070365896
 31
0.0
  0
LINE
  5
251
330
1F
100
AcDbEntity
  8
0
  6
Continuous
 62
     7
100
AcDbLine
 10
7081.6918614776
 20
5383.4070365896
 30
0.0
 11
7081.7250016601
 21
5383.4261994829
 31
0.0
  0
LINE
  5
252
330
1F
100
AcDbEntity
  8
0
  6
Continuous
 62
     7
100
AcDbLine
 10
7081.7250016601
 20
5383.4261994829
 30
0.0
 11
7081.7449096114
 21
5383.4376733771
 31
0.0
  0
LINE
  5
253
330
1F
100
AcDbEntity
  8
0
  6
Continuous
 62
     7
100
AcDbLine
 10
7081.7449096114
 20
5383.4376733771
 30
0.0
 11
7081.7515555293
 21
5383.4415178766
 31
0.0
  0
LINE
  5
254
330
1F
100
AcDbEntity
  8
0
  6
Continuous
 62
     7
100
AcDbLine
 10
7065.730087784
 20
5374.1915028563
 30
0.0
 11
7065.7367262513
 21
5374.1953473559
 31
0.0
  0
LINE
  5
255
330
1F
100
AcDbEntity
  8
0
  6
Continuous
 62
     7
100
AcDbLine
 10
7065.7367262513
 20
5374.1953473559
 30
0.0
 11
7065.7566342027
 21
5374.2068510523
 31
0.0
  0
LINE
  5
256
330
1F
100
AcDbEntity
  8
0
  6
Continuous
 62
     7
100
AcDbLine
 10
7065.7566342027
 20
5374.2068510523
 30
0.0
 11
7065.7897818358
 21
5374.2259841433
 31
0.0
  0
LINE
  5
257
330
1F
100
AcDbEntity
  8
0
  6
Continuous
 62
     7
100
AcDbLine
 10
7065.7897818358
 20
5374.2259841433
 30
0.0
 11
7065.8361095459
 21
5374.2527466288
 31
0.0
  0
LINE
  5
258
330
1F
100
AcDbEntity
  8
0
  6
Continuous
 62
     7
100
AcDbLine
 10
6938.2467999578
 20
5138.5865610113
 30
0.0
 11
6938.2175461844
 21
5138.5903459063
 31
0.0
  0
LINE
  5
259
330
1F
100
AcDbEntity
  8
0
  6
Continuous
 62
     7
100
AcDbLine
 10
6937.5597418741
 20
5138.0124043694
 30
0.0
 11
6937.4399560959
 21
5137.8049206009
 31
0.0
  0
LINE
  5
25A
330
1F
100
AcDbEntity
  8
0
  6
Continuous
 62
     7
100
AcDbLine
 10
6937.4399560959
 20
5137.8049206009
 30
0.0
 11
6937.3458384992
 21
5137.6419018974
 31
0.0
  0
LINE
  5
25B
330
1F
100
AcDbEntity
  8
0
  6
Continuous
 62
     7
100
AcDbLine
 10
6938.2467999578
 20
5138.5865610113
 30
0.0
 11
6938.2467999578
 21
5134.6459936371
 31
0.0
  0
LINE
  5
25C
330
1F
100
AcDbEntity
  8
0
  6
Continuous
 62
     7
100
AcDbLine
 10
6947.9558014766
 20
5136.0699187985
 30
0.0
 11
6946.2461858977
 21
5136.0698889961
 31
0.0
  0
LINE
  5
25D
330
1F
100
AcDbEntity
  8
0
  6
Continuous
 62
     7
100
AcDbLine
 10
6948.7467996125
 20
5118.4994529953
 30
0.0
 11
6948.7467996125
 21
5138.8994555941
 31
0.0
  0
LINE
  5
25E
330
1F
100
AcDbEntity
  8
0
  6
Continuous
 62
     7
100
AcDbLine
 10
6937.5597418741
 20
5138.0124043694
 30
0.0
 11
6937.1892496467
 21
5137.6419018974
 31
0.0
  0
LINE
  5
25F
330
1F
100
AcDbEntity
  8
0
  6
Continuous
 62
     7
100
AcDbLine
 10
6936.746799712
 20
5128.6994617453
 30
0.0
 11
6936.746799712
 21
5137.1994566193
 31
0.0
  0
LINE
  5
260
330
1F
100
AcDbEntity
  8
0
  6
Continuous
 62
     7
100
AcDbLine
 10
6936.746799712
 20
5120.1994519701
 30
0.0
 11
6936.746799712
 21
5128.6994617453
 31
0.0
  0
LINE
  5
261
330
1F
100
AcDbEntity
  8
0
  6
Continuous
 62
     7
100
AcDbLine
 10
6937.3458384992
 20
5137.6419018974
 30
0.0
 11
6937.1892496467
 21
5137.6419018974
 31
0.0
  0
LINE
  5
262
330
1F
100
AcDbEntity
  8
0
  6
Continuous
 62
     7
100
AcDbLine
 10
6459.4539841674
 20
4504.0860777321
 30
0.0
 11
6459.7529784538
 21
4503.3943484305
 31
0.0
  0
LINE
  5
263
330
1F
100
AcDbEntity
  8
0
  6
Continuous
 62
     7
100
AcDbLine
 10
6459.7529784538
 20
4503.3943484305
 30
0.0
 11
6460.2460636542
 21
4502.8934914146
 31
0.0
  0
LINE
  5
264
330
1F
100
AcDbEntity
  8
0
  6
Continuous
 62
     7
100
AcDbLine
 10
6460.2460636542
 20
4502.8934914146
 30
0.0
 11
6460.8581720166
 21
4502.659757625
 31
0.0
  0
LINE
  5
265
330
1F
100
AcDbEntity
  8
0
  6
Continuous
 62
     7
100
AcDbLine
 10
6460.8581720166
 20
4502.659757625
 30
0.0
 11
6461.4961155916
 21
4502.7287309122
 31
0.0
  0
LINE
  5
266
330
1F
100
AcDbEntity
  8
0
  6
Continuous
 62
     7
100
AcDbLine
 10
6461.4961155916
 20
4502.7287309122
 30
0.0
 11
6462.0627732528
 21
4503.0899107185
 31
0.0
  0
LINE
  5
267
330
1F
100
AcDbEntity
  8
0
  6
Continuous
 62
     7
100
AcDbLine
 10
6462.0627732528
 20
4503.0899107185
 30
0.0
 11
6462.4718765081
 21
4503.6883106925
 31
0.0
  0
LINE
  5
268
330
1F
100
AcDbEntity
  8
0
  6
Continuous
 62
     7
100
AcDbLine
 10
6462.4718765081
 20
4503.6883106925
 30
0.0
 11
6462.6611430955
 21
4504.4328298628
 31
0.0
  0
LINE
  5
269
330
1F
100
AcDbEntity
  8
0
  6
Continuous
 62
     7
100
AcDbLine
 10
6462.6611430955
 20
4504.4328298628
 30
0.0
 11
6462.6017588927
 21
4505.2101219346
 31
0.0
  0
LINE
  5
26A
330
1F
100
AcDbEntity
  8
0
  6
Continuous
 62
     7
100
AcDbLine
 10
6462.6017588927
 20
4505.2101219346
 30
0.0
 11
6462.3027646062
 21
4505.9018512363
 31
0.0
  0
LINE
  5
26B
330
1F
100
AcDbEntity
  8
0
  6
Continuous
 62
     7
100
AcDbLine
 10
6462.3027646062
 20
4505.9018512363
 30
0.0
 11
6461.8096794058
 21
4506.4027082521
 31
0.0
  0
LINE
  5
26C
330
1F
100
AcDbEntity
  8
0
  6
Continuous
 62
     7
100
AcDbLine
 10
6461.8096794058
 20
4506.4027082521
 30
0.0
 11
6461.1975710435
 21
4506.6364420418
 31
0.0
  0
LINE
  5
26D
330
1F
100
AcDbEntity
  8
0
  6
Continuous
 62
     7
100
AcDbLine
 10
6461.1975710435
 20
4506.6364420418
 30
0.0
 11
6460.5596274685
 21
4506.5674687546
 31
0.0
  0
LINE
  5
26E
330
1F
100
AcDbEntity
  8
0
  6
Continuous
 62
     7
100
AcDbLine
 10
6460.5596274685
 20
4506.5674687546
 30
0.0
 11
6459.9929698073
 21
4506.2062889482
 31
0.0
  0
LINE
  5
26F
330
1F
100
AcDbEntity
  8
0
  6
Continuous
 62
     7
100
AcDbLine
 10
6459.9929698073
 20
4506.2062889482
 30
0.0
 11
6459.5838665519
 21
4505.6078889742
 31
0.0
  0
LINE
  5
270
330
1F
100
AcDbEntity
  8
0
  6
Continuous
 62
     7
100
AcDbLine
 10
6459.5838665519
 20
4505.6078889742
 30
0.0
 11
6459.3945999645
 21
4504.863369804
 31
0.0
  0
LINE
  5
271
330
1F
100
AcDbEntity
  8
0
  6
Continuous
 62
     7
100
AcDbLine
 10
6459.3945999645
 20
4504.863369804
 30
0.0
 11
6459.4539841674
 21
4504.0860777321
 31
0.0
  0
LINE
  5
272
330
1F
100
AcDbEntity
  8
0
  6
Continuous
 62
     7
100
AcDbLine
 10
6385.0187567666
 20
4443.6748693459
 30
0.0
 11
6386.5187523559
 21
4442.1748663061
 31
0.0
  0
LINE
  5
273
330
1F
100
AcDbEntity
  8
0
  6
Continuous
 62
     7
100
AcDbLine
 10
6411.5187583163
 20
4442.1748663061
 30
0.0
 11
6413.0187539056
 21
4443.6748693459
 31
0.0
  0
LINE
  5
274
330
1F
100
AcDbEntity
  8
0
  6
Continuous
 62
     7
100
AcDbLine
 10
6385.0187567666
 20
4444.1748703592
 30
0.0
 11
6385.0187567666
 21
4443.6748693459
 31
0.0
  0
LINE
  5
275
330
1F
100
AcDbEntity
  8
0
  6
Continuous
 62
     7
100
AcDbLine
 10
6413.0187539056
 20
4443.6748693459
 30
0.0
 11
6413.0187539056
 21
4444.1748703592
 31
0.0
  0
LINE
  5
276
330
1F
100
AcDbEntity
  8
0
  6
Continuous
 62
     7
100
AcDbLine
 10
6260.018754904
 20
4444.1748703592
 30
0.0
 11
6260.018754904
 21
4400.9920875304
 31
0.0
  0
LINE
  5
277
330
1F
100
AcDbEntity
  8
0
  6
Continuous
 62
     7
100
AcDbLine
 10
6288.0187557682
 20
4400.9920875304
 30
0.0
 11
6288.0187557682
 21
4444.1748703592
 31
0.0
  0
LINE
  5
278
330
1F
100
AcDbEntity
  8
0
  6
Continuous
 62
     7
100
AcDbLine
 10
6173.6195293859
 20
4535.4293421604
 30
0.0
 11
6172.5187582567
 21
4536.5301132896
 31
0.0
  0
LINE
  5
279
330
1F
100
AcDbEntity
  8
0
  6
Continuous
 62
     7
100
AcDbLine
 10
6155.5187536076
 20
4536.5301132896
 30
0.0
 11
6155.0413800076
 21
4536.0527396896
 31
0.0
  0
LINE
  5
27A
330
1F
100
AcDbEntity
  8
0
  6
Continuous
 62
     7
100
AcDbLine
 10
6153.8187546328
 20
4524.530113389
 30
0.0
 11
6153.8187546328
 21
4524.1748685711
 31
0.0
  0
LINE
  5
27B
330
1F
100
AcDbEntity
  8
0
  6
Continuous
 62
     7
100
AcDbLine
 10
6174.2187572315
 20
4524.1748685711
 30
0.0
 11
6174.2187572315
 21
4524.530113389
 31
0.0
  0
LINE
  5
27C
330
1F
100
AcDbEntity
  8
0
  6
Continuous
 62
     7
100
AcDbLine
 10
6154.0187580183
 20
4527.0164089505
 30
0.0
 11
6154.0187580183
 21
4524.530113389
 31
0.0
  0
LINE
  5
27D
330
1F
100
AcDbEntity
  8
0
  6
Continuous
 62
     7
100
AcDbLine
 10
6154.0187580183
 20
4528.970255027
 30
0.0
 11
6154.0187580183
 21
4528.726348164
 31
0.0
  0
LINE
  5
27E
330
1F
100
AcDbEntity
  8
0
  6
Continuous
 62
     7
100
AcDbLine
 10
6154.0187580183
 20
4530.9241013364
 30
0.0
 11
6154.0187580183
 21
4530.6801944733
 31
0.0
  0
LINE
  5
27F
330
1F
100
AcDbEntity
  8
0
  6
Continuous
 62
     7
100
AcDbLine
 10
6154.0187580183
 20
4532.8779476457
 30
0.0
 11
6154.0187580183
 21
4532.6340407827
 31
0.0
  0
LINE
  5
280
330
1F
100
AcDbEntity
  8
0
  6
Continuous
 62
     7
100
AcDbLine
 10
6154.0187580183
 20
4534.8317934894
 30
0.0
 11
6154.0187580183
 21
4534.5878866263
 31
0.0
  0
LINE
  5
281
330
1F
100
AcDbEntity
  8
0
  6
Continuous
 62
     7
100
AcDbLine
 10
6174.018753846
 20
4533.6106023513
 30
0.0
 11
6174.018753846
 21
4533.8552747615
 31
0.0
  0
LINE
  5
282
330
1F
100
AcDbEntity
  8
0
  6
Continuous
 62
     7
100
AcDbLine
 10
6174.018753846
 20
4531.6567555763
 30
0.0
 11
6174.018753846
 21
4531.9014284522
 31
0.0
  0
LINE
  5
283
330
1F
100
AcDbEntity
  8
0
  6
Continuous
 62
     7
100
AcDbLine
 10
6174.018753846
 20
4529.7029097327
 30
0.0
 11
6174.018753846
 21
4529.9475826085
 31
0.0
  0
LINE
  5
284
330
1F
100
AcDbEntity
  8
0
  6
Continuous
 62
     7
100
AcDbLine
 10
6174.018753846
 20
4527.7490634233
 30
0.0
 11
6174.018753846
 21
4527.9937362992
 31
0.0
  0
LINE
  5
285
330
1F
100
AcDbEntity
  8
0
  6
Continuous
 62
     7
100
AcDbLine
 10
6174.018753846
 20
4524.530113389
 30
0.0
 11
6174.018753846
 21
4526.0398901063
 31
0.0
  0
LINE
  5
286
330
1F
100
AcDbEntity
  8
0
  6
Continuous
 62
     7
100
AcDbLine
 10
6155.0763083294
 20
4533.9772286587
 30
0.0
 11
6155.0763083294
 21
4533.4984115087
 31
0.0
  0
LINE
  5
287
330
1F
100
AcDbEntity
  8
0
  6
Continuous
 62
     7
100
AcDbLine
 10
6155.0763083294
 20
4532.023382815
 30
0.0
 11
6155.0763083294
 21
4531.5445651994
 31
0.0
  0
LINE
  5
288
330
1F
100
AcDbEntity
  8
0
  6
Continuous
 62
     7
100
AcDbLine
 10
6155.0763083294
 20
4530.0695365057
 30
0.0
 11
6155.0763083294
 21
4529.5907193557
 31
0.0
  0
LINE
  5
289
330
1F
100
AcDbEntity
  8
0
  6
Continuous
 62
     7
100
AcDbLine
 10
6155.0763083294
 20
4528.1156901964
 30
0.0
 11
6155.0763083294
 21
4527.6368730464
 31
0.0
  0
LINE
  5
28A
330
1F
100
AcDbEntity
  8
0
  6
Continuous
 62
     7
100
AcDbLine
 10
6172.9612035349
 20
4532.5118438103
 30
0.0
 11
6172.9612035349
 21
4532.9906563037
 31
0.0
  0
LINE
  5
28B
330
1F
100
AcDbEntity
  8
0
  6
Continuous
 62
     7
100
AcDbLine
 10
6172.9612035349
 20
4530.5579979666
 30
0.0
 11
6172.9612035349
 21
4531.0368099943
 31
0.0
  0
LINE
  5
28C
330
1F
100
AcDbEntity
  8
0
  6
Continuous
 62
     7
100
AcDbLine
 10
6172.9612035349
 20
4528.6041516573
 30
0.0
 11
6172.9612035349
 21
4529.0829641507
 31
0.0
  0
LINE
  5
28D
330
1F
100
AcDbEntity
  8
0
  6
Continuous
 62
     7
100
AcDbLine
 10
6172.9612035349
 20
4526.6503058136
 30
0.0
 11
6172.9612035349
 21
4527.1291178413
 31
0.0
  0
LINE
  5
28E
330
1F
100
AcDbEntity
  8
0
  6
Continuous
 62
     7
100
AcDbLine
 10
6172.9612035349
 20
4534.4656905853
 30
0.0
 11
6172.9612035349
 21
4534.9445021473
 31
0.0
  0
LINE
  5
28F
330
1F
100
AcDbEntity
  8
0
  6
Continuous
 62
     7
100
AcDbLine
 10
6155.0763083294
 20
4535.9310745024
 30
0.0
 11
6155.0763083294
 21
4535.4522573524
 31
0.0
  0
LINE
  5
290
330
1F
100
AcDbEntity
  8
0
  6
Continuous
 62
     7
100
AcDbLine
 10
6273.2687553361
 20
4254.0582152205
 30
0.0
 11
6273.2687553361
 21
4243.6659103751
 31
0.0
  0
LINE
  5
291
330
1F
100
AcDbEntity
  8
0
  6
Continuous
 62
     7
100
AcDbLine
 10
6274.7687553361
 20
4243.6659103751
 30
0.0
 11
6274.7687553361
 21
4254.0582152205
 31
0.0
  0
LINE
  5
292
330
1F
100
AcDbEntity
  8
0
  6
Continuous
 62
     7
100
AcDbLine
 10
6509.0187547401
 20
4444.0748686664
 30
0.0
 11
6474.0187583163
 21
4444.0748686664
 31
0.0
  0
LINE
  5
293
330
1F
100
AcDbEntity
  8
0
  6
Continuous
 62
     7
100
AcDbLine
 10
6474.0187583163
 20
4444.0748686664
 30
0.0
 11
6474.0187583163
 21
4444.1748703592
 31
0.0
  0
LINE
  5
294
330
1F
100
AcDbEntity
  8
0
  6
Continuous
 62
     7
100
AcDbLine
 10
6509.0187547401
 20
4444.0748686664
 30
0.0
 11
6509.0187547401
 21
4444.1748703592
 31
0.0
  0
LINE
  5
295
330
1F
100
AcDbEntity
  8
0
  6
Continuous
 62
     7
100
AcDbLine
 10
6411.5187583163
 20
4442.1748663061
 30
0.0
 11
6386.5187523559
 21
4442.1748663061
 31
0.0
  0
LINE
  5
296
330
1F
100
AcDbEntity
  8
0
  6
Continuous
 62
     7
100
AcDbLine
 10
6385.0187567666
 20
4443.6748693459
 30
0.0
 11
6413.0187539056
 21
4443.6748693459
 31
0.0
  0
LINE
  5
297
330
1F
100
AcDbEntity
  8
0
  6
Continuous
 62
     7
100
AcDbLine
 10
6282.0202290684
 20
4246.7460031383
 30
0.0
 11
6285.4501150221
 21
4244.9093754165
 31
0.0
  0
LINE
  5
298
330
1F
100
AcDbEntity
  8
0
  6
Continuous
 62
     7
100
AcDbLine
 10
6268.1948600009
 20
4242.9964537494
 30
0.0
 11
6264.8860748529
 21
4240.9423584812
 31
0.0
  0
LINE
  5
299
330
1F
100
AcDbEntity
  8
0
  6
Continuous
 62
     7
100
AcDbLine
 10
6262.3910784393
 20
4243.8937420719
 30
0.0
 11
6266.6657014422
 21
4246.5474302643
 31
0.0
  0
LINE
  5
29A
330
1F
100
AcDbEntity
  8
0
  6
Continuous
 62
     7
100
AcDbLine
 10
6284.149374035
 20
4241.2688131206
 30
0.0
 11
6279.7097826049
 21
4243.6461145752
 31
0.0
  0
LINE
  5
29B
330
1F
100
AcDbEntity
  8
0
  6
Continuous
 62
     7
100
AcDbLine
 10
6271.8505618766
 20
4256.8499739044
 30
0.0
 11
6271.7261735022
 21
4260.7388193481
 31
0.0
  0
LINE
  5
29C
330
1F
100
AcDbEntity
  8
0
  6
Continuous
 62
     7
100
AcDbLine
 10
6275.529944375
 20
4261.4144976013
 30
0.0
 11
6275.6901353503
 21
4256.4063365333
 31
0.0
  0
LINE
  5
29D
330
1F
100
AcDbEntity
  8
0
  6
Continuous
 62
     7
100
AcDbLine
 10
6271.6415898547
 20
4260.6216366165
 30
0.0
 11
6271.758929747
 21
4256.9531793468
 31
0.0
  0
LINE
  5
29E
330
1F
100
AcDbEntity
  8
0
  6
Continuous
 62
     7
100
AcDbLine
 10
6275.7769344978
 20
4256.4542288654
 30
0.0
 11
6275.6203051329
 21
4261.3510484569
 31
0.0
  0
LINE
  5
29F
330
1F
100
AcDbEntity
  8
0
  6
Continuous
 62
     7
100
AcDbLine
 10
6285.3915935054
 20
4245.0408632629
 30
0.0
 11
6282.1561276585
 21
4246.7733914726
 31
0.0
  0
LINE
  5
2A0
330
1F
100
AcDbEntity
  8
0
  6
Continuous
 62
     7
100
AcDbLine
 10
6266.5816980086
 20
4246.5991968982
 30
0.0
 11
6262.38386814
 21
4243.9931626194
 31
0.0
  0
LINE
  5
2A1
330
1F
100
AcDbEntity
  8
0
  6
Continuous
 62
     7
100
AcDbLine
 10
6279.7308742672
 20
4243.5346836918
 30
0.0
 11
6284.071325478
 21
4241.2104601734
 31
0.0
  0
LINE
  5
2A2
330
1F
100
AcDbEntity
  8
0
  6
Continuous
 62
     7
100
AcDbLine
 10
6265.0205569014
 20
4240.921914088
 30
0.0
 11
6268.1415883496
 21
4242.8594524734
 31
0.0
  0
LINE
  5
2A3
330
1F
100
AcDbEntity
  8
0
  6
Continuous
 62
     7
100
AcDbLine
 10
6519.0187553361
 20
4519.1748685711
 30
0.0
 11
6519.0187601045
 21
4524.1748685711
 31
0.0
  0
LINE
  5
2A4
330
1F
100
AcDbEntity
  8
0
  6
Continuous
 62
     7
100
AcDbLine
 10
6524.0187553361
 20
4519.1748686828
 30
0.0
 11
6519.0187553361
 21
4519.1748685711
 31
0.0
  0
LINE
  5
2A5
330
1F
100
AcDbEntity
  8
0
  6
Continuous
 62
     7
100
AcDbLine
 10
6029.0187553361
 20
4449.1748703592
 30
0.0
 11
6519.0187553361
 21
4449.1748703592
 31
0.0
  0
LINE
  5
2A6
330
1F
100
AcDbEntity
  8
0
  6
Continuous
 62
     7
100
AcDbLine
 10
6029.0187553361
 20
4519.1748685711
 30
0.0
 11
6029.0187553361
 21
4449.1748703592
 31
0.0
  0
LINE
  5
2A7
330
1F
100
AcDbEntity
  8
0
  6
Continuous
 62
     7
100
AcDbLine
 10
6519.0187553361
 20
4519.1748685711
 30
0.0
 11
6029.0187553361
 21
4519.1748685711
 31
0.0
  0
LINE
  5
2A8
330
1F
100
AcDbEntity
  8
0
  6
Continuous
 62
     7
100
AcDbLine
 10
6519.0187553361
 20
4449.1748703592
 30
0.0
 11
6519.0187553361
 21
4519.1748685711
 31
0.0
  0
LINE
  5
2A9
330
1F
100
AcDbEntity
  8
0
  6
Continuous
 62
     7
100
AcDbLine
 10
6029.0187553361
 20
4519.1748685711
 30
0.0
 11
6029.0187505677
 21
4524.1748685711
 31
0.0
  0
LINE
  5
2AA
330
1F
100
AcDbEntity
  8
0
  6
Continuous
 62
     7
100
AcDbLine
 10
6029.0187505677
 20
4524.1748685711
 30
0.0
 11
6519.0187601045
 21
4524.1748685711
 31
0.0
  0
LINE
  5
2AB
330
1F
100
AcDbEntity
  8
0
  6
Continuous
 62
     7
100
AcDbLine
 10
6524.0187553361
 20
4519.1748686828
 30
0.0
 11
6524.0187553361
 21
4449.1748655908
 31
0.0
  0
LINE
  5
2AC
330
1F
100
AcDbEntity
  8
0
  6
Continuous
 62
     7
100
AcDbLine
 10
6524.0187553361
 20
4449.1748655908
 30
0.0
 11
6519.0187553361
 21
4449.1748703592
 31
0.0
  0
LINE
  5
2AD
330
1F
100
AcDbEntity
  8
0
  6
Continuous
 62
     7
100
AcDbLine
 10
6029.0187553361
 20
4519.1748685711
 30
0.0
 11
6024.0187553361
 21
4519.1748686828
 31
0.0
  0
LINE
  5
2AE
330
1F
100
AcDbEntity
  8
0
  6
Continuous
 62
     7
100
AcDbLine
 10
6029.0187553361
 20
4449.1748703592
 30
0.0
 11
6024.0187553361
 21
4449.1748655908
 31
0.0
  0
LINE
  5
2AF
330
1F
100
AcDbEntity
  8
0
  6
Continuous
 62
     7
100
AcDbLine
 10
6024.0187553361
 20
4449.1748655908
 30
0.0
 11
6024.0187553361
 21
4519.1748686828
 31
0.0
  0
LINE
  5
2B0
330
1F
100
AcDbEntity
  8
0
  6
Continuous
 62
     7
100
AcDbLine
 10
6029.0187505677
 20
4444.1748703592
 30
0.0
 11
6029.0187553361
 21
4449.1748703592
 31
0.0
  0
LINE
  5
2B1
330
1F
100
AcDbEntity
  8
0
  6
Continuous
 62
     7
100
AcDbLine
 10
6519.0187601045
 20
4444.1748703592
 30
0.0
 11
6519.0187553361
 21
4449.1748703592
 31
0.0
  0
LINE
  5
2B2
330
1F
100
AcDbEntity
  8
0
  6
Continuous
 62
     7
100
AcDbLine
 10
6519.0187601045
 20
4444.1748703592
 30
0.0
 11
6029.0187505677
 21
4444.1748703592
 31
0.0
  0
LINE
  5
2B3
330
1F
100
AcDbEntity
  8
0
  6
Continuous
 62
     7
100
AcDbLine
 10
6029.0187505677
 20
4439.174867677
 30
0.0
 11
6029.0187505677
 21
4444.1748703592
 31
0.0
  0
LINE
  5
2B4
330
1F
100
AcDbEntity
  8
0
  6
Continuous
 62
     7
100
AcDbLine
 10
6029.0187505677
 20
4439.174867677
 30
0.0
 11
6024.0187553361
 21
4439.174867677
 31
0.0
  0
LINE
  5
2B5
330
1F
100
AcDbEntity
  8
0
  6
Continuous
 62
     7
100
AcDbLine
 10
6024.0187553361
 20
4449.1748655908
 30
0.0
 11
6024.0187553361
 21
4439.174867677
 31
0.0
  0
LINE
  5
2B6
330
1F
100
AcDbEntity
  8
0
  6
Continuous
 62
     7
100
AcDbLine
 10
6519.0187601045
 20
4439.174867677
 30
0.0
 11
6524.0187553361
 21
4439.174867677
 31
0.0
  0
LINE
  5
2B7
330
1F
100
AcDbEntity
  8
0
  6
Continuous
 62
     7
100
AcDbLine
 10
6519.0187601045
 20
4439.174867677
 30
0.0
 11
6519.0187601045
 21
4444.1748703592
 31
0.0
  0
LINE
  5
2B8
330
1F
100
AcDbEntity
  8
0
  6
Continuous
 62
     7
100
AcDbLine
 10
6524.0187553361
 20
4439.174867677
 30
0.0
 11
6524.0187553361
 21
4449.1748655908
 31
0.0
  0
LINE
  5
2B9
330
1F
100
AcDbEntity
  8
0
  6
Continuous
 62
     7
100
AcDbLine
 10
6519.0187601045
 20
4164.7976930015
 30
0.0
 11
6519.0187601045
 21
4439.174867677
 31
0.0
  0
LINE
  5
2BA
330
1F
100
AcDbEntity
  8
0
  6
Continuous
 62
     7
100
AcDbLine
 10
6463.1858904179
 20
4070.9609384411
 30
0.0
 11
6501.4720846232
 21
4116.5886218422
 31
0.0
  0
LINE
  5
2BB
330
1F
100
AcDbEntity
  8
0
  6
Continuous
 62
     7
100
AcDbLine
 10
6088.681834281
 20
4069.174857051
 30
0.0
 11
6459.3556695586
 21
4069.174857051
 31
0.0
  0
LINE
  5
2BC
330
1F
100
AcDbEntity
  8
0
  6
Continuous
 62
     7
100
AcDbLine
 10
6046.5654192164
 20
4116.5886218422
 30
0.0
 11
6084.8516134217
 21
4070.9609384411
 31
0.0
  0
LINE
  5
2BD
330
1F
100
AcDbEntity
  8
0
  6
Continuous
 62
     7
100
AcDbLine
 10
6029.0187505677
 20
4439.174867677
 30
0.0
 11
6029.0187505677
 21
4164.7976930015
 31
0.0
  0
LINE
  5
2BE
330
1F
100
AcDbEntity
  8
0
  6
Continuous
 62
     7
100
AcDbLine
 10
6409.1878565084
 20
4382.8087672227
 30
0.0
 11
6409.1878590777
 21
4424.174867081
 31
0.0
  0
LINE
  5
2BF
330
1F
100
AcDbEntity
  8
0
  6
Continuous
 62
     7
100
AcDbLine
 10
6408.3299921321
 20
4382.8087672227
 30
0.0
 11
6409.1878565084
 21
4382.8087672227
 31
0.0
  0
LINE
  5
2C0
330
1F
100
AcDbEntity
  8
0
  6
Continuous
 62
     7
100
AcDbLine
 10
6408.3299992278
 20
4424.174867081
 30
0.0
 11
6408.3299921321
 21
4382.8087672227
 31
0.0
  0
LINE
  5
2C1
330
1F
100
AcDbEntity
  8
0
  6
Continuous
 62
     7
100
AcDbLine
 10
6031.9476930097
 20
4164.7976930015
 30
0.0
 11
6031.9476930097
 21
4424.174867081
 31
0.0
  0
LINE
  5
2C2
330
1F
100
AcDbEntity
  8
0
  6
Continuous
 62
     7
100
AcDbLine
 10
6084.0979275897
 20
4076.4157469147
 30
0.0
 11
6048.8091168597
 21
4118.4713239544
 31
0.0
  0
LINE
  5
2C3
330
1F
100
AcDbEntity
  8
0
  6
Continuous
 62
     7
100
AcDbLine
 10
6454.6926078861
 20
4072.1037979
 30
0.0
 11
6093.3449027603
 21
4072.1037979
 31
0.0
  0
LINE
  5
2C4
330
1F
100
AcDbEntity
  8
0
  6
Continuous
 62
     7
100
AcDbLine
 10
6499.2283937866
 20
4118.4713239544
 30
0.0
 11
6463.9395830566
 21
4076.4157469147
 31
0.0
  0
LINE
  5
2C5
330
1F
100
AcDbEntity
  8
0
  6
Continuous
 62
     7
100
AcDbLine
 10
6516.089834807
 20
4340.7377081156
 30
0.0
 11
6516.089834807
 21
4164.7977011442
 31
0.0
  0
LINE
  5
2C6
330
1F
100
AcDbEntity
  8
0
  6
Continuous
 62
     7
100
AcDbLine
 10
6438.3299921321
 20
4352.8087672227
 30
0.0
 11
6504.0187595084
 21
4352.8087730282
 31
0.0
  0
LINE
  5
2C7
330
1F
100
AcDbEntity
  8
0
  6
Continuous
 62
     7
100
AcDbLine
 10
6438.3299921321
 20
4353.6666315989
 30
0.0
 11
6438.3299921321
 21
4352.8087672227
 31
0.0
  0
LINE
  5
2C8
330
1F
100
AcDbEntity
  8
0
  6
Continuous
 62
     7
100
AcDbLine
 10
6504.0187595084
 20
4353.6666328781
 30
0.0
 11
6438.3299921321
 21
4353.6666315989
 31
0.0
  0
LINE
  5
2C9
330
1F
100
AcDbEntity
  8
0
  6
Continuous
 62
     7
100
AcDbLine
 10
6516.089810212
 20
4424.1748745316
 30
0.0
 11
6516.0898251131
 21
4365.737713384
 31
0.0
  0
LINE
  5
2CA
330
1F
100
AcDbEntity
  8
0
  6
Continuous
 62
     7
100
AcDbLine
 10
6421.2589135066
 20
4436.2459289604
 30
0.0
 11
6504.0187557831
 21
4436.2459289604
 31
0.0
  0
LINE
  5
2CB
330
1F
100
AcDbEntity
  8
0
  6
Continuous
 62
     7
100
AcDbLine
 10
6404.7944582262
 20
4380.7376994108
 30
0.0
 11
6404.794460316
 21
4424.174867081
 31
0.0
  0
LINE
  5
2CC
330
1F
100
AcDbEntity
  8
0
  6
Continuous
 62
     7
100
AcDbLine
 10
6408.3299992278
 20
4424.174867081
 30
0.0
 11
6404.794460316
 21
4424.174867081
 31
0.0
  0
LINE
  5
2CD
330
1F
100
AcDbEntity
  8
0
  6
Continuous
 62
     7
100
AcDbLine
 10
6409.1878590777
 20
4424.174867081
 30
0.0
 11
6412.7233830884
 21
4424.174867081
 31
0.0
  0
LINE
  5
2CE
330
1F
100
AcDbEntity
  8
0
  6
Continuous
 62
     7
100
AcDbLine
 10
6412.7233830884
 20
4424.174867081
 30
0.0
 11
6412.7233904143
 21
4380.7376994108
 31
0.0
  0
LINE
  5
2CF
330
1F
100
AcDbEntity
  8
0
  6
Continuous
 62
     7
100
AcDbLine
 10
6411.2589243202
 20
4379.2732333167
 30
0.0
 11
6406.2589243202
 21
4379.2732333167
 31
0.0
  0
LINE
  5
2D0
330
1F
100
AcDbEntity
  8
0
  6
Continuous
 62
     7
100
AcDbLine
 10
6504.0187595084
 20
4349.2732341163
 30
0.0
 11
6436.2589243202
 21
4349.2732333167
 31
0.0
  0
LINE
  5
2D1
330
1F
100
AcDbEntity
  8
0
  6
Continuous
 62
     7
100
AcDbLine
 10
6504.0187595084
 20
4349.2732341163
 30
0.0
 11
6504.0187595084
 21
4352.8087730282
 31
0.0
  0
LINE
  5
2D2
330
1F
100
AcDbEntity
  8
0
  6
Continuous
 62
     7
100
AcDbLine
 10
6436.2589243202
 20
4357.2021655049
 30
0.0
 11
6504.0187595084
 21
4357.2021717899
 31
0.0
  0
LINE
  5
2D3
330
1F
100
AcDbEntity
  8
0
  6
Continuous
 62
     7
100
AcDbLine
 10
6504.0187595084
 20
4357.2021717899
 30
0.0
 11
6504.0187595084
 21
4353.6666328781
 31
0.0
  0
LINE
  5
2D4
330
1F
100
AcDbEntity
  8
0
  6
Continuous
 62
     7
100
AcDbLine
 10
6434.7944582262
 20
4350.7376994108
 30
0.0
 11
6434.7944582262
 21
4355.7376994108
 31
0.0
  0
LINE
  5
2D5
330
1F
100
AcDbEntity
  8
0
  6
Continuous
 62
     7
100
AcDbLine
 10
6512.5542862013
 20
4424.1748745316
 30
0.0
 11
6516.089810212
 21
4424.1748745316
 31
0.0
  0
LINE
  5
2D6
330
1F
100
AcDbEntity
  8
0
  6
Continuous
 62
     7
100
AcDbLine
 10
6504.0187557831
 20
4436.2459289604
 30
0.0
 11
6504.0187557831
 21
4432.7104049497
 31
0.0
  0
LINE
  5
2D7
330
1F
100
AcDbEntity
  8
0
  6
Continuous
 62
     7
100
AcDbLine
 10
6512.5542862013
 20
4365.737713384
 30
0.0
 11
6512.5542862013
 21
4424.1748745316
 31
0.0
  0
LINE
  5
2D8
330
1F
100
AcDbEntity
  8
0
  6
Continuous
 62
     7
100
AcDbLine
 10
6512.5542862013
 20
4365.737713384
 30
0.0
 11
6516.0898251131
 21
4365.737713384
 31
0.0
  0
LINE
  5
2D9
330
1F
100
AcDbEntity
  8
0
  6
Continuous
 62
     7
100
AcDbLine
 10
6519.0187601045
 20
4164.7976930015
 30
0.0
 11
6524.0187553361
 21
4164.7976930015
 31
0.0
  0
LINE
  5
2DA
330
1F
100
AcDbEntity
  8
0
  6
Continuous
 62
     7
100
AcDbLine
 10
6524.0187553361
 20
4439.174867677
 30
0.0
 11
6524.0187553361
 21
4164.7976930015
 31
0.0
  0
LINE
  5
2DB
330
1F
100
AcDbEntity
  8
0
  6
Continuous
 62
     7
100
AcDbLine
 10
6029.0187505677
 20
4164.7976930015
 30
0.0
 11
6024.0187553361
 21
4164.7976930015
 31
0.0
  0
LINE
  5
2DC
330
1F
100
AcDbEntity
  8
0
  6
Continuous
 62
     7
100
AcDbLine
 10
6024.0187553361
 20
4164.7976930015
 30
0.0
 11
6024.0187553361
 21
4439.174867677
 31
0.0
  0
LINE
  5
2DD
330
1F
100
AcDbEntity
  8
0
  6
Continuous
 62
     7
100
AcDbLine
 10
6504.0187557831
 20
4432.7104049497
 30
0.0
 11
6421.2589135066
 21
4432.7104049497
 31
0.0
  0
LINE
  5
2DE
330
1F
100
AcDbEntity
  8
0
  6
Continuous
 62
     7
100
AcDbLine
 10
6421.2589135066
 20
4436.2459289604
 30
0.0
 11
6421.2589135066
 21
4432.7104049497
 31
0.0
  0
LINE
  5
2DF
330
1F
100
AcDbEntity
  8
0
  6
Continuous
 62
     7
100
AcDbLine
 10
6031.9476930097
 20
4424.174867081
 30
0.0
 11
6035.4832199913
 21
4424.174867081
 31
0.0
  0
LINE
  5
2E0
330
1F
100
AcDbEntity
  8
0
  6
Continuous
 62
     7
100
AcDbLine
 10
6035.4832199913
 20
4424.174867081
 30
0.0
 11
6035.4832199913
 21
4164.7976930015
 31
0.0
  0
LINE
  5
2E1
330
1F
100
AcDbEntity
  8
0
  6
Continuous
 62
     7
100
AcDbLine
 10
6031.9476930097
 20
4164.7976930015
 30
0.0
 11
6035.4832199913
 21
4164.7976930015
 31
0.0
  0
LINE
  5
2E2
330
1F
100
AcDbEntity
  8
0
  6
Continuous
 62
     7
100
AcDbLine
 10
6396.2589201638
 20
4436.2459386943
 30
0.0
 11
6396.2589201638
 21
4432.7103997825
 31
0.0
  0
LINE
  5
2E3
330
1F
100
AcDbEntity
  8
0
  6
Continuous
 62
     7
100
AcDbLine
 10
6044.0187527552
 20
4436.245934277
 30
0.0
 11
6044.0187527552
 21
4432.7104072954
 31
0.0
  0
LINE
  5
2E4
330
1F
100
AcDbEntity
  8
0
  6
Continuous
 62
     7
100
AcDbLine
 10
6512.5542958951
 20
4340.7377081156
 30
0.0
 11
6516.089834807
 21
4340.7377081156
 31
0.0
  0
LINE
  5
2E5
330
1F
100
AcDbEntity
  8
0
  6
Continuous
 62
     7
100
AcDbLine
 10
6512.5542958951
 20
4164.7977011442
 30
0.0
 11
6512.5542958951
 21
4340.7377081156
 31
0.0
  0
LINE
  5
2E6
330
1F
100
AcDbEntity
  8
0
  6
Continuous
 62
     7
100
AcDbLine
 10
6512.5542958951
 20
4164.7977011442
 30
0.0
 11
6516.089834807
 21
4164.7977011442
 31
0.0
  0
LINE
  5
2E7
330
1F
100
AcDbEntity
  8
0
  6
Continuous
 62
     7
100
AcDbLine
 10
6505.3023088987
 20
4113.3746797912
 30
0.0
 11
6505.2287120636
 21
4113.4364600055
 31
0.0
  0
LINE
  5
2E8
330
1F
100
AcDbEntity
  8
0
  6
Continuous
 62
     7
100
AcDbLine
 10
6505.2287120636
 20
4113.4364600055
 30
0.0
 11
6505.0107527788
 21
4113.6193270557
 31
0.0
  0
LINE
  5
2E9
330
1F
100
AcDbEntity
  8
0
  6
Continuous
 62
     7
100
AcDbLine
 10
6505.0107527788
 20
4113.6193270557
 30
0.0
 11
6504.6567905958
 21
4113.9163370006
 31
0.0
  0
LINE
  5
2EA
330
1F
100
AcDbEntity
  8
0
  6
Continuous
 62
     7
100
AcDbLine
 10
6504.6567905958
 20
4113.9163370006
 30
0.0
 11
6504.1804600771
 21
4114.3160457485
 31
0.0
  0
LINE
  5
2EB
330
1F
100
AcDbEntity
  8
0
  6
Continuous
 62
     7
100
AcDbLine
 10
6504.1804600771
 20
4114.3160457485
 30
0.0
 11
6503.6000449474
 21
4114.803075301
 31
0.0
  0
LINE
  5
2EC
330
1F
100
AcDbEntity
  8
0
  6
Continuous
 62
     7
100
AcDbLine
 10
6503.6000449474
 20
4114.803075301
 30
0.0
 11
6502.937837344
 21
4115.3587097996
 31
0.0
  0
LINE
  5
2ED
330
1F
100
AcDbEntity
  8
0
  6
Continuous
 62
     7
100
AcDbLine
 10
6502.937837344
 20
4115.3587097996
 30
0.0
 11
6502.2193182524
 21
4115.9616107815
 31
0.0
  0
LINE
  5
2EE
330
1F
100
AcDbEntity
  8
0
  6
Continuous
 62
     7
100
AcDbLine
 10
6502.2193182524
 20
4115.9616107815
 30
0.0
 11
6501.4720846232
 21
4116.5886218422
 31
0.0
  0
LINE
  5
2EF
330
1F
100
AcDbEntity
  8
0
  6
Continuous
 62
     7
100
AcDbLine
 10
6048.8091168597
 20
4118.4713239544
 30
0.0
 11
6049.1845367148
 21
4118.786334502
 31
0.0
  0
LINE
  5
2F0
330
1F
100
AcDbEntity
  8
0
  6
Continuous
 62
     7
100
AcDbLine
 10
6049.1845367148
 20
4118.786334502
 30
0.0
 11
6049.556350489
 21
4119.0983350151
 31
0.0
  0
LINE
  5
2F1
330
1F
100
AcDbEntity
  8
0
  6
Continuous
 62
     7
100
AcDbLine
 10
6049.556350489
 20
4119.0983350151
 30
0.0
 11
6049.9209670022
 21
4119.4042558544
 31
0.0
  0
LINE
  5
2F2
330
1F
100
AcDbEntity
  8
0
  6
Continuous
 62
     7
100
AcDbLine
 10
6049.9209670022
 20
4119.4042558544
 30
0.0
 11
6050.2748695806
 21
4119.701235997
 31
0.0
  0
LINE
  5
2F3
330
1F
100
AcDbEntity
  8
0
  6
Continuous
 62
     7
100
AcDbLine
 10
6050.2748695806
 20
4119.701235997
 30
0.0
 11
6050.6146756604
 21
4119.9863548153
 31
0.0
  0
LINE
  5
2F4
330
1F
100
AcDbEntity
  8
0
  6
Continuous
 62
     7
100
AcDbLine
 10
6050.6146756604
 20
4119.9863548153
 30
0.0
 11
6050.937077184
 21
4120.2568704956
 31
0.0
  0
LINE
  5
2F5
330
1F
100
AcDbEntity
  8
0
  6
Continuous
 62
     7
100
AcDbLine
 10
6050.937077184
 20
4120.2568704956
 30
0.0
 11
6051.2389747098
 21
4120.5102200382
 31
0.0
  0
LINE
  5
2F6
330
1F
100
AcDbEntity
  8
0
  6
Continuous
 62
     7
100
AcDbLine
 10
6051.2389747098
 20
4120.5102200382
 30
0.0
 11
6051.5174923137
 21
4120.743900048
 31
0.0
  0
LINE
  5
2F7
330
1F
100
AcDbEntity
  8
0
  6
Continuous
 62
     7
100
AcDbLine
 10
6042.7351949409
 20
4113.3746797912
 30
0.0
 11
6042.808791776
 21
4113.4364600055
 31
0.0
  0
LINE
  5
2F8
330
1F
100
AcDbEntity
  8
0
  6
Continuous
 62
     7
100
AcDbLine
 10
6042.808791776
 20
4113.4364600055
 30
0.0
 11
6043.0267510608
 21
4113.6193270557
 31
0.0
  0
LINE
  5
2F9
330
1F
100
AcDbEntity
  8
0
  6
Continuous
 62
     7
100
AcDbLine
 10
6043.0267510608
 20
4113.6193270557
 30
0.0
 11
6043.3807132438
 21
4113.9163370006
 31
0.0
  0
LINE
  5
2FA
330
1F
100
AcDbEntity
  8
0
  6
Continuous
 62
     7
100
AcDbLine
 10
6043.3807132438
 20
4113.9163370006
 30
0.0
 11
6043.8570437625
 21
4114.3160457485
 31
0.0
  0
LINE
  5
2FB
330
1F
100
AcDbEntity
  8
0
  6
Continuous
 62
     7
100
AcDbLine
 10
6043.8570437625
 20
4114.3160457485
 30
0.0
 11
6044.4374588922
 21
4114.803075301
 31
0.0
  0
LINE
  5
2FC
330
1F
100
AcDbEntity
  8
0
  6
Continuous
 62
     7
100
AcDbLine
 10
6044.4374588922
 20
4114.803075301
 30
0.0
 11
6045.0996664956
 21
4115.3587097996
 31
0.0
  0
LINE
  5
2FD
330
1F
100
AcDbEntity
  8
0
  6
Continuous
 62
     7
100
AcDbLine
 10
6045.0996664956
 20
4115.3587097996
 30
0.0
 11
6045.8181855872
 21
4115.9616107815
 31
0.0
  0
LINE
  5
2FE
330
1F
100
AcDbEntity
  8
0
  6
Continuous
 62
     7
100
AcDbLine
 10
6045.8181855872
 20
4115.9616107815
 30
0.0
 11
6046.5654192164
 21
4116.5886218422
 31
0.0
  0
LINE
  5
2FF
330
1F
100
AcDbEntity
  8
0
  6
Continuous
 62
     7
100
AcDbLine
 10
6496.5200183326
 20
4120.743900048
 30
0.0
 11
6496.7985359365
 21
4120.5102200382
 31
0.0
  0
LINE
  5
300
330
1F
100
AcDbEntity
  8
0
  6
Continuous
 62
     7
100
AcDbLine
 10
6496.7985359365
 20
4120.5102200382
 30
0.0
 11
6497.1004334623
 21
4120.2568704956
 31
0.0
  0
LINE
  5
301
330
1F
100
AcDbEntity
  8
0
  6
Continuous
 62
     7
100
AcDbLine
 10
6497.1004334623
 20
4120.2568704956
 30
0.0
 11
6497.4228349859
 21
4119.9863548153
 31
0.0
  0
LINE
  5
302
330
1F
100
AcDbEntity
  8
0
  6
Continuous
 62
     7
100
AcDbLine
 10
6497.4228349859
 20
4119.9863548153
 30
0.0
 11
6497.7626410657
 21
4119.701235997
 31
0.0
  0
LINE
  5
303
330
1F
100
AcDbEntity
  8
0
  6
Continuous
 62
     7
100
AcDbLine
 10
6497.7626410657
 20
4119.701235997
 30
0.0
 11
6498.1165436441
 21
4119.4042558544
 31
0.0
  0
LINE
  5
304
330
1F
100
AcDbEntity
  8
0
  6
Continuous
 62
     7
100
AcDbLine
 10
6498.1165436441
 20
4119.4042558544
 30
0.0
 11
6498.4811601573
 21
4119.0983350151
 31
0.0
  0
LINE
  5
305
330
1F
100
AcDbEntity
  8
0
  6
Continuous
 62
     7
100
AcDbLine
 10
6498.4811601573
 20
4119.0983350151
 30
0.0
 11
6498.8529739315
 21
4118.786334502
 31
0.0
  0
LINE
  5
306
330
1F
100
AcDbEntity
  8
0
  6
Continuous
 62
     7
100
AcDbLine
 10
6498.8529739315
 20
4118.786334502
 30
0.0
 11
6499.2283937866
 21
4118.4713239544
 31
0.0
  0
LINE
  5
307
330
1F
100
AcDbEntity
  8
0
  6
Continuous
 62
     7
100
AcDbLine
 10
6461.2312076026
 20
4078.6883230083
 30
0.0
 11
6496.5200183326
 21
4120.743900048
 31
0.0
  0
LINE
  5
308
330
1F
100
AcDbEntity
  8
0
  6
Continuous
 62
     7
100
AcDbLine
 10
6461.2312076026
 20
4078.6883230083
 30
0.0
 11
6461.5097103054
 21
4078.4546429985
 31
0.0
  0
LINE
  5
309
330
1F
100
AcDbEntity
  8
0
  6
Continuous
 62
     7
100
AcDbLine
 10
6461.5097103054
 20
4078.4546429985
 30
0.0
 11
6461.8116227323
 21
4078.2012934559
 31
0.0
  0
LINE
  5
30A
330
1F
100
AcDbEntity
  8
0
  6
Continuous
 62
     7
100
AcDbLine
 10
6461.8116227323
 20
4078.2012934559
 30
0.0
 11
6462.1340242559
 21
4077.9307777756
 31
0.0
  0
LINE
  5
30B
330
1F
100
AcDbEntity
  8
0
  6
Continuous
 62
     7
100
AcDbLine
 10
6462.1340242559
 20
4077.9307777756
 30
0.0
 11
6462.4738154346
 21
4077.6456589573
 31
0.0
  0
LINE
  5
30C
330
1F
100
AcDbEntity
  8
0
  6
Continuous
 62
     7
100
AcDbLine
 10
6462.4738154346
 20
4077.6456589573
 30
0.0
 11
6462.827718013
 21
4077.3486788147
 31
0.0
  0
LINE
  5
30D
330
1F
100
AcDbEntity
  8
0
  6
Continuous
 62
     7
100
AcDbLine
 10
6462.827718013
 20
4077.3486788147
 30
0.0
 11
6463.1923345262
 21
4077.0427579754
 31
0.0
  0
LINE
  5
30E
330
1F
100
AcDbEntity
  8
0
  6
Continuous
 62
     7
100
AcDbLine
 10
6463.1923345262
 20
4077.0427579754
 30
0.0
 11
6463.5641483003
 21
4076.7307574623
 31
0.0
  0
LINE
  5
30F
330
1F
100
AcDbEntity
  8
0
  6
Continuous
 62
     7
100
AcDbLine
 10
6463.5641483003
 20
4076.7307574623
 30
0.0
 11
6463.9395830566
 21
4076.4157469147
 31
0.0
  0
LINE
  5
310
330
1F
100
AcDbEntity
  8
0
  6
Continuous
 62
     7
100
AcDbLine
 10
6051.5174923137
 20
4120.743900048
 30
0.0
 11
6086.8063030437
 21
4078.6883230083
 31
0.0
  0
LINE
  5
311
330
1F
100
AcDbEntity
  8
0
  6
Continuous
 62
     7
100
AcDbLine
 10
6084.0979275897
 20
4076.4157469147
 30
0.0
 11
6084.473362346
 21
4076.7307574623
 31
0.0
  0
LINE
  5
312
330
1F
100
AcDbEntity
  8
0
  6
Continuous
 62
     7
100
AcDbLine
 10
6084.473362346
 20
4076.7307574623
 30
0.0
 11
6084.8451761201
 21
4077.0427579754
 31
0.0
  0
LINE
  5
313
330
1F
100
AcDbEntity
  8
0
  6
Continuous
 62
     7
100
AcDbLine
 10
6084.8451761201
 20
4077.0427579754
 30
0.0
 11
6085.2097926333
 21
4077.3486788147
 31
0.0
  0
LINE
  5
314
330
1F
100
AcDbEntity
  8
0
  6
Continuous
 62
     7
100
AcDbLine
 10
6085.2097926333
 20
4077.3486788147
 30
0.0
 11
6085.5636952117
 21
4077.6456589573
 31
0.0
  0
LINE
  5
315
330
1F
100
AcDbEntity
  8
0
  6
Continuous
 62
     7
100
AcDbLine
 10
6085.5636952117
 20
4077.6456589573
 30
0.0
 11
6085.9034863904
 21
4077.9307777756
 31
0.0
  0
LINE
  5
316
330
1F
100
AcDbEntity
  8
0
  6
Continuous
 62
     7
100
AcDbLine
 10
6085.9034863904
 20
4077.9307777756
 30
0.0
 11
6086.225887914
 21
4078.2012934559
 31
0.0
  0
LINE
  5
317
330
1F
100
AcDbEntity
  8
0
  6
Continuous
 62
     7
100
AcDbLine
 10
6086.225887914
 20
4078.2012934559
 30
0.0
 11
6086.5278003409
 21
4078.4546429985
 31
0.0
  0
LINE
  5
318
330
1F
100
AcDbEntity
  8
0
  6
Continuous
 62
     7
100
AcDbLine
 10
6086.5278003409
 20
4078.4546429985
 30
0.0
 11
6086.8063030437
 21
4078.6883230083
 31
0.0
  0
LINE
  5
319
330
1F
100
AcDbEntity
  8
0
  6
Continuous
 62
     7
100
AcDbLine
 10
6505.3023088987
 20
4113.3746797912
 30
0.0
 11
6467.0161146935
 21
4067.7469963901
 31
0.0
  0
LINE
  5
31A
330
1F
100
AcDbEntity
  8
0
  6
Continuous
 62
     7
100
AcDbLine
 10
6467.0161146935
 20
4067.7469963901
 30
0.0
 11
6466.9425178583
 21
4067.8087468021
 31
0.0
  0
LINE
  5
31B
330
1F
100
AcDbEntity
  8
0
  6
Continuous
 62
     7
100
AcDbLine
 10
6466.9425178583
 20
4067.8087468021
 30
0.0
 11
6466.7245585735
 21
4067.9916436546
 31
0.0
  0
LINE
  5
31C
330
1F
100
AcDbEntity
  8
0
  6
Continuous
 62
     7
100
AcDbLine
 10
6466.7245585735
 20
4067.9916436546
 30
0.0
 11
6466.3706112917
 21
4068.2886535995
 31
0.0
  0
LINE
  5
31D
330
1F
100
AcDbEntity
  8
0
  6
Continuous
 62
     7
100
AcDbLine
 10
6466.3706112917
 20
4068.2886535995
 30
0.0
 11
6465.8942658718
 21
4068.6883325451
 31
0.0
  0
LINE
  5
31E
330
1F
100
AcDbEntity
  8
0
  6
Continuous
 62
     7
100
AcDbLine
 10
6465.8942658718
 20
4068.6883325451
 30
0.0
 11
6465.3138507422
 21
4069.1753620975
 31
0.0
  0
LINE
  5
31F
330
1F
100
AcDbEntity
  8
0
  6
Continuous
 62
     7
100
AcDbLine
 10
6465.3138507422
 20
4069.1753620975
 30
0.0
 11
6464.6516580399
 21
4069.7309965961
 31
0.0
  0
LINE
  5
320
330
1F
100
AcDbEntity
  8
0
  6
Continuous
 62
     7
100
AcDbLine
 10
6464.6516580399
 20
4069.7309965961
 30
0.0
 11
6463.9331389483
 21
4070.3339273804
 31
0.0
  0
LINE
  5
321
330
1F
100
AcDbEntity
  8
0
  6
Continuous
 62
     7
100
AcDbLine
 10
6463.9331389483
 20
4070.3339273804
 30
0.0
 11
6463.1858904179
 21
4070.9609384411
 31
0.0
  0
LINE
  5
322
330
1F
100
AcDbEntity
  8
0
  6
Continuous
 62
     7
100
AcDbLine
 10
6081.0213891461
 20
4067.7469963901
 30
0.0
 11
6042.7351949409
 21
4113.3746797912
 31
0.0
  0
LINE
  5
323
330
1F
100
AcDbEntity
  8
0
  6
Continuous
 62
     7
100
AcDbLine
 10
6081.0213891461
 20
4067.7469963901
 30
0.0
 11
6081.0949859813
 21
4067.8087468021
 31
0.0
  0
LINE
  5
324
330
1F
100
AcDbEntity
  8
0
  6
Continuous
 62
     7
100
AcDbLine
 10
6081.0949859813
 20
4067.8087468021
 30
0.0
 11
6081.3129452661
 21
4067.9916436546
 31
0.0
  0
LINE
  5
325
330
1F
100
AcDbEntity
  8
0
  6
Continuous
 62
     7
100
AcDbLine
 10
6081.3129452661
 20
4067.9916436546
 30
0.0
 11
6081.6668925479
 21
4068.2886535995
 31
0.0
  0
LINE
  5
326
330
1F
100
AcDbEntity
  8
0
  6
Continuous
 62
     7
100
AcDbLine
 10
6081.6668925479
 20
4068.2886535995
 30
0.0
 11
6082.1432379678
 21
4068.6883325451
 31
0.0
  0
LINE
  5
327
330
1F
100
AcDbEntity
  8
0
  6
Continuous
 62
     7
100
AcDbLine
 10
6082.1432379678
 20
4068.6883325451
 30
0.0
 11
6082.7236530974
 21
4069.1753620975
 31
0.0
  0
LINE
  5
328
330
1F
100
AcDbEntity
  8
0
  6
Continuous
 62
     7
100
AcDbLine
 10
6082.7236530974
 20
4069.1753620975
 30
0.0
 11
6083.3858457997
 21
4069.7309965961
 31
0.0
  0
LINE
  5
329
330
1F
100
AcDbEntity
  8
0
  6
Continuous
 62
     7
100
AcDbLine
 10
6083.3858457997
 20
4069.7309965961
 30
0.0
 11
6084.1043648913
 21
4070.3339273804
 31
0.0
  0
LINE
  5
32A
330
1F
100
AcDbEntity
  8
0
  6
Continuous
 62
     7
100
AcDbLine
 10
6084.1043648913
 20
4070.3339273804
 30
0.0
 11
6084.8516134217
 21
4070.9609384411
 31
0.0
  0
LINE
  5
32B
330
1F
100
AcDbEntity
  8
0
  6
Continuous
 62
     7
100
AcDbLine
 10
6454.6926078861
 20
4075.6393368118
 30
0.0
 11
6454.6926078861
 21
4072.1037979
 31
0.0
  0
LINE
  5
32C
330
1F
100
AcDbEntity
  8
0
  6
Continuous
 62
     7
100
AcDbLine
 10
6093.3449027603
 20
4075.6393368118
 30
0.0
 11
6093.3449027603
 21
4072.1037979
 31
0.0
  0
LINE
  5
32D
330
1F
100
AcDbEntity
  8
0
  6
Continuous
 62
     7
100
AcDbLine
 10
6093.3449027603
 20
4075.6393368118
 30
0.0
 11
6454.6926078861
 21
4075.6393368118
 31
0.0
  0
LINE
  5
32E
330
1F
100
AcDbEntity
  8
0
  6
Continuous
 62
     7
100
AcDbLine
 10
6459.3556695586
 20
4064.1748529002
 30
0.0
 11
6088.681834281
 21
4064.1748529002
 31
0.0
  0
LINE
  5
32F
330
1F
100
AcDbEntity
  8
0
  6
Continuous
 62
     7
100
AcDbLine
 10
6088.681834281
 20
4064.1748529002
 30
0.0
 11
6088.681834281
 21
4069.174857051
 31
0.0
  0
LINE
  5
330
330
1F
100
AcDbEntity
  8
0
  6
Continuous
 62
     7
100
AcDbLine
 10
6459.3556695586
 20
4064.1748529002
 30
0.0
 11
6459.3556695586
 21
4069.174857051
 31
0.0
  0
LINE
  5
331
330
1F
100
AcDbEntity
  8
0
  6
Continuous
 62
     7
100
AcDbLine
 10
6411.2589267686
 20
4377.2021676176
 30
0.0
 11
6411.2589243202
 21
4379.2732333167
 31
0.0
  0
LINE
  5
332
330
1F
100
AcDbEntity
  8
0
  6
Continuous
 62
     7
100
AcDbLine
 10
6414.7944470541
 20
4380.7377065294
 30
0.0
 11
6412.7233904143
 21
4380.7376994108
 31
0.0
  0
LINE
  5
333
330
1F
100
AcDbEntity
  8
0
  6
Continuous
 62
     7
100
AcDbLine
 10
6436.2589243202
 20
4349.2732333167
 30
0.0
 11
6436.2589178279
 21
4347.2021745682
 31
0.0
  0
LINE
  5
334
330
1F
100
AcDbEntity
  8
0
  6
Continuous
 62
     7
100
AcDbLine
 10
6434.7944582262
 20
4350.7376994108
 30
0.0
 11
6432.7233938172
 21
4350.7377053373
 31
0.0
  0
LINE
  5
335
330
1F
100
AcDbEntity
  8
0
  6
Continuous
 62
     7
100
AcDbLine
 10
6402.7233926251
 20
4380.7377065294
 30
0.0
 11
6404.7944582262
 21
4380.7376994108
 31
0.0
  0
LINE
  5
336
330
1F
100
AcDbEntity
  8
0
  6
Continuous
 62
     7
100
AcDbLine
 10
6406.258931537
 20
4377.2021676176
 30
0.0
 11
6406.2589243202
 21
4379.2732333167
 31
0.0
  0
LINE
  5
337
330
1F
100
AcDbEntity
  8
0
  6
Continuous
 62
     7
100
AcDbLine
 10
6436.2589243202
 20
4357.2021655049
 30
0.0
 11
6436.2589178279
 21
4359.2732394808
 31
0.0
  0
LINE
  5
338
330
1F
100
AcDbEntity
  8
0
  6
Continuous
 62
     7
100
AcDbLine
 10
6434.7944582262
 20
4355.7376994108
 30
0.0
 11
6432.7233938172
 21
4355.7377005689
 31
0.0
  0
LINE
  5
339
330
1F
100
AcDbEntity
  8
0
  6
Continuous
 62
     7
100
AcDbLine
 10
6414.7944470541
 20
4380.7377065294
 30
0.0
 11
6414.7944470541
 21
4424.174867081
 31
0.0
  0
LINE
  5
33A
330
1F
100
AcDbEntity
  8
0
  6
Continuous
 62
     7
100
AcDbLine
 10
6412.7233830884
 20
4424.174867081
 30
0.0
 11
6414.7944470541
 21
4424.174867081
 31
0.0
  0
LINE
  5
33B
330
1F
100
AcDbEntity
  8
0
  6
Continuous
 62
     7
100
AcDbLine
 10
6402.7233926251
 20
4424.174867081
 30
0.0
 11
6402.7233926251
 21
4380.7377065294
 31
0.0
  0
LINE
  5
33C
330
1F
100
AcDbEntity
  8
0
  6
Continuous
 62
     7
100
AcDbLine
 10
6402.7233926251
 20
4424.174867081
 30
0.0
 11
6404.794460316
 21
4424.174867081
 31
0.0
  0
LINE
  5
33D
330
1F
100
AcDbEntity
  8
0
  6
Continuous
 62
     7
100
AcDbLine
 10
6406.258931537
 20
4377.2021676176
 30
0.0
 11
6411.2589267686
 21
4377.2021676176
 31
0.0
  0
LINE
  5
33E
330
1F
100
AcDbEntity
  8
0
  6
Continuous
 62
     7
100
AcDbLine
 10
6504.0187595084
 20
4349.2732341163
 30
0.0
 11
6504.0187595084
 21
4347.2021745682
 31
0.0
  0
LINE
  5
33F
330
1F
100
AcDbEntity
  8
0
  6
Continuous
 62
     7
100
AcDbLine
 10
6436.2589178279
 20
4347.2021745682
 30
0.0
 11
6504.0187595084
 21
4347.2021745682
 31
0.0
  0
LINE
  5
340
330
1F
100
AcDbEntity
  8
0
  6
Continuous
 62
     7
100
AcDbLine
 10
6432.7233938172
 20
4355.7377005689
 30
0.0
 11
6432.7233938172
 21
4350.7377053373
 31
0.0
  0
LINE
  5
341
330
1F
100
AcDbEntity
  8
0
  6
Continuous
 62
     7
100
AcDbLine
 10
6504.0187595084
 20
4359.2732394808
 30
0.0
 11
6436.2589178279
 21
4359.2732394808
 31
0.0
  0
LINE
  5
342
330
1F
100
AcDbEntity
  8
0
  6
Continuous
 62
     7
100
AcDbLine
 10
6504.0187595084
 20
4357.2021717899
 30
0.0
 11
6504.0187595084
 21
4359.2732394808
 31
0.0
  0
LINE
  5
343
330
1F
100
AcDbEntity
  8
0
  6
Continuous
 62
     7
100
AcDbLine
 10
6504.0187557831
 20
4432.7104049497
 30
0.0
 11
6504.0187557831
 21
4430.6393409842
 31
0.0
  0
LINE
  5
344
330
1F
100
AcDbEntity
  8
0
  6
Continuous
 62
     7
100
AcDbLine
 10
6512.5542862013
 20
4424.1748745316
 30
0.0
 11
6510.483225961
 21
4424.1748745316
 31
0.0
  0
LINE
  5
345
330
1F
100
AcDbEntity
  8
0
  6
Continuous
 62
     7
100
AcDbLine
 10
6510.483225961
 20
4424.1748745316
 30
0.0
 11
6510.483225961
 21
4365.737713384
 31
0.0
  0
LINE
  5
346
330
1F
100
AcDbEntity
  8
0
  6
Continuous
 62
     7
100
AcDbLine
 10
6512.5542862013
 20
4365.737713384
 30
0.0
 11
6510.483225961
 21
4365.737713384
 31
0.0
  0
LINE
  5
347
330
1F
100
AcDbEntity
  8
0
  6
Continuous
 62
     7
100
AcDbLine
 10
6421.2589135066
 20
4432.7104049497
 30
0.0
 11
6421.2589135066
 21
4430.6393409842
 31
0.0
  0
LINE
  5
348
330
1F
100
AcDbEntity
  8
0
  6
Continuous
 62
     7
100
AcDbLine
 10
6037.5542847112
 20
4424.174867081
 30
0.0
 11
6035.4832199913
 21
4424.174867081
 31
0.0
  0
LINE
  5
349
330
1F
100
AcDbEntity
  8
0
  6
Continuous
 62
     7
100
AcDbLine
 10
6037.5542847112
 20
4164.7976930015
 30
0.0
 11
6037.5542847112
 21
4424.174867081
 31
0.0
  0
LINE
  5
34A
330
1F
100
AcDbEntity
  8
0
  6
Continuous
 62
     7
100
AcDbLine
 10
6037.5542847112
 20
4164.7976930015
 30
0.0
 11
6035.4832199913
 21
4164.7976930015
 31
0.0
  0
LINE
  5
34B
330
1F
100
AcDbEntity
  8
0
  6
Continuous
 62
     7
100
AcDbLine
 10
6044.0187527552
 20
4430.6393335336
 30
0.0
 11
6044.0187527552
 21
4432.7104072954
 31
0.0
  0
LINE
  5
34C
330
1F
100
AcDbEntity
  8
0
  6
Continuous
 62
     7
100
AcDbLine
 10
6396.2589201638
 20
4430.6393320916
 30
0.0
 11
6396.2589201638
 21
4432.7103997825
 31
0.0
  0
LINE
  5
34D
330
1F
100
AcDbEntity
  8
0
  6
Continuous
 62
     7
100
AcDbLine
 10
6421.2589135066
 20
4430.6393409842
 30
0.0
 11
6504.0187557831
 21
4430.6393409842
 31
0.0
  0
LINE
  5
34E
330
1F
100
AcDbEntity
  8
0
  6
Continuous
 62
     7
100
AcDbLine
 10
6512.5542958951
 20
4340.7377081156
 30
0.0
 11
6510.4832259351
 21
4340.7377081156
 31
0.0
  0
LINE
  5
34F
330
1F
100
AcDbEntity
  8
0
  6
Continuous
 62
     7
100
AcDbLine
 10
6512.5542958951
 20
4164.7977011442
 30
0.0
 11
6510.4832259351
 21
4164.7977011442
 31
0.0
  0
LINE
  5
350
330
1F
100
AcDbEntity
  8
0
  6
Continuous
 62
     7
100
AcDbLine
 10
6510.4832259351
 20
4340.7377081156
 30
0.0
 11
6510.4832259351
 21
4164.7977011442
 31
0.0
  0
LINE
  5
351
330
1F
100
AcDbEntity
  8
0
  6
Continuous
 62
     7
100
AcDbLine
 10
6496.5200183326
 20
4120.743900048
 30
0.0
 11
6494.9334917003
 21
4122.0751697891
 31
0.0
  0
LINE
  5
352
330
1F
100
AcDbEntity
  8
0
  6
Continuous
 62
     7
100
AcDbLine
 10
6053.104018946
 20
4122.0751697891
 30
0.0
 11
6051.5174923137
 21
4120.743900048
 31
0.0
  0
LINE
  5
353
330
1F
100
AcDbEntity
  8
0
  6
Continuous
 62
     7
100
AcDbLine
 10
6088.3928445771
 20
4080.0195927494
 30
0.0
 11
6053.104018946
 21
4122.0751697891
 31
0.0
  0
LINE
  5
354
330
1F
100
AcDbEntity
  8
0
  6
Continuous
 62
     7
100
AcDbLine
 10
6088.3928445771
 20
4080.0195927494
 30
0.0
 11
6086.8063030437
 21
4078.6883230083
 31
0.0
  0
LINE
  5
355
330
1F
100
AcDbEntity
  8
0
  6
Continuous
 62
     7
100
AcDbLine
 10
6459.6446660692
 20
4080.0195927494
 30
0.0
 11
6461.2312076026
 21
4078.6883230083
 31
0.0
  0
LINE
  5
356
330
1F
100
AcDbEntity
  8
0
  6
Continuous
 62
     7
100
AcDbLine
 10
6494.9334917003
 20
4122.0751697891
 30
0.0
 11
6459.6446660692
 21
4080.0195927494
 31
0.0
  0
LINE
  5
357
330
1F
100
AcDbEntity
  8
0
  6
Continuous
 62
     7
100
AcDbLine
 10
6093.3449027603
 20
4077.7103896075
 30
0.0
 11
6093.3449027603
 21
4075.6393368118
 31
0.0
  0
LINE
  5
358
330
1F
100
AcDbEntity
  8
0
  6
Continuous
 62
     7
100
AcDbLine
 10
6454.6926078861
 20
4077.7103896075
 30
0.0
 11
6093.3449027603
 21
4077.7103896075
 31
0.0
  0
LINE
  5
359
330
1F
100
AcDbEntity
  8
0
  6
Continuous
 62
     7
100
AcDbLine
 10
6454.6926078861
 20
4077.7103896075
 30
0.0
 11
6454.6926078861
 21
4075.6393368118
 31
0.0
  0
LINE
  5
35A
330
1F
100
AcDbEntity
  8
0
  6
Continuous
 62
     7
100
AcDbLine
 10
6396.2589201638
 20
4430.6393320916
 30
0.0
 11
6396.2589201638
 21
4427.1037946217
 31
0.0
  0
LINE
  5
35B
330
1F
100
AcDbEntity
  8
0
  6
Continuous
 62
     7
100
AcDbLine
 10
6399.1878551551
 20
4424.174867081
 30
0.0
 11
6402.7233926251
 21
4424.174867081
 31
0.0
  0
LINE
  5
35C
330
1F
100
AcDbEntity
  8
0
  6
Continuous
 62
     7
100
AcDbLine
 10
6399.1878551551
 20
4380.7377065294
 30
0.0
 11
6399.1878551551
 21
4424.174867081
 31
0.0
  0
LINE
  5
35D
330
1F
100
AcDbEntity
  8
0
  6
Continuous
 62
     7
100
AcDbLine
 10
6399.1878551551
 20
4380.7377065294
 30
0.0
 11
6402.7233926251
 21
4380.7377065294
 31
0.0
  0
LINE
  5
35E
330
1F
100
AcDbEntity
  8
0
  6
Continuous
 62
     7
100
AcDbLine
 10
6504.0187557831
 20
4427.103803514
 30
0.0
 11
6421.2589135066
 21
4427.103803514
 31
0.0
  0
LINE
  5
35F
330
1F
100
AcDbEntity
  8
0
  6
Continuous
 62
     7
100
AcDbLine
 10
6421.2589135066
 20
4427.103803514
 30
0.0
 11
6421.2589135066
 21
4430.6393409842
 31
0.0
  0
LINE
  5
360
330
1F
100
AcDbEntity
  8
0
  6
Continuous
 62
     7
100
AcDbLine
 10
6504.0187557831
 20
4427.103803514
 30
0.0
 11
6504.0187557831
 21
4430.6393409842
 31
0.0
  0
LINE
  5
361
330
1F
100
AcDbEntity
  8
0
  6
Continuous
 62
     7
100
AcDbLine
 10
6037.5542847112
 20
4424.174867081
 30
0.0
 11
6041.0898252144
 21
4424.174867081
 31
0.0
  0
LINE
  5
362
330
1F
100
AcDbEntity
  8
0
  6
Continuous
 62
     7
100
AcDbLine
 10
6041.0898252144
 20
4424.174867081
 30
0.0
 11
6041.0898252144
 21
4164.7976930015
 31
0.0
  0
LINE
  5
363
330
1F
100
AcDbEntity
  8
0
  6
Continuous
 62
     7
100
AcDbLine
 10
6037.5542847112
 20
4164.7976930015
 30
0.0
 11
6041.0898252144
 21
4164.7976930015
 31
0.0
  0
LINE
  5
364
330
1F
100
AcDbEntity
  8
0
  6
Continuous
 62
     7
100
AcDbLine
 10
6044.0187527552
 20
4430.6393335336
 30
0.0
 11
6044.0187527552
 21
4427.1038020723
 31
0.0
  0
LINE
  5
365
330
1F
100
AcDbEntity
  8
0
  6
Continuous
 62
     7
100
AcDbLine
 10
6506.9476847657
 20
4424.1748745316
 30
0.0
 11
6510.483225961
 21
4424.1748745316
 31
0.0
  0
LINE
  5
366
330
1F
100
AcDbEntity
  8
0
  6
Continuous
 62
     7
100
AcDbLine
 10
6418.329984524
 20
4424.174867081
 30
0.0
 11
6418.329984524
 21
4380.7377065294
 31
0.0
  0
LINE
  5
367
330
1F
100
AcDbEntity
  8
0
  6
Continuous
 62
     7
100
AcDbLine
 10
6418.329984524
 20
4380.7377065294
 30
0.0
 11
6414.7944470541
 21
4380.7377065294
 31
0.0
  0
LINE
  5
368
330
1F
100
AcDbEntity
  8
0
  6
Continuous
 62
     7
100
AcDbLine
 10
6418.329984524
 20
4424.174867081
 30
0.0
 11
6414.7944470541
 21
4424.174867081
 31
0.0
  0
LINE
  5
369
330
1F
100
AcDbEntity
  8
0
  6
Continuous
 62
     7
100
AcDbLine
 10
6506.9476847657
 20
4365.737713384
 30
0.0
 11
6506.9476847657
 21
4424.1748745316
 31
0.0
  0
LINE
  5
36A
330
1F
100
AcDbEntity
  8
0
  6
Continuous
 62
     7
100
AcDbLine
 10
6506.9476847657
 20
4365.737713384
 30
0.0
 11
6510.483225961
 21
4365.737713384
 31
0.0
  0
LINE
  5
36B
330
1F
100
AcDbEntity
  8
0
  6
Continuous
 62
     7
100
AcDbLine
 10
6411.2589267686
 20
4373.6666301476
 30
0.0
 11
6411.2589267686
 21
4377.2021676176
 31
0.0
  0
LINE
  5
36C
330
1F
100
AcDbEntity
  8
0
  6
Continuous
 62
     7
100
AcDbLine
 10
6411.2589267686
 20
4373.6666301476
 30
0.0
 11
6406.258931537
 21
4373.6666301476
 31
0.0
  0
LINE
  5
36D
330
1F
100
AcDbEntity
  8
0
  6
Continuous
 62
     7
100
AcDbLine
 10
6406.258931537
 20
4373.6666301476
 30
0.0
 11
6406.258931537
 21
4377.2021676176
 31
0.0
  0
LINE
  5
36E
330
1F
100
AcDbEntity
  8
0
  6
Continuous
 62
     7
100
AcDbLine
 10
6436.2589178279
 20
4362.8087732255
 30
0.0
 11
6436.2589178279
 21
4359.2732394808
 31
0.0
  0
LINE
  5
36F
330
1F
100
AcDbEntity
  8
0
  6
Continuous
 62
     7
100
AcDbLine
 10
6429.1878600725
 20
4355.7377005689
 30
0.0
 11
6432.7233938172
 21
4355.7377005689
 31
0.0
  0
LINE
  5
370
330
1F
100
AcDbEntity
  8
0
  6
Continuous
 62
     7
100
AcDbLine
 10
6436.2589178279
 20
4362.8087732255
 30
0.0
 11
6504.0187595084
 21
4362.8087732255
 31
0.0
  0
LINE
  5
371
330
1F
100
AcDbEntity
  8
0
  6
Continuous
 62
     7
100
AcDbLine
 10
6504.0187595084
 20
4362.8087732255
 30
0.0
 11
6504.0187595084
 21
4359.2732394808
 31
0.0
  0
LINE
  5
372
330
1F
100
AcDbEntity
  8
0
  6
Continuous
 62
     7
100
AcDbLine
 10
6429.1878600725
 20
4350.7377053373
 30
0.0
 11
6432.7233938172
 21
4350.7377053373
 31
0.0
  0
LINE
  5
373
330
1F
100
AcDbEntity
  8
0
  6
Continuous
 62
     7
100
AcDbLine
 10
6436.2589178279
 20
4347.2021745682
 30
0.0
 11
6436.2589178279
 21
4343.6666408235
 31
0.0
  0
LINE
  5
374
330
1F
100
AcDbEntity
  8
0
  6
Continuous
 62
     7
100
AcDbLine
 10
6429.1878600725
 20
4350.7377053373
 30
0.0
 11
6429.1878600725
 21
4355.7377005689
 31
0.0
  0
LINE
  5
375
330
1F
100
AcDbEntity
  8
0
  6
Continuous
 62
     7
100
AcDbLine
 10
6504.0187595084
 20
4347.2021745682
 30
0.0
 11
6504.0187595084
 21
4343.6666408235
 31
0.0
  0
LINE
  5
376
330
1F
100
AcDbEntity
  8
0
  6
Continuous
 62
     7
100
AcDbLine
 10
6504.0187595084
 20
4343.6666408235
 30
0.0
 11
6436.2589178279
 21
4343.6666408235
 31
0.0
  0
LINE
  5
377
330
1F
100
AcDbEntity
  8
0
  6
Continuous
 62
     7
100
AcDbLine
 10
6510.4832259351
 20
4340.7377081156
 30
0.0
 11
6506.9477026023
 21
4340.7377081156
 31
0.0
  0
LINE
  5
378
330
1F
100
AcDbEntity
  8
0
  6
Continuous
 62
     7
100
AcDbLine
 10
6510.4832259351
 20
4164.7977011442
 30
0.0
 11
6506.9477026023
 21
4164.7977011442
 31
0.0
  0
LINE
  5
379
330
1F
100
AcDbEntity
  8
0
  6
Continuous
 62
     7
100
AcDbLine
 10
6506.9477026023
 20
4164.7977011442
 30
0.0
 11
6506.9477026023
 21
4340.7377081156
 31
0.0
  0
LINE
  5
37A
330
1F
100
AcDbEntity
  8
0
  6
Continuous
 62
     7
100
AcDbLine
 10
6494.9334917003
 20
4122.0751697891
 30
0.0
 11
6494.6549740964
 21
4122.3088497989
 31
0.0
  0
LINE
  5
37B
330
1F
100
AcDbEntity
  8
0
  6
Continuous
 62
     7
100
AcDbLine
 10
6494.6549740964
 20
4122.3088497989
 30
0.0
 11
6494.3530765707
 21
4122.5621993416
 31
0.0
  0
LINE
  5
37C
330
1F
100
AcDbEntity
  8
0
  6
Continuous
 62
     7
100
AcDbLine
 10
6494.3530765707
 20
4122.5621993416
 30
0.0
 11
6494.0306750471
 21
4122.8327150219
 31
0.0
  0
LINE
  5
37D
330
1F
100
AcDbEntity
  8
0
  6
Continuous
 62
     7
100
AcDbLine
 10
6494.0306750471
 20
4122.8327150219
 30
0.0
 11
6493.6908838684
 21
4123.1178338402
 31
0.0
  0
LINE
  5
37E
330
1F
100
AcDbEntity
  8
0
  6
Continuous
 62
     7
100
AcDbLine
 10
6493.6908838684
 20
4123.1178338402
 30
0.0
 11
6493.3369663888
 21
4123.4148139828
 31
0.0
  0
LINE
  5
37F
330
1F
100
AcDbEntity
  8
0
  6
Continuous
 62
     7
100
AcDbLine
 10
6493.3369663888
 20
4123.4148139828
 30
0.0
 11
6492.9723498756
 21
4123.7207646244
 31
0.0
  0
LINE
  5
380
330
1F
100
AcDbEntity
  8
0
  6
Continuous
 62
     7
100
AcDbLine
 10
6492.9723498756
 20
4123.7207646244
 30
0.0
 11
6492.6005361015
 21
4124.0327353351
 31
0.0
  0
LINE
  5
381
330
1F
100
AcDbEntity
  8
0
  6
Continuous
 62
     7
100
AcDbLine
 10
6492.6005361015
 20
4124.0327353351
 30
0.0
 11
6492.2251162464
 21
4124.3477756851
 31
0.0
  0
LINE
  5
382
330
1F
100
AcDbEntity
  8
0
  6
Continuous
 62
     7
100
AcDbLine
 10
6053.104018946
 20
4122.0751697891
 30
0.0
 11
6053.3825365499
 21
4122.3088497989
 31
0.0
  0
LINE
  5
383
330
1F
100
AcDbEntity
  8
0
  6
Continuous
 62
     7
100
AcDbLine
 10
6053.3825365499
 20
4122.3088497989
 30
0.0
 11
6053.6844340756
 21
4122.5621993416
 31
0.0
  0
LINE
  5
384
330
1F
100
AcDbEntity
  8
0
  6
Continuous
 62
     7
100
AcDbLine
 10
6053.6844340756
 20
4122.5621993416
 30
0.0
 11
6054.0068355992
 21
4122.8327150219
 31
0.0
  0
LINE
  5
385
330
1F
100
AcDbEntity
  8
0
  6
Continuous
 62
     7
100
AcDbLine
 10
6054.0068355992
 20
4122.8327150219
 30
0.0
 11
6054.3466267779
 21
4123.1178338402
 31
0.0
  0
LINE
  5
386
330
1F
100
AcDbEntity
  8
0
  6
Continuous
 62
     7
100
AcDbLine
 10
6054.3466267779
 20
4123.1178338402
 30
0.0
 11
6054.7005442575
 21
4123.4148139828
 31
0.0
  0
LINE
  5
387
330
1F
100
AcDbEntity
  8
0
  6
Continuous
 62
     7
100
AcDbLine
 10
6054.7005442575
 20
4123.4148139828
 30
0.0
 11
6055.0651607707
 21
4123.7207646244
 31
0.0
  0
LINE
  5
388
330
1F
100
AcDbEntity
  8
0
  6
Continuous
 62
     7
100
AcDbLine
 10
6055.0651607707
 20
4123.7207646244
 30
0.0
 11
6055.4369745448
 21
4124.0327353351
 31
0.0
  0
LINE
  5
389
330
1F
100
AcDbEntity
  8
0
  6
Continuous
 62
     7
100
AcDbLine
 10
6055.4369745448
 20
4124.0327353351
 30
0.0
 11
6055.8123943999
 21
4124.3477756851
 31
0.0
  0
LINE
  5
38A
330
1F
100
AcDbEntity
  8
0
  6
Continuous
 62
     7
100
AcDbLine
 10
6459.6446660692
 20
4080.0195927494
 30
0.0
 11
6459.3661633665
 21
4080.2532727592
 31
0.0
  0
LINE
  5
38B
330
1F
100
AcDbEntity
  8
0
  6
Continuous
 62
     7
100
AcDbLine
 10
6459.3661633665
 20
4080.2532727592
 30
0.0
 11
6459.0642509395
 21
4080.5066223018
 31
0.0
  0
LINE
  5
38C
330
1F
100
AcDbEntity
  8
0
  6
Continuous
 62
     7
100
AcDbLine
 10
6459.0642509395
 20
4080.5066223018
 30
0.0
 11
6458.7418494159
 21
4080.7771379822
 31
0.0
  0
LINE
  5
38D
330
1F
100
AcDbEntity
  8
0
  6
Continuous
 62
     7
100
AcDbLine
 10
6458.7418494159
 20
4080.7771379822
 30
0.0
 11
6458.4020582372
 21
4081.0622568004
 31
0.0
  0
LINE
  5
38E
330
1F
100
AcDbEntity
  8
0
  6
Continuous
 62
     7
100
AcDbLine
 10
6458.4020582372
 20
4081.0622568004
 30
0.0
 11
6458.0481556589
 21
4081.359236943
 31
0.0
  0
LINE
  5
38F
330
1F
100
AcDbEntity
  8
0
  6
Continuous
 62
     7
100
AcDbLine
 10
6458.0481556589
 20
4081.359236943
 30
0.0
 11
6457.6835391456
 21
4081.6651875847
 31
0.0
  0
LINE
  5
390
330
1F
100
AcDbEntity
  8
0
  6
Continuous
 62
     7
100
AcDbLine
 10
6457.6835391456
 20
4081.6651875847
 30
0.0
 11
6457.3117253715
 21
4081.9771582954
 31
0.0
  0
LINE
  5
391
330
1F
100
AcDbEntity
  8
0
  6
Continuous
 62
     7
100
AcDbLine
 10
6457.3117253715
 20
4081.9771582954
 30
0.0
 11
6456.9362906152
 21
4082.2921986454
 31
0.0
  0
LINE
  5
392
330
1F
100
AcDbEntity
  8
0
  6
Continuous
 62
     7
100
AcDbLine
 10
6456.9362906152
 20
4082.2921986454
 30
0.0
 11
6492.2251162464
 21
4124.3477756851
 31
0.0
  0
LINE
  5
393
330
1F
100
AcDbEntity
  8
0
  6
Continuous
 62
     7
100
AcDbLine
 10
6055.8123943999
 20
4124.3477756851
 30
0.0
 11
6091.1012200311
 21
4082.2921986454
 31
0.0
  0
LINE
  5
394
330
1F
100
AcDbEntity
  8
0
  6
Continuous
 62
     7
100
AcDbLine
 10
6088.3928445771
 20
4080.0195927494
 30
0.0
 11
6088.6713472798
 21
4080.2532727592
 31
0.0
  0
LINE
  5
395
330
1F
100
AcDbEntity
  8
0
  6
Continuous
 62
     7
100
AcDbLine
 10
6088.6713472798
 20
4080.2532727592
 30
0.0
 11
6088.9732597068
 21
4080.5066223018
 31
0.0
  0
LINE
  5
396
330
1F
100
AcDbEntity
  8
0
  6
Continuous
 62
     7
100
AcDbLine
 10
6088.9732597068
 20
4080.5066223018
 30
0.0
 11
6089.2956612304
 21
4080.7771379822
 31
0.0
  0
LINE
  5
397
330
1F
100
AcDbEntity
  8
0
  6
Continuous
 62
     7
100
AcDbLine
 10
6089.2956612304
 20
4080.7771379822
 30
0.0
 11
6089.6354524091
 21
4081.0622568004
 31
0.0
  0
LINE
  5
398
330
1F
100
AcDbEntity
  8
0
  6
Continuous
 62
     7
100
AcDbLine
 10
6089.6354524091
 20
4081.0622568004
 30
0.0
 11
6089.9893549874
 21
4081.359236943
 31
0.0
  0
LINE
  5
399
330
1F
100
AcDbEntity
  8
0
  6
Continuous
 62
     7
100
AcDbLine
 10
6089.9893549874
 20
4081.359236943
 30
0.0
 11
6090.3539715007
 21
4081.6651875847
 31
0.0
  0
LINE
  5
39A
330
1F
100
AcDbEntity
  8
0
  6
Continuous
 62
     7
100
AcDbLine
 10
6090.3539715007
 20
4081.6651875847
 30
0.0
 11
6090.7257852748
 21
4081.9771582954
 31
0.0
  0
LINE
  5
39B
330
1F
100
AcDbEntity
  8
0
  6
Continuous
 62
     7
100
AcDbLine
 10
6090.7257852748
 20
4081.9771582954
 30
0.0
 11
6091.1012200311
 21
4082.2921986454
 31
0.0
  0
LINE
  5
39C
330
1F
100
AcDbEntity
  8
0
  6
Continuous
 62
     7
100
AcDbLine
 10
6454.6926078861
 20
4077.7103896075
 30
0.0
 11
6454.6926078861
 21
4081.2459284856
 31
0.0
  0
LINE
  5
39D
330
1F
100
AcDbEntity
  8
0
  6
Continuous
 62
     7
100
AcDbLine
 10
6093.3449027603
 20
4077.7103896075
 30
0.0
 11
6093.3449027603
 21
4081.2459284856
 31
0.0
  0
LINE
  5
39E
330
1F
100
AcDbEntity
  8
0
  6
Continuous
 62
     7
100
AcDbLine
 10
6093.3449027603
 20
4081.2459284856
 30
0.0
 11
6454.6926078861
 21
4081.2459284856
 31
0.0
  0
LINE
  5
39F
330
1F
100
AcDbEntity
  8
0
  6
Continuous
 62
     7
100
AcDbLine
 10
6260.018754904
 20
4400.9920875304
 30
0.0
 11
6260.0861696199
 21
4399.7630993598
 31
0.0
  0
LINE
  5
3A0
330
1F
100
AcDbEntity
  8
0
  6
Continuous
 62
     7
100
AcDbLine
 10
6260.0861696199
 20
4399.7630993598
 30
0.0
 11
6260.2877618417
 21
4398.5459501617
 31
0.0
  0
LINE
  5
3A1
330
1F
100
AcDbEntity
  8
0
  6
Continuous
 62
     7
100
AcDbLine
 10
6260.2877618417
 20
4398.5459501617
 30
0.0
 11
6260.6215906933
 21
4397.3523522489
 31
0.0
  0
LINE
  5
3A2
330
1F
100
AcDbEntity
  8
0
  6
Continuous
 62
     7
100
AcDbLine
 10
6260.6215906933
 20
4397.3523522489
 30
0.0
 11
6261.0844421804
 21
4396.1938167684
 31
0.0
  0
LINE
  5
3A3
330
1F
100
AcDbEntity
  8
0
  6
Continuous
 62
     7
100
AcDbLine
 10
6261.0844421804
 20
4396.1938167684
 30
0.0
 11
6262.378180553
 21
4394.0260703438
 31
0.0
  0
LINE
  5
3A4
330
1F
100
AcDbEntity
  8
0
  6
Continuous
 62
     7
100
AcDbLine
 10
6262.378180553
 20
4394.0260703438
 30
0.0
 11
6264.1192601666
 21
4392.1260232799
 31
0.0
  0
LINE
  5
3A5
330
1F
100
AcDbEntity
  8
0
  6
Continuous
 62
     7
100
AcDbLine
 10
6264.1192601666
 20
4392.1260232799
 30
0.0
 11
6266.2407720134
 21
4390.566706168
 31
0.0
  0
LINE
  5
3A6
330
1F
100
AcDbEntity
  8
0
  6
Continuous
 62
     7
100
AcDbLine
 10
6266.2407720134
 20
4390.566706168
 30
0.0
 11
6268.6611871839
 21
4389.4080216759
 31
0.0
  0
LINE
  5
3A7
330
1F
100
AcDbEntity
  8
0
  6
Continuous
 62
     7
100
AcDbLine
 10
6268.6611871839
 20
4389.4080216759
 30
0.0
 11
6271.2874907672
 21
4388.6945093744
 31
0.0
  0
LINE
  5
3A8
330
1F
100
AcDbEntity
  8
0
  6
Continuous
 62
     7
100
AcDbLine
 10
6271.2874907672
 20
4388.6945093744
 30
0.0
 11
6274.0187553361
 21
4388.4535874002
 31
0.0
  0
LINE
  5
3A9
330
1F
100
AcDbEntity
  8
0
  6
Continuous
 62
     7
100
AcDbLine
 10
6274.0187553361
 20
4388.4535874002
 30
0.0
 11
6276.750019905
 21
4388.6945093744
 31
0.0
  0
LINE
  5
3AA
330
1F
100
AcDbEntity
  8
0
  6
Continuous
 62
     7
100
AcDbLine
 10
6276.750019905
 20
4388.6945093744
 30
0.0
 11
6279.3763234883
 21
4389.4080216759
 31
0.0
  0
LINE
  5
3AB
330
1F
100
AcDbEntity
  8
0
  6
Continuous
 62
     7
100
AcDbLine
 10
6279.3763234883
 20
4389.4080216759
 30
0.0
 11
6281.7967386588
 21
4390.566706168
 31
0.0
  0
LINE
  5
3AC
330
1F
100
AcDbEntity
  8
0
  6
Continuous
 62
     7
100
AcDbLine
 10
6281.7967386588
 20
4390.566706168
 30
0.0
 11
6283.9182505056
 21
4392.1260232799
 31
0.0
  0
LINE
  5
3AD
330
1F
100
AcDbEntity
  8
0
  6
Continuous
 62
     7
100
AcDbLine
 10
6283.9182505056
 20
4392.1260232799
 30
0.0
 11
6285.6593301192
 21
4394.0260703438
 31
0.0
  0
LINE
  5
3AE
330
1F
100
AcDbEntity
  8
0
  6
Continuous
 62
     7
100
AcDbLine
 10
6285.6593301192
 20
4394.0260703438
 30
0.0
 11
6286.9530684918
 21
4396.1938167684
 31
0.0
  0
LINE
  5
3AF
330
1F
100
AcDbEntity
  8
0
  6
Continuous
 62
     7
100
AcDbLine
 10
6286.9530684918
 20
4396.1938167684
 30
0.0
 11
6287.4159199789
 21
4397.3523522489
 31
0.0
  0
LINE
  5
3B0
330
1F
100
AcDbEntity
  8
0
  6
Continuous
 62
     7
100
AcDbLine
 10
6287.4159199789
 20
4397.3523522489
 30
0.0
 11
6287.7497488305
 21
4398.5459501617
 31
0.0
  0
LINE
  5
3B1
330
1F
100
AcDbEntity
  8
0
  6
Continuous
 62
     7
100
AcDbLine
 10
6287.7497488305
 20
4398.5459501617
 30
0.0
 11
6287.9513410523
 21
4399.7630993598
 31
0.0
  0
LINE
  5
3B2
330
1F
100
AcDbEntity
  8
0
  6
Continuous
 62
     7
100
AcDbLine
 10
6287.9513410523
 20
4399.7630993598
 30
0.0
 11
6288.0187557682
 21
4400.9920875304
 31
0.0
  0
LINE
  5
3B3
330
1F
100
AcDbEntity
  8
0
  6
Continuous
 62
     7
100
AcDbLine
 10
6164.0187559321
 20
4535.7171711274
 30
0.0
 11
6164.0187559321
 21
4536.0876633548
 31
0.0
  0
LINE
  5
3B4
330
1F
100
AcDbEntity
  8
0
  6
Continuous
 62
     7
100
AcDbLine
 10
6162.5203845695
 20
4535.0301130437
 30
0.0
 11
6155.9789387181
 21
4535.0301130437
 31
0.0
  0
LINE
  5
3B5
330
1F
100
AcDbEntity
  8
0
  6
Continuous
 62
     7
100
AcDbLine
 10
6155.5187536076
 20
4536.5301132896
 30
0.0
 11
6172.5187582567
 21
4536.5301132896
 31
0.0
  0
LINE
  5
3B6
330
1F
100
AcDbEntity
  8
0
  6
Continuous
 62
     7
100
AcDbLine
 10
6153.8187546328
 20
4524.530113389
 30
0.0
 11
6174.2187572315
 21
4524.530113389
 31
0.0
  0
LINE
  5
3B7
330
1F
100
AcDbEntity
  8
0
  6
Continuous
 62
     7
100
AcDbLine
 10
6157.2603044704
 20
4527.0307271038
 30
0.0
 11
6157.9750461176
 21
4526.4201494627
 31
0.0
  0
LINE
  5
3B8
330
1F
100
AcDbEntity
  8
0
  6
Continuous
 62
     7
100
AcDbLine
 10
6157.9750535682
 20
4525.9316880018
 30
0.0
 11
6157.2603268221
 21
4525.3211112921
 31
0.0
  0
LINE
  5
3B9
330
1F
100
AcDbEntity
  8
0
  6
Continuous
 62
     7
100
AcDbLine
 10
6157.2603268221
 20
4525.3211112921
 30
0.0
 11
6157.2603044704
 21
4527.0307271038
 31
0.0
  0
LINE
  5
3BA
330
1F
100
AcDbEntity
  8
0
  6
Continuous
 62
     7
100
AcDbLine
 10
6157.9750461176
 20
4526.4201494627
 30
0.0
 11
6157.9750535682
 21
4525.9316880018
 31
0.0
  0
LINE
  5
3BB
330
1F
100
AcDbEntity
  8
0
  6
Continuous
 62
     7
100
AcDbLine
 10
6285.4471897379
 20
4242.7557999962
 30
0.0
 11
6280.3674341783
 21
4245.4758579605
 31
0.0
  0
LINE
  5
3BC
330
1F
100
AcDbEntity
  8
0
  6
Continuous
 62
     7
100
AcDbLine
 10
6263.0284774721
 20
4242.0254046791
 30
0.0
 11
6267.9118874155
 21
4245.057045924
 31
0.0
  0
LINE
  5
3BD
330
1F
100
AcDbEntity
  8
0
  6
Continuous
 62
     7
100
AcDbLine
 10
6267.8994547248
 20
4245.0770730846
 30
0.0
 11
6263.0121709451
 21
4242.0430476539
 31
0.0
  0
LINE
  5
3BE
330
1F
100
AcDbEntity
  8
0
  6
Continuous
 62
     7
100
AcDbLine
 10
6280.3563062705
 20
4245.4550857418
 30
0.0
 11
6285.4410802618
 21
4242.7323157661
 31
0.0
  0
LINE
  5
3BF
330
1F
100
AcDbEntity
  8
0
  6
Continuous
 62
     7
100
AcDbLine
 10
6273.5931690338
 20
4261.7987687462
 30
0.0
 11
6273.7769445309
 21
4256.05326842
 31
0.0
  0
LINE
  5
3C0
330
1F
100
AcDbEntity
  8
0
  6
Continuous
 62
     7
100
AcDbLine
 10
6273.8005050567
 20
4256.0540432804
 30
0.0
 11
6273.616706553
 21
4261.80022906
 31
0.0
  0
LINE
  5
3C1
330
1F
100
AcDbEntity
  8
0
  6
Continuous
 62
     7
100
AcDbLine
 10
6519.0187601045
 20
4439.174867677
 30
0.0
 11
6288.0187557682
 21
4439.174867677
 31
0.0
  0
LINE
  5
3C2
330
1F
100
AcDbEntity
  8
0
  6
Continuous
 62
     7
100
AcDbLine
 10
6260.018754904
 20
4439.174867677
 30
0.0
 11
6029.0187505677
 21
4439.174867677
 31
0.0
  0
LINE
  5
3C3
330
1F
100
AcDbEntity
  8
0
  6
Continuous
 62
     7
100
AcDbLine
 10
6044.0187527552
 20
4436.245934277
 30
0.0
 11
6260.0187564954
 21
4436.245934277
 31
0.0
  0
LINE
  5
3C4
330
1F
100
AcDbEntity
  8
0
  6
Continuous
 62
     7
100
AcDbLine
 10
6288.0187497595
 20
4436.2459386943
 30
0.0
 11
6396.2589201638
 21
4436.2459386943
 31
0.0
  0
LINE
  5
3C5
330
1F
100
AcDbEntity
  8
0
  6
Continuous
 62
     7
100
AcDbLine
 10
6396.2589201638
 20
4432.7103997825
 30
0.0
 11
6288.0187497595
 21
4432.7103997825
 31
0.0
  0
LINE
  5
3C6
330
1F
100
AcDbEntity
  8
0
  6
Continuous
 62
     7
100
AcDbLine
 10
6260.0187564954
 20
4432.7104072954
 30
0.0
 11
6044.0187527552
 21
4432.7104072954
 31
0.0
  0
LINE
  5
3C7
330
1F
100
AcDbEntity
  8
0
  6
Continuous
 62
     7
100
AcDbLine
 10
6044.0187527552
 20
4430.6393335336
 30
0.0
 11
6260.0187564954
 21
4430.6393335336
 31
0.0
  0
LINE
  5
3C8
330
1F
100
AcDbEntity
  8
0
  6
Continuous
 62
     7
100
AcDbLine
 10
6288.0187497595
 20
4430.6393320916
 30
0.0
 11
6396.2589201638
 21
4430.6393320916
 31
0.0
  0
LINE
  5
3C9
330
1F
100
AcDbEntity
  8
0
  6
Continuous
 62
     7
100
AcDbLine
 10
6396.2589201638
 20
4427.1037946217
 30
0.0
 11
6288.0187497595
 21
4427.1037946217
 31
0.0
  0
LINE
  5
3CA
330
1F
100
AcDbEntity
  8
0
  6
Continuous
 62
     7
100
AcDbLine
 10
6260.0187564954
 20
4427.1038020723
 30
0.0
 11
6044.0187527552
 21
4427.1038020723
 31
0.0
  0
LWPOLYLINE
  5
3CB
330
1F
100
AcDbEntity
  8
0
  6
Continuous
 62
     7
100
AcDbPolyline
 90
        3
 70
   128
 43
0.0
 10
6262.4702453613
 20
5375.528286027
 10
6262.9990007915
 20
5375.0921460303
 10
6263.4071793079
 20
5374.7529786101
  0
LWPOLYLINE
  5
3CC
330
1F
100
AcDbEntity
  8
0
  6
Continuous
 62
     7
100
AcDbPolyline
 90
        3
 70
   128
 43
0.0
 10
6284.6298217773
 20
5374.7529786101
 10
6285.1507452235
 20
5375.185228863
 10
6285.5650253266
 20
5375.528286027
  0
LWPOLYLINE
  5
3CD
330
1F
100
AcDbEntity
  8
0
  6
Continuous
 62
     7
100
AcDbPolyline
 90
        9
 70
   128
 43
0.0
 10
6262.4816894531
 20
5375.533650445
 10
6260.0487897161
 20
5379.4055217864
 10
6260.7920078655
 20
5382.4552681905
 10
6263.6667620232
 20
5385.1344292836
 10
6274.0187553361
 20
5387.6683812609
 10
6284.370748649
 20
5385.1344292836
 10
6287.2455028067
 20
5382.4552681905
 10
6287.9887209561
 20
5379.4055217864
 10
6285.5529218584
 20
5375.533650445
  0
LWPOLYLINE
  5
3CE
330
1F
100
AcDbEntity
  8
0
  6
Continuous
 62
     7
100
AcDbPolyline
 90
        7
 70
   128
 43
0.0
 10
6274.0173339844
 20
5385.2149944773
 10
6264.9031377056
 20
5383.161400784
 10
6262.238898484
 20
5380.9779795677
 10
6261.3241627485
 20
5378.4603571662
 10
6262.2388994221
 20
5375.9427360627
 10
6264.9031427711
 20
5373.7593403554
 10
6274.0187553361
 20
5371.7056911459
  0
LWPOLYLINE
  5
3CF
330
1F
100
AcDbEntity
  8
0
  6
Continuous
 62
     7
100
AcDbPolyline
 90
        7
 70
   128
 43
0.0
 10
6274.0173339844
 20
5371.7056911459
 10
6283.1343679011
 20
5373.7593403554
 10
6285.7986112501
 20
5375.9427360627
 10
6286.7133479237
 20
5378.4603571662
 10
6285.7986121882
 20
5380.9779795677
 10
6283.1343729666
 20
5383.161400784
 10
6274.0187553361
 20
5385.2149944773
  0
LWPOLYLINE
  5
3D0
330
1F
100
AcDbEntity
  8
0
  6
Continuous
 62
     7
100
AcDbPolyline
 90
        3
 70
   128
 43
0.0
 10
6939.1899108887
 20
5118.7134336701
 10
6939.5365928384
 20
5119.3066318514
 10
6939.8061217264
 20
5119.7726976147
  0
LWPOLYLINE
  5
3D1
330
1F
100
AcDbEntity
  8
0
  6
Continuous
 62
     7
100
AcDbPolyline
 90
        3
 70
   128
 43
0.0
 10
6941.1468505859
 20
5118.7134336701
 10
6941.4904391137
 20
5119.3066317526
 10
6941.7599680358
 20
5119.7726976147
  0
LWPOLYLINE
  5
3D2
330
1F
100
AcDbEntity
  8
0
  6
Continuous
 62
     7
100
AcDbPolyline
 90
        3
 70
   128
 43
0.0
 10
6943.0999755859
 20
5118.7134336701
 10
6943.4442854231
 20
5119.3066317526
 10
6943.7138143451
 20
5119.7726976147
  0
LWPOLYLINE
  5
3D3
330
1F
100
AcDbEntity
  8
0
  6
Continuous
 62
     7
100
AcDbPolyline
 90
        3
 70
   128
 43
0.0
 10
6945.0531005859
 20
5118.7134336701
 10
6945.3981315275
 20
5119.3066317526
 10
6945.6676606544
 20
5119.7726976147
  0
LWPOLYLINE
  5
3D4
330
1F
100
AcDbEntity
  8
0
  6
Continuous
 62
     7
100
AcDbPolyline
 90
        3
 70
   128
 43
0.0
 10
6940.7806396484
 20
5137.6262109747
 10
6940.4400141503
 20
5138.2193886091
 10
6940.1705249668
 20
5138.6854749193
  0
LWPOLYLINE
  5
3D5
330
1F
100
AcDbEntity
  8
0
  6
Continuous
 62
     7
100
AcDbPolyline
 90
        3
 70
   128
 43
0.0
 10
6942.7337646484
 20
5137.6262109747
 10
6942.3938599939
 20
5138.2193886091
 10
6942.1243708105
 20
5138.6854749193
  0
LWPOLYLINE
  5
3D6
330
1F
100
AcDbEntity
  8
0
  6
Continuous
 62
     7
100
AcDbPolyline
 90
        3
 70
   128
 43
0.0
 10
6944.6907043457
 20
5137.6262109747
 10
6944.3477059275
 20
5138.2193885103
 10
6944.0782171198
 20
5138.6854749193
  0
LWPOLYLINE
  5
3D7
330
1F
100
AcDbEntity
  8
0
  6
Continuous
 62
     7
100
AcDbPolyline
 90
        3
 70
   128
 43
0.0
 10
6946.6438293457
 20
5137.6262109747
 10
6946.3015521919
 20
5138.2193885597
 10
6946.0320631963
 20
5138.6854749193
  0
LWPOLYLINE
  5
3D8
330
1F
100
AcDbEntity
  8
0
  6
Continuous
 62
     7
100
AcDbPolyline
 90
        3
 70
   128
 43
0.0
 10
6938.8275146484
 20
5137.6262109747
 10
6938.4861673753
 20
5138.2193886091
 10
6938.2166781918
 20
5138.6854749193
  0
LWPOLYLINE
  5
3D9
330
1F
100
AcDbEntity
  8
0
  6
Continuous
 62
     7
100
AcDbPolyline
 90
        3
 70
   128
 43
0.0
 10
6940.258026123
 20
5119.772354888
 10
6940.6018330659
 20
5119.1792284448
 10
6940.8713023634
 20
5118.7131803503
  0
LWPOLYLINE
  5
3DA
330
1F
100
AcDbEntity
  8
0
  6
Continuous
 62
     7
100
AcDbPolyline
 90
        3
 70
   128
 43
0.0
 10
6942.211151123
 20
5119.772354888
 10
6942.5556790335
 20
5119.1792282472
 10
6942.8251486727
 20
5118.7131803503
  0
LWPOLYLINE
  5
3DB
330
1F
100
AcDbEntity
  8
0
  6
Continuous
 62
     7
100
AcDbPolyline
 90
        3
 70
   128
 43
0.0
 10
6944.164276123
 20
5119.772354888
 10
6944.5095253428
 20
5119.1792282472
 10
6944.778994982
 20
5118.7131803503
  0
LWPOLYLINE
  5
3DC
330
1F
100
AcDbEntity
  8
0
  6
Continuous
 62
     7
100
AcDbPolyline
 90
        3
 70
   128
 43
0.0
 10
6946.117401123
 20
5119.772354888
 10
6946.4633714193
 20
5119.1792282472
 10
6946.7328410585
 20
5118.7131803503
  0
LWPOLYLINE
  5
3DD
330
1F
100
AcDbEntity
  8
0
  6
Continuous
 62
     7
100
AcDbPolyline
 90
        3
 70
   128
 43
0.0
 10
6941.7953491211
 20
5138.4651612511
 10
6941.4547370181
 20
5137.883849266
 10
6941.1857187272
 20
5137.4273400774
  0
LWPOLYLINE
  5
3DE
330
1F
100
AcDbEntity
  8
0
  6
Continuous
 62
     7
100
AcDbPolyline
 90
        3
 70
   128
 43
0.0
 10
6943.7484741211
 20
5138.4651612511
 10
6943.4085832934
 20
5137.8838491691
 10
6943.1395650365
 20
5137.4273400774
  0
LWPOLYLINE
  5
3DF
330
1F
100
AcDbEntity
  8
0
  6
Continuous
 62
     7
100
AcDbPolyline
 90
        3
 70
   128
 43
0.0
 10
6945.7015991211
 20
5138.4651612511
 10
6945.3624294319
 20
5137.883849266
 10
6945.0934113459
 20
5137.4273400774
  0
LWPOLYLINE
  5
3E0
330
1F
100
AcDbEntity
  8
0
  6
Continuous
 62
     7
100
AcDbPolyline
 90
        3
 70
   128
 43
0.0
 10
6947.6585388184
 20
5138.4651612511
 10
6947.3162755938
 20
5137.8838492176
 10
6947.0472574224
 20
5137.4273400774
  0
LWPOLYLINE
  5
3E1
330
1F
100
AcDbEntity
  8
0
  6
Continuous
 62
     7
100
AcDbPolyline
 90
        3
 70
   128
 43
0.0
 10
6939.8422241211
 20
5138.4651612511
 10
6939.5008911065
 20
5137.8838490722
 10
6939.2318728835
 20
5137.4273400774
  0
LWPOLYLINE
  5
3E2
330
1F
100
AcDbEntity
  8
0
  6
Continuous
 62
     7
100
AcDbPolyline
 90
        3
 70
   128
 43
0.0
 10
6938.304901123
 20
5119.772354888
 10
6938.6479865387
 20
5119.1792280496
 10
6938.9174565197
 20
5118.7131803503
  0
LWPOLYLINE
  5
3E3
330
1F
100
AcDbEntity
  8
0
  6
Continuous
 62
     7
100
AcDbPolyline
 90
        3
 70
   128
 43
0.0
 10
7059.7457885742
 20
5372.1590738764
 10
7074.5752342215
 20
5381.3302680895
 10
7084.8233256013
 20
5387.6683812609
  0
LWPOLYLINE
  5
3E4
330
1F
100
AcDbEntity
  8
0
  6
Continuous
 62
     7
100
AcDbPolyline
 90
        3
 70
   128
 43
0.0
 10
7084.8197937012
 20
5385.2149944773
 10
7070.995545181
 20
5377.2315364012
 10
7061.4245239169
 20
5371.7056911459
  0
LWPOLYLINE
  5
3E5
330
1F
100
AcDbEntity
  8
0
  6
Continuous
 62
     7
100
AcDbPolyline
 90
        8
 70
   128
 43
0.0
 10
6937.5953674316
 20
5119.3770121803
 10
6937.5877651525
 20
5119.3316627257
 10
6937.5860031614
 20
5119.330224003
 10
6937.5842392901
 20
5119.3305032368
 10
6937.5795272176
 20
5119.3393428184
 10
6937.573228132
 20
5119.3683804877
 10
6937.4976614406
 20
5120.6488185939
 10
6937.1892496467
 20
5133.028144764
  0
LWPOLYLINE
  5
3E6
330
1F
100
AcDbEntity
  8
0
  6
Continuous
 62
     7
100
AcDbPolyline
 90
        6
 70
   128
 43
0.0
 10
6937.1871948242
 20
5133.028144764
 10
6937.672309864
 20
5120.9443974121
 10
6937.7945142303
 20
5119.8291729617
 10
6937.7995472771
 20
5119.8245970782
 10
6937.8045638269
 20
5119.8240540242
 10
6937.834448506
 20
5119.8732506504
  0
LWPOLYLINE
  5
3E7
330
1F
100
AcDbEntity
  8
0
  6
Continuous
 62
     7
100
AcDbPolyline
 90
       15
 70
   128
 43
0.0
 10
6938.8275146484
 20
5137.5968109837
 10
6938.8367946781
 20
5137.6146024174
 10
6938.8405225016
 20
5137.6194185621
 10
6938.8442605575
 20
5137.6210656832
 10
6938.8480081159
 20
5137.6196377268
 10
6938.8517644472
 20
5137.6152286388
 10
6938.8593005092
 20
5137.5978428527
 10
6938.9501204985
 20
5136.7617565857
 10
6939.3092253803
 20
5128.4334954343
 10
6939.6678588567
 20
5120.3932635484
 10
6939.7362593902
 20
5119.857657013
 10
6939.7475325076
 20
5119.830341441
 10
6939.7531379315
 20
5119.8247283136
 10
6939.7587228137
 20
5119.8241425662
 10
6939.788295281
 20
5119.8732506504
  0
LWPOLYLINE
  5
3E8
330
1F
100
AcDbEntity
  8
0
  6
Continuous
 62
     7
100
AcDbPolyline
 90
       15
 70
   128
 43
0.0
 10
6940.7806396484
 20
5137.5968109837
 10
6940.7906415848
 20
5137.614602415
 10
6940.7943698644
 20
5137.6194185591
 10
6940.7981083189
 20
5137.6210656798
 10
6940.801856221
 20
5137.6196377231
 10
6940.8056128438
 20
5137.615228635
 10
6940.8131493429
 20
5137.5978428493
 10
6940.9039669583
 20
5136.7617566006
 10
6941.2630715554
 20
5128.4334954447
 10
6941.621704816
 20
5120.3932635475
 10
6941.6901057429
 20
5119.8576570138
 10
6941.7013788284
 20
5119.8303414417
 10
6941.7069842166
 20
5119.8247283141
 10
6941.7125690503
 20
5119.8241425666
 10
6941.7421411247
 20
5119.8732506504
  0
LWPOLYLINE
  5
3E9
330
1F
100
AcDbEntity
  8
0
  6
Continuous
 62
     7
100
AcDbPolyline
 90
       15
 70
   128
 43
0.0
 10
6942.7337646484
 20
5137.5968109837
 10
6942.7444873626
 20
5137.6146024162
 10
6942.7482154142
 20
5137.6194185606
 10
6942.7519536693
 20
5137.6210656815
 10
6942.7557013995
 20
5137.6196377249
 10
6942.7594578765
 20
5137.6152286369
 10
6942.7669941569
 20
5137.597842851
 10
6942.8578129602
 20
5136.7617565932
 10
6943.216917319
 20
5128.4334954261
 10
6943.5755511283
 20
5120.3932635476
 10
6943.6439520528
 20
5119.8576570138
 10
6943.6552251378
 20
5119.8303414417
 10
6943.6608305258
 20
5119.8247283141
 10
6943.6664153594
 20
5119.8241425666
 10
6943.695987434
 20
5119.8732506504
  0
LWPOLYLINE
  5
3EA
330
1F
100
AcDbEntity
  8
0
  6
Continuous
 62
     7
100
AcDbPolyline
 90
       15
 70
   128
 43
0.0
 10
6944.6907043457
 20
5137.5968109837
 10
6944.698333672
 20
5137.6146024162
 10
6944.7020617236
 20
5137.6194185606
 10
6944.7057999789
 20
5137.6210656815
 10
6944.7095477093
 20
5137.6196377249
 10
6944.7133041865
 20
5137.615228637
 10
6944.7208404675
 20
5137.5978428511
 10
6944.8116592667
 20
5136.761756594
 10
6945.1707635194
 20
5128.4334954305
 10
6945.5293972545
 20
5120.3932635503
 10
6945.5977981767
 20
5119.8576570145
 10
6945.6090712231
 20
5119.8303414421
 10
6945.6146765863
 20
5119.8247283143
 10
6945.6202613915
 20
5119.8241425667
 10
6945.6498332777
 20
5119.8732506504
  0
LWPOLYLINE
  5
3EB
330
1F
100
AcDbEntity
  8
0
  6
Continuous
 62
     7
100
AcDbPolyline
 90
        7
 70
   128
 43
0.0
 10
6946.6438293457
 20
5137.5968109837
 10
6946.654832896
 20
5137.6186826649
 10
6946.6586319698
 20
5137.6218666574
 10
6946.6624410784
 20
5137.6220956759
 10
6946.6739208915
 20
5137.6056728135
 10
6946.6854632226
 20
5137.5648869178
 10
6946.8076022797
 20
5136.0699038973
  0
LWPOLYLINE
  5
3EC
330
1F
100
AcDbEntity
  8
0
  6
Continuous
 62
     7
100
AcDbPolyline
 90
        7
 70
   128
 43
0.0
 10
6938.2438659668
 20
5138.5865610113
 10
6938.9581157261
 20
5121.1001632815
 10
6939.13536511
 20
5118.7394923775
 10
6939.1502639598
 20
5118.7043577557
 10
6939.1558348321
 20
5118.7017659378
 10
6939.1613946045
 20
5118.7053083478
 10
6939.1945464061
 20
5118.8290964832
  0
LWPOLYLINE
  5
3ED
330
1F
100
AcDbEntity
  8
0
  6
Continuous
 62
     7
100
AcDbPolyline
 90
       14
 70
   128
 43
0.0
 10
6940.1702880859
 20
5138.573954629
 10
6940.1820499306
 20
5138.5893885242
 10
6940.1876999594
 20
5138.593756256
 10
6940.1933664775
 20
5138.594104929
 10
6940.2105123591
 20
5138.5590371957
 10
6940.2278633704
 20
5138.4656159968
 10
6940.2628213018
 20
5138.134909665
 10
6940.5374869142
 20
5132.0293217018
 10
6940.9043836336
 20
5121.2587099309
 10
6941.087306639
 20
5118.7467757396
 10
6941.1026869324
 20
5118.7059752613
 10
6941.1084380389
 20
5118.7018213664
 10
6941.1141776523
 20
5118.7041443181
 10
6941.1483922497
 20
5118.8290964832
  0
LWPOLYLINE
  5
3EE
330
1F
100
AcDbEntity
  8
0
  6
Continuous
 62
     7
100
AcDbPolyline
 90
       14
 70
   128
 43
0.0
 10
6942.1234130859
 20
5138.573954629
 10
6942.1358962505
 20
5138.5893885243
 10
6942.1415462813
 20
5138.5937562562
 10
6942.1472127974
 20
5138.5941049292
 10
6942.1643586376
 20
5138.5590371952
 10
6942.1817095596
 20
5138.4656159949
 10
6942.216667266
 20
5138.1349096598
 10
6942.4913331883
 20
5132.0293217008
 10
6942.858229932
 20
5121.2587099304
 10
6943.0411522591
 20
5118.7467757383
 10
6943.0565326318
 20
5118.7059752612
 10
6943.0622837845
 20
5118.7018213667
 10
6943.0680234539
 20
5118.7041443187
 10
6943.1022385591
 20
5118.8290964832
  0
LWPOLYLINE
  5
3EF
330
1F
100
AcDbEntity
  8
0
  6
Continuous
 62
     7
100
AcDbPolyline
 90
       14
 70
   128
 43
0.0
 10
6944.0765380859
 20
5138.573954629
 10
6944.0897423548
 20
5138.5893885241
 10
6944.0953922921
 20
5138.5937562559
 10
6944.1010587256
 20
5138.5941049287
 10
6944.1182044148
 20
5138.5590371941
 10
6944.1355553302
 20
5138.4656159936
 10
6944.1705132852
 20
5138.1349096591
 10
6944.44517951
 20
5132.0293217012
 10
6944.8120757785
 20
5121.2587099211
 10
6944.9949985979
 20
5118.7467757388
 10
6945.0103789531
 20
5118.7059752614
 10
6945.0161301004
 20
5118.7018213668
 10
6945.0218697654
 20
5118.7041443188
 10
6945.0560848684
 20
5118.8290964832
  0
LWPOLYLINE
  5
3F0
330
1F
100
AcDbEntity
  8
0
  6
Continuous
 62
     7
100
AcDbPolyline
 90
        6
 70
   128
 43
0.0
 10
6946.0296630859
 20
5138.573954629
 10
6946.0455131691
 20
5138.5907812216
 10
6946.050475294
 20
5138.5937248995
 10
6946.0554499292
 20
5138.5934794565
 10
6946.0856615444
 20
5138.4936710832
 10
6946.2461858977
 20
5136.0698889961
  0
LWPOLYLINE
  5
3F1
330
1F
100
AcDbEntity
  8
0
  6
Continuous
 62
     7
100
AcDbPolyline
 90
        4
 70
   128
 43
0.0
 10
6937.557220459
 20
5138.0124043694
 10
6937.6474941528
 20
5138.000523862
 10
6937.7354579299
 20
5137.9104617395
 10
6938.2467999578
 20
5134.6459936371
  0
LWPOLYLINE
  5
3F2
330
1F
100
AcDbEntity
  8
0
  6
Continuous
 62
     7
100
AcDbPolyline
 90
        8
 70
   128
 43
0.0
 10
6938.2438659668
 20
5134.6459936371
 10
6938.7612521252
 20
5120.1976708967
 10
6938.8909986769
 20
5118.7846146475
 10
6938.8963589631
 20
5118.7767145284
 10
6938.9016997696
 20
5118.7741762729
 10
6938.9096800619
 20
5118.7788415422
 10
6938.9176317334
 20
5118.7913500672
 10
6938.9334873752
 20
5118.82943921
  0
LWPOLYLINE
  5
3F3
330
1F
100
AcDbEntity
  8
0
  6
Continuous
 62
     7
100
AcDbPolyline
 90
       16
 70
   128
 43
0.0
 10
6939.9070739746
 20
5138.5980200043
 10
6939.9251325768
 20
5138.6488325584
 10
6939.9327194746
 20
5138.6644445081
 10
6939.9365251258
 20
5138.6680962655
 10
6939.9403398623
 20
5138.6685909047
 10
6939.9518324272
 20
5138.6518654688
 10
6939.9633838404
 20
5138.6095725461
 10
6939.9865928353
 20
5138.4572664638
 10
6940.0329428634
 20
5137.9446489131
 10
6940.3988508626
 20
5128.7029178359
 10
6940.7645434726
 20
5119.4416851976
 10
6940.8342739507
 20
5118.815923887
 10
6940.8457717681
 20
5118.782854315
 10
6940.8514887736
 20
5118.7756402258
 10
6940.8571841163
 20
5118.7743655782
 10
6940.8873332188
 20
5118.82943921
  0
LWPOLYLINE
  5
3F4
330
1F
100
AcDbEntity
  8
0
  6
Continuous
 62
     7
100
AcDbPolyline
 90
       16
 70
   128
 43
0.0
 10
6941.8601989746
 20
5138.5980200043
 10
6941.8789788853
 20
5138.6488325584
 10
6941.8865657836
 20
5138.6644445081
 10
6941.8903714354
 20
5138.6680962655
 10
6941.894186173
 20
5138.6685909047
 10
6941.905678742
 20
5138.6518654689
 10
6941.9172301607
 20
5138.6095725464
 10
6941.9404391659
 20
5138.4572664644
 10
6941.9867891824
 20
5137.9446489134
 10
6942.3526968683
 20
5128.7029178265
 10
6942.7183896885
 20
5119.4416851986
 10
6942.7881197519
 20
5118.8159238864
 10
6942.7996175965
 20
5118.7828543144
 10
6942.805334636
 20
5118.7756402253
 10
6942.8110300267
 20
5118.7743655778
 10
6942.8411795282
 20
5118.82943921
  0
LWPOLYLINE
  5
3F5
330
1F
100
AcDbEntity
  8
0
  6
Continuous
 62
     7
100
AcDbPolyline
 90
       16
 70
   128
 43
0.0
 10
6943.8171386719
 20
5138.5980200043
 10
6943.8328248951
 20
5138.648832559
 10
6943.8404116611
 20
5138.6644445086
 10
6943.8442172541
 20
5138.6680962658
 10
6943.8480319385
 20
5138.6685909048
 10
6943.8595243805
 20
5138.651865468
 10
6943.8710757171
 20
5138.6095725443
 10
6943.8942846764
 20
5138.4572664596
 10
6943.9406349531
 20
5137.9446489066
 10
6944.3065431152
 20
5128.7029178249
 10
6944.6722359974
 20
5119.4416851986
 10
6944.7419660611
 20
5118.8159238864
 10
6944.7534639058
 20
5118.7828543144
 10
6944.7591809454
 20
5118.7756402253
 10
6944.7648763361
 20
5118.7743655778
 10
6944.7950258375
 20
5118.82943921
  0
LWPOLYLINE
  5
3F6
330
1F
100
AcDbEntity
  8
0
  6
Continuous
 62
     7
100
AcDbPolyline
 90
       16
 70
   128
 43
0.0
 10
6945.7702636719
 20
5138.5980200043
 10
6945.7866711214
 20
5138.6488325587
 10
6945.7942579535
 20
5138.6644445083
 10
6945.798063576
 20
5138.6680962657
 10
6945.8018782869
 20
5138.6685909048
 10
6945.8133707924
 20
5138.6518654685
 10
6945.8249221701
 20
5138.6095725454
 10
6945.8481311523
 20
5138.457266462
 10
6945.8944812989
 20
5137.94464891
 10
6946.2603892229
 20
5128.7029178257
 10
6946.6260820741
 20
5119.4416851986
 10
6946.6958121377
 20
5118.8159238864
 10
6946.7073099823
 20
5118.7828543144
 10
6946.7130270219
 20
5118.7756402253
 10
6946.7187224125
 20
5118.7743655778
 10
6946.748871914
 20
5118.82943921
  0
LWPOLYLINE
  5
3F7
330
1F
100
AcDbEntity
  8
0
  6
Continuous
 62
     7
100
AcDbPolyline
 90
        7
 70
   128
 43
0.0
 10
6947.7233886719
 20
5138.5980200043
 10
6947.7495310814
 20
5138.6661306942
 10
6947.7535767044
 20
5138.6690117854
 10
6947.7576316041
 20
5138.6684881981
 10
6947.7684849267
 20
5138.6510455181
 10
6947.7830292295
 20
5138.5935867525
 10
6947.9558014766
 20
5136.0699187985
  0
LWPOLYLINE
  5
3F8
330
1F
100
AcDbEntity
  8
0
  6
Continuous
 62
     7
100
AcDbPolyline
 90
        8
 70
   128
 43
0.0
 10
6937.3435974121
 20
5137.6419018974
 10
6937.8252892298
 20
5128.9628019457
 10
6938.1840050324
 20
5120.6199079992
 10
6938.2750869896
 20
5119.8382456239
 10
6938.2825707122
 20
5119.8282697984
 10
6938.2881547161
 20
5119.8280621179
 10
6938.2937174492
 20
5119.8330760025
 10
6938.3048073844
 20
5119.8518227806
  0
LWPOLYLINE
  5
3F9
330
1F
100
AcDbEntity
  8
0
  6
Continuous
 62
     7
100
AcDbPolyline
 90
        8
 70
   128
 43
0.0
 10
6939.2967224121
 20
5137.6419018974
 10
6939.7791350119
 20
5128.9628019431
 10
6940.1378509412
 20
5120.6199079982
 10
6940.2289340086
 20
5119.8382456245
 10
6940.2364175422
 20
5119.8282697988
 10
6940.2420013478
 20
5119.828062118
 10
6940.2475638412
 20
5119.8330760025
 10
6940.2586532281
 20
5119.8518227806
  0
LWPOLYLINE
  5
3FA
330
1F
100
AcDbEntity
  8
0
  6
Continuous
 62
     7
100
AcDbPolyline
 90
        8
 70
   128
 43
0.0
 10
6941.2498474121
 20
5137.6419018974
 10
6941.7329810128
 20
5128.9628019408
 10
6942.0916972192
 20
5120.6199079997
 10
6942.1827797306
 20
5119.8382456243
 10
6942.1902633584
 20
5119.8282697986
 10
6942.195847263
 20
5119.828062118
 10
6942.2014098763
 20
5119.8330760025
 10
6942.2124995374
 20
5119.8518227806
  0
LWPOLYLINE
  5
3FB
330
1F
100
AcDbEntity
  8
0
  6
Continuous
 62
     7
100
AcDbPolyline
 90
        8
 70
   128
 43
0.0
 10
6943.2067871094
 20
5137.6419018974
 10
6943.6868273235
 20
5128.9628019489
 10
6944.0455435581
 20
5120.6199080062
 10
6944.1366261831
 20
5119.8382456249
 10
6944.144109698
 20
5119.8282697988
 10
6944.1496934967
 20
5119.8280621179
 10
6944.1552559885
 20
5119.8330760024
 10
6944.1663453811
 20
5119.8518227806
  0
LWPOLYLINE
  5
3FC
330
1F
100
AcDbEntity
  8
0
  6
Continuous
 62
     7
100
AcDbPolyline
 90
        8
 70
   128
 43
0.0
 10
6945.1599121094
 20
5137.6419018974
 10
6945.6406735706
 20
5128.9628019466
 10
6945.9993896192
 20
5120.6199080024
 10
6946.0904721879
 20
5119.8382456246
 10
6946.0979557594
 20
5119.8282697987
 10
6946.103539611
 20
5119.828062118
 10
6946.1091021636
 20
5119.8330760024
 10
6946.1201916904
 20
5119.8518227806
  0
LWPOLYLINE
  5
3FD
330
1F
100
AcDbEntity
  8
0
  6
Continuous
 62
     7
100
AcDbPolyline
 90
        3
 70
   128
 43
0.0
 10
6947.1130371094
 20
5137.6419018974
 10
6947.2172087914
 20
5137.1657641661
 10
6947.2970280087
 20
5136.0699038973
  0
LWPOLYLINE
  5
3FE
330
1F
100
AcDbEntity
  8
0
  6
Continuous
 62
     7
100
AcDbPolyline
 90
        3
 70
   128
 43
0.0
 10
6937.1871948242
 20
5133.028144764
 10
6937.1892496467
 20
5136.6755786702
 10
6937.1892496467
 20
5137.6419018974
  0
LWPOLYLINE
  5
3FF
330
1F
100
AcDbEntity
  8
0
  6
Continuous
 62
     7
100
AcDbPolyline
 90
        3
 70
   128
 43
0.0
 10
6154.0298461914
 20
4534.5709738084
 10
6154.6172324318
 20
4534.2330935528
 10
6155.0763083294
 20
4533.9675792255
  0
LWPOLYLINE
  5
400
330
1F
100
AcDbEntity
  8
0
  6
Continuous
 62
     7
100
AcDbPolyline
 90
        3
 70
   128
 43
0.0
 10
6154.0298461914
 20
4532.6171279647
 10
6154.6172324318
 20
4532.2792477091
 10
6155.0763083294
 20
4532.0137333818
  0
LWPOLYLINE
  5
401
330
1F
100
AcDbEntity
  8
0
  6
Continuous
 62
     7
100
AcDbPolyline
 90
        3
 70
   128
 43
0.0
 10
6154.0298461914
 20
4530.6632816554
 10
6154.6172324318
 20
4530.3254013998
 10
6155.0763083294
 20
4530.0598870725
  0
LWPOLYLINE
  5
402
330
1F
100
AcDbEntity
  8
0
  6
Continuous
 62
     7
100
AcDbPolyline
 90
        3
 70
   128
 43
0.0
 10
6154.0298461914
 20
4528.709435346
 10
6154.6172326298
 20
4528.3715554328
 10
6155.0763083294
 20
4528.1060407632
  0
LWPOLYLINE
  5
403
330
1F
100
AcDbEntity
  8
0
  6
Continuous
 62
     7
100
AcDbPolyline
 90
        3
 70
   128
 43
0.0
 10
6172.9431152344
 20
4532.9813887127
 10
6173.5384327118
 20
4533.3245000327
 10
6174.0045753911
 20
4533.5940508865
  0
LWPOLYLINE
  5
404
330
1F
100
AcDbEntity
  8
0
  6
Continuous
 62
     7
100
AcDbPolyline
 90
        3
 70
   128
 43
0.0
 10
6172.9431152344
 20
4531.0275424034
 10
6173.5384325142
 20
4531.3706540651
 10
6174.0045753911
 20
4531.6402045772
  0
LWPOLYLINE
  5
405
330
1F
100
AcDbEntity
  8
0
  6
Continuous
 62
     7
100
AcDbPolyline
 90
        3
 70
   128
 43
0.0
 10
6172.9431152344
 20
4529.0736960941
 10
6173.5384325142
 20
4529.4168077558
 10
6174.0045753911
 20
4529.6863582679
  0
LWPOLYLINE
  5
406
330
1F
100
AcDbEntity
  8
0
  6
Continuous
 62
     7
100
AcDbPolyline
 90
        3
 70
   128
 43
0.0
 10
6172.9431152344
 20
4527.1198500176
 10
6173.5384325142
 20
4527.4629616793
 10
6174.0045753911
 20
4527.7325121914
  0
LWPOLYLINE
  5
407
330
1F
100
AcDbEntity
  8
0
  6
Continuous
 62
     7
100
AcDbPolyline
 90
        3
 70
   128
 43
0.0
 10
6172.9431152344
 20
4534.9352345564
 10
6173.3238573035
 20
4535.1542545886
 10
6173.6213994816
 20
4535.3263201886
  0
LWPOLYLINE
  5
408
330
1F
100
AcDbEntity
  8
0
  6
Continuous
 62
     7
100
AcDbPolyline
 90
        3
 70
   128
 43
0.0
 10
6155.0903320312
 20
4533.5086290487
 10
6154.5007294025
 20
4533.1655175706
 10
6154.0345830515
 20
4532.8959715315
  0
LWPOLYLINE
  5
409
330
1F
100
AcDbEntity
  8
0
  6
Continuous
 62
     7
100
AcDbPolyline
 90
        3
 70
   128
 43
0.0
 10
6155.0903320312
 20
4531.554783205
 10
6154.5007294025
 20
4531.2116717269
 10
6154.0345830515
 20
4530.9421256878
  0
LWPOLYLINE
  5
40A
330
1F
100
AcDbEntity
  8
0
  6
Continuous
 62
     7
100
AcDbPolyline
 90
        3
 70
   128
 43
0.0
 10
6155.0903320312
 20
4529.6009368957
 10
6154.5007292049
 20
4529.2578257593
 10
6154.0345830515
 20
4528.9882793785
  0
LWPOLYLINE
  5
40B
330
1F
100
AcDbEntity
  8
0
  6
Continuous
 62
     7
100
AcDbPolyline
 90
        3
 70
   128
 43
0.0
 10
6155.0903320312
 20
4527.6470908192
 10
6154.5007293531
 20
4527.3039795569
 10
6154.0345830515
 20
4527.0344335348
  0
LWPOLYLINE
  5
40C
330
1F
100
AcDbEntity
  8
0
  6
Continuous
 62
     7
100
AcDbPolyline
 90
        3
 70
   128
 43
0.0
 10
6173.999786377
 20
4531.9190486096
 10
6173.419546087
 20
4532.2563937951
 10
6172.9612035349
 20
4532.5214885869
  0
LWPOLYLINE
  5
40D
330
1F
100
AcDbEntity
  8
0
  6
Continuous
 62
     7
100
AcDbPolyline
 90
        3
 70
   128
 43
0.0
 10
6173.999786377
 20
4529.965202766
 10
6173.4195461877
 20
4530.3025478647
 10
6172.9612035349
 20
4530.5676422775
  0
LWPOLYLINE
  5
40E
330
1F
100
AcDbEntity
  8
0
  6
Continuous
 62
     7
100
AcDbPolyline
 90
        3
 70
   128
 43
0.0
 10
6173.999786377
 20
4528.0113564566
 10
6173.4195461877
 20
4528.3487015554
 10
6172.9612035349
 20
4528.6137959682
  0
LWPOLYLINE
  5
40F
330
1F
100
AcDbEntity
  8
0
  6
Continuous
 62
     7
100
AcDbPolyline
 90
        3
 70
   128
 43
0.0
 10
6173.999786377
 20
4526.0575103801
 10
6173.4195461374
 20
4526.3948555222
 10
6172.9612035349
 20
4526.6599501245
  0
LWPOLYLINE
  5
410
330
1F
100
AcDbEntity
  8
0
  6
Continuous
 62
     7
100
AcDbPolyline
 90
        3
 70
   128
 43
0.0
 10
6173.999786377
 20
4533.8728953846
 10
6173.4195462884
 20
4534.2102403967
 10
6172.9612035349
 20
4534.4753344305
  0
LWPOLYLINE
  5
411
330
1F
100
AcDbEntity
  8
0
  6
Continuous
 62
     7
100
AcDbPolyline
 90
        3
 70
   128
 43
0.0
 10
6155.0903320312
 20
4535.4624748923
 10
6154.5007292049
 20
4535.1193642775
 10
6154.0345830515
 20
4534.8498183065
  0
ARC
  5
412
330
1F
100
AcDbEntity
  8
0
  6
Continuous
 62
     7
100
AcDbCircle
 10
6403.1799892687
 20
4387.5483743349
 30
0.0
 40
6.999028866324282
100
AcDbArc
 50
283.3224743818
 51
317.3762778325
  0
ARC
  5
413
330
1F
100
AcDbEntity
  8
0
  6
Continuous
 62
     7
100
AcDbCircle
 10
6414.3467851778
 20
4387.5594333488
 30
0.0
 40
7.013085887016606
100
AcDbArc
 50
222.6408218409
 51
256.5849606742
  0
ARC
  5
414
330
1F
100
AcDbEntity
  8
0
  6
Continuous
 62
     7
100
AcDbCircle
 10
6404.4469790073
 20
4377.6576937998
 30
0.0
 40
7.000676887848453
100
AcDbArc
 50
13.3423528341
 51
47.3745606696
  0
ARC
  5
415
330
1F
100
AcDbEntity
  8
0
  6
Continuous
 62
     7
100
AcDbCircle
 10
6413.0847177299
 20
4377.6466445278
 30
0.0
 40
7.018185394183934
100
AcDbArc
 50
132.647537248
 51
166.5988331421
  0
ARC
  5
416
330
1F
100
AcDbEntity
  8
0
  6
Continuous
 62
     7
100
AcDbCircle
 10
6443.0945871073
 20
4347.6384987791
 30
0.0
 40
7.030863464452238
100
AcDbArc
 50
132.6617220422
 51
166.5552054639
  0
ARC
  5
417
330
1F
100
AcDbEntity
  8
0
  6
Continuous
 62
     7
100
AcDbCircle
 10
6443.0952745353
 20
4358.8373032176
 30
0.0
 40
7.031625798544524
100
AcDbArc
 50
193.4466873296
 51
227.3363851643
  0
ARC
  5
418
330
1F
100
AcDbEntity
  8
0
  6
Continuous
 62
     7
100
AcDbCircle
 10
6433.1819177372
 20
4348.9293690478
 30
0.0
 40
6.996022187961919
100
AcDbArc
 50
42.6202886434
 51
76.6981979153
  0
ARC
  5
419
330
1F
100
AcDbEntity
  8
0
  6
Continuous
 62
     7
100
AcDbCircle
 10
6433.181501219
 20
4357.5467413967
 30
0.0
 40
6.99681055593282
100
AcDbArc
 50
283.3037806173
 51
317.377732824
  0
ARC
  5
41A
330
1F
100
AcDbEntity
  8
0
  6
Continuous
 62
     7
100
AcDbCircle
 10
6409.9171143494
 20
4382.0724931265
 30
0.0
 40
3.104240564233703
100
AcDbArc
 50
295.610476433
 51
334.5330475867
  0
ARC
  5
41B
330
1F
100
AcDbEntity
  8
0
  6
Continuous
 62
     7
100
AcDbCircle
 10
6407.622058814
 20
4382.0996280069
 30
0.0
 40
3.138498778917728
100
AcDbArc
 50
205.7180345335
 51
244.2312803809
  0
ARC
  5
41C
330
1F
100
AcDbEntity
  8
0
  6
Continuous
 62
     7
100
AcDbCircle
 10
6437.6260074659
 20
4352.1024320494
 30
0.0
 40
3.143273178100026
100
AcDbArc
 50
205.7328500618
 51
244.1686438806
  0
ARC
  5
41D
330
1F
100
AcDbEntity
  8
0
  6
Continuous
 62
     7
100
AcDbCircle
 10
6437.6316515526
 20
4354.3593639954
 30
0.0
 40
3.156881447975148
100
AcDbArc
 50
115.7748896231
 51
154.1120252336
  0
LWPOLYLINE
  5
41E
330
1F
100
AcDbEntity
  8
0
  6
Continuous
 62
     7
100
AcDbPolyline
 90
        5
 70
   128
 43
0.0
 10
6276.1192321777
 20
4256.7215185043
 10
6277.0185998109
 20
4258.8315156713
 10
6276.1628265844
 20
4260.9603855761
 10
6274.0489326137
 20
4261.8619110159
 10
6271.9160671206
 20
4261.0018530371
  0
LWPOLYLINE
  5
41F
330
1F
100
AcDbEntity
  8
0
  6
Continuous
 62
     7
100
AcDbPolyline
 90
        5
 70
   128
 43
0.0
 10
6271.915435791
 20
4261.0018530371
 10
6271.0188805969
 20
4258.8894771966
 10
6271.8757571761
 20
4256.7626440958
 10
6273.989300826
 20
4255.862207396
 10
6276.1206759168
 20
4256.7215185043
  0
LWPOLYLINE
  5
420
330
1F
100
AcDbEntity
  8
0
  6
Continuous
 62
     7
100
AcDbPolyline
 90
        5
 70
   128
 43
0.0
 10
6284.3017578125
 20
4251.3390162172
 10
6285.6100419656
 20
4253.222494235
 10
6285.2030643121
 20
4255.4835271573
 10
6283.3151975158
 20
4256.7938309756
 10
6281.0550965068
 20
4256.3845431248
  0
LWPOLYLINE
  5
421
330
1F
100
AcDbEntity
  8
0
  6
Continuous
 62
     7
100
AcDbPolyline
 90
        5
 70
   128
 43
0.0
 10
6281.0516357422
 20
4256.3845431248
 10
6279.7472982418
 20
4254.4985137683
 10
6280.155781032
 20
4252.2393124368
 10
6282.0436954917
 20
4250.9301050438
 10
6284.3020423225
 20
4251.3390162172
  0
LWPOLYLINE
  5
422
330
1F
100
AcDbEntity
  8
0
  6
Continuous
 62
     7
100
AcDbPolyline
 90
        5
 70
   128
 43
0.0
 10
6284.0461730957
 20
4241.1917443149
 10
6285.5580270172
 20
4243.0190606851
 10
6285.2713427645
 20
4245.3719001085
 10
6283.3692049141
 20
4246.7812545742
 10
6281.036779438
 20
4246.3726694458
  0
LWPOLYLINE
  5
423
330
1F
100
AcDbEntity
  8
0
  6
Continuous
 62
     7
100
AcDbPolyline
 90
        5
 70
   128
 43
0.0
 10
6281.0363769531
 20
4246.3726694458
 10
6279.7600193949
 20
4244.5508111109
 10
6280.0862994959
 20
4242.3530052297
 10
6281.8342250714
 20
4240.9835169058
 10
6284.0462924585
 20
4241.1917443149
  0
LWPOLYLINE
  5
424
330
1F
100
AcDbEntity
  8
0
  6
Continuous
 62
     7
100
AcDbPolyline
 90
        5
 70
   128
 43
0.0
 10
6276.1650085449
 20
4236.7680836869
 10
6277.0185498556
 20
4238.8971746297
 10
6276.116343813
 20
4241.0068524335
 10
6273.9831349278
 20
4241.8618513214
 10
6271.8696861339
 20
4240.9552671803
  0
LWPOLYLINE
  5
425
330
1F
100
AcDbEntity
  8
0
  6
Continuous
 62
     7
100
AcDbPolyline
 90
        5
 70
   128
 43
0.0
 10
6271.8696594238
 20
4240.9552671803
 10
6271.0189993589
 20
4238.8237995321
 10
6271.9222704336
 20
4236.7161944296
 10
6274.0550993198
 20
4235.8622829534
 10
6276.1670689731
 20
4236.7680836869
  0
LWPOLYLINE
  5
426
330
1F
100
AcDbEntity
  8
0
  6
Continuous
 62
     7
100
AcDbPolyline
 90
        5
 70
   128
 43
0.0
 10
6267.505645752
 20
4241.768860319
 10
6268.3582719242
 20
4243.899159859
 10
6267.452087364
 20
4246.0107594691
 10
6265.3183252666
 20
4246.8617937668
 10
6263.2086934281
 20
4245.9545078081
  0
LWPOLYLINE
  5
427
330
1F
100
AcDbEntity
  8
0
  6
Continuous
 62
     7
100
AcDbPolyline
 90
        5
 70
   128
 43
0.0
 10
6263.2064819336
 20
4245.9545078081
 10
6262.3587720857
 20
4243.821755836
 10
6263.2659822908
 20
4241.7123269528
 10
6265.3996178472
 20
4240.8623445728
 10
6267.5075716514
 20
4241.768860319
  0
LWPOLYLINE
  5
428
330
1F
100
AcDbEntity
  8
0
  6
Continuous
 62
     7
100
AcDbPolyline
 90
        5
 70
   128
 43
0.0
 10
6267.4827575684
 20
4251.7462772261
 10
6268.3584906394
 20
4253.870059846
 10
6267.4745407884
 20
4255.9886508811
 10
6265.3525117795
 20
4256.8620568187
 10
6263.2309147023
 20
4255.9770983239
  0
LWPOLYLINE
  5
429
330
1F
100
AcDbEntity
  8
0
  6
Continuous
 62
     7
100
AcDbPolyline
 90
        5
 70
   128
 43
0.0
 10
6263.2293701172
 20
4255.9770983239
 10
6262.3585221609
 20
4253.8508746238
 10
6263.2434320431
 20
4251.7345097324
 10
6265.3653898841
 20
4250.8620707066
 10
6267.4853420104
 20
4251.7462772261
  0
LWPOLYLINE
  5
42A
330
1F
100
AcDbEntity
  8
0
  6
Continuous
 62
     7
100
AcDbPolyline
 90
        3
 70
   128
 43
0.0
 10
6164.0167236328
 20
4535.7171711274
 10
6159.1032301186
 20
4535.3256940837
 10
6155.9789387181
 20
4535.0301130437
  0
LINE
  5
42B
330
1F
100
AcDbEntity
  8
0
  6
Continuous
 62
     7
100
AcDbLine
 10
6156.192779541
 20
4536.0876633548
 30
0.0
 11
6164.0187559321
 21
4536.0876633548
 31
0.0
  0
LWPOLYLINE
  5
42C
330
1F
100
AcDbEntity
  8
0
  6
Continuous
 62
     7
100
AcDbPolyline
 90
        8
 70
   128
 43
0.0
 10
6162.5175476074
 20
4535.0301130437
 10
6172.8577608026
 20
4535.2835291883
 10
6173.5898162295
 20
4535.3311625623
 10
6173.6425017192
 20
4535.3431967214
 10
6173.6447244425
 20
4535.3452171174
 10
6173.6449635448
 20
4535.3472424376
 10
6173.6166481545
 20
4535.358120088
 10
6173.5592541888
 20
4535.3690725513
  0
LWPOLYLINE
  5
42D
330
1F
100
AcDbEntity
  8
0
  6
Continuous
 62
     7
100
AcDbPolyline
 90
        7
 70
   128
 43
0.0
 10
6155.101776123
 20
4535.9885464185
 10
6155.0865006466
 20
4535.9979449299
 10
6155.0810059769
 20
4536.0026406374
 10
6155.0799765397
 20
4536.0049869832
 10
6155.0803618417
 20
4536.0073320871
 10
6155.0898428173
 20
4536.0135782769
 10
6156.193806012
 20
4536.0876633548
  0
LWPOLYLINE
  5
42E
330
1F
100
AcDbEntity
  8
0
  6
Continuous
 62
     7
100
AcDbPolyline
 90
        5
 70
   128
 43
0.0
 10
6172.8515625
 20
4534.935932117
 10
6163.752738929
 20
4534.4569658438
 10
6155.7113211863
 20
4534.0968065559
 10
6155.1790372115
 20
4534.0075528028
 10
6155.1832688644
 20
4533.9771019988
  0
LWPOLYLINE
  5
42F
330
1F
100
AcDbEntity
  8
0
  6
Continuous
 62
     7
100
AcDbPolyline
 90
        5
 70
   128
 43
0.0
 10
6172.8515625
 20
4532.9820862733
 10
6163.7527389446
 20
4532.503119094
 10
6155.711321179
 20
4532.142960336
 10
6155.1790372124
 20
4532.0537059753
 10
6155.1832688644
 20
4532.0232552238
  0
LWPOLYLINE
  5
430
330
1F
100
AcDbEntity
  8
0
  6
Continuous
 62
     7
100
AcDbPolyline
 90
        5
 70
   128
 43
0.0
 10
6172.8515625
 20
4531.028239964
 10
6163.752738937
 20
4530.5492732314
 10
6155.7113211827
 20
4530.1891142147
 10
6155.1790372119
 20
4530.0998601579
 10
6155.1832688644
 20
4530.0694093802
  0
LWPOLYLINE
  5
431
330
1F
100
AcDbEntity
  8
0
  6
Continuous
 62
     7
100
AcDbPolyline
 90
        5
 70
   128
 43
0.0
 10
6172.8515625
 20
4529.0743936547
 10
6163.752738943
 20
4528.5954269801
 10
6155.7113211866
 20
4528.2352680826
 10
6155.1790372115
 20
4528.1460143422
 10
6155.1832688644
 20
4528.1155635365
  0
LWPOLYLINE
  5
432
330
1F
100
AcDbEntity
  8
0
  6
Continuous
 62
     7
100
AcDbPolyline
 90
        3
 70
   128
 43
0.0
 10
6172.8515625
 20
4527.1205475782
 10
6166.227865921
 20
4526.7276260484
 10
6157.9750461176
 20
4526.4201494627
  0
LWPOLYLINE
  5
433
330
1F
100
AcDbEntity
  8
0
  6
Continuous
 62
     7
100
AcDbPolyline
 90
        7
 70
   128
 43
0.0
 10
6162.5175476074
 20
4535.0301130437
 10
6154.6098010656
 20
4534.6980990614
 10
6154.135393785
 20
4534.6367593256
 10
6154.117789474
 20
4534.6263713811
 10
6154.1153612636
 20
4534.6211534846
 10
6154.1164444074
 20
4534.6159224066
 10
6154.1586352184
 20
4534.5878866263
  0
LWPOLYLINE
  5
434
330
1F
100
AcDbEntity
  8
0
  6
Continuous
 62
     7
100
AcDbPolyline
 90
       12
 70
   128
 43
0.0
 10
6173.9349365234
 20
4533.6106023513
 10
6174.0077147822
 20
4533.5875879037
 10
6174.0098202495
 20
4533.5837752491
 10
6174.0086999245
 20
4533.5799696783
 10
6173.256370758
 20
4533.4892000228
 10
6164.0151245306
 20
4533.1224345152
 10
6154.7566725042
 20
4532.7557344595
 10
6154.1511677236
 20
4532.6880072913
 10
6154.1224295379
 20
4532.676557257
 10
6154.1165507993
 20
4532.6708004097
 10
6154.1154204945
 20
4532.6650256265
 10
6154.1586352184
 20
4532.6340407827
  0
LWPOLYLINE
  5
435
330
1F
100
AcDbEntity
  8
0
  6
Continuous
 62
     7
100
AcDbPolyline
 90
       12
 70
   128
 43
0.0
 10
6173.9349365234
 20
4531.6567555763
 10
6174.007714784
 20
4531.6337422329
 10
6174.009820251
 20
4531.6299297059
 10
6174.0086999258
 20
4531.6261242444
 10
6173.2563707466
 20
4531.5353541789
 10
6164.0151245345
 20
4531.1685878459
 10
6154.756672503
 20
4530.8018881664
 10
6154.1511677234
 20
4530.7341609835
 10
6154.1224295379
 20
4530.7227109469
 10
6154.1165507994
 20
4530.7169540989
 10
6154.1154204946
 20
4530.7111793155
 10
6154.1586352184
 20
4530.6801944733
  0
LWPOLYLINE
  5
436
330
1F
100
AcDbEntity
  8
0
  6
Continuous
 62
     7
100
AcDbPolyline
 90
       12
 70
   128
 43
0.0
 10
6173.9349365234
 20
4529.7029097327
 10
6174.0077147831
 20
4529.6798958371
 10
6174.0098202503
 20
4529.6760832464
 10
6174.0086999251
 20
4529.6722777303
 10
6173.2563707519
 20
4529.5815078697
 10
6164.0151245242
 20
4529.2147420979
 10
6154.7566725039
 20
4528.8480418537
 10
6154.1511677235
 20
4528.7803146738
 10
6154.1224295379
 20
4528.7688646377
 10
6154.1165507994
 20
4528.7631077899
 10
6154.1154204945
 20
4528.7573330066
 10
6154.1586352184
 20
4528.726348164
  0
LWPOLYLINE
  5
437
330
1F
100
AcDbEntity
  8
0
  6
Continuous
 62
     7
100
AcDbPolyline
 90
        7
 70
   128
 43
0.0
 10
6173.9349365234
 20
4527.7490634233
 10
6174.0094172076
 20
4527.7236602266
 10
6174.0093145137
 20
4527.7194548831
 10
6174.0053603049
 20
4527.7152576196
 10
6173.9769406538
 20
4527.7040982812
 10
6172.3742183473
 20
4527.569338177
 10
6157.2603044704
 20
4527.0307271038
  0
LWPOLYLINE
  5
438
330
1F
100
AcDbEntity
  8
0
  6
Continuous
 62
     7
100
AcDbPolyline
 90
        4
 70
   128
 43
0.0
 10
6155.9753417969
 20
4535.0301130437
 10
6154.1910281939
 20
4534.8819956678
 10
6154.1488954795
 20
4534.856948378
 10
6154.139740546
 20
4534.8317934894
  0
LWPOLYLINE
  5
439
330
1F
100
AcDbEntity
  8
0
  6
Continuous
 62
     7
100
AcDbPolyline
 90
        5
 70
   128
 43
0.0
 10
6173.9807128906
 20
4533.8552747615
 10
6164.0134965187
 20
4533.3669518358
 10
6154.7582261737
 20
4533.0003009764
 10
6154.1537703816
 20
4532.9089455299
 10
6154.139740546
 20
4532.8779476457
  0
LWPOLYLINE
  5
43A
330
1F
100
AcDbEntity
  8
0
  6
Continuous
 62
     7
100
AcDbPolyline
 90
        5
 70
   128
 43
0.0
 10
6173.9807128906
 20
4531.9014284522
 10
6164.0134965157
 20
4531.4131056302
 10
6154.7582261642
 20
4531.0464552188
 10
6154.1537703832
 20
4530.9550991247
 10
6154.139740546
 20
4530.9241013364
  0
LWPOLYLINE
  5
43B
330
1F
100
AcDbEntity
  8
0
  6
Continuous
 62
     7
100
AcDbPolyline
 90
        5
 70
   128
 43
0.0
 10
6173.9807128906
 20
4529.9475826085
 10
6164.0134965121
 20
4529.4592596636
 10
6154.7582261711
 20
4529.0926085834
 10
6154.153770382
 20
4529.001252878
 10
6154.139740546
 20
4528.970255027
  0
LWPOLYLINE
  5
43C
330
1F
100
AcDbEntity
  8
0
  6
Continuous
 62
     7
100
AcDbPolyline
 90
        5
 70
   128
 43
0.0
 10
6173.9807128906
 20
4527.9937362992
 10
6164.0134965139
 20
4527.5054134147
 10
6154.7582261676
 20
4527.1387626699
 10
6154.1537703826
 20
4527.0474067702
 10
6154.139740546
 20
4527.0164089505
  0
LWPOLYLINE
  5
43D
330
1F
100
AcDbEntity
  8
0
  6
Continuous
 62
     7
100
AcDbPolyline
 90
        3
 70
   128
 43
0.0
 10
6173.9807128906
 20
4526.0398901063
 10
6166.7398073997
 20
4525.6366531302
 10
6157.2603268221
 20
4525.3211112921
  0
LWPOLYLINE
  5
43E
330
1F
100
AcDbEntity
  8
0
  6
Continuous
 62
     7
100
AcDbPolyline
 90
        5
 70
   128
 43
0.0
 10
6164.0167236328
 20
4535.9310745024
 10
6157.9016429119
 20
4535.6967668882
 10
6155.3459086487
 20
4535.5212657129
 10
6155.2451265724
 20
4535.4918108839
 10
6155.2199704245
 20
4535.4621256464
  0
LWPOLYLINE
  5
43F
330
1F
100
AcDbEntity
  8
0
  6
Continuous
 62
     7
100
AcDbPolyline
 90
        6
 70
   128
 43
0.0
 10
6172.9278564453
 20
4534.4658517041
 10
6164.3012890907
 20
4533.9870277811
 10
6158.0046289468
 20
4533.7478921802
 10
6155.3528233105
 20
4533.568648372
 10
6155.2462030298
 20
4533.5385869603
 10
6155.2199704245
 20
4533.5082798027
  0
LWPOLYLINE
  5
440
330
1F
100
AcDbEntity
  8
0
  6
Continuous
 62
     7
100
AcDbPolyline
 90
        6
 70
   128
 43
0.0
 10
6172.9278564453
 20
4532.5120058604
 10
6164.301289082
 20
4532.0331819547
 10
6158.0046289476
 20
4531.7940459831
 10
6155.3528233103
 20
4531.6148020855
 10
6155.2462030304
 20
4531.5847406245
 10
6155.2199704245
 20
4531.5544334934
  0
LWPOLYLINE
  5
441
330
1F
100
AcDbEntity
  8
0
  6
Continuous
 62
     7
100
AcDbPolyline
 90
        6
 70
   128
 43
0.0
 10
6172.9278564453
 20
4530.5581595511
 10
6164.301289082
 20
4530.0793356461
 10
6158.0046289476
 20
4529.8401996737
 10
6155.3528233103
 20
4529.6609557762
 10
6155.2462030304
 20
4529.6308943152
 10
6155.2199704245
 20
4529.600587184
  0
LWPOLYLINE
  5
442
330
1F
100
AcDbEntity
  8
0
  6
Continuous
 62
     7
100
AcDbPolyline
 90
        6
 70
   128
 43
0.0
 10
6172.9278564453
 20
4528.6043132417
 10
6164.3012890868
 20
4528.125489317
 10
6158.0046289471
 20
4527.8863535651
 10
6155.3528233101
 20
4527.7071097007
 10
6155.2462030304
 20
4527.6770482375
 10
6155.2199704245
 20
4527.6467411075
  0
LWPOLYLINE
  5
443
330
1F
100
AcDbEntity
  8
0
  6
Continuous
 62
     7
100
AcDbPolyline
 90
        3
 70
   128
 43
0.0
 10
6172.9278564453
 20
4526.6504671652
 10
6166.4484328009
 20
4526.2471143057
 10
6157.9750535682
 20
4525.9316880018
  0
ENDSEC
  0
SECTION
  2
OBJECTS
  0
DICTIONARY
  5
C
330
0
100
AcDbDictionary
281
     1
  3
ACAD_GROUP
350
D
  3
ACAD_LAYOUT
350
1A
  3
ACAD_MLINESTYLE
350
17
  3
ACAD_PLOTSETTINGS
350
19
  3
ACAD_PLOTSTYLENAME
350
E
  3
ACAD_SCALELIST
350
47
  3
DWGPROPS
350
444
  0
DICTIONARY
  5
D
102
{ACAD_REACTORS
330
C
102
}
330
C
100
AcDbDictionary
281
     1
  0
DICTIONARY
  5
1A
102
{ACAD_REACTORS
330
C
102
}
330
C
100
AcDbDictionary
281
     1
  3
Layout1
350
1E
  3
Layout2
350
26
  3
Model
350
22
  0
DICTIONARY
  5
17
102
{ACAD_REACTORS
330
C
102
}
330
C
100
AcDbDictionary
281
     1
  3
Standard
350
18
  0
DICTIONARY
  5
19
102
{ACAD_REACTORS
330
C
102
}
330
C
100
AcDbDictionary
281
     1
  0
ACDBDICTIONARYWDFLT
  5
E
102
{ACAD_REACTORS
330
C
102
}
330
C
100
AcDbDictionary
281
     1
  3
Normal
350
F
100
AcDbDictionaryWithDefault
340
F
  0
DICTIONARY
  5
47
102
{ACAD_REACTORS
330
C
102
}
330
C
100
AcDbDictionary
281
     1
  3
A0
350
48
  3
A1
350
49
  3
A2
350
4A
  3
A3
350
4B
  3
A4
350
4C
  3
A5
350
4D
  3
A6
350
4E
  3
A7
350
4F
  3
A8
350
50
  3
A9
350
51
  3
B0
350
52
  3
B1
350
53
  3
B2
350
54
  3
B3
350
55
  3
B4
350
56
  3
B5
350
57
  3
B6
350
58
  3
B7
350
59
  3
B8
350
5A
  3
B9
350
5B
  3
C0
350
5C
  3
C1
350
5D
  3
C2
350
5E
  3
C3
350
5F
  3
C4
350
60
  3
C5
350
61
  3
C6
350
62
  3
C7
350
63
  3
C8
350
64
  3
C9
350
65
  3
D0
350
66
  3
D1
350
67
  3
D2
350
68
  0
XRECORD
  5
444
102
{ACAD_REACTORS
330
C
102
}
330
C
100
AcDbXrecord
280
     1
  1
DWGPROPS COOKIE
  2

  3

  4

  6

  7

  8
radek.stransky
  9

300
=
301
=
302
=
303
=
304
=
305
=
306
=
307
=
308
=
309
=
 40
0.0
 41
2459096.460506377
 42
2459096.460547349
  1

 90
        0
  0
LAYOUT
  5
1E
102
{ACAD_REACTORS
330
1A
102
}
330
1A
100
AcDbPlotSettings
  1

  2
none_device
  4

  6

 40
0.0
 41
0.0
 42
0.0
 43
0.0
 44
0.0
 45
0.0
 46
0.0
 47
0.0
 48
0.0
 49
0.0
140
0.0
141
0.0
142
1.0
143
1.0
 70
   688
 72
     1
 73
     0
 74
     5
  7

 75
    16
147
1.0
148
0.0
149
0.0
100
AcDbLayout
  1
Layout1
 70
     1
 71
     1
 10
0.0
 20
0.0
 11
420.0
 21
297.0
 12
0.0
 22
0.0
 32
0.0
 14
1.0000000000E+20
 24
1.0000000000E+20
 34
1.0000000000E+20
 15
-1.0000000000E+20
 25
-1.0000000000E+20
 35
-1.0000000000E+20
146
0.0
 13
0.0
 23
0.0
 33
0.0
 16
1.0
 26
0.0
 36
0.0
 17
0.0
 27
1.0
 37
0.0
 76
     0
330
1B
  0
LAYOUT
  5
26
102
{ACAD_REACTORS
330
1A
102
}
330
1A
100
AcDbPlotSettings
  1

  2
none_device
  4

  6

 40
0.0
 41
0.0
 42
0.0
 43
0.0
 44
0.0
 45
0.0
 46
0.0
 47
0.0
 48
0.0
 49
0.0
140
0.0
141
0.0
142
1.0
143
1.0
 70
   688
 72
     1
 73
     0
 74
     5
  7

 75
    16
147
1.0
148
0.0
149
0.0
100
AcDbLayout
  1
Layout2
 70
     1
 71
     2
 10
0.0
 20
0.0
 11
0.0
 21
0.0
 12
0.0
 22
0.0
 32
0.0
 14
0.0
 24
0.0
 34
0.0
 15
0.0
 25
0.0
 35
0.0
146
0.0
 13
0.0
 23
0.0
 33
0.0
 16
1.0
 26
0.0
 36
0.0
 17
0.0
 27
1.0
 37
0.0
 76
     0
330
23
  0
LAYOUT
  5
22
102
{ACAD_REACTORS
330
1A
102
}
330
1A
100
AcDbPlotSettings
  1

  2
none_device
  4
ANSI_A_(11.00_x_8.50_Inches)
  6

 40
6.35
 41
19.05
 42
6.35000508
 43
19.05000254
 44
279.4
 45
215.9
 46
-881.5523694851
 47
-632.0855288661
 48
0.0
 49
0.0
140
0.0
141
0.0
142
0.0059489953
143
1.0
 70
  1696
 72
     0
 73
     0
 74
     0
  7

 75
     0
147
0.0179189148
148
-1300.4909072572
149
0.0
100
AcDbLayout
  1
Model
 70
     1
 71
     0
 10
0.0
 20
0.0
 11
420.0
 21
297.0
 12
0.0
 22
0.0
 32
0.0
 14
6024.018755336
 24
4064.1748529002
 34
0.0
 15
7409.1020527752
 25
5478.6994259825
 35
0.0
146
0.0
 13
0.0
 23
0.0
 33
0.0
 16
1.0
 26
0.0
 36
0.0
 17
0.0
 27
1.0
 37
0.0
 76
     0
330
1F
331
29
  0
MLINESTYLE
  5
18
102
{ACAD_REACTORS
330
17
102
}
330
17
100
AcDbMlineStyle
  2
Standard
 70
     0
  3

 62
   256
 51
90.0
 52
90.0
 71
     2
 49
0.5
 62
   256
  6
BYLAYER
 49
-0.5
 62
   256
  6
BYLAYER
  0
ACDBPLACEHOLDER
  5
F
102
{ACAD_REACTORS
330
E
102
}
330
E
  0
SCALE
  5
48
102
{ACAD_REACTORS
330
47
102
}
330
47
100
AcDbScale
 70
     0
300
1:1
140
1.0
141
1.0
290
     1
  0
SCALE
  5
49
102
{ACAD_REACTORS
330
47
102
}
330
47
100
AcDbScale
 70
     0
300
1:2
140
1.0
141
2.0
290
     0
  0
SCALE
  5
4A
102
{ACAD_REACTORS
330
47
102
}
330
47
100
AcDbScale
 70
     0
300
1:4
140
1.0
141
4.0
290
     0
  0
SCALE
  5
4B
102
{ACAD_REACTORS
330
47
102
}
330
47
100
AcDbScale
 70
     0
300
1:5
140
1.0
141
5.0
290
     0
  0
SCALE
  5
4C
102
{ACAD_REACTORS
330
47
102
}
330
47
100
AcDbScale
 70
     0
300
1:8
140
1.0
141
8.0
290
     0
  0
SCALE
  5
4D
102
{ACAD_REACTORS
330
47
102
}
330
47
100
AcDbScale
 70
     0
300
1:10
140
1.0
141
10.0
290
     0
  0
SCALE
  5
4E
102
{ACAD_REACTORS
330
47
102
}
330
47
100
AcDbScale
 70
     0
300
1:16
140
1.0
141
16.0
290
     0
  0
SCALE
  5
4F
102
{ACAD_REACTORS
330
47
102
}
330
47
100
AcDbScale
 70
     0
300
1:20
140
1.0
141
20.0
290
     0
  0
SCALE
  5
50
102
{ACAD_REACTORS
330
47
102
}
330
47
100
AcDbScale
 70
     0
300
1:30
140
1.0
141
30.0
290
     0
  0
SCALE
  5
51
102
{ACAD_REACTORS
330
47
102
}
330
47
100
AcDbScale
 70
     0
300
1:40
140
1.0
141
40.0
290
     0
  0
SCALE
  5
52
102
{ACAD_REACTORS
330
47
102
}
330
47
100
AcDbScale
 70
     0
300
1:50
140
1.0
141
50.0
290
     0
  0
SCALE
  5
53
102
{ACAD_REACTORS
330
47
102
}
330
47
100
AcDbScale
 70
     0
300
1:100
140
1.0
141
100.0
290
     0
  0
SCALE
  5
54
102
{ACAD_REACTORS
330
47
102
}
330
47
100
AcDbScale
 70
     0
300
2:1
140
2.0
141
1.0
290
     0
  0
SCALE
  5
55
102
{ACAD_REACTORS
330
47
102
}
330
47
100
AcDbScale
 70
     0
300
4:1
140
4.0
141
1.0
290
     0
  0
SCALE
  5
56
102
{ACAD_REACTORS
330
47
102
}
330
47
100
AcDbScale
 70
     0
300
8:1
140
8.0
141
1.0
290
     0
  0
SCALE
  5
57
102
{ACAD_REACTORS
330
47
102
}
330
47
100
AcDbScale
 70
     0
300
10:1
140
10.0
141
1.0
290
     0
  0
SCALE
  5
58
102
{ACAD_REACTORS
330
47
102
}
330
47
100
AcDbScale
 70
     0
300
100:1
140
100.0
141
1.0
290
     0
  0
SCALE
  5
59
102
{ACAD_REACTORS
330
47
102
}
330
47
100
AcDbScale
 70
     0
300
1/128" = 1'-0"
140
0.0078125
141
12.0
290
     0
  0
SCALE
  5
5A
102
{ACAD_REACTORS
330
47
102
}
330
47
100
AcDbScale
 70
     0
300
1/64" = 1'-0"
140
0.015625
141
12.0
290
     0
  0
SCALE
  5
5B
102
{ACAD_REACTORS
330
47
102
}
330
47
100
AcDbScale
 70
     0
300
1/32" = 1'-0"
140
0.03125
141
12.0
290
     0
  0
SCALE
  5
5C
102
{ACAD_REACTORS
330
47
102
}
330
47
100
AcDbScale
 70
     0
300
1/16" = 1'-0"
140
0.0625
141
12.0
290
     0
  0
SCALE
  5
5D
102
{ACAD_REACTORS
330
47
102
}
330
47
100
AcDbScale
 70
     0
300
3/32" = 1'-0"
140
0.09375
141
12.0
290
     0
  0
SCALE
  5
5E
102
{ACAD_REACTORS
330
47
102
}
330
47
100
AcDbScale
 70
     0
300
1/8" = 1'-0"
140
0.125
141
12.0
290
     0
  0
SCALE
  5
5F
102
{ACAD_REACTORS
330
47
102
}
330
47
100
AcDbScale
 70
     0
300
3/16" = 1'-0"
140
0.1875
141
12.0
290
     0
  0
SCALE
  5
60
102
{ACAD_REACTORS
330
47
102
}
330
47
100
AcDbScale
 70
     0
300
1/4" = 1'-0"
140
0.25
141
12.0
290
     0
  0
SCALE
  5
61
102
{ACAD_REACTORS
330
47
102
}
330
47
100
AcDbScale
 70
     0
300
3/8" = 1'-0"
140
0.375
141
12.0
290
     0
  0
SCALE
  5
62
102
{ACAD_REACTORS
330
47
102
}
330
47
100
AcDbScale
 70
     0
300
1/2" = 1'-0"
140
0.5
141
12.0
290
     0
  0
SCALE
  5
63
102
{ACAD_REACTORS
330
47
102
}
330
47
100
AcDbScale
 70
     0
300
3/4" = 1'-0"
140
0.75
141
12.0
290
     0
  0
SCALE
  5
64
102
{ACAD_REACTORS
330
47
102
}
330
47
100
AcDbScale
 70
     0
300
1" = 1'-0"
140
1.0
141
12.0
290
     0
  0
SCALE
  5
65
102
{ACAD_REACTORS
330
47
102
}
330
47
100
AcDbScale
 70
     0
300
1-1/2" = 1'-0"
140
1.5
141
12.0
290
     0
  0
SCALE
  5
66
102
{ACAD_REACTORS
330
47
102
}
330
47
100
AcDbScale
 70
     0
300
3" = 1'-0"
140
3.0
141
12.0
290
     0
  0
SCALE
  5
67
102
{ACAD_REACTORS
330
47
102
}
330
47
100
AcDbScale
 70
     0
300
6" = 1'-0"
140
6.0
141
12.0
290
     0
  0
SCALE
  5
68
102
{ACAD_REACTORS
330
47
102
}
330
47
100
AcDbScale
 70
     0
300
1'-0" = 1'-0"
140
12.0
141
12.0
290
     0
  0
ENDSEC
  0
EOF
