  0
SECTION
  2
HEADER
  9
$ACADVER
  1
AC1015
  9
$ACADMAINTVER
 70
     6
  9
$DWGCODEPAGE
  3
ANSI_1250
  9
$INSBASE
 10
0.0
 20
0.0
 30
0.0
  9
$EXTMIN
 10
6980.1970862582
 20
4810.3860951244
 30
0.0
  9
$EXTMAX
 10
7429.5492584827
 20
5301.4888314157
 30
0.0
  9
$LIMMIN
 10
0.0
 20
0.0
  9
$LIMMAX
 10
420.0
 20
297.0
  9
$ORTHOMODE
 70
     0
  9
$REGENMODE
 70
     1
  9
$FILLMODE
 70
     1
  9
$QTEXTMODE
 70
     0
  9
$MIRRTEXT
 70
     1
  9
$LTSCALE
 40
1.0
  9
$ATTMODE
 70
     1
  9
$TEXTSIZE
 40
3.5
  9
$TRACEWID
 40
1.0
  9
$TEXTSTYLE
  7
Standard
  9
$CLAYER
  8
0
  9
$CELTYPE
  6
ByLayer
  9
$CECOLOR
 62
   256
  9
$CELTSCALE
 40
1.0
  9
$DISPSILH
 70
     0
  9
$DIMSCALE
 40
1.0
  9
$DIMASZ
 40
3.302
  9
$DIMEXO
 40
0.0
  9
$DIMDLI
 40
3.75
  9
$DIMRND
 40
0.0
  9
$DIMDLE
 40
0.0
  9
$DIMEXE
 40
1.0
  9
$DIMTP
 40
0.0
  9
$DIMTM
 40
0.0
  9
$DIMTXT
 40
3.5
  9
$DIMCEN
 40
2.5
  9
$DIMTSZ
 40
0.0
  9
$DIMTOL
 70
     0
  9
$DIMLIM
 70
     0
  9
$DIMTIH
 70
     1
  9
$DIMTOH
 70
     1
  9
$DIMSE1
 70
     0
  9
$DIMSE2
 70
     0
  9
$DIMTAD
 70
     1
  9
$DIMZIN
 70
     0
  9
$DIMBLK
  1

  9
$DIMASO
 70
     1
  9
$DIMSHO
 70
     1
  9
$DIMPOST
  1

  9
$DIMAPOST
  1

  9
$DIMALT
 70
     0
  9
$DIMALTD
 70
     3
  9
$DIMALTF
 40
0.0393700787
  9
$DIMLFAC
 40
1.0
  9
$DIMTOFL
 70
     1
  9
$DIMTVP
 40
0.0
  9
$DIMTIX
 70
     0
  9
$DIMSOXD
 70
     0
  9
$DIMSAH
 70
     0
  9
$DIMBLK1
  1

  9
$DIMBLK2
  1

  9
$DIMSTYLE
  2
ISO-25
  9
$DIMCLRD
 70
     0
  9
$DIMCLRE
 70
     0
  9
$DIMCLRT
 70
     0
  9
$DIMTFAC
 40
1.0
  9
$DIMGAP
 40
1.524
  9
$DIMJUST
 70
     0
  9
$DIMSD1
 70
     0
  9
$DIMSD2
 70
     0
  9
$DIMTOLJ
 70
     0
  9
$DIMTZIN
 70
     0
  9
$DIMALTZ
 70
     0
  9
$DIMALTTZ
 70
     0
  9
$DIMUPT
 70
     0
  9
$DIMDEC
 70
     2
  9
$DIMTDEC
 70
     2
  9
$DIMALTU
 70
     2
  9
$DIMALTTD
 70
     3
  9
$DIMTXSTY
  7
Standard
  9
$DIMAUNIT
 70
     0
  9
$DIMADEC
 70
     2
  9
$DIMALTRND
 40
0.0
  9
$DIMAZIN
 70
     0
  9
$DIMDSEP
 70
    44
  9
$DIMATFIT
 70
     3
  9
$DIMFRAC
 70
     0
  9
$DIMLDRBLK
  1

  9
$DIMLUNIT
 70
     2
  9
$DIMLWD
 70
    -2
  9
$DIMLWE
 70
    -2
  9
$DIMTMOVE
 70
     0
  9
$LUNITS
 70
     2
  9
$LUPREC
 70
     2
  9
$SKETCHINC
 40
1.0
  9
$FILLETRAD
 40
10.0
  9
$AUNITS
 70
     0
  9
$AUPREC
 70
     2
  9
$MENU
  1
.
  9
$ELEVATION
 40
0.0
  9
$PELEVATION
 40
0.0
  9
$THICKNESS
 40
0.0
  9
$LIMCHECK
 70
     0
  9
$CHAMFERA
 40
0.0
  9
$CHAMFERB
 40
0.0
  9
$CHAMFERC
 40
0.0
  9
$CHAMFERD
 40
0.0
  9
$SKPOLY
 70
     0
  9
$TDCREATE
 40
2459095.545653079
  9
$TDUCREATE
 40
2459095.462319745
  9
$TDUPDATE
 40
2459095.545940752
  9
$TDUUPDATE
 40
2459095.462607419
  9
$TDINDWG
 40
0.0000000116
  9
$TDUSRTIMER
 40
0.0000000116
  9
$USRTIMER
 70
     1
  9
$ANGBASE
 50
0.0
  9
$ANGDIR
 70
     0
  9
$PDMODE
 70
     0
  9
$PDSIZE
 40
-1.0
  9
$PLINEWID
 40
0.0
  9
$SPLFRAME
 70
     0
  9
$SPLINETYPE
 70
     6
  9
$SPLINESEGS
 70
     8
  9
$HANDSEED
  5
2AC
  9
$SURFTAB1
 70
     6
  9
$SURFTAB2
 70
     6
  9
$SURFTYPE
 70
     6
  9
$SURFU
 70
     6
  9
$SURFV
 70
     6
  9
$UCSBASE
  2

  9
$UCSNAME
  2

  9
$UCSORG
 10
0.0
 20
0.0
 30
0.0
  9
$UCSXDIR
 10
1.0
 20
0.0
 30
0.0
  9
$UCSYDIR
 10
0.0
 20
1.0
 30
0.0
  9
$UCSORTHOREF
  2

  9
$UCSORTHOVIEW
 70
     0
  9
$UCSORGTOP
 10
0.0
 20
0.0
 30
0.0
  9
$UCSORGBOTTOM
 10
0.0
 20
0.0
 30
0.0
  9
$UCSORGLEFT
 10
0.0
 20
0.0
 30
0.0
  9
$UCSORGRIGHT
 10
0.0
 20
0.0
 30
0.0
  9
$UCSORGFRONT
 10
0.0
 20
0.0
 30
0.0
  9
$UCSORGBACK
 10
0.0
 20
0.0
 30
0.0
  9
$PUCSBASE
  2

  9
$PUCSNAME
  2

  9
$PUCSORG
 10
0.0
 20
0.0
 30
0.0
  9
$PUCSXDIR
 10
1.0
 20
0.0
 30
0.0
  9
$PUCSYDIR
 10
0.0
 20
1.0
 30
0.0
  9
$PUCSORTHOREF
  2

  9
$PUCSORTHOVIEW
 70
     0
  9
$PUCSORGTOP
 10
0.0
 20
0.0
 30
0.0
  9
$PUCSORGBOTTOM
 10
0.0
 20
0.0
 30
0.0
  9
$PUCSORGLEFT
 10
0.0
 20
0.0
 30
0.0
  9
$PUCSORGRIGHT
 10
0.0
 20
0.0
 30
0.0
  9
$PUCSORGFRONT
 10
0.0
 20
0.0
 30
0.0
  9
$PUCSORGBACK
 10
0.0
 20
0.0
 30
0.0
  9
$USERI1
 70
     0
  9
$USERI2
 70
     0
  9
$USERI3
 70
     0
  9
$USERI4
 70
     0
  9
$USERI5
 70
     0
  9
$USERR1
 40
0.0
  9
$USERR2
 40
0.0
  9
$USERR3
 40
0.0
  9
$USERR4
 40
0.0
  9
$USERR5
 40
0.0
  9
$WORLDVIEW
 70
     1
  9
$SHADEDGE
 70
     3
  9
$SHADEDIF
 70
    70
  9
$TILEMODE
 70
     1
  9
$MAXACTVP
 70
    64
  9
$PINSBASE
 10
0.0
 20
0.0
 30
0.0
  9
$PLIMCHECK
 70
     0
  9
$PEXTMIN
 10
1.0000000000E+20
 20
1.0000000000E+20
 30
1.0000000000E+20
  9
$PEXTMAX
 10
-1.0000000000E+20
 20
-1.0000000000E+20
 30
-1.0000000000E+20
  9
$PLIMMIN
 10
0.0
 20
0.0
  9
$PLIMMAX
 10
420.0
 20
297.0
  9
$UNITMODE
 70
     0
  9
$VISRETAIN
 70
     1
  9
$PLINEGEN
 70
     0
  9
$PSLTSCALE
 70
     1
  9
$TREEDEPTH
 70
  3020
  9
$CMLSTYLE
  2
Standard
  9
$CMLJUST
 70
     0
  9
$CMLSCALE
 40
20.0
  9
$PROXYGRAPHICS
 70
     1
  9
$MEASUREMENT
 70
     1
  9
$CELWEIGHT
370
    -1
  9
$ENDCAPS
280
     0
  9
$JOINSTYLE
280
     0
  9
$LWDISPLAY
290
     1
  9
$INSUNITS
 70
     4
  9
$HYPERLINKBASE
  1

  9
$STYLESHEET
  1

  9
$XEDIT
290
     1
  9
$CEPSNTYPE
380
     0
  9
$PSTYLEMODE
290
     1
  9
$FINGERPRINTGUID
  2
{24fe14e9-3151-49c8-9c11-829a49a057e1}
  9
$VERSIONGUID
  2
{FAEB1C32-E019-11D5-929B-00C0DF256EC4}
  9
$EXTNAMES
290
     1
  9
$PSVPSCALE
 40
0.0
  9
$OLESTARTUP
290
     0
  0
ENDSEC
  0
SECTION
  2
CLASSES
  0
CLASS
  1
ACDBDICTIONARYWDFLT
  2
AcDbDictionaryWithDefault
  3
ObjectDBX Classes
 90
        0
280
     0
281
     0
  0
CLASS
  1
VISUALSTYLE
  2
AcDbVisualStyle
  3
ObjectDBX Classes
 90
     4095
280
     0
281
     0
  0
CLASS
  1
MATERIAL
  2
AcDbMaterial
  3
ObjectDBX Classes
 90
     1153
280
     0
281
     0
  0
CLASS
  1
SCALE
  2
AcDbScale
  3
ObjectDBX Classes
 90
     1153
280
     0
281
     0
  0
CLASS
  1
TABLESTYLE
  2
AcDbTableStyle
  3
ObjectDBX Classes
 90
     4095
280
     0
281
     0
  0
CLASS
  1
MLEADERSTYLE
  2
AcDbMLeaderStyle
  3
ACDB_MLEADERSTYLE_CLASS
 90
     4095
280
     0
281
     0
  0
CLASS
  1
SUN
  2
AcDbSun
  3
SCENEOE
 90
     1153
280
     0
281
     0
  0
CLASS
  1
ACDBPLACEHOLDER
  2
AcDbPlaceHolder
  3
ObjectDBX Classes
 90
        0
280
     0
281
     0
  0
CLASS
  1
LAYOUT
  2
AcDbLayout
  3
ObjectDBX Classes
 90
        0
280
     0
281
     0
  0
ENDSEC
  0
SECTION
  2
TABLES
  0
TABLE
  2
VPORT
  5
8
330
0
100
AcDbSymbolTable
 70
     1
  0
VPORT
  5
29
330
8
100
AcDbSymbolTableRecord
100
AcDbViewportTableRecord
  2
*Active
 70
     0
 10
0.0
 20
0.0
 11
1.0
 21
1.0
 12
7204.8731723705
 22
5055.9374632701
 13
0.0
 23
0.0
 14
10.0
 24
10.0
 15
10.0
 25
10.0
 16
0.0
 26
0.0
 36
1.0
 17
0.0
 27
0.0
 37
0.0
 40
500.9247910171
 41
0.9149860895
 42
50.0
 43
0.0
 44
0.0
 50
0.0
 51
0.0
 71
     0
 72
   100
 73
     1
 74
     3
 75
     0
 76
     0
 77
     0
 78
     0
281
     0
 65
     1
110
0.0
120
0.0
130
0.0
111
1.0
121
0.0
131
0.0
112
0.0
122
1.0
132
0.0
 79
     0
146
0.0
  0
ENDTAB
  0
TABLE
  2
LTYPE
  5
5
330
0
100
AcDbSymbolTable
 70
     6
  0
LTYPE
  5
14
330
5
100
AcDbSymbolTableRecord
100
AcDbLinetypeTableRecord
  2
ByBlock
 70
     0
  3

 72
    65
 73
     0
 40
0.0
  0
LTYPE
  5
15
330
5
100
AcDbSymbolTableRecord
100
AcDbLinetypeTableRecord
  2
ByLayer
 70
     0
  3

 72
    65
 73
     0
 40
0.0
  0
LTYPE
  5
16
330
5
100
AcDbSymbolTableRecord
100
AcDbLinetypeTableRecord
  2
Continuous
 70
     0
  3
Solid line
 72
    65
 73
     0
 40
0.0
  0
LTYPE
  5
6E
330
5
100
AcDbSymbolTableRecord
100
AcDbLinetypeTableRecord
  2
HIDDEN
 70
     0
  3
Hidden __ __ __ __ __ __ __ __ __ __ __ __ __ __
 72
    65
 73
     2
 40
1.905
 49
1.27
 74
     0
 49
-0.635
 74
     0
  0
LTYPE
  5
6F
330
5
100
AcDbSymbolTableRecord
100
AcDbLinetypeTableRecord
  2
PHANTOM
 70
     0
  3
Phantom ______  __  __  ______  __  __  ______
 72
    65
 73
     6
 40
12.7
 49
6.35
 74
     0
 49
-1.27
 74
     0
 49
1.27
 74
     0
 49
-1.27
 74
     0
 49
1.27
 74
     0
 49
-1.27
 74
     0
  0
LTYPE
  5
70
330
5
100
AcDbSymbolTableRecord
100
AcDbLinetypeTableRecord
  2
CENTER
 70
     0
  3
Center ____ _ ____ _ ____ _ ____ _ ____ _ ____
 72
    65
 73
     4
 40
10.16
 49
6.35
 74
     0
 49
-1.27
 74
     0
 49
1.27
 74
     0
 49
-1.27
 74
     0
  0
LTYPE
  5
71
330
5
100
AcDbSymbolTableRecord
100
AcDbLinetypeTableRecord
  2
CENTERX2
 70
     0
  3
Center (2x) ________  __  ________  __  _____
 72
    65
 73
     4
 40
20.32
 49
12.7
 74
     0
 49
-2.54
 74
     0
 49
2.54
 74
     0
 49
-2.54
 74
     0
  0
LTYPE
  5
72
330
5
100
AcDbSymbolTableRecord
100
AcDbLinetypeTableRecord
  2
DOT2
 70
     0
  3
Dot (.5x) ........................................
 72
    65
 73
     2
 40
0.635
 49
0.0
 74
     0
 49
-0.635
 74
     0
  0
ENDTAB
  0
TABLE
  2
LAYER
  5
2
330
0
100
AcDbSymbolTable
 70
     1
  0
LAYER
  5
10
330
2
100
AcDbSymbolTableRecord
100
AcDbLayerTableRecord
  2
0
 70
     0
 62
     7
  6
Continuous
370
    -3
390
F
  0
ENDTAB
  0
TABLE
  2
STYLE
  5
3
330
0
100
AcDbSymbolTable
 70
     1
  0
STYLE
  5
11
330
3
100
AcDbSymbolTableRecord
100
AcDbTextStyleTableRecord
  2
Standard
 70
     0
 40
0.0
 41
1.0
 50
0.0
 71
     0
 42
3.5
  3
txt
  4

  0
ENDTAB
  0
TABLE
  2
VIEW
  5
6
330
0
100
AcDbSymbolTable
 70
     0
  0
ENDTAB
  0
TABLE
  2
UCS
  5
7
330
0
100
AcDbSymbolTable
 70
     0
  0
ENDTAB
  0
TABLE
  2
APPID
  5
9
330
0
100
AcDbSymbolTable
 70
     1
  0
APPID
  5
12
330
9
100
AcDbSymbolTableRecord
100
AcDbRegAppTableRecord
  2
ACAD
 70
     0
  0
ENDTAB
  0
TABLE
  2
DIMSTYLE
  5
A
330
0
100
AcDbSymbolTable
 70
     1
100
AcDbDimStyleTable
  0
DIMSTYLE
105
27
330
A
100
AcDbSymbolTableRecord
100
AcDbDimStyleTableRecord
  2
ISO-25
 70
     0
 41
2.5
 42
0.625
 43
3.75
 44
1.25
 73
     0
 74
     0
 77
     1
 78
     8
140
2.5
141
2.5
143
0.0393700787
147
0.625
171
     3
172
     1
178
     0
271
     2
272
     2
274
     3
278
    44
283
     0
284
     8
340
11
  0
ENDTAB
  0
TABLE
  2
BLOCK_RECORD
  5
1
330
0
100
AcDbSymbolTable
 70
     1
  0
BLOCK_RECORD
  5
1F
330
1
100
AcDbSymbolTableRecord
100
AcDbBlockTableRecord
  2
*Model_Space
340
22
  0
BLOCK_RECORD
  5
1B
330
1
100
AcDbSymbolTableRecord
100
AcDbBlockTableRecord
  2
*Paper_Space
340
1E
  0
BLOCK_RECORD
  5
23
330
1
100
AcDbSymbolTableRecord
100
AcDbBlockTableRecord
  2
*Paper_Space0
340
26
  0
ENDTAB
  0
ENDSEC
  0
SECTION
  2
BLOCKS
  0
BLOCK
  5
20
330
1F
100
AcDbEntity
  8
0
100
AcDbBlockBegin
  2
*Model_Space
 70
     0
 10
0.0
 20
0.0
 30
0.0
  3
*Model_Space
  1

  0
ENDBLK
  5
21
330
1F
100
AcDbEntity
  8
0
100
AcDbBlockEnd
  0
BLOCK
  5
1C
330
1B
100
AcDbEntity
 67
     1
  8
0
100
AcDbBlockBegin
  2
*Paper_Space
 70
     0
 10
0.0
 20
0.0
 30
0.0
  3
*Paper_Space
  1

  0
ENDBLK
  5
1D
330
1B
100
AcDbEntity
 67
     1
  8
0
100
AcDbBlockEnd
  0
BLOCK
  5
24
330
23
100
AcDbEntity
  8
0
100
AcDbBlockBegin
  2
*Paper_Space0
 70
     0
 10
0.0
 20
0.0
 30
0.0
  3
*Paper_Space0
  1

  0
ENDBLK
  5
25
330
23
100
AcDbEntity
  8
0
100
AcDbBlockEnd
  0
ENDSEC
  0
SECTION
  2
ENTITIES
  0
ARC
  5
73
330
1F
100
AcDbEntity
  8
0
  6
Continuous
 62
     7
100
AcDbCircle
 10
7049.3470918134
 20
5186.9414466008
 30
0.0
 40
0.600000000001842
100
AcDbArc
 50
180.0000083922
 51
269.9995469335
  0
ARC
  5
74
330
1F
100
AcDbEntity
  8
0
  6
Continuous
 62
     7
100
AcDbCircle
 10
7049.3470918134
 20
5200.5914465203
 30
0.0
 40
0.5999999999994607
100
AcDbArc
 50
90.0004530663
 51
179.9999915984
  0
ARC
  5
75
330
1F
100
AcDbEntity
  8
0
  6
Continuous
 62
     7
100
AcDbCircle
 10
7081.6470926479
 20
5200.5914465203
 30
0.0
 40
0.6000000000003702
100
AcDbArc
 50
0.0000084016
 51
89.9995469336
  0
ARC
  5
76
330
1F
100
AcDbEntity
  8
0
  6
Continuous
 62
     7
100
AcDbCircle
 10
7081.6470926479
 20
5186.9414466008
 30
0.0
 40
0.600000000001842
100
AcDbArc
 50
270.0004530665
 51
359.9999916078
  0
ARC
  5
77
330
1F
100
AcDbEntity
  8
0
  6
Continuous
 62
     7
100
AcDbCircle
 10
7140.7970907524
 20
5132.1664471179
 30
0.0
 40
10.00000000000022
100
AcDbArc
 50
270.0000119531
 51
359.999988047
  0
ARC
  5
78
330
1F
100
AcDbEntity
  8
0
  6
Continuous
 62
     7
100
AcDbCircle
 10
7140.7970907524
 20
5282.7664441615
 30
0.0
 40
10.00000000000113
100
AcDbArc
 50
0.000011953
 51
89.9999880469
  0
ARC
  5
79
330
1F
100
AcDbEntity
  8
0
  6
Continuous
 62
     7
100
AcDbCircle
 10
6990.1970862582
 20
5132.1664471179
 30
0.0
 40
10.00000000000022
100
AcDbArc
 50
180.000011953
 51
270.0000307363
  0
ARC
  5
7A
330
1F
100
AcDbEntity
  8
0
  6
Continuous
 62
     7
100
AcDbCircle
 10
6990.1970862582
 20
5282.7664441615
 30
0.0
 40
10.00000000000113
100
AcDbArc
 50
89.9999692637
 51
179.999988047
  0
ARC
  5
7B
330
1F
100
AcDbEntity
  8
0
  6
Continuous
 62
     7
100
AcDbCircle
 10
7391.8430095168
 20
5142.0888278812
 30
0.0
 40
0.8000000000004267
100
AcDbArc
 50
180.0000973311
 51
269.9999026689
  0
ARC
  5
7C
330
1F
100
AcDbEntity
  8
0
  6
Continuous
 62
     7
100
AcDbCircle
 10
7403.443008514
 20
5142.0888278812
 30
0.0
 40
0.8000000000004267
100
AcDbArc
 50
270.0000306246
 51
359.9999026688
  0
ARC
  5
7D
330
1F
100
AcDbEntity
  8
0
  6
Continuous
 62
     7
100
AcDbCircle
 10
7419.5430093082
 20
5132.1664471179
 30
0.0
 40
10.00000000000022
100
AcDbArc
 50
269.9999959446
 51
359.999988047
  0
ARC
  5
7E
330
1F
100
AcDbEntity
  8
0
  6
Continuous
 62
     7
100
AcDbCircle
 10
7419.5430093082
 20
5282.7664441615
 30
0.0
 40
10.00000000000022
100
AcDbArc
 50
0.000011953
 51
90.0000040554
  0
CIRCLE
  5
7F
330
1F
100
AcDbEntity
  8
0
  6
Continuous
 62
     7
100
AcDbCircle
 10
7065.4970915662
 20
4866.2923449611
 30
0.0
 40
6.499999999999091
  0
CIRCLE
  5
80
330
1F
100
AcDbEntity
  8
0
  6
Continuous
 62
     7
100
AcDbCircle
 10
7065.4970915662
 20
4866.2923449611
 30
0.0
 40
6.5
  0
CIRCLE
  5
81
330
1F
100
AcDbEntity
  8
0
  6
Continuous
 62
     7
100
AcDbCircle
 10
7065.4970915662
 20
4866.2923449611
 30
0.0
 40
7.000000000001819
  0
CIRCLE
  5
82
330
1F
100
AcDbEntity
  8
0
  6
Continuous
 62
     7
100
AcDbCircle
 10
7065.4970915662
 20
4866.2923449611
 30
0.0
 40
10.00000000000091
  0
CIRCLE
  5
83
330
1F
100
AcDbEntity
  8
0
  6
Continuous
 62
     7
100
AcDbCircle
 10
7065.4970915662
 20
4866.2923449611
 30
0.0
 40
16.00000000000091
  0
ARC
  5
84
330
1F
100
AcDbEntity
  8
0
  6
Continuous
 62
     7
100
AcDbCircle
 10
6990.1970862582
 20
4820.3923442989
 30
0.0
 40
10.00000000000002
100
AcDbArc
 50
179.9999959446
 51
270.0000307363
  0
ARC
  5
85
330
1F
100
AcDbEntity
  8
0
  6
Continuous
 62
     7
100
AcDbCircle
 10
7140.7970907524
 20
4820.3923442989
 30
0.0
 40
10.00000000000002
100
AcDbArc
 50
270.0000119531
 51
0.0000040554
  0
CIRCLE
  5
86
330
1F
100
AcDbEntity
  8
0
  6
Continuous
 62
     7
100
AcDbCircle
 10
7065.4970915662
 20
4866.2923449611
 30
0.0
 40
6.249999999999091
  0
CIRCLE
  5
87
330
1F
100
AcDbEntity
  8
0
  6
Continuous
 62
     7
100
AcDbCircle
 10
7065.4970915662
 20
4866.2923449611
 30
0.0
 40
3.649999999999636
  0
LINE
  5
88
330
1F
100
AcDbEntity
  8
0
  6
Continuous
 62
     7
100
AcDbLine
 10
7359.3695110651
 20
5284.4888267666
 30
0.0
 11
7387.9165056171
 21
5284.4888267666
 31
0.0
  0
LINE
  5
89
330
1F
100
AcDbEntity
  8
0
  6
Continuous
 62
     7
100
AcDbLine
 10
7360.1185216578
 20
5132.4888316541
 30
0.0
 11
7387.1674950244
 21
5132.4888316541
 31
0.0
  0
LINE
  5
8A
330
1F
100
AcDbEntity
  8
0
  6
Continuous
 62
     7
100
AcDbLine
 10
7049.4970970586
 20
5301.4888314157
 30
0.0
 11
7049.4970970586
 21
5299.4888273626
 31
0.0
  0
LINE
  5
8B
330
1F
100
AcDbEntity
  8
0
  6
Continuous
 62
     7
100
AcDbLine
 10
7081.4970874027
 20
5299.4888273626
 30
0.0
 11
7081.4970874027
 21
5301.4888314157
 31
0.0
  0
LINE
  5
8C
330
1F
100
AcDbEntity
  8
0
  6
Continuous
 62
     7
100
AcDbLine
 10
7081.4970874027
 20
5115.488827005
 30
0.0
 11
7081.4970874027
 21
5117.4888310581
 31
0.0
  0
LINE
  5
8D
330
1F
100
AcDbEntity
  8
0
  6
Continuous
 62
     7
100
AcDbLine
 10
7049.4970970586
 20
5117.4888310581
 30
0.0
 11
7049.4970970586
 21
5115.488827005
 31
0.0
  0
LINE
  5
8E
330
1F
100
AcDbEntity
  8
0
  6
Continuous
 62
     7
100
AcDbLine
 10
7059.4021671251
 20
5299.4888273626
 30
0.0
 11
7050.8610450462
 21
5299.4888273626
 31
0.0
  0
LINE
  5
8F
330
1F
100
AcDbEntity
  8
0
  6
Continuous
 62
     7
100
AcDbLine
 10
7067.9432743028
 20
5299.4888273626
 30
0.0
 11
7059.4021671251
 21
5299.4888273626
 31
0.0
  0
LINE
  5
90
330
1F
100
AcDbEntity
  8
0
  6
Continuous
 62
     7
100
AcDbLine
 10
7067.9432743028
 20
5299.4888273626
 30
0.0
 11
7067.9432743028
 21
5292.7664441615
 31
0.0
  0
LINE
  5
91
330
1F
100
AcDbEntity
  8
0
  6
Continuous
 62
     7
100
AcDbLine
 10
7050.8610450462
 20
5299.4888273626
 30
0.0
 11
7050.8610450462
 21
5292.7664441615
 31
0.0
  0
LINE
  5
92
330
1F
100
AcDbEntity
  8
0
  6
Continuous
 62
     7
100
AcDbLine
 10
7049.4970970586
 20
5301.4888314157
 30
0.0
 11
7081.4970874027
 21
5301.4888314157
 31
0.0
  0
LINE
  5
93
330
1F
100
AcDbEntity
  8
0
  6
Continuous
 62
     7
100
AcDbLine
 10
7082.5793140367
 20
5299.4888273626
 30
0.0
 11
7075.2612941697
 21
5299.4888273626
 31
0.0
  0
LINE
  5
94
330
1F
100
AcDbEntity
  8
0
  6
Continuous
 62
     7
100
AcDbLine
 10
7082.5793140367
 20
5299.4888273626
 30
0.0
 11
7082.5793140367
 21
5292.7664441615
 31
0.0
  0
LINE
  5
95
330
1F
100
AcDbEntity
  8
0
  6
Continuous
 62
     7
100
AcDbLine
 10
7075.2612941697
 20
5299.4888273626
 30
0.0
 11
7067.9432743028
 21
5299.4888273626
 31
0.0
  0
LINE
  5
96
330
1F
100
AcDbEntity
  8
0
  6
Continuous
 62
     7
100
AcDbLine
 10
7048.4148704246
 20
5299.4888273626
 30
0.0
 11
7048.4148704246
 21
5292.7664441615
 31
0.0
  0
LINE
  5
97
330
1F
100
AcDbEntity
  8
0
  6
Continuous
 62
     7
100
AcDbLine
 10
7049.6379577354
 20
5299.4888273626
 30
0.0
 11
7048.4148704246
 21
5299.4888273626
 31
0.0
  0
LINE
  5
98
330
1F
100
AcDbEntity
  8
0
  6
Continuous
 62
     7
100
AcDbLine
 10
7050.8610450462
 20
5299.4888273626
 30
0.0
 11
7049.6379577354
 21
5299.4888273626
 31
0.0
  0
LINE
  5
99
330
1F
100
AcDbEntity
  8
0
  6
Continuous
 62
     7
100
AcDbLine
 10
7068.8194476798
 20
5117.4888310581
 30
0.0
 11
7068.8194476798
 21
5122.1664471179
 31
0.0
  0
LINE
  5
9A
330
1F
100
AcDbEntity
  8
0
  6
Continuous
 62
     7
100
AcDbLine
 10
7060.1192706064
 20
5117.4888310581
 30
0.0
 11
7068.8194476798
 21
5117.4888310581
 31
0.0
  0
LINE
  5
9B
330
1F
100
AcDbEntity
  8
0
  6
Continuous
 62
     7
100
AcDbLine
 10
7051.4190935329
 20
5117.4888310581
 30
0.0
 11
7060.1192706064
 21
5117.4888310581
 31
0.0
  0
LINE
  5
9C
330
1F
100
AcDbEntity
  8
0
  6
Continuous
 62
     7
100
AcDbLine
 10
7051.4190935329
 20
5117.4888310581
 30
0.0
 11
7051.4190935329
 21
5122.1664471179
 31
0.0
  0
LINE
  5
9D
330
1F
100
AcDbEntity
  8
0
  6
Continuous
 62
     7
100
AcDbLine
 10
7068.3743350938
 20
5115.488827005
 30
0.0
 11
7049.4970970586
 21
5115.488827005
 31
0.0
  0
LINE
  5
9E
330
1F
100
AcDbEntity
  8
0
  6
Continuous
 62
     7
100
AcDbLine
 10
7081.4970874027
 20
5115.488827005
 30
0.0
 11
7068.3743350938
 21
5115.488827005
 31
0.0
  0
LINE
  5
9F
330
1F
100
AcDbEntity
  8
0
  6
Continuous
 62
     7
100
AcDbLine
 10
7082.897438927
 20
5117.4888310581
 30
0.0
 11
7082.897438927
 21
5122.1664471179
 31
0.0
  0
LINE
  5
A0
330
1F
100
AcDbEntity
  8
0
  6
Continuous
 62
     7
100
AcDbLine
 10
7075.8584433034
 20
5117.4888310581
 30
0.0
 11
7082.897438927
 21
5117.4888310581
 31
0.0
  0
LINE
  5
A1
330
1F
100
AcDbEntity
  8
0
  6
Continuous
 62
     7
100
AcDbLine
 10
7068.8194476798
 20
5117.4888310581
 30
0.0
 11
7075.8584433034
 21
5117.4888310581
 31
0.0
  0
LINE
  5
A2
330
1F
100
AcDbEntity
  8
0
  6
Continuous
 62
     7
100
AcDbLine
 10
7048.0967455343
 20
5117.4888310581
 30
0.0
 11
7049.7579269841
 21
5117.4888310581
 31
0.0
  0
LINE
  5
A3
330
1F
100
AcDbEntity
  8
0
  6
Continuous
 62
     7
100
AcDbLine
 10
7048.0967455343
 20
5117.4888310581
 30
0.0
 11
7048.0967455343
 21
5122.1664471179
 31
0.0
  0
LINE
  5
A4
330
1F
100
AcDbEntity
  8
0
  6
Continuous
 62
     7
100
AcDbLine
 10
7049.7579269841
 20
5117.4888310581
 30
0.0
 11
7051.4190935329
 21
5117.4888310581
 31
0.0
  0
LINE
  5
A5
330
1F
100
AcDbEntity
  8
0
  6
Continuous
 62
     7
100
AcDbLine
 10
7048.7470918134
 20
5200.5914466083
 30
0.0
 11
7048.7470918134
 21
5186.9414465129
 31
0.0
  0
LINE
  5
A6
330
1F
100
AcDbEntity
  8
0
  6
Continuous
 62
     7
100
AcDbLine
 10
7081.6470973924
 20
5201.1914465203
 30
0.0
 11
7049.3470870689
 21
5201.1914465203
 31
0.0
  0
LINE
  5
A7
330
1F
100
AcDbEntity
  8
0
  6
Continuous
 62
     7
100
AcDbLine
 10
7082.2470926479
 20
5186.9414465129
 30
0.0
 11
7082.2470926479
 21
5200.5914466083
 31
0.0
  0
LINE
  5
A8
330
1F
100
AcDbEntity
  8
0
  6
Continuous
 62
     7
100
AcDbLine
 10
7049.3470870689
 20
5186.3414466008
 30
0.0
 11
7081.6470973924
 21
5186.3414466008
 31
0.0
  0
LINE
  5
A9
330
1F
100
AcDbEntity
  8
0
  6
Continuous
 62
     7
100
AcDbLine
 10
7140.7970907524
 20
5132.1664471179
 30
0.0
 11
7150.7970907524
 21
5132.1664450317
 31
0.0
  0
LINE
  5
AA
330
1F
100
AcDbEntity
  8
0
  6
Continuous
 62
     7
100
AcDbLine
 10
7140.7970907524
 20
5132.1664471179
 30
0.0
 11
7140.7970928386
 21
5122.1664471179
 31
0.0
  0
LINE
  5
AB
330
1F
100
AcDbEntity
  8
0
  6
Continuous
 62
     7
100
AcDbLine
 10
7140.7970907524
 20
5132.1664471179
 30
0.0
 11
7140.7970907524
 21
5282.7664441615
 31
0.0
  0
LINE
  5
AC
330
1F
100
AcDbEntity
  8
0
  6
Continuous
 62
     7
100
AcDbLine
 10
7140.7970907524
 20
5282.7664441615
 30
0.0
 11
7150.7970907524
 21
5282.7664462477
 31
0.0
  0
LINE
  5
AD
330
1F
100
AcDbEntity
  8
0
  6
Continuous
 62
     7
100
AcDbLine
 10
7150.7970907524
 20
5132.1664450317
 30
0.0
 11
7150.7970907524
 21
5282.7664462477
 31
0.0
  0
LINE
  5
AE
330
1F
100
AcDbEntity
  8
0
  6
Continuous
 62
     7
100
AcDbLine
 10
7140.7970928386
 20
5292.7664441615
 30
0.0
 11
7140.7970907524
 21
5282.7664441615
 31
0.0
  0
LINE
  5
AF
330
1F
100
AcDbEntity
  8
0
  6
Continuous
 62
     7
100
AcDbLine
 10
7110.8174540833
 20
5145.8386739343
 30
0.0
 11
7111.1105077699
 21
5144.9514438957
 31
0.0
  0
LINE
  5
B0
330
1F
100
AcDbEntity
  8
0
  6
Continuous
 62
     7
100
AcDbLine
 10
7109.2912399009
 20
5145.8384206146
 30
0.0
 11
7110.8174540833
 21
5145.8386739343
 31
0.0
  0
LINE
  5
B1
330
1F
100
AcDbEntity
  8
0
  6
Continuous
 62
     7
100
AcDbLine
 10
7109.2911057904
 20
5147.418532297
 30
0.0
 11
7109.2912399009
 21
5145.8384206146
 31
0.0
  0
LINE
  5
B2
330
1F
100
AcDbEntity
  8
0
  6
Continuous
 62
     7
100
AcDbLine
 10
7110.8595871166
 20
5147.4187334626
 30
0.0
 11
7109.2911057904
 21
5147.418532297
 31
0.0
  0
LINE
  5
B3
330
1F
100
AcDbEntity
  8
0
  6
Continuous
 62
     7
100
AcDbLine
 10
7110.8595424131
 20
5148.3119612187
 30
0.0
 11
7110.8595871166
 21
5147.4187334626
 31
0.0
  0
LINE
  5
B4
330
1F
100
AcDbEntity
  8
0
  6
Continuous
 62
     7
100
AcDbLine
 10
7108.4455244973
 20
5148.3106759935
 30
0.0
 11
7110.8595424131
 21
5148.3119612187
 31
0.0
  0
LINE
  5
B5
330
1F
100
AcDbEntity
  8
0
  6
Continuous
 62
     7
100
AcDbLine
 10
7108.4467165902
 20
5145.8225546032
 30
0.0
 11
7108.4455244973
 21
5148.3106759935
 31
0.0
  0
LINE
  5
B6
330
1F
100
AcDbEntity
  8
0
  6
Continuous
 62
     7
100
AcDbLine
 10
7107.7757620052
 20
5145.8222901076
 30
0.0
 11
7108.4467165902
 21
5145.8225546032
 31
0.0
  0
LINE
  5
B7
330
1F
100
AcDbEntity
  8
0
  6
Continuous
 62
     7
100
AcDbLine
 10
7107.7703230813
 20
5148.3104673773
 30
0.0
 11
7107.7757620052
 21
5145.8222901076
 31
0.0
  0
LINE
  5
B8
330
1F
100
AcDbEntity
  8
0
  6
Continuous
 62
     7
100
AcDbLine
 10
7107.5840287641
 20
5148.31069462
 30
0.0
 11
7107.7703230813
 21
5148.3104673773
 31
0.0
  0
LINE
  5
B9
330
1F
100
AcDbEntity
  8
0
  6
Continuous
 62
     7
100
AcDbLine
 10
7106.7913614944
 20
5148.310579136
 30
0.0
 11
7107.5840287641
 21
5148.31069462
 31
0.0
  0
LINE
  5
BA
330
1F
100
AcDbEntity
  8
0
  6
Continuous
 62
     7
100
AcDbLine
 10
7106.7919426397
 20
5146.209776178
 30
0.0
 11
7106.7913614944
 21
5148.310579136
 31
0.0
  0
LINE
  5
BB
330
1F
100
AcDbEntity
  8
0
  6
Continuous
 62
     7
100
AcDbLine
 10
7104.0630482867
 20
5148.3890523761
 30
0.0
 11
7106.7919426397
 21
5146.209776178
 31
0.0
  0
LINE
  5
BC
330
1F
100
AcDbEntity
  8
0
  6
Continuous
 62
     7
100
AcDbLine
 10
7104.0713482335
 20
5142.1618198603
 30
0.0
 11
7104.0630482867
 21
5148.3890523761
 31
0.0
  0
LINE
  5
BD
330
1F
100
AcDbEntity
  8
0
  6
Continuous
 62
     7
100
AcDbLine
 10
7104.9476259187
 20
5142.1628666669
 30
0.0
 11
7104.0713482335
 21
5142.1618198603
 31
0.0
  0
LINE
  5
BE
330
1F
100
AcDbEntity
  8
0
  6
Continuous
 62
     7
100
AcDbLine
 10
7104.9579971269
 20
5146.3369203358
 30
0.0
 11
7104.9476259187
 21
5142.1628666669
 31
0.0
  0
LINE
  5
BF
330
1F
100
AcDbEntity
  8
0
  6
Continuous
 62
     7
100
AcDbLine
 10
7106.8083637193
 20
5144.9281273037
 30
0.0
 11
7104.9579971269
 21
5146.3369203358
 31
0.0
  0
LINE
  5
C0
330
1F
100
AcDbEntity
  8
0
  6
Continuous
 62
     7
100
AcDbLine
 10
7106.8091981843
 20
5142.147879824
 30
0.0
 11
7106.8083637193
 21
5144.9281273037
 31
0.0
  0
LINE
  5
C1
330
1F
100
AcDbEntity
  8
0
  6
Continuous
 62
     7
100
AcDbLine
 10
7107.5849824384
 20
5142.1575246006
 30
0.0
 11
7106.8091981843
 21
5142.147879824
 31
0.0
  0
LINE
  5
C2
330
1F
100
AcDbEntity
  8
0
  6
Continuous
 62
     7
100
AcDbLine
 10
7107.7564501003
 20
5142.1636713296
 30
0.0
 11
7107.5849824384
 21
5142.1575246006
 31
0.0
  0
LINE
  5
C3
330
1F
100
AcDbEntity
  8
0
  6
Continuous
 62
     7
100
AcDbLine
 10
7107.7397458986
 20
5144.9449730664
 30
0.0
 11
7107.7564501003
 21
5142.1636713296
 31
0.0
  0
LINE
  5
C4
330
1F
100
AcDbEntity
  8
0
  6
Continuous
 62
     7
100
AcDbLine
 10
7108.4678762391
 20
5144.9451667815
 30
0.0
 11
7107.7397458986
 21
5144.9449730664
 31
0.0
  0
LINE
  5
C5
330
1F
100
AcDbEntity
  8
0
  6
Continuous
 62
     7
100
AcDbLine
 10
7108.4687256053
 20
5142.1797496825
 30
0.0
 11
7108.4678762391
 21
5144.9451667815
 31
0.0
  0
LINE
  5
C6
330
1F
100
AcDbEntity
  8
0
  6
Continuous
 62
     7
100
AcDbLine
 10
7110.8192869261
 20
5142.1800290793
 30
0.0
 11
7108.4687256053
 21
5142.1797496825
 31
0.0
  0
LINE
  5
C7
330
1F
100
AcDbEntity
  8
0
  6
Continuous
 62
     7
100
AcDbLine
 10
7110.8183183506
 20
5143.0796159058
 30
0.0
 11
7110.8192869261
 21
5142.1800290793
 31
0.0
  0
LINE
  5
C8
330
1F
100
AcDbEntity
  8
0
  6
Continuous
 62
     7
100
AcDbLine
 10
7109.2339151338
 20
5143.0784014612
 30
0.0
 11
7110.8183183506
 21
5143.0796159058
 31
0.0
  0
LINE
  5
C9
330
1F
100
AcDbEntity
  8
0
  6
Continuous
 62
     7
100
AcDbLine
 10
7109.2331104711
 20
5144.9611296504
 30
0.0
 11
7109.2339151338
 21
5143.0784014612
 31
0.0
  0
LINE
  5
CA
330
1F
100
AcDbEntity
  8
0
  6
Continuous
 62
     7
100
AcDbLine
 10
7111.1105077699
 20
5144.9514438957
 30
0.0
 11
7109.2331104711
 21
5144.9611296504
 31
0.0
  0
LINE
  5
CB
330
1F
100
AcDbEntity
  8
0
  6
Continuous
 62
     7
100
AcDbLine
 10
7111.4290126398
 20
5148.3070289343
 30
0.0
 11
7112.3381101325
 21
5148.3122741431
 31
0.0
  0
LINE
  5
CC
330
1F
100
AcDbEntity
  8
0
  6
Continuous
 62
     7
100
AcDbLine
 10
7111.4414551094
 20
5142.1697100251
 30
0.0
 11
7111.4290126398
 21
5148.3070289343
 31
0.0
  0
LINE
  5
CD
330
1F
100
AcDbEntity
  8
0
  6
Continuous
 62
     7
100
AcDbLine
 10
7114.0735440686
 20
5142.1654594689
 30
0.0
 11
7111.4414551094
 21
5142.1697100251
 31
0.0
  0
LINE
  5
CE
330
1F
100
AcDbEntity
  8
0
  6
Continuous
 62
     7
100
AcDbLine
 10
7114.2164760068
 20
5142.1652843803
 30
0.0
 11
7114.0735440686
 21
5142.1654594689
 31
0.0
  0
LINE
  5
CF
330
1F
100
AcDbEntity
  8
0
  6
Continuous
 62
     7
100
AcDbLine
 10
7114.2216765121
 20
5142.9526729136
 30
0.0
 11
7114.2164760068
 21
5142.1652843803
 31
0.0
  0
LINE
  5
D0
330
1F
100
AcDbEntity
  8
0
  6
Continuous
 62
     7
100
AcDbLine
 10
7114.073573871
 20
5142.9518198221
 30
0.0
 11
7114.2216765121
 21
5142.9526729136
 31
0.0
  0
LINE
  5
D1
330
1F
100
AcDbEntity
  8
0
  6
Continuous
 62
     7
100
AcDbLine
 10
7112.3347573713
 20
5142.9465038329
 30
0.0
 11
7114.073573871
 21
5142.9518198221
 31
0.0
  0
LINE
  5
D2
330
1F
100
AcDbEntity
  8
0
  6
Continuous
 62
     7
100
AcDbLine
 10
7112.3381101325
 20
5148.3122741431
 30
0.0
 11
7112.3347573713
 21
5142.9465038329
 31
0.0
  0
LINE
  5
D3
330
1F
100
AcDbEntity
  8
0
  6
Continuous
 62
     7
100
AcDbLine
 10
7123.7937875822
 20
5144.2847137898
 30
0.0
 11
7123.7937875822
 21
5144.449718073
 31
0.0
  0
LINE
  5
D4
330
1F
100
AcDbEntity
  8
0
  6
Continuous
 62
     7
100
AcDbLine
 10
7122.4156164363
 20
5147.1932006627
 30
0.0
 11
7122.4102371171
 21
5147.1878325194
 31
0.0
  0
LINE
  5
D5
330
1F
100
AcDbEntity
  8
0
  6
Continuous
 62
     7
100
AcDbLine
 10
7122.2937845424
 20
5147.0379082113
 30
0.0
 11
7122.1391179398
 21
5147.170234248
 31
0.0
  0
LINE
  5
D6
330
1F
100
AcDbEntity
  8
0
  6
Continuous
 62
     7
100
AcDbLine
 10
7123.4878071383
 20
5147.7036958187
 30
0.0
 11
7123.5021644071
 21
5147.6980967074
 31
0.0
  0
LINE
  5
D7
330
1F
100
AcDbEntity
  8
0
  6
Continuous
 62
     7
100
AcDbLine
 10
7123.5021644071
 20
5147.6980967074
 30
0.0
 11
7123.5083632901
 21
5147.6948855072
 31
0.0
  0
LINE
  5
D8
330
1F
100
AcDbEntity
  8
0
  6
Continuous
 62
     7
100
AcDbLine
 10
7123.5083632901
 20
5147.6948855072
 30
0.0
 11
7123.5140629843
 21
5147.7067617327
 31
0.0
  0
LINE
  5
D9
330
1F
100
AcDbEntity
  8
0
  6
Continuous
 62
     7
100
AcDbLine
 10
7121.1224266127
 20
5149.8679032176
 30
0.0
 11
7121.0903816655
 21
5149.8623599857
 31
0.0
  0
LINE
  5
DA
330
1F
100
AcDbEntity
  8
0
  6
Continuous
 62
     7
100
AcDbLine
 10
7120.6601851419
 20
5149.8302777856
 30
0.0
 11
7120.6172325447
 21
5149.8622146993
 31
0.0
  0
LINE
  5
DB
330
1F
100
AcDbEntity
  8
0
  6
Continuous
 62
     7
100
AcDbLine
 10
7118.5433634356
 20
5150.7179809361
 30
0.0
 11
7118.5433485344
 21
5150.7019621878
 31
0.0
  0
LINE
  5
DC
330
1F
100
AcDbEntity
  8
0
  6
Continuous
 62
     7
100
AcDbLine
 10
7118.5433485344
 20
5150.7019621878
 30
0.0
 11
7118.5434230402
 21
5150.4254413396
 31
0.0
  0
LINE
  5
DD
330
1F
100
AcDbEntity
  8
0
  6
Continuous
 62
     7
100
AcDbLine
 10
7118.776961489
 20
5147.9451505094
 30
0.0
 11
7118.7483736113
 21
5147.8933540731
 31
0.0
  0
LINE
  5
DE
330
1F
100
AcDbEntity
  8
0
  6
Continuous
 62
     7
100
AcDbLine
 10
7118.8155629471
 20
5147.8135322779
 30
0.0
 11
7118.8383989766
 21
5147.8105594962
 31
0.0
  0
LINE
  5
DF
330
1F
100
AcDbEntity
  8
0
  6
Continuous
 62
     7
100
AcDbLine
 10
7121.1248331502
 20
5141.4334212988
 30
0.0
 11
7121.1836405829
 21
5141.4334511011
 31
0.0
  0
LINE
  5
E0
330
1F
100
AcDbEntity
  8
0
  6
Continuous
 62
     7
100
AcDbLine
 10
7048.6470901206
 20
5186.1664464324
 30
0.0
 11
7082.3470943406
 21
5186.1664464324
 31
0.0
  0
LINE
  5
E1
330
1F
100
AcDbEntity
  8
0
  6
Continuous
 62
     7
100
AcDbLine
 10
7082.3470943406
 20
5186.1664464324
 30
0.0
 11
7082.3470943406
 21
5201.3664466887
 31
0.0
  0
LINE
  5
E2
330
1F
100
AcDbEntity
  8
0
  6
Continuous
 62
     7
100
AcDbLine
 10
7082.3470943406
 20
5201.3664466887
 30
0.0
 11
7048.6470901206
 21
5201.3664466887
 31
0.0
  0
LINE
  5
E3
330
1F
100
AcDbEntity
  8
0
  6
Continuous
 62
     7
100
AcDbLine
 10
7048.6470901206
 20
5201.3664466887
 30
0.0
 11
7048.6470901206
 21
5186.1664464324
 31
0.0
  0
LINE
  5
E4
330
1F
100
AcDbEntity
  8
0
  6
Continuous
 62
     7
100
AcDbLine
 10
6990.1970862582
 20
5282.7664441615
 30
0.0
 11
6990.1970862582
 21
5132.1664471179
 31
0.0
  0
LINE
  5
E5
330
1F
100
AcDbEntity
  8
0
  6
Continuous
 62
     7
100
AcDbLine
 10
7140.7970907524
 20
5282.7664441615
 30
0.0
 11
6990.1970862582
 21
5282.7664441615
 31
0.0
  0
LINE
  5
E6
330
1F
100
AcDbEntity
  8
0
  6
Continuous
 62
     7
100
AcDbLine
 10
6990.1970862582
 20
5132.1664471179
 30
0.0
 11
7140.7970907524
 21
5132.1664471179
 31
0.0
  0
LINE
  5
E7
330
1F
100
AcDbEntity
  8
0
  6
Continuous
 62
     7
100
AcDbLine
 10
7096.0989587739
 20
5143.090218082
 30
0.0
 11
7097.8960090116
 21
5143.0911717563
 31
0.0
  0
LINE
  5
E8
330
1F
100
AcDbEntity
  8
0
  6
Continuous
 62
     7
100
AcDbLine
 10
7096.0989140704
 20
5142.1599385887
 30
0.0
 11
7096.0989587739
 21
5143.090218082
 31
0.0
  0
LINE
  5
E9
330
1F
100
AcDbEntity
  8
0
  6
Continuous
 62
     7
100
AcDbLine
 10
7097.9763709739
 20
5142.1607954055
 30
0.0
 11
7096.0989140704
 21
5142.1599385887
 31
0.0
  0
LINE
  5
EA
330
1F
100
AcDbEntity
  8
0
  6
Continuous
 62
     7
100
AcDbLine
 10
7101.8941097692
 20
5148.9261945337
 30
0.0
 11
7098.4736078218
 21
5148.9303743094
 31
0.0
  0
LINE
  5
EB
330
1F
100
AcDbEntity
  8
0
  6
Continuous
 62
     7
100
AcDbLine
 10
7107.583745642
 20
5148.9223910123
 30
0.0
 11
7101.8941097692
 21
5148.9261945337
 31
0.0
  0
LINE
  5
EC
330
1F
100
AcDbEntity
  8
0
  6
Continuous
 62
     7
100
AcDbLine
 10
7114.0713610485
 20
5148.9239705354
 30
0.0
 11
7107.583745642
 21
5148.9223910123
 31
0.0
  0
LINE
  5
ED
330
1F
100
AcDbEntity
  8
0
  6
Continuous
 62
     7
100
AcDbLine
 10
7116.0821907953
 20
5148.9194443076
 30
0.0
 11
7114.0713610485
 21
5148.9239705354
 31
0.0
  0
LINE
  5
EE
330
1F
100
AcDbEntity
  8
0
  6
Continuous
 62
     7
100
AcDbLine
 10
7117.8898357585
 20
5148.9203868061
 30
0.0
 11
7116.0821907953
 21
5148.9194443076
 31
0.0
  0
LINE
  5
EF
330
1F
100
AcDbEntity
  8
0
  6
Continuous
 62
     7
100
AcDbLine
 10
7117.8898208574
 20
5149.834800288
 30
0.0
 11
7117.8898357585
 21
5148.9203868061
 31
0.0
  0
LINE
  5
F0
330
1F
100
AcDbEntity
  8
0
  6
Continuous
 62
     7
100
AcDbLine
 10
7116.0810359553
 20
5149.8338093608
 30
0.0
 11
7117.8898208574
 21
5149.834800288
 31
0.0
  0
LINE
  5
F1
330
1F
100
AcDbEntity
  8
0
  6
Continuous
 62
     7
100
AcDbLine
 10
7114.0713386968
 20
5149.8341446369
 30
0.0
 11
7116.0810359553
 21
5149.8338093608
 31
0.0
  0
LINE
  5
F2
330
1F
100
AcDbEntity
  8
0
  6
Continuous
 62
     7
100
AcDbLine
 10
7107.5837754443
 20
5149.8314810544
 30
0.0
 11
7114.0713386968
 21
5149.8341446369
 31
0.0
  0
LINE
  5
F3
330
1F
100
AcDbEntity
  8
0
  6
Continuous
 62
     7
100
AcDbLine
 10
7101.8930964902
 20
5149.8246935755
 30
0.0
 11
7107.5837754443
 21
5149.8314810544
 31
0.0
  0
LINE
  5
F4
330
1F
100
AcDbEntity
  8
0
  6
Continuous
 62
     7
100
AcDbLine
 10
7098.4101586774
 20
5149.8236802965
 30
0.0
 11
7101.8930964902
 21
5149.8246935755
 31
0.0
  0
LINE
  5
F5
330
1F
100
AcDbEntity
  8
0
  6
Continuous
 62
     7
100
AcDbLine
 10
7125.1050674155
 20
5150.7411224395
 30
0.0
 11
7125.1001053289
 21
5150.7411261648
 31
0.0
  0
LINE
  5
F6
330
1F
100
AcDbEntity
  8
0
  6
Continuous
 62
     7
100
AcDbLine
 10
7125.1004778579
 20
5149.3582127243
 30
0.0
 11
7125.1056485608
 21
5149.3582052737
 31
0.0
  0
LINE
  5
F7
330
1F
100
AcDbEntity
  8
0
  6
Continuous
 62
     7
100
AcDbLine
 10
7114.6190979317
 20
5146.8669881671
 30
0.0
 11
7114.6040403083
 21
5145.7917241007
 31
0.0
  0
LINE
  5
F8
330
1F
100
AcDbEntity
  8
0
  6
Continuous
 62
     7
100
AcDbLine
 10
7114.6040403083
 20
5145.7917241007
 30
0.0
 11
7114.0728064612
 21
5145.7923723012
 31
0.0
  0
LINE
  5
F9
330
1F
100
AcDbEntity
  8
0
  6
Continuous
 62
     7
100
AcDbLine
 10
7114.0728064612
 20
5145.7923723012
 30
0.0
 11
7113.9235638812
 21
5145.7914707809
 31
0.0
  0
LINE
  5
FA
330
1F
100
AcDbEntity
  8
0
  6
Continuous
 62
     7
100
AcDbLine
 10
7113.9235638812
 20
5145.7914707809
 30
0.0
 11
7114.0732758477
 21
5145.3298663348
 31
0.0
  0
LINE
  5
FB
330
1F
100
AcDbEntity
  8
0
  6
Continuous
 62
     7
100
AcDbLine
 10
7114.0732758477
 20
5145.3298663348
 30
0.0
 11
7114.1998165086
 21
5144.9360435456
 31
0.0
  0
LINE
  5
FC
330
1F
100
AcDbEntity
  8
0
  6
Continuous
 62
     7
100
AcDbLine
 10
7114.1998165086
 20
5144.9360435456
 30
0.0
 11
7114.5670481756
 21
5144.9514587968
 31
0.0
  0
LINE
  5
FD
330
1F
100
AcDbEntity
  8
0
  6
Continuous
 62
     7
100
AcDbLine
 10
7114.5670481756
 20
5144.9514587968
 30
0.0
 11
7114.5626076296
 21
5142.1658953279
 31
0.0
  0
LINE
  5
FE
330
1F
100
AcDbEntity
  8
0
  6
Continuous
 62
     7
100
AcDbLine
 10
7114.5626076296
 20
5142.1658953279
 30
0.0
 11
7115.3975941971
 21
5142.1659586578
 31
0.0
  0
LINE
  5
FF
330
1F
100
AcDbEntity
  8
0
  6
Continuous
 62
     7
100
AcDbLine
 10
7115.3975941971
 20
5142.1659586578
 30
0.0
 11
7115.4072799519
 21
5144.9303289502
 31
0.0
  0
LINE
  5
100
330
1F
100
AcDbEntity
  8
0
  6
Continuous
 62
     7
100
AcDbLine
 10
7115.4072799519
 20
5144.9303289502
 30
0.0
 11
7116.082585676
 21
5144.9305375665
 31
0.0
  0
LINE
  5
101
330
1F
100
AcDbEntity
  8
0
  6
Continuous
 62
     7
100
AcDbLine
 10
7116.082585676
 20
5144.9305375665
 30
0.0
 11
7116.7313375309
 21
5144.9308281391
 31
0.0
  0
LINE
  5
102
330
1F
100
AcDbEntity
  8
0
  6
Continuous
 62
     7
100
AcDbLine
 10
7116.7313375309
 20
5144.9308281391
 30
0.0
 11
7116.7321943477
 21
5142.1664466708
 31
0.0
  0
LINE
  5
103
330
1F
100
AcDbEntity
  8
0
  6
Continuous
 62
     7
100
AcDbLine
 10
7116.7321943477
 20
5142.1664466708
 30
0.0
 11
7117.5777234867
 21
5142.1664466708
 31
0.0
  0
LINE
  5
104
330
1F
100
AcDbEntity
  8
0
  6
Continuous
 62
     7
100
AcDbLine
 10
7117.5777234867
 20
5142.1664466708
 30
0.0
 11
7117.5920584038
 21
5146.9575089961
 31
0.0
  0
LINE
  5
105
330
1F
100
AcDbEntity
  8
0
  6
Continuous
 62
     7
100
AcDbLine
 10
7116.1566220954
 20
5148.4250684827
 30
0.0
 11
7116.0392158464
 21
5148.4252100437
 31
0.0
  0
LINE
  5
106
330
1F
100
AcDbEntity
  8
0
  6
Continuous
 62
     7
100
AcDbLine
 10
7100.4321717456
 20
5146.8779218942
 30
0.0
 11
7100.4160784915
 21
5145.8037418872
 31
0.0
  0
LINE
  5
107
330
1F
100
AcDbEntity
  8
0
  6
Continuous
 62
     7
100
AcDbLine
 10
7100.4160784915
 20
5145.8037418872
 30
0.0
 11
7099.7196876243
 21
5145.8035593479
 31
0.0
  0
LINE
  5
108
330
1F
100
AcDbEntity
  8
0
  6
Continuous
 62
     7
100
AcDbLine
 10
7099.7196876243
 20
5145.8035593479
 30
0.0
 11
7100.0022285417
 21
5144.9480725079
 31
0.0
  0
LINE
  5
109
330
1F
100
AcDbEntity
  8
0
  6
Continuous
 62
     7
100
AcDbLine
 10
7100.0022285417
 20
5144.9480725079
 30
0.0
 11
7100.3737293914
 21
5144.9423467367
 31
0.0
  0
LINE
  5
10A
330
1F
100
AcDbEntity
  8
0
  6
Continuous
 62
     7
100
AcDbLine
 10
7100.3737293914
 20
5144.9423467367
 30
0.0
 11
7100.3745787576
 21
5142.1663386374
 31
0.0
  0
LINE
  5
10B
330
1F
100
AcDbEntity
  8
0
  6
Continuous
 62
     7
100
AcDbLine
 10
7100.3745787576
 20
5142.1663386374
 30
0.0
 11
7101.1937104896
 21
5142.1769668907
 31
0.0
  0
LINE
  5
10C
330
1F
100
AcDbEntity
  8
0
  6
Continuous
 62
     7
100
AcDbLine
 10
7101.1937104896
 20
5142.1769668907
 30
0.0
 11
7101.1928462222
 21
5144.9317855388
 31
0.0
  0
LINE
  5
10D
330
1F
100
AcDbEntity
  8
0
  6
Continuous
 62
     7
100
AcDbLine
 10
7101.1928462222
 20
5144.9317855388
 30
0.0
 11
7101.8955998853
 21
5144.9372840672
 31
0.0
  0
LINE
  5
10E
330
1F
100
AcDbEntity
  8
0
  6
Continuous
 62
     7
100
AcDbLine
 10
7101.8955998853
 20
5144.9372840672
 30
0.0
 11
7102.5433235601
 21
5144.9428496509
 31
0.0
  0
LINE
  5
10F
330
1F
100
AcDbEntity
  8
0
  6
Continuous
 62
     7
100
AcDbLine
 10
7102.5433235601
 20
5144.9428496509
 30
0.0
 11
7102.5335632995
 21
5142.1668527275
 31
0.0
  0
LINE
  5
110
330
1F
100
AcDbEntity
  8
0
  6
Continuous
 62
     7
100
AcDbLine
 10
7102.5335632995
 20
5142.1668527275
 30
0.0
 11
7103.3738844827
 21
5142.1774511784
 31
0.0
  0
LINE
  5
111
330
1F
100
AcDbEntity
  8
0
  6
Continuous
 62
     7
100
AcDbLine
 10
7103.3738844827
 20
5142.1774511784
 30
0.0
 11
7103.3829592899
 21
5146.969608739
 31
0.0
  0
LINE
  5
112
330
1F
100
AcDbEntity
  8
0
  6
Continuous
 62
     7
100
AcDbLine
 10
7101.9676171973
 20
5148.4370899945
 30
0.0
 11
7101.8935137227
 21
5148.4308762103
 31
0.0
  0
LINE
  5
113
330
1F
100
AcDbEntity
  8
0
  6
Continuous
 62
     7
100
AcDbLine
 10
7101.8935137227
 20
5148.4308762103
 30
0.0
 11
7101.8459194139
 21
5148.4309320896
 31
0.0
  0
LINE
  5
114
330
1F
100
AcDbEntity
  8
0
  6
Continuous
 62
     7
100
AcDbLine
 10
6990.1970916227
 20
5122.1664471179
 30
0.0
 11
7140.7970928386
 21
5122.1664471179
 31
0.0
  0
LINE
  5
115
330
1F
100
AcDbEntity
  8
0
  6
Continuous
 62
     7
100
AcDbLine
 10
6990.1970862582
 20
5132.1664471179
 30
0.0
 11
6990.1970916227
 21
5122.1664471179
 31
0.0
  0
LINE
  5
116
330
1F
100
AcDbEntity
  8
0
  6
Continuous
 62
     7
100
AcDbLine
 10
7140.7970928386
 20
5292.7664441615
 30
0.0
 11
6990.1970916227
 21
5292.7664441615
 31
0.0
  0
LINE
  5
117
330
1F
100
AcDbEntity
  8
0
  6
Continuous
 62
     7
100
AcDbLine
 10
6990.1970916227
 20
5292.7664441615
 30
0.0
 11
6990.1970862582
 21
5282.7664441615
 31
0.0
  0
LINE
  5
118
330
1F
100
AcDbEntity
  8
0
  6
Continuous
 62
     7
100
AcDbLine
 10
7125.2437823251
 20
5149.9965523928
 30
0.0
 11
7125.1906969383
 21
5150.0233856588
 31
0.0
  0
LINE
  5
119
330
1F
100
AcDbEntity
  8
0
  6
Continuous
 62
     7
100
AcDbLine
 10
7125.1427524522
 20
5150.3741701692
 30
0.0
 11
7125.1162954405
 21
5150.3742036968
 31
0.0
  0
LINE
  5
11A
330
1F
100
AcDbEntity
  8
0
  6
Continuous
 62
     7
100
AcDbLine
 10
7125.1162954405
 20
5150.3742036968
 30
0.0
 11
7124.866283758
 21
5150.3740956634
 31
0.0
  0
LINE
  5
11B
330
1F
100
AcDbEntity
  8
0
  6
Continuous
 62
     7
100
AcDbLine
 10
7124.866283758
 20
5150.3740956634
 30
0.0
 11
7124.8665445283
 21
5149.7413178533
 31
0.0
  0
LINE
  5
11C
330
1F
100
AcDbEntity
  8
0
  6
Continuous
 62
     7
100
AcDbLine
 10
7124.8665445283
 20
5149.7413178533
 30
0.0
 11
7124.9512948826
 21
5149.7413178533
 31
0.0
  0
LINE
  5
11D
330
1F
100
AcDbEntity
  8
0
  6
Continuous
 62
     7
100
AcDbLine
 10
7124.9512948826
 20
5149.7413178533
 30
0.0
 11
7124.9512203768
 21
5150.0178387016
 31
0.0
  0
LINE
  5
11E
330
1F
100
AcDbEntity
  8
0
  6
Continuous
 62
     7
100
AcDbLine
 10
7124.9512203768
 20
5150.0178387016
 30
0.0
 11
7125.0470273927
 21
5150.0178238004
 31
0.0
  0
LINE
  5
11F
330
1F
100
AcDbEntity
  8
0
  6
Continuous
 62
     7
100
AcDbLine
 10
7125.0470273927
 20
5150.0178238004
 30
0.0
 11
7125.0895031527
 21
5150.0178759545
 31
0.0
  0
LINE
  5
120
330
1F
100
AcDbEntity
  8
0
  6
Continuous
 62
     7
100
AcDbLine
 10
7125.0895031527
 20
5150.0178759545
 30
0.0
 11
7125.1162581876
 21
5150.0071471184
 31
0.0
  0
LINE
  5
121
330
1F
100
AcDbEntity
  8
0
  6
Continuous
 62
     7
100
AcDbLine
 10
7125.1162581876
 20
5150.0071471184
 30
0.0
 11
7125.1268976167
 21
5150.0016560405
 31
0.0
  0
LINE
  5
122
330
1F
100
AcDbEntity
  8
0
  6
Continuous
 62
     7
100
AcDbLine
 10
7125.1268976167
 20
5150.0016560405
 30
0.0
 11
7125.1693212226
 21
5149.9592808634
 31
0.0
  0
LINE
  5
123
330
1F
100
AcDbEntity
  8
0
  6
Continuous
 62
     7
100
AcDbLine
 10
7125.2331950501
 20
5149.8740909248
 30
0.0
 11
7125.3183998898
 21
5149.7413849085
 31
0.0
  0
LINE
  5
124
330
1F
100
AcDbEntity
  8
0
  6
Continuous
 62
     7
100
AcDbLine
 10
7125.3183998898
 20
5149.7413849085
 30
0.0
 11
7125.4193776086
 21
5149.7413662821
 31
0.0
  0
LINE
  5
125
330
1F
100
AcDbEntity
  8
0
  6
Continuous
 62
     7
100
AcDbLine
 10
7125.4193776086
 20
5149.7413662821
 30
0.0
 11
7125.3129311636
 21
5149.9168870598
 31
0.0
  0
LINE
  5
126
330
1F
100
AcDbEntity
  8
0
  6
Continuous
 62
     7
100
AcDbLine
 10
7125.28093092
 20
5150.1989734917
 30
0.0
 11
7125.2651505903
 21
5150.1401362568
 31
0.0
  0
LINE
  5
127
330
1F
100
AcDbEntity
  8
0
  6
Continuous
 62
     7
100
AcDbLine
 10
7125.2651505903
 20
5150.1401362568
 30
0.0
 11
7125.2173551157
 21
5150.1027268916
 31
0.0
  0
LINE
  5
128
330
1F
100
AcDbEntity
  8
0
  6
Continuous
 62
     7
100
AcDbLine
 10
7125.1269050673
 20
5150.0922439247
 30
0.0
 11
7125.1162581876
 21
5150.0922588259
 31
0.0
  0
LINE
  5
129
330
1F
100
AcDbEntity
  8
0
  6
Continuous
 62
     7
100
AcDbLine
 10
7125.1162581876
 20
5150.0922588259
 30
0.0
 11
7124.9512054756
 21
5150.0922513753
 31
0.0
  0
LINE
  5
12A
330
1F
100
AcDbEntity
  8
0
  6
Continuous
 62
     7
100
AcDbLine
 10
7124.9512054756
 20
5150.0922513753
 30
0.0
 11
7124.9511533216
 21
5150.2997835725
 31
0.0
  0
LINE
  5
12B
330
1F
100
AcDbEntity
  8
0
  6
Continuous
 62
     7
100
AcDbLine
 10
7124.9511533216
 20
5150.2997835725
 30
0.0
 11
7125.1162060335
 21
5150.2997910231
 31
0.0
  0
LINE
  5
12C
330
1F
100
AcDbEntity
  8
0
  6
Continuous
 62
     7
100
AcDbLine
 10
7125.1162060335
 20
5150.2997910231
 30
0.0
 11
7125.1480349139
 21
5150.299854353
 31
0.0
  0
LINE
  5
12D
330
1F
100
AcDbEntity
  8
0
  6
Continuous
 62
     7
100
AcDbLine
 10
7121.3040270642
 20
5147.2510953992
 30
0.0
 11
7121.426499708
 21
5147.2511512786
 31
0.0
  0
LINE
  5
12E
330
1F
100
AcDbEntity
  8
0
  6
Continuous
 62
     7
100
AcDbLine
 10
7121.4264475539
 20
5147.3791038245
 30
0.0
 11
7121.1231046155
 21
5147.3789548128
 31
0.0
  0
LINE
  5
12F
330
1F
100
AcDbEntity
  8
0
  6
Continuous
 62
     7
100
AcDbLine
 10
7121.1231046155
 20
5147.3789548128
 30
0.0
 11
7120.9372796849
 21
5147.3788207024
 31
0.0
  0
LINE
  5
130
330
1F
100
AcDbEntity
  8
0
  6
Continuous
 62
     7
100
AcDbLine
 10
7120.9373318389
 20
5147.2508718818
 30
0.0
 11
7121.0544251636
 21
5147.2509352117
 31
0.0
  0
LINE
  5
131
330
1F
100
AcDbEntity
  8
0
  6
Continuous
 62
     7
100
AcDbLine
 10
7118.8379891947
 20
5147.9838301986
 30
0.0
 11
7118.834785445
 21
5147.98192285
 31
0.0
  0
LINE
  5
132
330
1F
100
AcDbEntity
  8
0
  6
Continuous
 62
     7
100
AcDbLine
 10
7121.1227991417
 20
5148.6499903351
 30
0.0
 11
7121.1867698267
 21
5148.6446408182
 31
0.0
  0
LINE
  5
133
330
1F
100
AcDbEntity
  8
0
  6
Continuous
 62
     7
100
AcDbLine
 10
7122.0111765698
 20
5148.9532811194
 30
0.0
 11
7122.0374547675
 21
5148.9745376259
 31
0.0
  0
LINE
  5
134
330
1F
100
AcDbEntity
  8
0
  6
Continuous
 62
     7
100
AcDbLine
 10
7121.1814203099
 20
5148.4958191961
 30
0.0
 11
7121.1228214935
 21
5148.4957893937
 31
0.0
  0
LINE
  5
135
330
1F
100
AcDbEntity
  8
0
  6
Continuous
 62
     7
100
AcDbLine
 10
7122.1278601125
 20
5149.6285495907
 30
0.0
 11
7122.1014254525
 21
5149.6447024494
 31
0.0
  0
LINE
  5
136
330
1F
100
AcDbEntity
  8
0
  6
Continuous
 62
     7
100
AcDbLine
 10
7122.0109381512
 20
5149.6870329231
 30
0.0
 11
7121.9630011156
 21
5149.7029585391
 31
0.0
  0
LINE
  5
137
330
1F
100
AcDbEntity
  8
0
  6
Continuous
 62
     7
100
AcDbLine
 10
7121.9630011156
 20
5149.7029585391
 30
0.0
 11
7122.0109083489
 21
5149.7456354647
 31
0.0
  0
LINE
  5
138
330
1F
100
AcDbEntity
  8
0
  6
Continuous
 62
     7
100
AcDbLine
 10
7121.1119883493
 20
5149.7827542573
 30
0.0
 11
7121.1225309208
 21
5149.7827393561
 31
0.0
  0
LINE
  5
139
330
1F
100
AcDbEntity
  8
0
  6
Continuous
 62
     7
100
AcDbLine
 10
7122.0270314053
 20
5149.0700987726
 30
0.0
 11
7122.0110946134
 21
5149.0543594211
 31
0.0
  0
LINE
  5
13A
330
1F
100
AcDbEntity
  8
0
  6
Continuous
 62
     7
100
AcDbLine
 10
7121.1867623761
 20
5148.7245333939
 30
0.0
 11
7121.1227916911
 21
5148.7297786027
 31
0.0
  0
LINE
  5
13B
330
1F
100
AcDbEntity
  8
0
  6
Continuous
 62
     7
100
AcDbLine
 10
7122.1020587519
 20
5147.1187581867
 30
0.0
 11
7122.1059926584
 21
5147.1242827922
 31
0.0
  0
LINE
  5
13C
330
1F
100
AcDbEntity
  8
0
  6
Continuous
 62
     7
100
AcDbLine
 10
7121.7946626976
 20
5143.8000050932
 30
0.0
 11
7121.8267970517
 21
5143.7951063364
 31
0.0
  0
LINE
  5
13D
330
1F
100
AcDbEntity
  8
0
  6
Continuous
 62
     7
100
AcDbLine
 10
7121.8195550874
 20
5148.3575811237
 30
0.0
 11
7121.8252398804
 21
5148.3576779812
 31
0.0
  0
LINE
  5
13E
330
1F
100
AcDbEntity
  8
0
  6
Continuous
 62
     7
100
AcDbLine
 10
7121.8254186943
 20
5147.9961497336
 30
0.0
 11
7121.8197339013
 21
5147.9960528761
 31
0.0
  0
LINE
  5
13F
330
1F
100
AcDbEntity
  8
0
  6
Continuous
 62
     7
100
AcDbLine
 10
7121.1297356323
 20
5143.6670271307
 30
0.0
 11
7121.1243116096
 21
5143.6296699196
 31
0.0
  0
LINE
  5
140
330
1F
100
AcDbEntity
  8
0
  6
Continuous
 62
     7
100
AcDbLine
 10
7121.1232610777
 20
5146.8257603794
 30
0.0
 11
7121.1607673004
 21
5146.8207014352
 31
0.0
  0
LINE
  5
141
330
1F
100
AcDbEntity
  8
0
  6
Continuous
 62
     7
100
AcDbLine
 10
7120.6249885991
 20
5141.576815173
 30
0.0
 11
7120.6197210387
 21
5141.5822988003
 31
0.0
  0
LINE
  5
142
330
1F
100
AcDbEntity
  8
0
  6
Continuous
 62
     7
100
AcDbLine
 10
7119.1875108317
 20
5148.8992681354
 30
0.0
 11
7119.1231154636
 21
5148.8088590651
 31
0.0
  0
LINE
  5
143
330
1F
100
AcDbEntity
  8
0
  6
Continuous
 62
     7
100
AcDbLine
 10
7116.7841919497
 20
5145.8091621846
 30
0.0
 11
7116.0825260714
 21
5145.8089349418
 31
0.0
  0
LINE
  5
144
330
1F
100
AcDbEntity
  8
0
  6
Continuous
 62
     7
100
AcDbLine
 10
7115.3745570019
 20
5145.8087635785
 30
0.0
 11
7115.3749295309
 21
5146.1114322394
 31
0.0
  0
LINE
  5
145
330
1F
100
AcDbEntity
  8
0
  6
Continuous
 62
     7
100
AcDbLine
 10
7116.7845719293
 20
5146.1224218458
 30
0.0
 11
7116.7841919497
 21
5145.8091621846
 31
0.0
  0
LINE
  5
146
330
1F
100
AcDbEntity
  8
0
  6
Continuous
 62
     7
100
AcDbLine
 10
7116.0233014062
 20
5147.5796473771
 30
0.0
 11
7116.0815872982
 21
5147.5795765966
 31
0.0
  0
LINE
  5
147
330
1F
100
AcDbEntity
  8
0
  6
Continuous
 62
     7
100
AcDbLine
 10
7116.0815872982
 20
5147.5795765966
 30
0.0
 11
7116.3048215941
 21
5147.5687099248
 31
0.0
  0
LINE
  5
148
330
1F
100
AcDbEntity
  8
0
  6
Continuous
 62
     7
100
AcDbLine
 10
7116.0825260714
 20
5145.8089349418
 30
0.0
 11
7115.3745570019
 21
5145.8087635785
 31
0.0
  0
LINE
  5
149
330
1F
100
AcDbEntity
  8
0
  6
Continuous
 62
     7
100
AcDbLine
 10
7101.8459194139
 20
5147.5916539877
 30
0.0
 11
7101.8946015075
 21
5147.5863230973
 31
0.0
  0
LINE
  5
14A
330
1F
100
AcDbEntity
  8
0
  6
Continuous
 62
     7
100
AcDbLine
 10
7101.8946015075
 20
5147.5863230973
 30
0.0
 11
7102.1168374255
 21
5147.5754601508
 31
0.0
  0
LINE
  5
14B
330
1F
100
AcDbEntity
  8
0
  6
Continuous
 62
     7
100
AcDbLine
 10
7102.5909476712
 20
5145.8201555162
 30
0.0
 11
7101.894556804
 21
5145.8199208229
 31
0.0
  0
LINE
  5
14C
330
1F
100
AcDbEntity
  8
0
  6
Continuous
 62
     7
100
AcDbLine
 10
7101.894556804
 20
5145.8199208229
 30
0.0
 11
7101.1876159147
 21
5145.8197494596
 31
0.0
  0
LINE
  5
14D
330
1F
100
AcDbEntity
  8
0
  6
Continuous
 62
     7
100
AcDbLine
 10
7101.1876159147
 20
5145.8197494596
 30
0.0
 11
7101.1869155601
 21
5146.1235059052
 31
0.0
  0
LINE
  5
14E
330
1F
100
AcDbEntity
  8
0
  6
Continuous
 62
     7
100
AcDbLine
 10
7102.5966101125
 20
5146.1344433575
 30
0.0
 11
7102.5909476712
 21
5145.8201555162
 31
0.0
  0
LINE
  5
14F
330
1F
100
AcDbEntity
  8
0
  6
Continuous
 62
     7
100
AcDbLine
 10
6980.1970862582
 20
5132.1664450317
 30
0.0
 11
6990.1970862582
 21
5132.1664471179
 31
0.0
  0
LINE
  5
150
330
1F
100
AcDbEntity
  8
0
  6
Continuous
 62
     7
100
AcDbLine
 10
6980.1970862582
 20
5282.7664462477
 30
0.0
 11
6980.1970862582
 21
5132.1664450317
 31
0.0
  0
LINE
  5
151
330
1F
100
AcDbEntity
  8
0
  6
Continuous
 62
     7
100
AcDbLine
 10
6980.1970862582
 20
5282.7664462477
 30
0.0
 11
6990.1970862582
 21
5282.7664441615
 31
0.0
  0
LINE
  5
152
330
1F
100
AcDbEntity
  8
0
  6
Continuous
 62
     7
100
AcDbLine
 10
7348.143006024
 20
5142.988826856
 30
0.0
 11
7417.7430088641
 21
5142.988826856
 31
0.0
  0
LINE
  5
153
330
1F
100
AcDbEntity
  8
0
  6
Continuous
 62
     7
100
AcDbLine
 10
7417.7430088641
 20
5273.9888278395
 30
0.0
 11
7348.143006024
 21
5273.9888278395
 31
0.0
  0
LINE
  5
154
330
1F
100
AcDbEntity
  8
0
  6
Continuous
 62
     7
100
AcDbLine
 10
7429.5492584827
 20
5147.8808557242
 30
0.0
 11
7429.5430093082
 21
5147.8808557242
 31
0.0
  0
LINE
  5
155
330
1F
100
AcDbEntity
  8
0
  6
Continuous
 62
     7
100
AcDbLine
 10
7429.5430093082
 20
5147.9957138747
 30
0.0
 11
7429.5492584827
 21
5147.9957138747
 31
0.0
  0
LINE
  5
156
330
1F
100
AcDbEntity
  8
0
  6
Continuous
 62
     7
100
AcDbLine
 10
7429.5430093082
 20
5141.5187826007
 30
0.0
 11
7429.5492584827
 21
5141.5187826007
 31
0.0
  0
LINE
  5
157
330
1F
100
AcDbEntity
  8
0
  6
Continuous
 62
     7
100
AcDbLine
 10
7417.9009527909
 20
5271.5276328474
 30
0.0
 11
7417.7430088641
 21
5271.7976195365
 31
0.0
  0
LINE
  5
158
330
1F
100
AcDbEntity
  8
0
  6
Continuous
 62
     7
100
AcDbLine
 10
7417.7291954877
 20
5268.0138570815
 30
0.0
 11
7417.7880480895
 21
5267.9129166156
 31
0.0
  0
LINE
  5
159
330
1F
100
AcDbEntity
  8
0
  6
Continuous
 62
     7
100
AcDbLine
 10
7417.7291954877
 20
5145.013853684
 30
0.0
 11
7417.7880480895
 21
5144.9129132181
 31
0.0
  0
LINE
  5
15A
330
1F
100
AcDbEntity
  8
0
  6
Continuous
 62
     7
100
AcDbLine
 10
7391.0430095168
 20
5142.988826856
 30
0.0
 11
7391.0430095168
 21
5142.0888265222
 31
0.0
  0
LINE
  5
15B
330
1F
100
AcDbEntity
  8
0
  6
Continuous
 62
     7
100
AcDbLine
 10
7404.243008514
 20
5142.0888265222
 30
0.0
 11
7404.243008514
 21
5142.988826856
 31
0.0
  0
LINE
  5
15C
330
1F
100
AcDbEntity
  8
0
  6
Continuous
 62
     7
100
AcDbLine
 10
7417.7430088641
 20
5138.4888289123
 30
0.0
 11
7419.5430086004
 21
5138.4888289123
 31
0.0
  0
LINE
  5
15D
330
1F
100
AcDbEntity
  8
0
  6
Continuous
 62
     7
100
AcDbLine
 10
7417.7430088641
 20
5138.4888289123
 30
0.0
 11
7417.7430088641
 21
5157.6113661378
 31
0.0
  0
LINE
  5
15E
330
1F
100
AcDbEntity
  8
0
  6
Continuous
 62
     7
100
AcDbLine
 10
7417.7430088641
 20
5259.3662885576
 30
0.0
 11
7417.7430088641
 21
5157.6113661378
 31
0.0
  0
LINE
  5
15F
330
1F
100
AcDbEntity
  8
0
  6
Continuous
 62
     7
100
AcDbLine
 10
7417.7430088641
 20
5278.4888295084
 30
0.0
 11
7419.5430086004
 21
5278.4888295084
 31
0.0
  0
LINE
  5
160
330
1F
100
AcDbEntity
  8
0
  6
Continuous
 62
     7
100
AcDbLine
 10
7417.7430088641
 20
5278.4888295084
 30
0.0
 11
7417.7430088641
 21
5259.3662885576
 31
0.0
  0
LINE
  5
161
330
1F
100
AcDbEntity
  8
0
  6
Continuous
 62
     7
100
AcDbLine
 10
7348.143006024
 20
5257.5035465508
 30
0.0
 11
7348.143006024
 21
5262.9177568107
 31
0.0
  0
LINE
  5
162
330
1F
100
AcDbEntity
  8
0
  6
Continuous
 62
     7
100
AcDbLine
 10
7417.7430088641
 20
5262.9177568107
 30
0.0
 11
7348.143006024
 21
5262.9177568107
 31
0.0
  0
LINE
  5
163
330
1F
100
AcDbEntity
  8
0
  6
Continuous
 62
     7
100
AcDbLine
 10
7417.7430088641
 20
5257.5035465508
 30
0.0
 11
7348.143006024
 21
5257.5035465508
 31
0.0
  0
LINE
  5
164
330
1F
100
AcDbEntity
  8
0
  6
Continuous
 62
     7
100
AcDbLine
 10
7417.7430088641
 20
5154.0598941594
 30
0.0
 11
7348.143006024
 21
5154.0598941594
 31
0.0
  0
LINE
  5
165
330
1F
100
AcDbEntity
  8
0
  6
Continuous
 62
     7
100
AcDbLine
 10
7348.143006024
 20
5159.4741081446
 30
0.0
 11
7348.143006024
 21
5154.0598941594
 31
0.0
  0
LINE
  5
166
330
1F
100
AcDbEntity
  8
0
  6
Continuous
 62
     7
100
AcDbLine
 10
7417.7430088641
 20
5159.4741081446
 30
0.0
 11
7348.143006024
 21
5159.4741081446
 31
0.0
  0
LINE
  5
167
330
1F
100
AcDbEntity
  8
0
  6
Continuous
 62
     7
100
AcDbLine
 10
7348.143006024
 20
5149.8172541707
 30
0.0
 11
7348.143006024
 21
5142.988826856
 31
0.0
  0
LINE
  5
168
330
1F
100
AcDbEntity
  8
0
  6
Continuous
 62
     7
100
AcDbLine
 10
7417.7430088641
 20
5149.8172541707
 30
0.0
 11
7348.143006024
 21
5149.8172541707
 31
0.0
  0
LINE
  5
169
330
1F
100
AcDbEntity
  8
0
  6
Continuous
 62
     7
100
AcDbLine
 10
7348.143006024
 20
5159.4741081446
 30
0.0
 11
7348.143006024
 21
5257.5035465508
 31
0.0
  0
LINE
  5
16A
330
1F
100
AcDbEntity
  8
0
  6
Continuous
 62
     7
100
AcDbLine
 10
7417.7430088641
 20
5267.1604005247
 30
0.0
 11
7348.143006024
 21
5267.1604005247
 31
0.0
  0
LINE
  5
16B
330
1F
100
AcDbEntity
  8
0
  6
Continuous
 62
     7
100
AcDbLine
 10
7348.143006024
 20
5267.1604005247
 30
0.0
 11
7348.143006024
 21
5273.9888278395
 31
0.0
  0
LINE
  5
16C
330
1F
100
AcDbEntity
  8
0
  6
Continuous
 62
     7
100
AcDbLine
 10
7348.143006024
 20
5262.9177568107
 30
0.0
 11
7348.143006024
 21
5267.1604005247
 31
0.0
  0
LINE
  5
16D
330
1F
100
AcDbEntity
  8
0
  6
Continuous
 62
     7
100
AcDbLine
 10
7348.143006024
 20
5154.0598941594
 30
0.0
 11
7348.143006024
 21
5149.8172541707
 31
0.0
  0
LINE
  5
16E
330
1F
100
AcDbEntity
  8
0
  6
Continuous
 62
     7
100
AcDbLine
 10
7417.7430088641
 20
5142.988826856
 30
0.0
 11
7348.143006024
 21
5142.988826856
 31
0.0
  0
LINE
  5
16F
330
1F
100
AcDbEntity
  8
0
  6
Continuous
 62
     7
100
AcDbLine
 10
7417.7430088641
 20
5273.9888278395
 30
0.0
 11
7348.143006024
 21
5273.9888278395
 31
0.0
  0
LINE
  5
170
330
1F
100
AcDbEntity
  8
0
  6
Continuous
 62
     7
100
AcDbLine
 10
7419.5430093082
 20
5282.7664441615
 30
0.0
 11
7419.5430093082
 21
5132.1664471179
 31
0.0
  0
LINE
  5
171
330
1F
100
AcDbEntity
  8
0
  6
Continuous
 62
     7
100
AcDbLine
 10
7419.5430093082
 20
5282.7664441615
 30
0.0
 11
7429.5430093082
 21
5282.7664462477
 31
0.0
  0
LINE
  5
172
330
1F
100
AcDbEntity
  8
0
  6
Continuous
 62
     7
100
AcDbLine
 10
7429.5430093082
 20
5282.7664462477
 30
0.0
 11
7429.5430093082
 21
5132.1664450317
 31
0.0
  0
LINE
  5
173
330
1F
100
AcDbEntity
  8
0
  6
Continuous
 62
     7
100
AcDbLine
 10
7419.5430093082
 20
5132.1664471179
 30
0.0
 11
7429.5430093082
 21
5132.1664450317
 31
0.0
  0
LINE
  5
174
330
1F
100
AcDbEntity
  8
0
  6
Continuous
 62
     7
100
AcDbLine
 10
7419.5430093082
 20
5132.1664471179
 30
0.0
 11
7419.5430086004
 21
5122.1664471179
 31
0.0
  0
LINE
  5
175
330
1F
100
AcDbEntity
  8
0
  6
Continuous
 62
     7
100
AcDbLine
 10
7419.5430086004
 20
5292.7664441615
 30
0.0
 11
7419.5430093082
 21
5282.7664441615
 31
0.0
  0
LINE
  5
176
330
1F
100
AcDbEntity
  8
0
  6
Continuous
 62
     7
100
AcDbLine
 10
7394.4707329395
 20
5141.2888278812
 30
0.0
 11
7403.4430089416
 21
5141.2888278812
 31
0.0
  0
LINE
  5
177
330
1F
100
AcDbEntity
  8
0
  6
Continuous
 62
     7
100
AcDbLine
 10
7391.8430081578
 20
5141.2888278812
 30
0.0
 11
7394.4707329395
 21
5141.2888278812
 31
0.0
  0
LINE
  5
178
330
1F
100
AcDbEntity
  8
0
  6
Continuous
 62
     7
100
AcDbLine
 10
7370.3156284066
 20
5284.4888267666
 30
0.0
 11
7370.3156284066
 21
5273.9888278395
 31
0.0
  0
LINE
  5
179
330
1F
100
AcDbEntity
  8
0
  6
Continuous
 62
     7
100
AcDbLine
 10
7359.3695110651
 20
5284.4888267666
 30
0.0
 11
7359.3695110651
 21
5273.9888278395
 31
0.0
  0
LINE
  5
17A
330
1F
100
AcDbEntity
  8
0
  6
Continuous
 62
     7
100
AcDbLine
 10
7383.7777565243
 20
5284.4888267666
 30
0.0
 11
7383.7777565243
 21
5273.9888278395
 31
0.0
  0
LINE
  5
17B
330
1F
100
AcDbEntity
  8
0
  6
Continuous
 62
     7
100
AcDbLine
 10
7387.9165056171
 20
5284.4888267666
 30
0.0
 11
7387.9165056171
 21
5273.9888278395
 31
0.0
  0
LINE
  5
17C
330
1F
100
AcDbEntity
  8
0
  6
Continuous
 62
     7
100
AcDbLine
 10
7373.5939024957
 20
5132.4888316541
 30
0.0
 11
7373.5939024957
 21
5142.988826856
 31
0.0
  0
LINE
  5
17D
330
1F
100
AcDbEntity
  8
0
  6
Continuous
 62
     7
100
AcDbLine
 10
7387.1183882477
 20
5132.4888316541
 30
0.0
 11
7387.1183882477
 21
5142.988826856
 31
0.0
  0
LINE
  5
17E
330
1F
100
AcDbEntity
  8
0
  6
Continuous
 62
     7
100
AcDbLine
 10
7360.1185216578
 20
5132.4888316541
 30
0.0
 11
7360.1185216578
 21
5142.988826856
 31
0.0
  0
LINE
  5
17F
330
1F
100
AcDbEntity
  8
0
  6
Continuous
 62
     7
100
AcDbLine
 10
7387.1674950244
 20
5132.4888316541
 30
0.0
 11
7387.1674950244
 21
5142.988826856
 31
0.0
  0
LINE
  5
180
330
1F
100
AcDbEntity
  8
0
  6
Continuous
 62
     7
100
AcDbLine
 10
7417.7430088641
 20
5157.6113661378
 30
0.0
 11
7419.5430086004
 21
5157.6113661378
 31
0.0
  0
LINE
  5
181
330
1F
100
AcDbEntity
  8
0
  6
Continuous
 62
     7
100
AcDbLine
 10
7417.7430088641
 20
5259.3662885576
 30
0.0
 11
7419.5430086004
 21
5259.3662885576
 31
0.0
  0
LINE
  5
182
330
1F
100
AcDbEntity
  8
0
  6
Continuous
 62
     7
100
AcDbLine
 10
7394.0331771048
 20
5142.0888265222
 30
0.0
 11
7404.243008514
 21
5142.0888265222
 31
0.0
  0
LINE
  5
183
330
1F
100
AcDbEntity
  8
0
  6
Continuous
 62
     7
100
AcDbLine
 10
7391.0430095168
 20
5142.0888265222
 30
0.0
 11
7394.0331771048
 21
5142.0888265222
 31
0.0
  0
LINE
  5
184
330
1F
100
AcDbEntity
  8
0
  6
Continuous
 62
     7
100
AcDbLine
 10
6999.9970936015
 20
4891.7923475831
 30
0.0
 11
6999.9970936015
 21
4822.1923447429
 31
0.0
  0
LINE
  5
185
330
1F
100
AcDbEntity
  8
0
  6
Continuous
 62
     7
100
AcDbLine
 10
7130.9970908597
 20
4822.1923447429
 30
0.0
 11
7130.9970908597
 21
4891.7923475831
 31
0.0
  0
LINE
  5
186
330
1F
100
AcDbEntity
  8
0
  6
Continuous
 62
     7
100
AcDbLine
 10
7125.3714629248
 20
4810.3860951244
 30
0.0
 11
7125.3714629248
 21
4810.3923442989
 31
0.0
  0
LINE
  5
187
330
1F
100
AcDbEntity
  8
0
  6
Continuous
 62
     7
100
AcDbLine
 10
7125.7173039749
 20
4810.3860951244
 30
0.0
 11
7125.7173039749
 21
4810.3923442989
 31
0.0
  0
LINE
  5
188
330
1F
100
AcDbEntity
  8
0
  6
Continuous
 62
     7
100
AcDbLine
 10
7122.0006190971
 20
4810.3860951244
 30
0.0
 11
7122.0006190971
 21
4810.3923442989
 31
0.0
  0
LINE
  5
189
330
1F
100
AcDbEntity
  8
0
  6
Continuous
 62
     7
100
AcDbLine
 10
7120.7985200718
 20
4810.3860951244
 30
0.0
 11
7120.7985200718
 21
4810.3923442989
 31
0.0
  0
LINE
  5
18A
330
1F
100
AcDbEntity
  8
0
  6
Continuous
 62
     7
100
AcDbLine
 10
7121.7452877
 20
4810.3923442989
 30
0.0
 11
7121.7452877
 21
4810.3860951244
 31
0.0
  0
LINE
  5
18B
330
1F
100
AcDbEntity
  8
0
  6
Continuous
 62
     7
100
AcDbLine
 10
7121.8835481241
 20
4810.3860951244
 30
0.0
 11
7121.8835481241
 21
4810.3923442989
 31
0.0
  0
LINE
  5
18C
330
1F
100
AcDbEntity
  8
0
  6
Continuous
 62
     7
100
AcDbLine
 10
7120.6817620233
 20
4810.3860951244
 30
0.0
 11
7120.6817620233
 21
4810.3923442989
 31
0.0
  0
LINE
  5
18D
330
1F
100
AcDbEntity
  8
0
  6
Continuous
 62
     7
100
AcDbLine
 10
7121.5007819966
 20
4810.3860951244
 30
0.0
 11
7121.5007819966
 21
4810.3923442989
 31
0.0
  0
LINE
  5
18E
330
1F
100
AcDbEntity
  8
0
  6
Continuous
 62
     7
100
AcDbLine
 10
7120.8625801638
 20
4810.3923442989
 30
0.0
 11
7120.8625801638
 21
4810.3860951244
 31
0.0
  0
LINE
  5
18F
330
1F
100
AcDbEntity
  8
0
  6
Continuous
 62
     7
100
AcDbLine
 10
7121.2378063038
 20
4810.3923442989
 30
0.0
 11
7121.2378063038
 21
4810.3860951244
 31
0.0
  0
LINE
  5
190
330
1F
100
AcDbEntity
  8
0
  6
Continuous
 62
     7
100
AcDbLine
 10
7121.1101182535
 20
4810.3860951244
 30
0.0
 11
7121.1101182535
 21
4810.3923442989
 31
0.0
  0
LINE
  5
191
330
1F
100
AcDbEntity
  8
0
  6
Continuous
 62
     7
100
AcDbLine
 10
7120.7482882574
 20
4810.3860951244
 30
0.0
 11
7120.7482882574
 21
4810.3923442989
 31
0.0
  0
LINE
  5
192
330
1F
100
AcDbEntity
  8
0
  6
Continuous
 62
     7
100
AcDbLine
 10
7123.7937875822
 20
4810.3860951244
 30
0.0
 11
7123.7937875822
 21
4810.3923442989
 31
0.0
  0
LINE
  5
193
330
1F
100
AcDbEntity
  8
0
  6
Continuous
 62
     7
100
AcDbLine
 10
7121.1227693394
 20
4810.3923442989
 30
0.0
 11
7121.1227693394
 21
4810.3860951244
 31
0.0
  0
LINE
  5
194
330
1F
100
AcDbEntity
  8
0
  6
Continuous
 62
     7
100
AcDbLine
 10
6995.4970919326
 20
4822.1923447429
 30
0.0
 11
6995.4970919326
 21
4820.3923450067
 31
0.0
  0
LINE
  5
195
330
1F
100
AcDbEntity
  8
0
  6
Continuous
 62
     7
100
AcDbLine
 10
7014.6196328834
 20
4822.1923447429
 30
0.0
 11
6995.4970919326
 21
4822.1923447429
 31
0.0
  0
LINE
  5
196
330
1F
100
AcDbEntity
  8
0
  6
Continuous
 62
     7
100
AcDbLine
 10
7116.3745515779
 20
4822.1923447429
 30
0.0
 11
7014.6196328834
 21
4822.1923447429
 31
0.0
  0
LINE
  5
197
330
1F
100
AcDbEntity
  8
0
  6
Continuous
 62
     7
100
AcDbLine
 10
7135.4970925287
 20
4822.1923447429
 30
0.0
 11
7135.4970925287
 21
4820.3923450067
 31
0.0
  0
LINE
  5
198
330
1F
100
AcDbEntity
  8
0
  6
Continuous
 62
     7
100
AcDbLine
 10
7116.3745515779
 20
4822.1923447429
 30
0.0
 11
7135.4970925287
 21
4822.1923447429
 31
0.0
  0
LINE
  5
199
330
1F
100
AcDbEntity
  8
0
  6
Continuous
 62
     7
100
AcDbLine
 10
7114.5118095711
 20
4822.1923447429
 30
0.0
 11
7114.5118095711
 21
4891.7923475831
 31
0.0
  0
LINE
  5
19A
330
1F
100
AcDbEntity
  8
0
  6
Continuous
 62
     7
100
AcDbLine
 10
7119.9260272816
 20
4891.7923475831
 30
0.0
 11
7114.5118095711
 21
4891.7923475831
 31
0.0
  0
LINE
  5
19B
330
1F
100
AcDbEntity
  8
0
  6
Continuous
 62
     7
100
AcDbLine
 10
7119.9260272816
 20
4822.1923447429
 30
0.0
 11
7119.9260272816
 21
4891.7923475831
 31
0.0
  0
LINE
  5
19C
330
1F
100
AcDbEntity
  8
0
  6
Continuous
 62
     7
100
AcDbLine
 10
7011.0681646302
 20
4891.7923475831
 30
0.0
 11
7016.4823674396
 21
4891.7923475831
 31
0.0
  0
LINE
  5
19D
330
1F
100
AcDbEntity
  8
0
  6
Continuous
 62
     7
100
AcDbLine
 10
7016.4823674396
 20
4822.1923447429
 30
0.0
 11
7016.4823674396
 21
4891.7923475831
 31
0.0
  0
LINE
  5
19E
330
1F
100
AcDbEntity
  8
0
  6
Continuous
 62
     7
100
AcDbLine
 10
7011.0681646302
 20
4822.1923447429
 30
0.0
 11
7011.0681646302
 21
4891.7923475831
 31
0.0
  0
LINE
  5
19F
330
1F
100
AcDbEntity
  8
0
  6
Continuous
 62
     7
100
AcDbLine
 10
7016.4823674396
 20
4891.7923475831
 30
0.0
 11
7114.5118095711
 21
4891.7923475831
 31
0.0
  0
LINE
  5
1A0
330
1F
100
AcDbEntity
  8
0
  6
Continuous
 62
     7
100
AcDbLine
 10
7006.8255209163
 20
4822.1923447429
 30
0.0
 11
7006.8255209163
 21
4891.7923475831
 31
0.0
  0
LINE
  5
1A1
330
1F
100
AcDbEntity
  8
0
  6
Continuous
 62
     7
100
AcDbLine
 10
6999.9970936015
 20
4891.7923475831
 30
0.0
 11
7006.8255209163
 21
4891.7923475831
 31
0.0
  0
LINE
  5
1A2
330
1F
100
AcDbEntity
  8
0
  6
Continuous
 62
     7
100
AcDbLine
 10
7124.168663545
 20
4822.1923447429
 30
0.0
 11
7124.168663545
 21
4891.7923475831
 31
0.0
  0
LINE
  5
1A3
330
1F
100
AcDbEntity
  8
0
  6
Continuous
 62
     7
100
AcDbLine
 10
7130.9970908597
 20
4891.7923475831
 30
0.0
 11
7124.168663545
 21
4891.7923475831
 31
0.0
  0
LINE
  5
1A4
330
1F
100
AcDbEntity
  8
0
  6
Continuous
 62
     7
100
AcDbLine
 10
7006.8255209163
 20
4891.7923475831
 30
0.0
 11
7011.0681646302
 21
4891.7923475831
 31
0.0
  0
LINE
  5
1A5
330
1F
100
AcDbEntity
  8
0
  6
Continuous
 62
     7
100
AcDbLine
 10
7124.168663545
 20
4891.7923475831
 30
0.0
 11
7119.9260272816
 21
4891.7923475831
 31
0.0
  0
LINE
  5
1A6
330
1F
100
AcDbEntity
  8
0
  6
Continuous
 62
     7
100
AcDbLine
 10
6999.9970936015
 20
4822.1923447429
 30
0.0
 11
6999.9970936015
 21
4891.7923475831
 31
0.0
  0
LINE
  5
1A7
330
1F
100
AcDbEntity
  8
0
  6
Continuous
 62
     7
100
AcDbLine
 10
7130.9970908597
 20
4822.1923447429
 30
0.0
 11
7130.9970908597
 21
4891.7923475831
 31
0.0
  0
LINE
  5
1A8
330
1F
100
AcDbEntity
  8
0
  6
Continuous
 62
     7
100
AcDbLine
 10
7055.7328902915
 20
4878.9675290912
 30
0.0
 11
7063.0509101585
 21
4884.6048954158
 31
0.0
  0
LINE
  5
1A9
330
1F
100
AcDbEntity
  8
0
  6
Continuous
 62
     7
100
AcDbLine
 10
7063.0509101585
 20
4884.6048954158
 30
0.0
 11
7071.5920173362
 21
4881.0859861999
 31
0.0
  0
LINE
  5
1AA
330
1F
100
AcDbEntity
  8
0
  6
Continuous
 62
     7
100
AcDbLine
 10
7080.1331394151
 20
4877.567076984
 30
0.0
 11
7081.3562267259
 21
4868.4108014434
 31
0.0
  0
LINE
  5
1AB
330
1F
100
AcDbEntity
  8
0
  6
Continuous
 62
     7
100
AcDbLine
 10
7071.5920173362
 20
4881.0859861999
 30
0.0
 11
7080.1331394151
 21
4877.567076984
 31
0.0
  0
LINE
  5
1AC
330
1F
100
AcDbEntity
  8
0
  6
Continuous
 62
     7
100
AcDbLine
 10
7049.6379577354
 20
4864.1738872259
 30
0.0
 11
7048.4148704246
 21
4873.3301627665
 31
0.0
  0
LINE
  5
1AD
330
1F
100
AcDbEntity
  8
0
  6
Continuous
 62
     7
100
AcDbLine
 10
7048.4148704246
 20
4873.3301627665
 30
0.0
 11
7055.7328902915
 21
4878.9675290912
 31
0.0
  0
LINE
  5
1AE
330
1F
100
AcDbEntity
  8
0
  6
Continuous
 62
     7
100
AcDbLine
 10
7082.5793140367
 20
4859.2545259028
 30
0.0
 11
7075.2612941697
 21
4853.6171595781
 31
0.0
  0
LINE
  5
1AF
330
1F
100
AcDbEntity
  8
0
  6
Continuous
 62
     7
100
AcDbLine
 10
7081.3562267259
 20
4868.4108014434
 30
0.0
 11
7082.5793140367
 21
4859.2545259028
 31
0.0
  0
LINE
  5
1B0
330
1F
100
AcDbEntity
  8
0
  6
Continuous
 62
     7
100
AcDbLine
 10
7059.4021671251
 20
4851.498704332
 30
0.0
 11
7050.8610450462
 21
4855.017613548
 31
0.0
  0
LINE
  5
1B1
330
1F
100
AcDbEntity
  8
0
  6
Continuous
 62
     7
100
AcDbLine
 10
7050.8610450462
 20
4855.017613548
 30
0.0
 11
7049.6379577354
 21
4864.1738872259
 31
0.0
  0
LINE
  5
1B2
330
1F
100
AcDbEntity
  8
0
  6
Continuous
 62
     7
100
AcDbLine
 10
7075.2612941697
 20
4853.6171595781
 30
0.0
 11
7067.9432743028
 21
4847.9797932535
 31
0.0
  0
LINE
  5
1B3
330
1F
100
AcDbEntity
  8
0
  6
Continuous
 62
     7
100
AcDbLine
 10
7067.9432743028
 20
4847.9797932535
 30
0.0
 11
7059.4021671251
 21
4851.498704332
 31
0.0
  0
LINE
  5
1B4
330
1F
100
AcDbEntity
  8
0
  6
Continuous
 62
     7
100
AcDbLine
 10
6990.1970862582
 20
4820.3923442989
 30
0.0
 11
6990.1970916227
 21
4810.3923442989
 31
0.0
  0
LINE
  5
1B5
330
1F
100
AcDbEntity
  8
0
  6
Continuous
 62
     7
100
AcDbLine
 10
6990.1970862582
 20
4820.3923442989
 30
0.0
 11
6980.1970862582
 21
4820.3923450067
 31
0.0
  0
LINE
  5
1B6
330
1F
100
AcDbEntity
  8
0
  6
Continuous
 62
     7
100
AcDbLine
 10
7140.7970907524
 20
4820.3923442989
 30
0.0
 11
7140.7970928386
 21
4810.3923442989
 31
0.0
  0
LINE
  5
1B7
330
1F
100
AcDbEntity
  8
0
  6
Continuous
 62
     7
100
AcDbLine
 10
7140.7970928386
 20
4810.3923442989
 30
0.0
 11
6990.1970916227
 21
4810.3923442989
 31
0.0
  0
LINE
  5
1B8
330
1F
100
AcDbEntity
  8
0
  6
Continuous
 62
     7
100
AcDbLine
 10
7140.7970907524
 20
4820.3923442989
 30
0.0
 11
6990.1970862582
 21
4820.3923442989
 31
0.0
  0
LINE
  5
1B9
330
1F
100
AcDbEntity
  8
0
  6
Continuous
 62
     7
100
AcDbLine
 10
7150.7970907524
 20
4820.3923450067
 30
0.0
 11
7140.7970907524
 21
4820.3923442989
 31
0.0
  0
LINE
  5
1BA
330
1F
100
AcDbEntity
  8
0
  6
Continuous
 62
     7
100
AcDbLine
 10
7014.6196328834
 20
4822.1923447429
 30
0.0
 11
7014.6196328834
 21
4820.3923450067
 31
0.0
  0
LINE
  5
1BB
330
1F
100
AcDbEntity
  8
0
  6
Continuous
 62
     7
100
AcDbLine
 10
7116.3745515779
 20
4822.1923447429
 30
0.0
 11
7116.3745515779
 21
4820.3923450067
 31
0.0
  0
LWPOLYLINE
  5
1BC
330
1F
100
AcDbEntity
  8
0
  6
Continuous
 62
     7
100
AcDbPolyline
 90
        3
 70
   128
 43
0.0
 10
7123.7716674805
 20
5143.9498772472
 10
7123.7883679906
 20
5144.1371523283
 10
7123.7937875822
 20
5144.2847137898
  0
LWPOLYLINE
  5
1BD
330
1F
100
AcDbEntity
  8
0
  6
Continuous
 62
     7
100
AcDbPolyline
 90
        3
 70
   128
 43
0.0
 10
7123.7907409668
 20
5144.449718073
 10
7123.3007389589
 20
5146.1256398527
 10
7122.4156164363
 20
5147.1932006627
  0
LWPOLYLINE
  5
1BE
330
1F
100
AcDbEntity
  8
0
  6
Continuous
 62
     7
100
AcDbPolyline
 90
        3
 70
   128
 43
0.0
 10
7122.4098205566
 20
5147.1878325194
 10
7122.3389640392
 20
5147.1085623072
 10
7122.2937845424
 20
5147.0379082113
  0
LWPOLYLINE
  5
1BF
330
1F
100
AcDbEntity
  8
0
  6
Continuous
 62
     7
100
AcDbPolyline
 90
        3
 70
   128
 43
0.0
 10
7122.1389770508
 20
5147.170234248
 10
7122.2797282389
 20
5147.3371371915
 10
7122.4101402596
 20
5147.4483867734
  0
LWPOLYLINE
  5
1C0
330
1F
100
AcDbEntity
  8
0
  6
Continuous
 62
     7
100
AcDbPolyline
 90
        3
 70
   128
 43
0.0
 10
7122.4098205566
 20
5147.4483867734
 10
7122.9951072753
 20
5147.6688140213
 10
7123.4878071383
 20
5147.7036958187
  0
LWPOLYLINE
  5
1C1
330
1F
100
AcDbEntity
  8
0
  6
Continuous
 62
     7
100
AcDbPolyline
 90
        3
 70
   128
 43
0.0
 10
7123.5122680664
 20
5147.7067617327
 10
7123.5311701646
 20
5147.8753296294
 10
7123.4844469265
 20
5148.0017153173
  0
LWPOLYLINE
  5
1C2
330
1F
100
AcDbEntity
  8
0
  6
Continuous
 62
     7
100
AcDbPolyline
 90
        3
 70
   128
 43
0.0
 10
7123.4817504883
 20
5148.0017153173
 10
7123.3327174146
 20
5148.4338968407
 10
7123.1543191508
 20
5148.746054396
  0
LWPOLYLINE
  5
1C3
330
1F
100
AcDbEntity
  8
0
  6
Continuous
 62
     7
100
AcDbPolyline
 90
        3
 70
   128
 43
0.0
 10
7123.1536865234
 20
5148.746054396
 10
7123.6363070613
 20
5149.8154549983
 10
7123.7492703632
 20
5150.7299093157
  0
LWPOLYLINE
  5
1C4
330
1F
100
AcDbEntity
  8
0
  6
Continuous
 62
     7
100
AcDbPolyline
 90
        3
 70
   128
 43
0.0
 10
7123.7487792969
 20
5150.7299093157
 10
7122.9862829906
 20
5150.59785262
 10
7122.409208937
 20
5150.4052651673
  0
LWPOLYLINE
  5
1C5
330
1F
100
AcDbEntity
  8
0
  6
Continuous
 62
     7
100
AcDbPolyline
 90
        3
 70
   128
 43
0.0
 10
7122.4060058594
 20
5150.4052651673
 10
7122.234842431
 20
5150.3287042605
 10
7122.101045473
 20
5150.2617222815
  0
LWPOLYLINE
  5
1C6
330
1F
100
AcDbEntity
  8
0
  6
Continuous
 62
     7
100
AcDbPolyline
 90
        3
 70
   128
 43
0.0
 10
7122.1008300781
 20
5150.2617222815
 10
7122.0501067361
 20
5150.2325011107
 10
7122.0108561948
 20
5150.208242014
  0
LWPOLYLINE
  5
1C7
330
1F
100
AcDbEntity
  8
0
  6
Continuous
 62
     7
100
AcDbPolyline
 90
        3
 70
   128
 43
0.0
 10
7122.0092773438
 20
5150.208242014
 10
7121.9050921695
 20
5150.1451985947
 10
7121.8248822526
 20
5150.0911114365
  0
LWPOLYLINE
  5
1C8
330
1F
100
AcDbEntity
  8
0
  6
Continuous
 62
     7
100
AcDbPolyline
 90
        3
 70
   128
 43
0.0
 10
7121.8223571777
 20
5150.0911114365
 10
7121.6400635067
 20
5149.9555913821
 10
7121.505624874
 20
5149.8358098417
  0
LWPOLYLINE
  5
1C9
330
1F
100
AcDbEntity
  8
0
  6
Continuous
 62
     7
100
AcDbPolyline
 90
        3
 70
   128
 43
0.0
 10
7121.5019226074
 20
5149.8358098417
 10
7121.2919602897
 20
5149.8649308276
 10
7121.1224266127
 20
5149.8679032176
  0
LWPOLYLINE
  5
1CA
330
1F
100
AcDbEntity
  8
0
  6
Continuous
 62
     7
100
AcDbPolyline
 90
        3
 70
   128
 43
0.0
 10
7121.0899353027
 20
5149.8623599857
 10
7120.8486883615
 20
5149.8530772527
 10
7120.6601851419
 20
5149.8302777856
  0
LWPOLYLINE
  5
1CB
330
1F
100
AcDbEntity
  8
0
  6
Continuous
 62
     7
100
AcDbPolyline
 90
        3
 70
   128
 43
0.0
 10
7120.6169128418
 20
5149.8622146993
 10
7120.038079035
 20
5150.2257567461
 10
7119.553423746
 20
5150.4575384408
  0
LWPOLYLINE
  5
1CC
330
1F
100
AcDbEntity
  8
0
  6
Continuous
 62
     7
100
AcDbPolyline
 90
        3
 70
   128
 43
0.0
 10
7119.5526123047
 20
5150.4575384408
 10
7118.9966484914
 20
5150.6389771348
 10
7118.5433634356
 20
5150.7179809361
  0
LWPOLYLINE
  5
1CD
330
1F
100
AcDbEntity
  8
0
  6
Continuous
 62
     7
100
AcDbPolyline
 90
        3
 70
   128
 43
0.0
 10
7118.5417175293
 20
5150.4254413396
 10
7118.7462874556
 20
5149.4491685507
 10
7119.0754913524
 20
5148.7396208197
  0
LWPOLYLINE
  5
1CE
330
1F
100
AcDbEntity
  8
0
  6
Continuous
 62
     7
100
AcDbPolyline
 90
        3
 70
   128
 43
0.0
 10
7119.0719604492
 20
5148.7396208197
 10
7118.8801983267
 20
5148.3048848352
 10
7118.776961489
 20
5147.9451505094
  0
LWPOLYLINE
  5
1CF
330
1F
100
AcDbEntity
  8
0
  6
Continuous
 62
     7
100
AcDbPolyline
 90
        3
 70
   128
 43
0.0
 10
7118.7477111816
 20
5147.8933540731
 10
7118.7347006004
 20
5147.855214733
 10
7118.7250383929
 20
5147.8250136226
  0
LWPOLYLINE
  5
1D0
330
1F
100
AcDbEntity
  8
0
  6
Continuous
 62
     7
100
AcDbPolyline
 90
        3
 70
   128
 43
0.0
 10
7118.724822998
 20
5147.8250136226
 10
7118.7757640815
 20
5147.818834632
 10
7118.8155629471
 20
5147.8135322779
  0
LWPOLYLINE
  5
1D1
330
1F
100
AcDbEntity
  8
0
  6
Continuous
 62
     7
100
AcDbPolyline
 90
        3
 70
   128
 43
0.0
 10
7118.8354492188
 20
5147.8105594962
 10
7119.2464907222
 20
5147.7246741327
 10
7119.5542880133
 20
5147.6125379652
  0
LWPOLYLINE
  5
1D2
330
1F
100
AcDbEntity
  8
0
  6
Continuous
 62
     7
100
AcDbPolyline
 90
        3
 70
   128
 43
0.0
 10
7119.5526123047
 20
5147.6125379652
 10
7120.0798725986
 20
5147.1168425
 10
7120.0600408748
 20
5146.5489377826
  0
LWPOLYLINE
  5
1D3
330
1F
100
AcDbEntity
  8
0
  6
Continuous
 62
     7
100
AcDbPolyline
 90
        3
 70
   128
 43
0.0
 10
7120.059967041
 20
5146.5489377826
 10
7119.7973117407
 20
5145.9730134113
 10
7119.5548542574
 20
5145.5388141423
  0
LWPOLYLINE
  5
1D4
330
1F
100
AcDbEntity
  8
0
  6
Continuous
 62
     7
100
AcDbPolyline
 90
        3
 70
   128
 43
0.0
 10
7119.5526123047
 20
5145.5388141423
 10
7119.237814636
 20
5144.7576360664
 10
7119.0607466534
 20
5144.1184168309
  0
LWPOLYLINE
  5
1D5
330
1F
100
AcDbEntity
  8
0
  6
Continuous
 62
     7
100
AcDbPolyline
 90
        3
 70
   128
 43
0.0
 10
7119.0605163574
 20
5144.1184168309
 10
7119.0795393493
 20
5142.9098058972
 10
7119.5558973387
 20
5142.0816553384
  0
LWPOLYLINE
  5
1D6
330
1F
100
AcDbEntity
  8
0
  6
Continuous
 62
     7
100
AcDbPolyline
 90
        3
 70
   128
 43
0.0
 10
7119.5526123047
 20
5142.0816553384
 10
7120.1094226957
 20
5141.6699235754
 10
7120.6198104456
 20
5141.4866445213
  0
LWPOLYLINE
  5
1D7
330
1F
100
AcDbEntity
  8
0
  6
Continuous
 62
     7
100
AcDbPolyline
 90
        3
 70
   128
 43
0.0
 10
7120.6169128418
 20
5141.4866445213
 10
7120.9012451609
 20
5141.4429480331
 10
7121.1248331502
 20
5141.4334212988
  0
LWPOLYLINE
  5
1D8
330
1F
100
AcDbEntity
  8
0
  6
Continuous
 62
     7
100
AcDbPolyline
 90
        3
 70
   128
 43
0.0
 10
7121.1814880371
 20
5141.4334511011
 10
7121.5469123335
 20
5141.4660791517
 10
7121.8274303511
 20
5141.5245456248
  0
LWPOLYLINE
  5
1D9
330
1F
100
AcDbEntity
  8
0
  6
Continuous
 62
     7
100
AcDbPolyline
 90
        3
 70
   128
 43
0.0
 10
7121.826171875
 20
5141.5245456248
 10
7121.9322802776
 20
5141.551642048
 10
7122.0134266451
 20
5141.5772361308
  0
LWPOLYLINE
  5
1DA
330
1F
100
AcDbEntity
  8
0
  6
Continuous
 62
     7
100
AcDbPolyline
 90
        3
 70
   128
 43
0.0
 10
7122.013092041
 20
5141.5772361308
 10
7122.0641491163
 20
5141.5947547092
 10
7122.1036978797
 20
5141.6093704849
  0
LWPOLYLINE
  5
1DB
330
1F
100
AcDbEntity
  8
0
  6
Continuous
 62
     7
100
AcDbPolyline
 90
        3
 70
   128
 43
0.0
 10
7122.1008300781
 20
5141.6093704849
 10
7122.2776235186
 20
5141.6837974635
 10
7122.4118538931
 20
5141.7476420849
  0
LWPOLYLINE
  5
1DC
330
1F
100
AcDbEntity
  8
0
  6
Continuous
 62
     7
100
AcDbPolyline
 90
        3
 70
   128
 43
0.0
 10
7122.4098205566
 20
5141.7476420849
 10
7123.4520791286
 20
5142.8103182916
 10
7123.7726055816
 20
5143.9498772472
  0
LWPOLYLINE
  5
1DD
330
1F
100
AcDbEntity
  8
0
  6
Continuous
 62
     7
100
AcDbPolyline
 90
        3
 70
   128
 43
0.0
 10
7097.8927612305
 20
5143.0911717563
 10
7098.6041520653
 20
5143.4242315055
 10
7098.7258695797
 20
5144.0542859584
  0
LWPOLYLINE
  5
1DE
330
1F
100
AcDbEntity
  8
0
  6
Continuous
 62
     7
100
AcDbPolyline
 90
        3
 70
   128
 43
0.0
 10
7099.666595459
 20
5143.6023113876
 10
7098.9512242535
 20
5142.5155471361
 10
7097.9763709739
 20
5142.1607954055
  0
LWPOLYLINE
  5
1DF
330
1F
100
AcDbEntity
  8
0
  6
Continuous
 62
     7
100
AcDbPolyline
 90
        3
 70
   128
 43
0.0
 10
7099.1401672363
 20
5145.4264631122
 10
7099.6458555081
 20
5144.461611106
 10
7099.6672206358
 20
5143.6023113876
  0
LWPOLYLINE
  5
1E0
330
1F
100
AcDbEntity
  8
0
  6
Continuous
 62
     7
100
AcDbPolyline
 90
        3
 70
   128
 43
0.0
 10
7098.2704162598
 20
5146.372634694
 10
7098.7821647213
 20
5145.8642645466
 10
7099.1402857736
 20
5145.4264631122
  0
LWPOLYLINE
  5
1E1
330
1F
100
AcDbEntity
  8
0
  6
Continuous
 62
     7
100
AcDbPolyline
 90
        3
 70
   128
 43
0.0
 10
7097.3815917969
 20
5148.0522228032
 10
7097.6846827723
 20
5147.0077452991
 10
7098.272561355
 20
5146.372634694
  0
LWPOLYLINE
  5
1E2
330
1F
100
AcDbEntity
  8
0
  6
Continuous
 62
     7
100
AcDbPolyline
 90
        3
 70
   128
 43
0.0
 10
7098.4725952148
 20
5148.9303743094
 10
7097.6426690257
 20
5148.6734623603
 10
7097.3845862583
 20
5148.0522228032
  0
LWPOLYLINE
  5
1E3
330
1F
100
AcDbEntity
  8
0
  6
Continuous
 62
     7
100
AcDbPolyline
 90
        3
 70
   128
 43
0.0
 10
7096.4202880859
 20
5148.1158246845
 10
7097.1900447844
 20
5149.4870725049
 10
7098.4101586774
 20
5149.8236802965
  0
LWPOLYLINE
  5
1E4
330
1F
100
AcDbEntity
  8
0
  6
Continuous
 62
     7
100
AcDbPolyline
 90
        3
 70
   128
 43
0.0
 10
7097.5151062012
 20
5145.7925064116
 10
7096.5989236728
 20
5146.9665196143
 10
7096.4215689138
 20
5148.1158246845
  0
LWPOLYLINE
  5
1E5
330
1F
100
AcDbEntity
  8
0
  6
Continuous
 62
     7
100
AcDbPolyline
 90
        3
 70
   128
 43
0.0
 10
7098.7243652344
 20
5144.0542859584
 10
7098.1482610813
 20
5145.0880196293
 10
7097.5182943777
 20
5145.7925064116
  0
LWPOLYLINE
  5
1E6
330
1F
100
AcDbEntity
  8
0
  6
Continuous
 62
     7
100
AcDbPolyline
 90
        3
 70
   128
 43
0.0
 10
7125.1029968262
 20
5149.3582052737
 10
7125.6370900197
 20
5149.6077002703
 10
7125.7970922426
 20
5150.0446049124
  0
LWPOLYLINE
  5
1E7
330
1F
100
AcDbEntity
  8
0
  6
Continuous
 62
     7
100
AcDbPolyline
 90
        3
 70
   128
 43
0.0
 10
7125.7934570312
 20
5150.0446049124
 10
7125.544447573
 20
5150.578278066
 10
7125.1050674155
 20
5150.7411224395
  0
LWPOLYLINE
  5
1E8
330
1F
100
AcDbEntity
  8
0
  6
Continuous
 62
     7
100
AcDbPolyline
 90
        3
 70
   128
 43
0.0
 10
7125.0991821289
 20
5150.7411261648
 10
7124.568794876
 20
5150.4860762363
 10
7124.4140186146
 20
5150.0442808121
  0
LWPOLYLINE
  5
1E9
330
1F
100
AcDbEntity
  8
0
  6
Continuous
 62
     7
100
AcDbPolyline
 90
        3
 70
   128
 43
0.0
 10
7124.4125366211
 20
5150.0442808121
 10
7124.6632031691
 20
5149.5145089924
 10
7125.1004778579
 20
5149.3582127243
  0
LWPOLYLINE
  5
1EA
330
1F
100
AcDbEntity
  8
0
  6
Continuous
 62
     7
100
AcDbPolyline
 90
        3
 70
   128
 43
0.0
 10
7116.0354614258
 20
5148.4252100437
 10
7114.9305680154
 20
5147.8243576192
 10
7114.6190979317
 20
5146.8669881671
  0
LWPOLYLINE
  5
1EB
330
1F
100
AcDbEntity
  8
0
  6
Continuous
 62
     7
100
AcDbPolyline
 90
        3
 70
   128
 43
0.0
 10
7117.5918579102
 20
5146.9575089961
 10
7117.0903566426
 20
5148.100835653
 10
7116.1566220954
 20
5148.4250684827
  0
LWPOLYLINE
  5
1EC
330
1F
100
AcDbEntity
  8
0
  6
Continuous
 62
     7
100
AcDbPolyline
 90
        3
 70
   128
 43
0.0
 10
7101.8447875977
 20
5148.4309320896
 10
7100.7407368036
 20
5147.8331918353
 10
7100.4321717456
 20
5146.8779218942
  0
LWPOLYLINE
  5
1ED
330
1F
100
AcDbEntity
  8
0
  6
Continuous
 62
     7
100
AcDbPolyline
 90
        3
 70
   128
 43
0.0
 10
7103.3821105957
 20
5146.969608739
 10
7102.8929327887
 20
5148.1089026511
 10
7101.9676171973
 20
5148.4370899945
  0
LWPOLYLINE
  5
1EE
330
1F
100
AcDbEntity
  8
0
  6
Continuous
 62
     7
100
AcDbPolyline
 90
        6
 70
   128
 43
0.0
 10
7021.3508605957
 20
5122.539326325
 10
7022.9081991187
 20
5122.7206468052
 10
7023.356376217
 20
5122.9852875353
 10
7023.4969379766
 20
5123.3530836998
 10
7022.9499605202
 20
5124.2226017639
 10
7021.4970850185
 20
5124.7428355366
  0
LWPOLYLINE
  5
1EF
330
1F
100
AcDbEntity
  8
0
  6
Continuous
 62
     7
100
AcDbPolyline
 90
        6
 70
   128
 43
0.0
 10
7021.4958190918
 20
5124.7428355366
 10
7019.9673283552
 20
5124.157632699
 10
7019.5870618062
 20
5123.6821088925
 10
7019.5083015012
 20
5123.2308127997
 10
7019.9448692364
 20
5122.776456413
 10
7021.351903005
 20
5122.539326325
  0
LWPOLYLINE
  5
1F0
330
1F
100
AcDbEntity
  8
0
  6
Continuous
 62
     7
100
AcDbPolyline
 90
        6
 70
   128
 43
0.0
 10
7109.3482971191
 20
5122.539326325
 10
7110.9081984311
 20
5122.7206470654
 10
7111.3563820261
 20
5122.9852865808
 10
7111.4969441975
 20
5123.3530825986
 10
7110.9499562637
 20
5124.2225992657
 10
7109.4970845417
 20
5124.7428355366
  0
LWPOLYLINE
  5
1F1
330
1F
100
AcDbEntity
  8
0
  6
Continuous
 62
     7
100
AcDbPolyline
 90
        6
 70
   128
 43
0.0
 10
7109.4970703125
 20
5124.7428355366
 10
7107.9673278784
 20
5124.157632699
 10
7107.5870613294
 20
5123.6821088925
 10
7107.5083010243
 20
5123.2308127998
 10
7107.9448687606
 20
5122.7764564128
 10
7109.3519025281
 20
5122.539326325
  0
LWPOLYLINE
  5
1F2
330
1F
100
AcDbEntity
  8
0
  6
Continuous
 62
     7
100
AcDbPolyline
 90
        3
 70
   128
 43
0.0
 10
7125.3128051758
 20
5149.9168870598
 10
7125.2761945793
 20
5149.9632561519
 10
7125.2437823251
 20
5149.9965523928
  0
LWPOLYLINE
  5
1F3
330
1F
100
AcDbEntity
  8
0
  6
Continuous
 62
     7
100
AcDbPolyline
 90
        3
 70
   128
 43
0.0
 10
7125.186920166
 20
5150.0233856588
 10
7125.2697970195
 20
5150.046488683
 10
7125.3238835171
 20
5150.0815150886
  0
LWPOLYLINE
  5
1F4
330
1F
100
AcDbEntity
  8
0
  6
Continuous
 62
     7
100
AcDbPolyline
 90
        3
 70
   128
 43
0.0
 10
7125.3204345703
 20
5150.0815150886
 10
7125.3626551465
 20
5150.1426593253
 10
7125.3714629248
 20
5150.1989660412
  0
LWPOLYLINE
  5
1F5
330
1F
100
AcDbEntity
  8
0
  6
Continuous
 62
     7
100
AcDbPolyline
 90
        3
 70
   128
 43
0.0
 10
7125.3700256348
 20
5150.1989660412
 10
7125.3626593526
 20
5150.2541235605
 10
7125.3451251224
 20
5150.2943409234
  0
LWPOLYLINE
  5
1F6
330
1F
100
AcDbEntity
  8
0
  6
Continuous
 62
     7
100
AcDbPolyline
 90
        3
 70
   128
 43
0.0
 10
7125.3433227539
 20
5150.2943409234
 10
7125.3076657409
 20
5150.3328824107
 10
7125.270574613
 20
5150.3530365973
  0
LWPOLYLINE
  5
1F7
330
1F
100
AcDbEntity
  8
0
  6
Continuous
 62
     7
100
AcDbPolyline
 90
        3
 70
   128
 43
0.0
 10
7125.2670288086
 20
5150.3530365973
 10
7125.1999549889
 20
5150.3705302779
 10
7125.1427524522
 20
5150.3741701692
  0
LWPOLYLINE
  5
1F8
330
1F
100
AcDbEntity
  8
0
  6
Continuous
 62
     7
100
AcDbPolyline
 90
        3
 70
   128
 43
0.0
 10
7125.1678466797
 20
5149.9592808634
 10
7125.2064905121
 20
5149.9126270109
 10
7125.2331950501
 20
5149.8740909248
  0
LWPOLYLINE
  5
1F9
330
1F
100
AcDbEntity
  8
0
  6
Continuous
 62
     7
100
AcDbPolyline
 90
        3
 70
   128
 43
0.0
 10
7125.7171630859
 20
5150.0446011871
 10
7125.4925488667
 20
5149.5774432711
 10
7125.1055368022
 20
5149.4380978495
  0
LWPOLYLINE
  5
1FA
330
1F
100
AcDbEntity
  8
0
  6
Continuous
 62
     7
100
AcDbPolyline
 90
        3
 70
   128
 43
0.0
 10
7125.1029968262
 20
5149.4380978495
 10
7124.6344575046
 20
5149.657009638
 10
7124.4943284229
 20
5150.0442882627
  0
LWPOLYLINE
  5
1FB
330
1F
100
AcDbEntity
  8
0
  6
Continuous
 62
     7
100
AcDbPolyline
 90
        3
 70
   128
 43
0.0
 10
7124.4926452637
 20
5150.0442882627
 10
7124.7148636277
 20
5150.5193987927
 10
7125.1051717237
 20
5150.6609690934
  0
LWPOLYLINE
  5
1FC
330
1F
100
AcDbEntity
  8
0
  6
Continuous
 62
     7
100
AcDbPolyline
 90
        3
 70
   128
 43
0.0
 10
7125.1029968262
 20
5150.6609690934
 10
7125.5774684085
 20
5150.4356057416
 10
7125.717303975
 20
5150.0446011871
  0
LWPOLYLINE
  5
1FD
330
1F
100
AcDbEntity
  8
0
  6
Continuous
 62
     7
100
AcDbPolyline
 90
        3
 70
   128
 43
0.0
 10
7125.2479553223
 20
5150.2730657905
 10
7125.2751322459
 20
5150.234887912
 10
7125.28093092
 20
5150.1989734917
  0
LWPOLYLINE
  5
1FE
330
1F
100
AcDbEntity
  8
0
  6
Continuous
 62
     7
100
AcDbPolyline
 90
        3
 70
   128
 43
0.0
 10
7125.2136230469
 20
5150.1027268916
 10
7125.16699924
 20
5150.0943037797
 10
7125.1269050673
 20
5150.0922439247
  0
LWPOLYLINE
  5
1FF
330
1F
100
AcDbEntity
  8
0
  6
Continuous
 62
     7
100
AcDbPolyline
 90
        3
 70
   128
 43
0.0
 10
7125.1449584961
 20
5150.299854353
 10
7125.2071817788
 20
5150.2930103904
 10
7125.2490871385
 20
5150.2730657905
  0
LWPOLYLINE
  5
200
330
1F
100
AcDbEntity
  8
0
  6
Continuous
 62
     7
100
AcDbPolyline
 90
        3
 70
   128
 43
0.0
 10
7120.6169128418
 20
5147.6818283647
 10
7120.8686312301
 20
5147.934291376
 10
7121.1228885487
 20
5148.0436695367
  0
LWPOLYLINE
  5
201
330
1F
100
AcDbEntity
  8
0
  6
Continuous
 62
     7
100
AcDbPolyline
 90
        3
 70
   128
 43
0.0
 10
7121.1204528809
 20
5148.0436695367
 10
7121.5591988285
 20
5147.9197193791
 10
7121.8256422118
 20
5147.6717738062
  0
LWPOLYLINE
  5
202
330
1F
100
AcDbEntity
  8
0
  6
Continuous
 62
     7
100
AcDbPolyline
 90
        3
 70
   128
 43
0.0
 10
7121.8223571777
 20
5147.6717738062
 10
7121.8730315358
 20
5147.6092279329
 10
7121.9101541475
 20
5147.5600001961
  0
LWPOLYLINE
  5
203
330
1F
100
AcDbEntity
  8
0
  6
Continuous
 62
     7
100
AcDbPolyline
 90
        3
 70
   128
 43
0.0
 10
7121.9100952148
 20
5147.5600001961
 10
7121.9673148423
 20
5147.5861100201
 10
7122.011705561
 20
5147.6077286154
  0
LWPOLYLINE
  5
204
330
1F
100
AcDbEntity
  8
0
  6
Continuous
 62
     7
100
AcDbPolyline
 90
        3
 70
   128
 43
0.0
 10
7122.0092773438
 20
5147.6077286154
 10
7122.061786758
 20
5147.6296525894
 10
7122.1018724874
 20
5147.6450821012
  0
LWPOLYLINE
  5
205
330
1F
100
AcDbEntity
  8
0
  6
Continuous
 62
     7
100
AcDbPolyline
 90
        3
 70
   128
 43
0.0
 10
7122.1008300781
 20
5147.6450821012
 10
7122.2725949128
 20
5147.710088373
 10
7122.4099986986
 20
5147.7515732497
  0
LWPOLYLINE
  5
206
330
1F
100
AcDbEntity
  8
0
  6
Continuous
 62
     7
100
AcDbPolyline
 90
        3
 70
   128
 43
0.0
 10
7122.4098205566
 20
5147.7515732497
 10
7122.9335350153
 20
5147.8193293085
 10
7123.3459853366
 20
5147.7733214944
  0
LWPOLYLINE
  5
207
330
1F
100
AcDbEntity
  8
0
  6
Continuous
 62
     7
100
AcDbPolyline
 90
        3
 70
   128
 43
0.0
 10
7123.3444213867
 20
5147.7733214944
 10
7122.8112305921
 20
5147.6978997149
 10
7122.4100732044
 20
5147.5602646917
  0
LWPOLYLINE
  5
208
330
1F
100
AcDbEntity
  8
0
  6
Continuous
 62
     7
100
AcDbPolyline
 90
        3
 70
   128
 43
0.0
 10
7122.4098205566
 20
5147.5602646917
 10
7122.2363326473
 20
5147.4759917427
 10
7122.1018948391
 20
5147.4056651443
  0
LWPOLYLINE
  5
209
330
1F
100
AcDbEntity
  8
0
  6
Continuous
 62
     7
100
AcDbPolyline
 90
        3
 70
   128
 43
0.0
 10
7122.1008300781
 20
5147.4056651443
 10
7122.052785735
 20
5147.3708843572
 10
7122.0116981104
 20
5147.3474835604
  0
LWPOLYLINE
  5
20A
330
1F
100
AcDbEntity
  8
0
  6
Continuous
 62
     7
100
AcDbPolyline
 90
        3
 70
   128
 43
0.0
 10
7122.0092773438
 20
5147.3474835604
 10
7121.9075647659
 20
5147.2758713681
 10
7121.825709267
 20
5147.2196576744
  0
LWPOLYLINE
  5
20B
330
1F
100
AcDbEntity
  8
0
  6
Continuous
 62
     7
100
AcDbPolyline
 90
        3
 70
   128
 43
0.0
 10
7121.8223571777
 20
5147.2196576744
 10
7121.537706342
 20
5147.0690417111
 10
7121.2831132844
 20
5147.0545937866
  0
LWPOLYLINE
  5
20C
330
1F
100
AcDbEntity
  8
0
  6
Continuous
 62
     7
100
AcDbPolyline
 90
        6
 70
   128
 43
0.0
 10
7121.280670166
 20
5147.0545937866
 10
7121.2574122025
 20
5147.0700383328
 10
7121.2444501478
 20
5147.0981041451
 10
7121.2381752358
 20
5147.1596508808
 10
7121.2539534271
 20
5147.2193012942
 10
7121.3040270642
 20
5147.2510953992
  0
LWPOLYLINE
  5
20D
330
1F
100
AcDbEntity
  8
0
  6
Continuous
 62
     7
100
AcDbPolyline
 90
        3
 70
   128
 43
0.0
 10
7121.4256286621
 20
5147.2511512786
 10
7121.4808860613
 20
5147.273717571
 10
7121.5007819966
 20
5147.3151890188
  0
LWPOLYLINE
  5
20E
330
1F
100
AcDbEntity
  8
0
  6
Continuous
 62
     7
100
AcDbPolyline
 90
        3
 70
   128
 43
0.0
 10
7121.4981079102
 20
5147.3151890188
 10
7121.4706759824
 20
5147.3647209736
 10
7121.4264475539
 20
5147.3791038245
  0
LWPOLYLINE
  5
20F
330
1F
100
AcDbEntity
  8
0
  6
Continuous
 62
     7
100
AcDbPolyline
 90
        3
 70
   128
 43
0.0
 10
7120.9335327148
 20
5147.3788207024
 10
7120.8845970294
 20
5147.3546019714
 10
7120.8625801638
 20
5147.3149878531
  0
LWPOLYLINE
  5
210
330
1F
100
AcDbEntity
  8
0
  6
Continuous
 62
     7
100
AcDbPolyline
 90
        3
 70
   128
 43
0.0
 10
7120.8610534668
 20
5147.3149878531
 10
7120.8915414701
 20
5147.2635168735
 10
7120.9373318389
 20
5147.2508718818
  0
LWPOLYLINE
  5
211
330
1F
100
AcDbEntity
  8
0
  6
Continuous
 62
     7
100
AcDbPolyline
 90
        7
 70
   128
 43
0.0
 10
7121.0517883301
 20
5147.2509352117
 10
7121.082104662
 20
5147.2399866061
 10
7121.0991554015
 20
5147.2148718158
 10
7121.1101182536
 20
5147.155463478
 10
7121.0992083886
 20
5147.0960425709
 10
7121.0821751435
 20
5147.0709177622
 10
7121.05450712
 20
5147.0599395781
  0
LWPOLYLINE
  5
212
330
1F
100
AcDbEntity
  8
0
  6
Continuous
 62
     7
100
AcDbPolyline
 90
        3
 70
   128
 43
0.0
 10
7121.0517883301
 20
5147.0599395781
 10
7120.8046027435
 20
5147.1050543766
 10
7120.6180819109
 20
5147.1766901761
  0
LWPOLYLINE
  5
213
330
1F
100
AcDbEntity
  8
0
  6
Continuous
 62
     7
100
AcDbPolyline
 90
        3
 70
   128
 43
0.0
 10
7120.6169128418
 20
5147.1766901761
 10
7120.2585373213
 20
5147.35722899
 10
7119.9796640113
 20
5147.5060840696
  0
LWPOLYLINE
  5
214
330
1F
100
AcDbEntity
  8
0
  6
Continuous
 62
     7
100
AcDbPolyline
 90
        3
 70
   128
 43
0.0
 10
7119.9760437012
 20
5147.5060840696
 10
7119.7451477592
 20
5147.6245835565
 10
7119.5541911558
 20
5147.7030252665
  0
LWPOLYLINE
  5
215
330
1F
100
AcDbEntity
  8
0
  6
Continuous
 62
     7
100
AcDbPolyline
 90
        3
 70
   128
 43
0.0
 10
7119.5526123047
 20
5147.7030252665
 10
7119.1904828056
 20
5147.8087058245
 10
7118.8952841595
 20
5147.8462515026
  0
LWPOLYLINE
  5
216
330
1F
100
AcDbEntity
  8
0
  6
Continuous
 62
     7
100
AcDbPolyline
 90
        3
 70
   128
 43
0.0
 10
7118.8926696777
 20
5147.8462515026
 10
7119.2652158741
 20
5147.8767147145
 10
7119.5541390017
 20
5147.8303035348
  0
LWPOLYLINE
  5
217
330
1F
100
AcDbEntity
  8
0
  6
Continuous
 62
     7
100
AcDbPolyline
 90
        3
 70
   128
 43
0.0
 10
7119.5526123047
 20
5147.8303035348
 10
7120.0865011091
 20
5147.6654507742
 10
7120.4903193549
 20
5147.4957948178
  0
LWPOLYLINE
  5
218
330
1F
100
AcDbEntity
  8
0
  6
Continuous
 62
     7
100
AcDbPolyline
 90
        3
 70
   128
 43
0.0
 10
7120.4872131348
 20
5147.4957948178
 10
7120.5615626319
 20
5147.6001018762
 10
7120.6178732947
 20
5147.6818283647
  0
LWPOLYLINE
  5
219
330
1F
100
AcDbEntity
  8
0
  6
Continuous
 62
     7
100
AcDbPolyline
 90
        3
 70
   128
 43
0.0
 10
7120.6169128418
 20
5148.4741864353
 10
7120.0119653831
 20
5148.3710455303
 10
7119.5541017488
 20
5148.2187544554
  0
LWPOLYLINE
  5
21A
330
1F
100
AcDbEntity
  8
0
  6
Continuous
 62
     7
100
AcDbPolyline
 90
        3
 70
   128
 43
0.0
 10
7119.5526123047
 20
5148.2187544554
 10
7119.10490782
 20
5148.0145491998
 10
7118.7579252556
 20
5147.8415613621
  0
LWPOLYLINE
  5
21B
330
1F
100
AcDbEntity
  8
0
  6
Continuous
 62
     7
100
AcDbPolyline
 90
        3
 70
   128
 43
0.0
 10
7118.7553405762
 20
5147.8415613621
 10
7118.7938841822
 20
5147.926086806
 10
7118.8379891947
 20
5147.9838301986
  0
LWPOLYLINE
  5
21C
330
1F
100
AcDbEntity
  8
0
  6
Continuous
 62
     7
100
AcDbPolyline
 90
        3
 70
   128
 43
0.0
 10
7118.8316345215
 20
5147.98192285
 10
7119.2292291349
 20
5148.3212802023
 10
7119.5539080337
 20
5148.5696917027
  0
LWPOLYLINE
  5
21D
330
1F
100
AcDbEntity
  8
0
  6
Continuous
 62
     7
100
AcDbPolyline
 90
        3
 70
   128
 43
0.0
 10
7119.5526123047
 20
5148.5696917027
 10
7119.9710401564
 20
5148.8439236287
 10
7120.3148432807
 20
5149.0327117592
  0
LWPOLYLINE
  5
21E
330
1F
100
AcDbEntity
  8
0
  6
Continuous
 62
     7
100
AcDbPolyline
 90
        3
 70
   128
 43
0.0
 10
7120.3117370605
 20
5149.0327117592
 10
7120.4754418415
 20
5148.8927752203
 10
7120.6174858645
 20
5148.8039826601
  0
LWPOLYLINE
  5
21F
330
1F
100
AcDbEntity
  8
0
  6
Continuous
 62
     7
100
AcDbPolyline
 90
        3
 70
   128
 43
0.0
 10
7120.6169128418
 20
5148.8039826601
 10
7120.8921650256
 20
5148.6897574214
 10
7121.1227991417
 20
5148.6499903351
  0
LWPOLYLINE
  5
220
330
1F
100
AcDbEntity
  8
0
  6
Continuous
 62
     7
100
AcDbPolyline
 90
        3
 70
   128
 43
0.0
 10
7121.1853027344
 20
5148.6446408182
 10
7121.5585902322
 20
5148.6819741937
 10
7121.8251653746
 20
5148.7988901883
  0
LWPOLYLINE
  5
221
330
1F
100
AcDbEntity
  8
0
  6
Continuous
 62
     7
100
AcDbPolyline
 90
        3
 70
   128
 43
0.0
 10
7121.8223571777
 20
5148.7988901883
 10
7121.9312386498
 20
5148.8830627734
 10
7122.0111765698
 20
5148.9532811194
  0
LWPOLYLINE
  5
222
330
1F
100
AcDbEntity
  8
0
  6
Continuous
 62
     7
100
AcDbPolyline
 90
        3
 70
   128
 43
0.0
 10
7122.0359802246
 20
5148.9745376259
 10
7122.0747018071
 20
5148.9627118792
 10
7122.1016042665
 20
5148.9480023831
  0
LWPOLYLINE
  5
223
330
1F
100
AcDbEntity
  8
0
  6
Continuous
 62
     7
100
AcDbPolyline
 90
        3
 70
   128
 43
0.0
 10
7122.1008300781
 20
5148.9480023831
 10
7122.2745650215
 20
5148.8652968175
 10
7122.4098273352
 20
5148.799001947
  0
LWPOLYLINE
  5
224
330
1F
100
AcDbEntity
  8
0
  6
Continuous
 62
     7
100
AcDbPolyline
 90
        3
 70
   128
 43
0.0
 10
7122.4098205566
 20
5148.799001947
 10
7123.0689196756
 20
5148.3865361093
 10
7123.481168671
 20
5147.9361427575
  0
LWPOLYLINE
  5
225
330
1F
100
AcDbEntity
  8
0
  6
Continuous
 62
     7
100
AcDbPolyline
 90
        3
 70
   128
 43
0.0
 10
7123.4855651855
 20
5147.7324774116
 10
7122.9166325923
 20
5148.1186039976
 10
7122.4099614457
 20
5148.3153624087
  0
LWPOLYLINE
  5
226
330
1F
100
AcDbEntity
  8
0
  6
Continuous
 62
     7
100
AcDbPolyline
 90
        3
 70
   128
 43
0.0
 10
7122.4098205566
 20
5148.3153624087
 10
7122.238072182
 20
5148.3655253791
 10
7122.1017681793
 20
5148.4003847092
  0
LWPOLYLINE
  5
227
330
1F
100
AcDbEntity
  8
0
  6
Continuous
 62
     7
100
AcDbPolyline
 90
        3
 70
   128
 43
0.0
 10
7122.1008300781
 20
5148.4003847092
 10
7122.0511888128
 20
5148.4096219673
 10
7122.0113479332
 20
5148.4163103252
  0
LWPOLYLINE
  5
228
330
1F
100
AcDbEntity
  8
0
  6
Continuous
 62
     7
100
AcDbPolyline
 90
        3
 70
   128
 43
0.0
 10
7122.0092773438
 20
5148.4163103252
 10
7121.9075270708
 20
5148.4364468523
 10
7121.825247331
 20
5148.4480609744
  0
LWPOLYLINE
  5
229
330
1F
100
AcDbEntity
  8
0
  6
Continuous
 62
     7
100
AcDbPolyline
 90
        3
 70
   128
 43
0.0
 10
7121.8223571777
 20
5148.4480609744
 10
7121.4655757655
 20
5148.4871536479
 10
7121.1814203099
 20
5148.4958191961
  0
LWPOLYLINE
  5
22A
330
1F
100
AcDbEntity
  8
0
  6
Continuous
 62
     7
100
AcDbPolyline
 90
        3
 70
   128
 43
0.0
 10
7121.1204528809
 20
5148.4957893937
 10
7120.8395963662
 20
5148.490153174
 10
7120.6176050738
 20
5148.4741864353
  0
LWPOLYLINE
  5
22B
330
1F
100
AcDbEntity
  8
0
  6
Continuous
 62
     7
100
AcDbPolyline
 90
        3
 70
   128
 43
0.0
 10
7123.477935791
 20
5147.9361427575
 10
7123.5057842308
 20
5147.8215075655
 10
7123.4878443912
 20
5147.7324774116
  0
LWPOLYLINE
  5
22C
330
1F
100
AcDbEntity
  8
0
  6
Continuous
 62
     7
100
AcDbPolyline
 90
        3
 70
   128
 43
0.0
 10
7122.9972839355
 20
5149.0012665838
 10
7123.3774823024
 20
5149.7742204601
 10
7123.505204244
 20
5150.4373585432
  0
LWPOLYLINE
  5
22D
330
1F
100
AcDbEntity
  8
0
  6
Continuous
 62
     7
100
AcDbPolyline
 90
        3
 70
   128
 43
0.0
 10
7123.5046386719
 20
5150.4373585432
 10
7122.8582369535
 20
5150.1877102862
 10
7122.4093952015
 20
5149.8785240203
  0
LWPOLYLINE
  5
22E
330
1F
100
AcDbEntity
  8
0
  6
Continuous
 62
     7
100
AcDbPolyline
 90
        3
 70
   128
 43
0.0
 10
7122.4060058594
 20
5149.8785240203
 10
7122.2488470574
 20
5149.7417765454
 10
7122.1278601125
 20
5149.6285495907
  0
LWPOLYLINE
  5
22F
330
1F
100
AcDbEntity
  8
0
  6
Continuous
 62
     7
100
AcDbPolyline
 90
        3
 70
   128
 43
0.0
 10
7122.1008300781
 20
5149.6447024494
 10
7122.0503167889
 20
5149.6674840389
 10
7122.0109381512
 20
5149.6870329231
  0
LWPOLYLINE
  5
230
330
1F
100
AcDbEntity
  8
0
  6
Continuous
 62
     7
100
AcDbPolyline
 90
        3
 70
   128
 43
0.0
 10
7122.0092773438
 20
5149.7456354647
 10
7122.0623202439
 20
5149.7924817511
 10
7122.1013434962
 20
5149.8307397216
  0
LWPOLYLINE
  5
231
330
1F
100
AcDbEntity
  8
0
  6
Continuous
 62
     7
100
AcDbPolyline
 90
        3
 70
   128
 43
0.0
 10
7122.1008300781
 20
5149.8307397216
 10
7122.2719281215
 20
5149.9729848697
 10
7122.4093281463
 20
5150.0805800408
  0
LWPOLYLINE
  5
232
330
1F
100
AcDbEntity
  8
0
  6
Continuous
 62
     7
100
AcDbPolyline
 90
        3
 70
   128
 43
0.0
 10
7122.4060058594
 20
5150.0805800408
 10
7123.08987505
 20
5150.4798405406
 10
7123.6908578113
 20
5150.6338638812
  0
LWPOLYLINE
  5
233
330
1F
100
AcDbEntity
  8
0
  6
Continuous
 62
     7
100
AcDbPolyline
 90
        3
 70
   128
 43
0.0
 10
7123.6877441406
 20
5150.6338638812
 10
7123.4837694683
 20
5149.5902152967
 10
7123.1064789728
 20
5148.8418688625
  0
LWPOLYLINE
  5
234
330
1F
100
AcDbEntity
  8
0
  6
Continuous
 62
     7
100
AcDbPolyline
 90
        3
 70
   128
 43
0.0
 10
7123.104095459
 20
5148.8418688625
 10
7123.0509661172
 20
5148.9339411482
 10
7122.9999133185
 20
5149.0012665838
  0
LWPOLYLINE
  5
235
330
1F
100
AcDbEntity
  8
0
  6
Continuous
 62
     7
100
AcDbPolyline
 90
        3
 70
   128
 43
0.0
 10
7122.0245361328
 20
5145.9647563845
 10
7122.0652778941
 20
5146.1622925447
 10
7122.1024238304
 20
5146.3158091157
  0
LWPOLYLINE
  5
236
330
1F
100
AcDbEntity
  8
0
  6
Continuous
 62
     7
100
AcDbPolyline
 90
        3
 70
   128
 43
0.0
 10
7122.1008300781
 20
5146.3158091157
 10
7122.1397127406
 20
5146.4294443702
 10
7122.1711926893
 20
5146.5179843455
  0
LWPOLYLINE
  5
237
330
1F
100
AcDbEntity
  8
0
  6
Continuous
 62
     7
100
AcDbPolyline
 90
        3
 70
   128
 43
0.0
 10
7122.1694946289
 20
5146.5179843455
 10
7122.3051973127
 20
5146.5139690298
 10
7122.410453184
 20
5146.518002972
  0
LWPOLYLINE
  5
238
330
1F
100
AcDbEntity
  8
0
  6
Continuous
 62
     7
100
AcDbPolyline
 90
        3
 70
   128
 43
0.0
 10
7122.4098205566
 20
5146.518002972
 10
7122.6671763263
 20
5146.541446147
 10
7122.8675463036
 20
5146.5711889416
  0
LWPOLYLINE
  5
239
330
1F
100
AcDbEntity
  8
0
  6
Continuous
 62
     7
100
AcDbPolyline
 90
        3
 70
   128
 43
0.0
 10
7122.8637695312
 20
5146.5711889416
 10
7123.0881809753
 20
5146.2994209041
 10
7123.2241087392
 20
5146.0608614236
  0
LWPOLYLINE
  5
23A
330
1F
100
AcDbEntity
  8
0
  6
Continuous
 62
     7
100
AcDbPolyline
 90
        3
 70
   128
 43
0.0
 10
7122.4098205566
 20
5145.9168491512
 10
7122.2375653342
 20
5145.9335400234
 10
7122.1024983362
 20
5145.9540722519
  0
LWPOLYLINE
  5
23B
330
1F
100
AcDbEntity
  8
0
  6
Continuous
 62
     7
100
AcDbPolyline
 90
        3
 70
   128
 43
0.0
 10
7122.1008300781
 20
5145.9540722519
 10
7122.0607777604
 20
5145.9600740295
 10
7122.0279925302
 20
5145.9647563845
  0
LWPOLYLINE
  5
23C
330
1F
100
AcDbEntity
  8
0
  6
Continuous
 62
     7
100
AcDbPolyline
 90
        3
 70
   128
 43
0.0
 10
7123.2223510742
 20
5146.0608614236
 10
7122.7764122978
 20
5145.930138532
 10
7122.4106468991
 20
5145.9168491512
  0
LWPOLYLINE
  5
23D
330
1F
100
AcDbEntity
  8
0
  6
Continuous
 62
     7
100
AcDbPolyline
 90
        3
 70
   128
 43
0.0
 10
7120.6169128418
 20
5148.8997412473
 10
7120.458145517
 20
5149.0158319124
 10
7120.3461655215
 20
5149.1227483004
  0
LWPOLYLINE
  5
23E
330
1F
100
AcDbEntity
  8
0
  6
Continuous
 62
     7
100
AcDbPolyline
 90
        3
 70
   128
 43
0.0
 10
7120.3460693359
 20
5149.1227483004
 10
7119.8896482958
 20
5148.8922485545
 10
7119.5539303855
 20
5148.6709786206
  0
LWPOLYLINE
  5
23F
330
1F
100
AcDbEntity
  8
0
  6
Continuous
 62
     7
100
AcDbPolyline
 90
        3
 70
   128
 43
0.0
 10
7119.5526123047
 20
5148.6709786206
 10
7119.1839431816
 20
5148.3842859411
 10
7118.9054691032
 20
5148.1440512091
  0
LWPOLYLINE
  5
240
330
1F
100
AcDbEntity
  8
0
  6
Continuous
 62
     7
100
AcDbPolyline
 90
        3
 70
   128
 43
0.0
 10
7118.9041137695
 20
5148.1440512091
 10
7119.2002420509
 20
5148.7865378852
 10
7119.5538707808
 20
5149.2132691294
  0
LWPOLYLINE
  5
241
330
1F
100
AcDbEntity
  8
0
  6
Continuous
 62
     7
100
AcDbPolyline
 90
        3
 70
   128
 43
0.0
 10
7119.5526123047
 20
5149.2132691294
 10
7120.1140346831
 20
5149.5781886483
 10
7120.6172772482
 20
5149.729251638
  0
LWPOLYLINE
  5
242
330
1F
100
AcDbEntity
  8
0
  6
Continuous
 62
     7
100
AcDbPolyline
 90
        3
 70
   128
 43
0.0
 10
7120.6169128418
 20
5149.729251638
 10
7120.8932784372
 20
5149.7692198627
 10
7121.1119883493
 20
5149.7827542573
  0
LWPOLYLINE
  5
243
330
1F
100
AcDbEntity
  8
0
  6
Continuous
 62
     7
100
AcDbPolyline
 90
        3
 70
   128
 43
0.0
 10
7121.1204528809
 20
5149.7827393561
 10
7121.5207749983
 20
5149.7575737989
 10
7121.8250014618
 20
5149.6818361431
  0
LWPOLYLINE
  5
244
330
1F
100
AcDbEntity
  8
0
  6
Continuous
 62
     7
100
AcDbPolyline
 90
        3
 70
   128
 43
0.0
 10
7121.8223571777
 20
5149.6818361431
 10
7121.9300966416
 20
5149.6456317381
 10
7122.0109530524
 20
5149.6126202494
  0
LWPOLYLINE
  5
245
330
1F
100
AcDbEntity
  8
0
  6
Continuous
 62
     7
100
AcDbPolyline
 90
        3
 70
   128
 43
0.0
 10
7122.0092773438
 20
5149.6126202494
 10
7122.0626995419
 20
5149.5911058458
 10
7122.1014403537
 20
5149.5701854676
  0
LWPOLYLINE
  5
246
330
1F
100
AcDbEntity
  8
0
  6
Continuous
 62
     7
100
AcDbPolyline
 90
        3
 70
   128
 43
0.0
 10
7122.1008300781
 20
5149.5701854676
 10
7122.2774982203
 20
5149.4811830999
 10
7122.4096336201
 20
5149.4001557678
  0
LWPOLYLINE
  5
247
330
1F
100
AcDbEntity
  8
0
  6
Continuous
 62
     7
100
AcDbPolyline
 90
        3
 70
   128
 43
0.0
 10
7122.4060058594
 20
5149.4001557678
 10
7123.0006008109
 20
5148.8486251947
 10
7123.2873865202
 20
5148.2835931331
  0
LWPOLYLINE
  5
248
330
1F
100
AcDbEntity
  8
0
  6
Continuous
 62
     7
100
AcDbPolyline
 90
        3
 70
   128
 43
0.0
 10
7123.2872009277
 20
5148.2835931331
 10
7122.823340012
 20
5148.6679738256
 10
7122.4097453788
 20
5148.9002888649
  0
LWPOLYLINE
  5
249
330
1F
100
AcDbEntity
  8
0
  6
Continuous
 62
     7
100
AcDbPolyline
 90
        3
 70
   128
 43
0.0
 10
7122.4060058594
 20
5148.9002888649
 10
7122.2381887061
 20
5148.9799925206
 10
7122.101507409
 20
5149.0383853763
  0
LWPOLYLINE
  5
24A
330
1F
100
AcDbEntity
  8
0
  6
Continuous
 62
     7
100
AcDbPolyline
 90
        3
 70
   128
 43
0.0
 10
7122.1008300781
 20
5149.0383853763
 10
7122.0600836752
 20
5149.0568118533
 10
7122.0270314053
 20
5149.0700987726
  0
LWPOLYLINE
  5
24B
330
1F
100
AcDbEntity
  8
0
  6
Continuous
 62
     7
100
AcDbPolyline
 90
        3
 70
   128
 43
0.0
 10
7122.0092773438
 20
5149.0543594211
 10
7121.9107048074
 20
5148.9633902212
 10
7121.8250759676
 20
5148.9001771062
  0
LWPOLYLINE
  5
24C
330
1F
100
AcDbEntity
  8
0
  6
Continuous
 62
     7
100
AcDbPolyline
 90
        3
 70
   128
 43
0.0
 10
7121.8223571777
 20
5148.9001771062
 10
7121.4804923461
 20
5148.753460812
 10
7121.1867623761
 20
5148.7245333939
  0
LWPOLYLINE
  5
24D
330
1F
100
AcDbEntity
  8
0
  6
Continuous
 62
     7
100
AcDbPolyline
 90
        3
 70
   128
 43
0.0
 10
7121.1204528809
 20
5148.7297786027
 10
7120.8288453545
 20
5148.7940949579
 10
7120.6175007657
 20
5148.8997412473
  0
LWPOLYLINE
  5
24E
330
1F
100
AcDbEntity
  8
0
  6
Continuous
 62
     7
100
AcDbPolyline
 90
        3
 70
   128
 43
0.0
 10
7123.5466003418
 20
5145.3162168711
 10
7123.6371108703
 20
5144.941693604
 10
7123.6658611134
 20
5144.641078785
  0
LWPOLYLINE
  5
24F
330
1F
100
AcDbEntity
  8
0
  6
Continuous
 62
     7
100
AcDbPolyline
 90
        3
 70
   128
 43
0.0
 10
7122.4098205566
 20
5144.4704269618
 10
7122.2377739606
 20
5144.4929907549
 10
7122.10280381
 20
5144.5181367546
  0
LWPOLYLINE
  5
250
330
1F
100
AcDbEntity
  8
0
  6
Continuous
 62
     7
100
AcDbPolyline
 90
        3
 70
   128
 43
0.0
 10
7122.1008300781
 20
5144.5181367546
 10
7122.0518613793
 20
5144.5283027611
 10
7122.0126070813
 20
5144.5394863933
  0
LWPOLYLINE
  5
251
330
1F
100
AcDbEntity
  8
0
  6
Continuous
 62
     7
100
AcDbPolyline
 90
        3
 70
   128
 43
0.0
 10
7122.0092773438
 20
5144.5394863933
 10
7121.9164934114
 20
5144.5641522778
 10
7121.8420260385
 20
5144.5872371643
  0
LWPOLYLINE
  5
252
330
1F
100
AcDbEntity
  8
0
  6
Continuous
 62
     7
100
AcDbPolyline
 90
        3
 70
   128
 43
0.0
 10
7121.8414306641
 20
5144.5872371643
 10
7121.8661780705
 20
5144.9591601276
 10
7121.9215907887
 20
5145.2465837449
  0
LWPOLYLINE
  5
253
330
1F
100
AcDbEntity
  8
0
  6
Continuous
 62
     7
100
AcDbPolyline
 90
        3
 70
   128
 43
0.0
 10
7121.9215393066
 20
5145.2465837449
 10
7121.9729852033
 20
5145.2337094137
 10
7122.0124059156
 20
5145.2203241735
  0
LWPOLYLINE
  5
254
330
1F
100
AcDbEntity
  8
0
  6
Continuous
 62
     7
100
AcDbPolyline
 90
        3
 70
   128
 43
0.0
 10
7122.0092773438
 20
5145.2203241735
 10
7122.0628497001
 20
5145.2080585071
 10
7122.1026026443
 20
5145.1989223808
  0
LWPOLYLINE
  5
255
330
1F
100
AcDbEntity
  8
0
  6
Continuous
 62
     7
100
AcDbPolyline
 90
        3
 70
   128
 43
0.0
 10
7122.1008300781
 20
5145.1989223808
 10
7122.2745687408
 20
5145.1719782134
 10
7122.410967274
 20
5145.1618557423
  0
LWPOLYLINE
  5
256
330
1F
100
AcDbEntity
  8
0
  6
Continuous
 62
     7
100
AcDbPolyline
 90
        3
 70
   128
 43
0.0
 10
7122.4098205566
 20
5145.1618557423
 10
7123.05971754
 20
5145.1821616752
 10
7123.5487603382
 20
5145.3162168711
  0
LWPOLYLINE
  5
257
330
1F
100
AcDbEntity
  8
0
  6
Continuous
 62
     7
100
AcDbPolyline
 90
        3
 70
   128
 43
0.0
 10
7123.664855957
 20
5144.641078785
 10
7122.9753061232
 20
5144.4632397664
 10
7122.4110492304
 20
5144.4704269618
  0
LWPOLYLINE
  5
258
330
1F
100
AcDbEntity
  8
0
  6
Continuous
 62
     7
100
AcDbPolyline
 90
        3
 70
   128
 43
0.0
 10
7122.4098205566
 20
5143.6889728158
 10
7123.1215414782
 20
5143.7103622025
 10
7123.6715608076
 20
5143.8114566356
  0
LWPOLYLINE
  5
259
330
1F
100
AcDbEntity
  8
0
  6
Continuous
 62
     7
100
AcDbPolyline
 90
        3
 70
   128
 43
0.0
 10
7123.6686706543
 20
5143.8114566356
 10
7123.1726660429
 20
5142.580212298
 10
7122.4118091897
 20
5141.8754903227
  0
LWPOLYLINE
  5
25A
330
1F
100
AcDbEntity
  8
0
  6
Continuous
 62
     7
100
AcDbPolyline
 90
        3
 70
   128
 43
0.0
 10
7122.4098205566
 20
5141.8754903227
 10
7122.2411174649
 20
5141.788110659
 10
7122.1036308244
 20
5141.7264712602
  0
LWPOLYLINE
  5
25B
330
1F
100
AcDbEntity
  8
0
  6
Continuous
 62
     7
100
AcDbPolyline
 90
        3
 70
   128
 43
0.0
 10
7122.1008300781
 20
5141.7264712602
 10
7122.0534234397
 20
5141.7048296785
 10
7122.013463898
 20
5141.689061895
  0
LWPOLYLINE
  5
25C
330
1F
100
AcDbEntity
  8
0
  6
Continuous
 62
     7
100
AcDbPolyline
 90
        3
 70
   128
 43
0.0
 10
7122.013092041
 20
5141.689061895
 10
7121.9094831964
 20
5141.6527921606
 10
7121.8274527029
 20
5141.6252625733
  0
LWPOLYLINE
  5
25D
330
1F
100
AcDbEntity
  8
0
  6
Continuous
 62
     7
100
AcDbPolyline
 90
        3
 70
   128
 43
0.0
 10
7121.826171875
 20
5141.6252625733
 10
7121.717105165
 20
5141.5919929729
 10
7121.6301836804
 20
5141.5665929764
  0
LWPOLYLINE
  5
25E
330
1F
100
AcDbEntity
  8
0
  6
Continuous
 62
     7
100
AcDbPolyline
 90
        3
 70
   128
 43
0.0
 10
7121.6278076172
 20
5141.5665929764
 10
7121.5537023929
 20
5144.2670481317
 10
7121.7726983861
 20
5146.3793066889
  0
LWPOLYLINE
  5
25F
330
1F
100
AcDbEntity
  8
0
  6
Continuous
 62
     7
100
AcDbPolyline
 90
        3
 70
   128
 43
0.0
 10
7121.768951416
 20
5146.3793066889
 10
7121.8027023751
 20
5146.4598434686
 10
7121.8258955315
 20
5146.5232630819
  0
LWPOLYLINE
  5
260
330
1F
100
AcDbEntity
  8
0
  6
Continuous
 62
     7
100
AcDbPolyline
 90
        3
 70
   128
 43
0.0
 10
7121.8223571777
 20
5146.5232630819
 10
7121.9223727864
 20
5146.7706453575
 10
7122.0118396715
 20
5146.9590847939
  0
LWPOLYLINE
  5
261
330
1F
100
AcDbEntity
  8
0
  6
Continuous
 62
     7
100
AcDbPolyline
 90
        3
 70
   128
 43
0.0
 10
7122.0092773438
 20
5146.9590847939
 10
7122.0602778666
 20
5147.0496910324
 10
7122.1020587519
 20
5147.1187581867
  0
LWPOLYLINE
  5
262
330
1F
100
AcDbEntity
  8
0
  6
Continuous
 62
     7
100
AcDbPolyline
 90
        3
 70
   128
 43
0.0
 10
7122.1046447754
 20
5147.1242827922
 10
7122.1961741289
 20
5147.0484933632
 10
7122.2666420773
 20
5146.9884847849
  0
LWPOLYLINE
  5
263
330
1F
100
AcDbEntity
  8
0
  6
Continuous
 62
     7
100
AcDbPolyline
 90
        3
 70
   128
 43
0.0
 10
7122.2648620605
 20
5146.9884847849
 10
7122.1671775733
 20
5146.7666086735
 10
7122.102341874
 20
5146.586850062
  0
LWPOLYLINE
  5
264
330
1F
100
AcDbEntity
  8
0
  6
Continuous
 62
     7
100
AcDbPolyline
 90
        3
 70
   128
 43
0.0
 10
7122.1008300781
 20
5146.586850062
 10
7122.0500449375
 20
5146.4056673847
 10
7122.0119216279
 20
5146.2624853104
  0
LWPOLYLINE
  5
265
330
1F
100
AcDbEntity
  8
0
  6
Continuous
 62
     7
100
AcDbPolyline
 90
        3
 70
   128
 43
0.0
 10
7122.0092773438
 20
5146.2624853104
 10
7121.8933396631
 20
5145.7082624949
 10
7121.8262233571
 20
5145.2679929882
  0
LWPOLYLINE
  5
266
330
1F
100
AcDbEntity
  8
0
  6
Continuous
 62
     7
100
AcDbPolyline
 90
        3
 70
   128
 43
0.0
 10
7121.826171875
 20
5145.2679929882
 10
7121.726715242
 20
5143.7184471175
 10
7121.8270801738
 20
5142.5026280433
  0
LWPOLYLINE
  5
267
330
1F
100
AcDbEntity
  8
0
  6
Continuous
 62
     7
100
AcDbPolyline
 90
        3
 70
   128
 43
0.0
 10
7121.826171875
 20
5142.5026280433
 10
7121.8535756777
 20
5142.3567200667
 10
7121.874614878
 20
5142.2421184927
  0
LWPOLYLINE
  5
268
330
1F
100
AcDbEntity
  8
0
  6
Continuous
 62
     7
100
AcDbPolyline
 90
        3
 70
   128
 43
0.0
 10
7121.8719482422
 20
5142.2421184927
 10
7121.8498365681
 20
5142.7127821552
 10
7121.8268566564
 20
5143.0823875218
  0
LWPOLYLINE
  5
269
330
1F
100
AcDbEntity
  8
0
  6
Continuous
 62
     7
100
AcDbPolyline
 90
        3
 70
   128
 43
0.0
 10
7121.826171875
 20
5143.0823875218
 10
7121.8044641821
 20
5143.4840629327
 10
7121.7946626976
 20
5143.8000050932
  0
LWPOLYLINE
  5
26A
330
1F
100
AcDbEntity
  8
0
  6
Continuous
 62
     7
100
AcDbPolyline
 90
        3
 70
   128
 43
0.0
 10
7121.826171875
 20
5143.7951063364
 10
7121.9305561847
 20
5143.7696223205
 10
7122.0126741365
 20
5143.7521947175
  0
LWPOLYLINE
  5
26B
330
1F
100
AcDbEntity
  8
0
  6
Continuous
 62
     7
100
AcDbPolyline
 90
        3
 70
   128
 43
0.0
 10
7122.0092773438
 20
5143.7521947175
 10
7122.0634284847
 20
5143.7406916156
 10
7122.1031912402
 20
5143.7311580032
  0
LWPOLYLINE
  5
26C
330
1F
100
AcDbEntity
  8
0
  6
Continuous
 62
     7
100
AcDbPolyline
 90
        3
 70
   128
 43
0.0
 10
7122.1008300781
 20
5143.7311580032
 10
7122.2752984194
 20
5143.7041585925
 10
7122.4113323525
 20
5143.6889728158
  0
LWPOLYLINE
  5
26D
330
1F
100
AcDbEntity
  8
0
  6
Continuous
 62
     7
100
AcDbPolyline
 90
        5
 70
   128
 43
0.0
 10
7121.883392334
 20
5148.1660937518
 10
7121.864874824
 20
5148.2157213133
 10
7121.8144279607
 20
5148.2340169564
 10
7121.7639941638
 20
5148.2156760016
 10
7121.7454292611
 20
5148.1660564989
  0
LWPOLYLINE
  5
26E
330
1F
100
AcDbEntity
  8
0
  6
Continuous
 62
     7
100
AcDbPolyline
 90
        5
 70
   128
 43
0.0
 10
7121.7422485352
 20
5148.1660564989
 10
7121.7640723222
 20
5148.1165346638
 10
7121.8144842363
 20
5148.0982860178
 10
7121.8648927893
 20
5148.1165306893
 10
7121.8834065631
 20
5148.1660937518
  0
LWPOLYLINE
  5
26F
330
1F
100
AcDbEntity
  8
0
  6
Continuous
 62
     7
100
AcDbPolyline
 90
        3
 70
   128
 43
0.0
 10
7121.6430664062
 20
5148.176722005
 10
7121.70677221
 20
5148.3153171519
 10
7121.8195550874
 20
5148.3575811237
  0
LWPOLYLINE
  5
270
330
1F
100
AcDbEntity
  8
0
  6
Continuous
 62
     7
100
AcDbPolyline
 90
        3
 70
   128
 43
0.0
 10
7121.8185424805
 20
5147.9960528761
 10
7121.6834684111
 20
5148.0627953901
 10
7121.6439449028
 20
5148.176722005
  0
LWPOLYLINE
  5
271
330
1F
100
AcDbEntity
  8
0
  6
Continuous
 62
     7
100
AcDbPolyline
 90
        3
 70
   128
 43
0.0
 10
7121.997833252
 20
5148.1768002361
 10
7121.9371595495
 20
5148.0397501534
 10
7121.8254186943
 20
5147.9961497336
  0
LWPOLYLINE
  5
272
330
1F
100
AcDbEntity
  8
0
  6
Continuous
 62
     7
100
AcDbPolyline
 90
        3
 70
   128
 43
0.0
 10
7121.8223571777
 20
5148.3576779812
 10
7121.9624089592
 20
5148.2917541922
 10
7122.0006190971
 20
5148.1768002361
  0
LWPOLYLINE
  5
273
330
1F
100
AcDbEntity
  8
0
  6
Continuous
 62
     7
100
AcDbPolyline
 90
        3
 70
   128
 43
0.0
 10
7122.0092773438
 20
5147.2409775108
 10
7122.061971591
 20
5147.2714465224
 10
7122.1019618944
 20
5147.2944577783
  0
LWPOLYLINE
  5
274
330
1F
100
AcDbEntity
  8
0
  6
Continuous
 62
     7
100
AcDbPolyline
 90
        3
 70
   128
 43
0.0
 10
7122.1008300781
 20
5147.2944577783
 10
7122.1430826862
 20
5147.3132631306
 10
7122.17620693
 20
5147.3260966688
  0
LWPOLYLINE
  5
275
330
1F
100
AcDbEntity
  8
0
  6
Continuous
 62
     7
100
AcDbPolyline
 90
        3
 70
   128
 43
0.0
 10
7122.1733093262
 20
5147.3260966688
 10
7122.13454594
 20
5147.284297613
 10
7122.1020140484
 20
5147.2512555867
  0
LWPOLYLINE
  5
276
330
1F
100
AcDbEntity
  8
0
  6
Continuous
 62
     7
100
AcDbPolyline
 90
        3
 70
   128
 43
0.0
 10
7122.1008300781
 20
5147.2512555867
 10
7122.0503663246
 20
5147.1867921215
 10
7122.0117502645
 20
5147.1346279233
  0
LWPOLYLINE
  5
277
330
1F
100
AcDbEntity
  8
0
  6
Continuous
 62
     7
100
AcDbPolyline
 90
        3
 70
   128
 43
0.0
 10
7122.0092773438
 20
5147.1346279233
 10
7121.897946317
 20
5146.9461849425
 10
7121.8259104327
 20
5146.7888837307
  0
LWPOLYLINE
  5
278
330
1F
100
AcDbEntity
  8
0
  6
Continuous
 62
     7
100
AcDbPolyline
 90
        3
 70
   128
 43
0.0
 10
7121.8223571777
 20
5146.7888837307
 10
7121.4736548837
 20
5143.8722723192
 10
7121.5612360076
 20
5141.5562925487
  0
LWPOLYLINE
  5
279
330
1F
100
AcDbEntity
  8
0
  6
Continuous
 62
     7
100
AcDbPolyline
 90
        3
 70
   128
 43
0.0
 10
7121.5591430664
 20
5141.5562925487
 10
7121.3479901954
 20
5141.5218981262
 10
7121.1783655718
 20
5141.5132468193
  0
LWPOLYLINE
  5
27A
330
1F
100
AcDbEntity
  8
0
  6
Continuous
 62
     7
100
AcDbPolyline
 90
        3
 70
   128
 43
0.0
 10
7121.1776733398
 20
5141.5132468193
 10
7121.1384162364
 20
5142.7190954999
 10
7121.1297356323
 20
5143.6670271307
  0
LWPOLYLINE
  5
27B
330
1F
100
AcDbEntity
  8
0
  6
Continuous
 62
     7
100
AcDbPolyline
 90
        3
 70
   128
 43
0.0
 10
7121.1242675781
 20
5143.6296699196
 10
7121.0574716152
 20
5142.4482391988
 10
7121.0879378751
 20
5141.5187826007
  0
LWPOLYLINE
  5
27C
330
1F
100
AcDbEntity
  8
0
  6
Continuous
 62
     7
100
AcDbPolyline
 90
        3
 70
   128
 43
0.0
 10
7121.0861206055
 20
5141.5187826007
 10
7120.8783293386
 20
5141.5338964573
 10
7120.7154013947
 20
5141.560941711
  0
LWPOLYLINE
  5
27D
330
1F
100
AcDbEntity
  8
0
  6
Continuous
 62
     7
100
AcDbPolyline
 90
        3
 70
   128
 43
0.0
 10
7120.7122802734
 20
5141.560941711
 10
7120.7433060219
 20
5143.9131419416
 10
7120.6184171871
 20
5145.7569336146
  0
LWPOLYLINE
  5
27E
330
1F
100
AcDbEntity
  8
0
  6
Continuous
 62
     7
100
AcDbPolyline
 90
        3
 70
   128
 43
0.0
 10
7120.6169128418
 20
5145.7569336146
 10
7120.4344173007
 20
5146.6905092674
 10
7120.0917058424
 20
5147.3469880968
  0
LWPOLYLINE
  5
27F
330
1F
100
AcDbEntity
  8
0
  6
Continuous
 62
     7
100
AcDbPolyline
 90
        3
 70
   128
 43
0.0
 10
7120.0904846191
 20
5147.3469880968
 10
7120.3972880845
 20
5147.2068156534
 10
7120.6181489662
 20
5147.0597458631
  0
LWPOLYLINE
  5
280
330
1F
100
AcDbEntity
  8
0
  6
Continuous
 62
     7
100
AcDbPolyline
 90
        3
 70
   128
 43
0.0
 10
7120.6169128418
 20
5147.0597458631
 10
7120.8890326358
 20
5146.9014287285
 10
7121.1232610777
 20
5146.8257603794
  0
LWPOLYLINE
  5
281
330
1F
100
AcDbEntity
  8
0
  6
Continuous
 62
     7
100
AcDbPolyline
 90
        3
 70
   128
 43
0.0
 10
7121.1585998535
 20
5146.8207014352
 10
7121.5515690325
 20
5146.944929391
 10
7121.825798674
 20
5147.1187842637
  0
LWPOLYLINE
  5
282
330
1F
100
AcDbEntity
  8
0
  6
Continuous
 62
     7
100
AcDbPolyline
 90
        3
 70
   128
 43
0.0
 10
7121.8223571777
 20
5147.1187842637
 10
7121.9296377108
 20
5147.1876795144
 10
7122.0117726162
 20
5147.2409775108
  0
LWPOLYLINE
  5
283
330
1F
100
AcDbEntity
  8
0
  6
Continuous
 62
     7
100
AcDbPolyline
 90
        3
 70
   128
 43
0.0
 10
7121.5934753418
 20
5149.820144996
 10
7121.7232282618
 20
5149.9224312613
 10
7121.824874802
 20
5150.0008327514
  0
LWPOLYLINE
  5
284
330
1F
100
AcDbEntity
  8
0
  6
Continuous
 62
     7
100
AcDbPolyline
 90
        3
 70
   128
 43
0.0
 10
7122.1008300781
 20
5149.942517057
 10
7122.0504911414
 20
5149.8918806061
 10
7122.0109381512
 20
5149.85182859
  0
LWPOLYLINE
  5
285
330
1F
100
AcDbEntity
  8
0
  6
Continuous
 62
     7
100
AcDbPolyline
 90
        3
 70
   128
 43
0.0
 10
7121.898651123
 20
5149.72959809
 10
7121.8577258708
 20
5149.7449488992
 10
7121.8249865607
 20
5149.7560439259
  0
LWPOLYLINE
  5
286
330
1F
100
AcDbEntity
  8
0
  6
Continuous
 62
     7
100
AcDbPolyline
 90
        3
 70
   128
 43
0.0
 10
7121.8223571777
 20
5149.7560439259
 10
7121.6973518517
 20
5149.7944429785
 10
7121.5958290533
 20
5149.820144996
  0
LWPOLYLINE
  5
287
330
1F
100
AcDbEntity
  8
0
  6
Continuous
 62
     7
100
AcDbPolyline
 90
        3
 70
   128
 43
0.0
 10
7122.1008300781
 20
5150.176506266
 10
7122.2718357238
 20
5150.2639790874
 10
7122.4093206957
 20
5150.3256817907
  0
LWPOLYLINE
  5
288
330
1F
100
AcDbEntity
  8
0
  6
Continuous
 62
     7
100
AcDbPolyline
 90
        3
 70
   128
 43
0.0
 10
7122.0092773438
 20
5149.85182859
 10
7121.9480484242
 20
5149.7835440071
 10
7121.8989559248
 20
5149.72959809
  0
LWPOLYLINE
  5
289
330
1F
100
AcDbEntity
  8
0
  6
Continuous
 62
     7
100
AcDbPolyline
 90
        3
 70
   128
 43
0.0
 10
7122.0092773438
 20
5150.1233910769
 10
7122.0618619933
 20
5150.1523825813
 10
7122.1011423305
 20
5150.176506266
  0
LWPOLYLINE
  5
28A
330
1F
100
AcDbEntity
  8
0
  6
Continuous
 62
     7
100
AcDbPolyline
 90
        3
 70
   128
 43
0.0
 10
7121.8223571777
 20
5150.0008327514
 10
7121.9279938637
 20
5150.0710366328
 10
7122.0108561948
 20
5150.1233910769
  0
LWPOLYLINE
  5
28B
330
1F
100
AcDbEntity
  8
0
  6
Continuous
 62
     7
100
AcDbPolyline
 90
        3
 70
   128
 43
0.0
 10
7122.8485107422
 20
5150.4637894779
 10
7122.5971595996
 20
5150.3219129111
 10
7122.4092610911
 20
5150.1923052221
  0
LWPOLYLINE
  5
28C
330
1F
100
AcDbEntity
  8
0
  6
Continuous
 62
     7
100
AcDbPolyline
 90
        3
 70
   128
 43
0.0
 10
7122.4060058594
 20
5150.1923052221
 10
7122.2324135744
 20
5150.0577003837
 10
7122.1011721328
 20
5149.942517057
  0
LWPOLYLINE
  5
28D
330
1F
100
AcDbEntity
  8
0
  6
Continuous
 62
     7
100
AcDbPolyline
 90
        3
 70
   128
 43
0.0
 10
7122.4060058594
 20
5150.3256817907
 10
7122.6534544158
 20
5150.4129623353
 10
7122.8507005409
 20
5150.4637894779
  0
LWPOLYLINE
  5
28E
330
1F
100
AcDbEntity
  8
0
  6
Continuous
 62
     7
100
AcDbPolyline
 90
        3
 70
   128
 43
0.0
 10
7119.5526123047
 20
5150.398883745
 10
7120.1531887889
 20
5150.0968959757
 10
7120.5956705645
 20
5149.8089616745
  0
LWPOLYLINE
  5
28F
330
1F
100
AcDbEntity
  8
0
  6
Continuous
 62
     7
100
AcDbPolyline
 90
        3
 70
   128
 43
0.0
 10
7119.5526123047
 20
5150.3297907859
 10
7119.3292675884
 20
5150.4502992811
 10
7119.1444390253
 20
5150.5267133563
  0
LWPOLYLINE
  5
290
330
1F
100
AcDbEntity
  8
0
  6
Continuous
 62
     7
100
AcDbPolyline
 90
        3
 70
   128
 43
0.0
 10
7119.140625
 20
5150.5267133563
 10
7119.3772115102
 20
5150.467199884
 10
7119.5533566907
 20
5150.398883745
  0
LWPOLYLINE
  5
291
330
1F
100
AcDbEntity
  8
0
  6
Continuous
 62
     7
100
AcDbPolyline
 90
        3
 70
   128
 43
0.0
 10
7120.5940246582
 20
5149.8089616745
 10
7120.3996588557
 20
5149.7651140888
 10
7120.2506639794
 20
5149.7132142633
  0
LWPOLYLINE
  5
292
330
1F
100
AcDbEntity
  8
0
  6
Continuous
 62
     7
100
AcDbPolyline
 90
        3
 70
   128
 43
0.0
 10
7120.246887207
 20
5149.7132142633
 10
7119.8870948185
 20
5150.0893988834
 10
7119.5534759
 20
5150.3297907859
  0
LWPOLYLINE
  5
293
330
1F
100
AcDbEntity
  8
0
  6
Continuous
 62
     7
100
AcDbPolyline
 90
        3
 70
   128
 43
0.0
 10
7119.5526123047
 20
5142.2523965686
 10
7119.1444269944
 20
5143.9140694367
 10
7119.5549958185
 20
5145.2303042263
  0
LWPOLYLINE
  5
294
330
1F
100
AcDbEntity
  8
0
  6
Continuous
 62
     7
100
AcDbPolyline
 90
        3
 70
   128
 43
0.0
 10
7120.2392578125
 20
5146.9374259561
 10
7120.5276624617
 20
5145.7711967306
 10
7120.6187301115
 20
5144.8318210989
  0
LWPOLYLINE
  5
295
330
1F
100
AcDbEntity
  8
0
  6
Continuous
 62
     7
100
AcDbPolyline
 90
        3
 70
   128
 43
0.0
 10
7120.6169128418
 20
5144.8318210989
 10
7120.637058583
 20
5143.0090336631
 10
7120.6249885991
 20
5141.576815173
  0
LWPOLYLINE
  5
296
330
1F
100
AcDbEntity
  8
0
  6
Continuous
 62
     7
100
AcDbPolyline
 90
        3
 70
   128
 43
0.0
 10
7120.0141906738
 20
5146.1502013355
 10
7120.1905307702
 20
5146.5786784606
 10
7120.2405535415
 20
5146.9374259561
  0
LWPOLYLINE
  5
297
330
1F
100
AcDbEntity
  8
0
  6
Continuous
 62
     7
100
AcDbPolyline
 90
        3
 70
   128
 43
0.0
 10
7119.5526123047
 20
5145.2303042263
 10
7119.8107308728
 20
5145.7471560839
 10
7120.0176917747
 20
5146.1502013355
  0
LWPOLYLINE
  5
298
330
1F
100
AcDbEntity
  8
0
  6
Continuous
 62
     7
100
AcDbPolyline
 90
        3
 70
   128
 43
0.0
 10
7120.6169128418
 20
5141.5822988003
 10
7119.978992118
 20
5141.8903910264
 10
7119.5558004812
 20
5142.2523965686
  0
LWPOLYLINE
  5
299
330
1F
100
AcDbEntity
  8
0
  6
Continuous
 62
     7
100
AcDbPolyline
 90
        3
 70
   128
 43
0.0
 10
7120.433807373
 20
5148.1763867289
 10
7120.5045194112
 20
5148.3115235583
 10
7120.6176572279
 20
5148.3519708365
  0
LWPOLYLINE
  5
29A
330
1F
100
AcDbEntity
  8
0
  6
Continuous
 62
     7
100
AcDbPolyline
 90
        5
 70
   128
 43
0.0
 10
7120.5520629883
 20
5148.1657025963
 10
7120.5701426024
 20
5148.1171453245
 10
7120.6178281024
 20
5148.0979395656
 10
7120.6654977899
 20
5148.1171814821
 10
7120.6816130117
 20
5148.1657547503
  0
LWPOLYLINE
  5
29B
330
1F
100
AcDbEntity
  8
0
  6
Continuous
 62
     7
100
AcDbPolyline
 90
        5
 70
   128
 43
0.0
 10
7120.677947998
 20
5148.1657547503
 10
7120.6654736806
 20
5148.2143908548
 10
7120.6177608473
 20
5148.2336705176
 10
7120.5700638653
 20
5148.2143560524
 10
7120.5539771155
 20
5148.1657025963
  0
LWPOLYLINE
  5
29C
330
1F
100
AcDbEntity
  8
0
  6
Continuous
 62
     7
100
AcDbPolyline
 90
        5
 70
   128
 43
0.0
 10
7120.7962036133
 20
5148.1763606518
 10
7120.7440002009
 20
5148.0501373184
 10
7120.6177121732
 20
5147.9957139254
 10
7120.4914499653
 20
5148.0502415873
 10
7120.4366826252
 20
5148.1763867289
  0
LWPOLYLINE
  5
29D
330
1F
100
AcDbEntity
  8
0
  6
Continuous
 62
     7
100
AcDbPolyline
 90
        3
 70
   128
 43
0.0
 10
7120.6169128418
 20
5148.3519708365
 10
7120.7553237719
 20
5148.2882483301
 10
7120.7985200718
 20
5148.1763606518
  0
LWPOLYLINE
  5
29E
330
1F
100
AcDbEntity
  8
0
  6
Continuous
 62
     7
100
AcDbPolyline
 90
        3
 70
   128
 43
0.0
 10
7118.7744140625
 20
5150.4678910225
 10
7118.9094360798
 20
5149.5624852844
 10
7119.1875108317
 20
5148.8992681354
  0
LWPOLYLINE
  5
29F
330
1F
100
AcDbEntity
  8
0
  6
Continuous
 62
     7
100
AcDbPolyline
 90
        3
 70
   128
 43
0.0
 10
7119.1215515137
 20
5148.8088590651
 10
7118.7215698168
 20
5149.7900652904
 10
7118.6389469341
 20
5150.6166828423
  0
LWPOLYLINE
  5
2A0
330
1F
100
AcDbEntity
  8
0
  6
Continuous
 62
     7
100
AcDbPolyline
 90
        3
 70
   128
 43
0.0
 10
7118.6370849609
 20
5150.6166828423
 10
7119.1710363516
 20
5150.4631086329
 10
7119.5535876587
 20
5150.255273804
  0
LWPOLYLINE
  5
2A1
330
1F
100
AcDbEntity
  8
0
  6
Continuous
 62
     7
100
AcDbPolyline
 90
        3
 70
   128
 43
0.0
 10
7119.5526123047
 20
5150.0319799036
 10
7119.1349115464
 20
5150.3049969955
 10
7118.777460678
 20
5150.4678910225
  0
LWPOLYLINE
  5
2A2
330
1F
100
AcDbEntity
  8
0
  6
Continuous
 62
     7
100
AcDbPolyline
 90
        3
 70
   128
 43
0.0
 10
7119.5526123047
 20
5150.255273804
 10
7119.9323415566
 20
5149.9570890483
 10
7120.1975115374
 20
5149.6865113824
  0
LWPOLYLINE
  5
2A3
330
1F
100
AcDbEntity
  8
0
  6
Continuous
 62
     7
100
AcDbPolyline
 90
        3
 70
   128
 43
0.0
 10
7120.1972961426
 20
5149.6865113824
 10
7120.0981045186
 20
5149.6442053692
 10
7120.0219162539
 20
5149.6067827195
  0
LWPOLYLINE
  5
2A4
330
1F
100
AcDbEntity
  8
0
  6
Continuous
 62
     7
100
AcDbPolyline
 90
        3
 70
   128
 43
0.0
 10
7120.0218200684
 20
5149.6067827195
 10
7119.766384227
 20
5149.8523513979
 10
7119.5536249116
 20
5150.0319799036
  0
LWPOLYLINE
  5
2A5
330
1F
100
AcDbEntity
  8
0
  6
Continuous
 62
     7
100
AcDbPolyline
 90
        4
 70
   128
 43
0.0
 10
7115.3717041016
 20
5146.1114322394
 10
7115.4648338823
 20
5146.9889531555
 10
7115.6439245869
 20
5147.3873105235
 10
7116.0233014062
 20
5147.5796473771
  0
LWPOLYLINE
  5
2A6
330
1F
100
AcDbEntity
  8
0
  6
Continuous
 62
     7
100
AcDbPolyline
 90
        5
 70
   128
 43
0.0
 10
7116.3024902344
 20
5147.5687099248
 10
7116.5040138528
 20
5147.5200961993
 10
7116.6337574312
 20
5147.3586579759
 10
7116.7452060389
 20
5146.9581804655
 10
7116.7845719293
 20
5146.1224218458
  0
LWPOLYLINE
  5
2A7
330
1F
100
AcDbEntity
  8
0
  6
Continuous
 62
     7
100
AcDbPolyline
 90
        4
 70
   128
 43
0.0
 10
7101.1848449707
 20
5146.1235059052
 10
7101.2748799785
 20
5147.0061896273
 10
7101.4608996689
 20
5147.403703258
 10
7101.8459194139
 20
5147.5916539877
  0
LWPOLYLINE
  5
2A8
330
1F
100
AcDbEntity
  8
0
  6
Continuous
 62
     7
100
AcDbPolyline
 90
        5
 70
   128
 43
0.0
 10
7102.1156311035
 20
5147.5754601508
 10
7102.3159185382
 20
5147.5289307327
 10
7102.4451395599
 20
5147.3677811818
 10
7102.5553363473
 20
5146.9679674066
 10
7102.5966101125
 20
5146.1344433575
  0
LWPOLYLINE
  5
2A9
330
1F
100
AcDbEntity
  8
0
  6
Continuous
 62
     7
100
AcDbPolyline
 90
        3
 70
   128
 43
0.0
 10
7019.8020935059
 20
5123.9672002941
 10
7021.7441831382
 20
5123.5856060231
 10
7023.1919579938
 20
5123.9581999927
  0
LWPOLYLINE
  5
2AA
330
1F
100
AcDbEntity
  8
0
  6
Continuous
 62
     7
100
AcDbPolyline
 90
        3
 70
   128
 43
0.0
 10
7107.8033447266
 20
5123.9672002941
 10
7109.74417941
 20
5123.5856059328
 10
7111.1919500664
 20
5123.9581999927
  0
ENDSEC
  0
SECTION
  2
OBJECTS
  0
DICTIONARY
  5
C
330
0
100
AcDbDictionary
281
     1
  3
ACAD_GROUP
350
D
  3
ACAD_LAYOUT
350
1A
  3
ACAD_MLINESTYLE
350
17
  3
ACAD_PLOTSETTINGS
350
19
  3
ACAD_PLOTSTYLENAME
350
E
  3
ACAD_SCALELIST
350
47
  3
DWGPROPS
350
2AB
  0
DICTIONARY
  5
D
102
{ACAD_REACTORS
330
C
102
}
330
C
100
AcDbDictionary
281
     1
  0
DICTIONARY
  5
1A
102
{ACAD_REACTORS
330
C
102
}
330
C
100
AcDbDictionary
281
     1
  3
Layout1
350
1E
  3
Layout2
350
26
  3
Model
350
22
  0
DICTIONARY
  5
17
102
{ACAD_REACTORS
330
C
102
}
330
C
100
AcDbDictionary
281
     1
  3
Standard
350
18
  0
DICTIONARY
  5
19
102
{ACAD_REACTORS
330
C
102
}
330
C
100
AcDbDictionary
281
     1
  0
ACDBDICTIONARYWDFLT
  5
E
102
{ACAD_REACTORS
330
C
102
}
330
C
100
AcDbDictionary
281
     1
  3
Normal
350
F
100
AcDbDictionaryWithDefault
340
F
  0
DICTIONARY
  5
47
102
{ACAD_REACTORS
330
C
102
}
330
C
100
AcDbDictionary
281
     1
  3
A0
350
48
  3
A1
350
49
  3
A2
350
4A
  3
A3
350
4B
  3
A4
350
4C
  3
A5
350
4D
  3
A6
350
4E
  3
A7
350
4F
  3
A8
350
50
  3
A9
350
51
  3
B0
350
52
  3
B1
350
53
  3
B2
350
54
  3
B3
350
55
  3
B4
350
56
  3
B5
350
57
  3
B6
350
58
  3
B7
350
59
  3
B8
350
5A
  3
B9
350
5B
  3
C0
350
5C
  3
C1
350
5D
  3
C2
350
5E
  3
C3
350
5F
  3
C4
350
60
  3
C5
350
61
  3
C6
350
62
  3
C7
350
63
  3
C8
350
64
  3
C9
350
65
  3
D0
350
66
  3
D1
350
67
  3
D2
350
68
  0
XRECORD
  5
2AB
102
{ACAD_REACTORS
330
C
102
}
330
C
100
AcDbXrecord
280
     1
  1
DWGPROPS COOKIE
  2

  3

  4

  6

  7

  8
radek.stransky
  9

300
=
301
=
302
=
303
=
304
=
305
=
306
=
307
=
308
=
309
=
 40
0.0
 41
2459095.462319745
 42
2459095.462607419
  1

 90
        0
  0
LAYOUT
  5
1E
102
{ACAD_REACTORS
330
1A
102
}
330
1A
100
AcDbPlotSettings
  1

  2
none_device
  4

  6

 40
0.0
 41
0.0
 42
0.0
 43
0.0
 44
0.0
 45
0.0
 46
0.0
 47
0.0
 48
0.0
 49
0.0
140
0.0
141
0.0
142
1.0
143
1.0
 70
   688
 72
     1
 73
     0
 74
     5
  7

 75
    16
147
1.0
148
0.0
149
0.0
100
AcDbLayout
  1
Layout1
 70
     1
 71
     1
 10
0.0
 20
0.0
 11
420.0
 21
297.0
 12
0.0
 22
0.0
 32
0.0
 14
1.0000000000E+20
 24
1.0000000000E+20
 34
1.0000000000E+20
 15
-1.0000000000E+20
 25
-1.0000000000E+20
 35
-1.0000000000E+20
146
0.0
 13
0.0
 23
0.0
 33
0.0
 16
1.0
 26
0.0
 36
0.0
 17
0.0
 27
1.0
 37
0.0
 76
     0
330
1B
  0
LAYOUT
  5
26
102
{ACAD_REACTORS
330
1A
102
}
330
1A
100
AcDbPlotSettings
  1

  2
none_device
  4

  6

 40
0.0
 41
0.0
 42
0.0
 43
0.0
 44
0.0
 45
0.0
 46
0.0
 47
0.0
 48
0.0
 49
0.0
140
0.0
141
0.0
142
1.0
143
1.0
 70
   688
 72
     1
 73
     0
 74
     5
  7

 75
    16
147
1.0
148
0.0
149
0.0
100
AcDbLayout
  1
Layout2
 70
     1
 71
     2
 10
0.0
 20
0.0
 11
0.0
 21
0.0
 12
0.0
 22
0.0
 32
0.0
 14
0.0
 24
0.0
 34
0.0
 15
0.0
 25
0.0
 35
0.0
146
0.0
 13
0.0
 23
0.0
 33
0.0
 16
1.0
 26
0.0
 36
0.0
 17
0.0
 27
1.0
 37
0.0
 76
     0
330
23
  0
LAYOUT
  5
22
102
{ACAD_REACTORS
330
1A
102
}
330
1A
100
AcDbPlotSettings
  1

  2
none_device
  4
ANSI_A_(11.00_x_8.50_Inches)
  6

 40
6.35
 41
19.05
 42
6.35000508
 43
19.05000254
 44
279.4
 45
215.9
 46
-3002.4028357765
 47
-2111.5787391767
 48
0.0
 49
0.0
140
0.0
141
0.0
142
0.0171349076
143
1.0
 70
  1696
 72
     0
 73
     0
 74
     0
  7

 75
     0
147
0.0179189148
148
-1300.4909072572
149
0.0
100
AcDbLayout
  1
Model
 70
     1
 71
     0
 10
0.0
 20
0.0
 11
420.0
 21
297.0
 12
0.0
 22
0.0
 32
0.0
 14
6980.1970862582
 24
4810.3860951244
 34
0.0
 15
7429.5492584827
 25
5301.4888314157
 35
0.0
146
0.0
 13
0.0
 23
0.0
 33
0.0
 16
1.0
 26
0.0
 36
0.0
 17
0.0
 27
1.0
 37
0.0
 76
     0
330
1F
331
29
  0
MLINESTYLE
  5
18
102
{ACAD_REACTORS
330
17
102
}
330
17
100
AcDbMlineStyle
  2
Standard
 70
     0
  3

 62
   256
 51
90.0
 52
90.0
 71
     2
 49
0.5
 62
   256
  6
BYLAYER
 49
-0.5
 62
   256
  6
BYLAYER
  0
ACDBPLACEHOLDER
  5
F
102
{ACAD_REACTORS
330
E
102
}
330
E
  0
SCALE
  5
48
102
{ACAD_REACTORS
330
47
102
}
330
47
100
AcDbScale
 70
     0
300
1:1
140
1.0
141
1.0
290
     1
  0
SCALE
  5
49
102
{ACAD_REACTORS
330
47
102
}
330
47
100
AcDbScale
 70
     0
300
1:2
140
1.0
141
2.0
290
     0
  0
SCALE
  5
4A
102
{ACAD_REACTORS
330
47
102
}
330
47
100
AcDbScale
 70
     0
300
1:4
140
1.0
141
4.0
290
     0
  0
SCALE
  5
4B
102
{ACAD_REACTORS
330
47
102
}
330
47
100
AcDbScale
 70
     0
300
1:5
140
1.0
141
5.0
290
     0
  0
SCALE
  5
4C
102
{ACAD_REACTORS
330
47
102
}
330
47
100
AcDbScale
 70
     0
300
1:8
140
1.0
141
8.0
290
     0
  0
SCALE
  5
4D
102
{ACAD_REACTORS
330
47
102
}
330
47
100
AcDbScale
 70
     0
300
1:10
140
1.0
141
10.0
290
     0
  0
SCALE
  5
4E
102
{ACAD_REACTORS
330
47
102
}
330
47
100
AcDbScale
 70
     0
300
1:16
140
1.0
141
16.0
290
     0
  0
SCALE
  5
4F
102
{ACAD_REACTORS
330
47
102
}
330
47
100
AcDbScale
 70
     0
300
1:20
140
1.0
141
20.0
290
     0
  0
SCALE
  5
50
102
{ACAD_REACTORS
330
47
102
}
330
47
100
AcDbScale
 70
     0
300
1:30
140
1.0
141
30.0
290
     0
  0
SCALE
  5
51
102
{ACAD_REACTORS
330
47
102
}
330
47
100
AcDbScale
 70
     0
300
1:40
140
1.0
141
40.0
290
     0
  0
SCALE
  5
52
102
{ACAD_REACTORS
330
47
102
}
330
47
100
AcDbScale
 70
     0
300
1:50
140
1.0
141
50.0
290
     0
  0
SCALE
  5
53
102
{ACAD_REACTORS
330
47
102
}
330
47
100
AcDbScale
 70
     0
300
1:100
140
1.0
141
100.0
290
     0
  0
SCALE
  5
54
102
{ACAD_REACTORS
330
47
102
}
330
47
100
AcDbScale
 70
     0
300
2:1
140
2.0
141
1.0
290
     0
  0
SCALE
  5
55
102
{ACAD_REACTORS
330
47
102
}
330
47
100
AcDbScale
 70
     0
300
4:1
140
4.0
141
1.0
290
     0
  0
SCALE
  5
56
102
{ACAD_REACTORS
330
47
102
}
330
47
100
AcDbScale
 70
     0
300
8:1
140
8.0
141
1.0
290
     0
  0
SCALE
  5
57
102
{ACAD_REACTORS
330
47
102
}
330
47
100
AcDbScale
 70
     0
300
10:1
140
10.0
141
1.0
290
     0
  0
SCALE
  5
58
102
{ACAD_REACTORS
330
47
102
}
330
47
100
AcDbScale
 70
     0
300
100:1
140
100.0
141
1.0
290
     0
  0
SCALE
  5
59
102
{ACAD_REACTORS
330
47
102
}
330
47
100
AcDbScale
 70
     0
300
1/128" = 1'-0"
140
0.0078125
141
12.0
290
     0
  0
SCALE
  5
5A
102
{ACAD_REACTORS
330
47
102
}
330
47
100
AcDbScale
 70
     0
300
1/64" = 1'-0"
140
0.015625
141
12.0
290
     0
  0
SCALE
  5
5B
102
{ACAD_REACTORS
330
47
102
}
330
47
100
AcDbScale
 70
     0
300
1/32" = 1'-0"
140
0.03125
141
12.0
290
     0
  0
SCALE
  5
5C
102
{ACAD_REACTORS
330
47
102
}
330
47
100
AcDbScale
 70
     0
300
1/16" = 1'-0"
140
0.0625
141
12.0
290
     0
  0
SCALE
  5
5D
102
{ACAD_REACTORS
330
47
102
}
330
47
100
AcDbScale
 70
     0
300
3/32" = 1'-0"
140
0.09375
141
12.0
290
     0
  0
SCALE
  5
5E
102
{ACAD_REACTORS
330
47
102
}
330
47
100
AcDbScale
 70
     0
300
1/8" = 1'-0"
140
0.125
141
12.0
290
     0
  0
SCALE
  5
5F
102
{ACAD_REACTORS
330
47
102
}
330
47
100
AcDbScale
 70
     0
300
3/16" = 1'-0"
140
0.1875
141
12.0
290
     0
  0
SCALE
  5
60
102
{ACAD_REACTORS
330
47
102
}
330
47
100
AcDbScale
 70
     0
300
1/4" = 1'-0"
140
0.25
141
12.0
290
     0
  0
SCALE
  5
61
102
{ACAD_REACTORS
330
47
102
}
330
47
100
AcDbScale
 70
     0
300
3/8" = 1'-0"
140
0.375
141
12.0
290
     0
  0
SCALE
  5
62
102
{ACAD_REACTORS
330
47
102
}
330
47
100
AcDbScale
 70
     0
300
1/2" = 1'-0"
140
0.5
141
12.0
290
     0
  0
SCALE
  5
63
102
{ACAD_REACTORS
330
47
102
}
330
47
100
AcDbScale
 70
     0
300
3/4" = 1'-0"
140
0.75
141
12.0
290
     0
  0
SCALE
  5
64
102
{ACAD_REACTORS
330
47
102
}
330
47
100
AcDbScale
 70
     0
300
1" = 1'-0"
140
1.0
141
12.0
290
     0
  0
SCALE
  5
65
102
{ACAD_REACTORS
330
47
102
}
330
47
100
AcDbScale
 70
     0
300
1-1/2" = 1'-0"
140
1.5
141
12.0
290
     0
  0
SCALE
  5
66
102
{ACAD_REACTORS
330
47
102
}
330
47
100
AcDbScale
 70
     0
300
3" = 1'-0"
140
3.0
141
12.0
290
     0
  0
SCALE
  5
67
102
{ACAD_REACTORS
330
47
102
}
330
47
100
AcDbScale
 70
     0
300
6" = 1'-0"
140
6.0
141
12.0
290
     0
  0
SCALE
  5
68
102
{ACAD_REACTORS
330
47
102
}
330
47
100
AcDbScale
 70
     0
300
1'-0" = 1'-0"
140
12.0
141
12.0
290
     0
  0
ENDSEC
  0
EOF
