  0
SECTION
  2
HEADER
  9
$ACADVER
  1
AC1015
  9
$ACADMAINTVER
 70
     6
  9
$DWGCODEPAGE
  3
ANSI_1250
  9
$INSBASE
 10
0.0
 20
0.0
 30
0.0
  9
$EXTMIN
 10
0.0
 20
0.0
 30
0.0
  9
$EXTMAX
 10
20000.0
 20
10000.0
 30
0.0
  9
$LIMMIN
 10
0.0
 20
0.0
  9
$LIMMAX
 10
20000.0
 20
10000.0
  9
$ORTHOMODE
 70
     0
  9
$REGENMODE
 70
     1
  9
$FILLMODE
 70
     1
  9
$QTEXTMODE
 70
     0
  9
$MIRRTEXT
 70
     1
  9
$LTSCALE
 40
1.0
  9
$ATTMODE
 70
     1
  9
$TEXTSIZE
 40
2.0
  9
$TRACEWID
 40
1.0
  9
$TEXTSTYLE
  7
Standard
  9
$CLAYER
  8
0
  9
$CELTYPE
  6
ByLayer
  9
$CECOLOR
 62
   256
  9
$CELTSCALE
 40
1.0
  9
$DISPSILH
 70
     0
  9
$DIMSCALE
 40
1.0
  9
$DIMASZ
 40
2.0
  9
$DIMEXO
 40
1.0
  9
$DIMDLI
 40
3.75
  9
$DIMRND
 40
0.0
  9
$DIMDLE
 40
0.0
  9
$DIMEXE
 40
1.0
  9
$DIMTP
 40
0.0
  9
$DIMTM
 40
0.0
  9
$DIMTXT
 40
2.0
  9
$DIMCEN
 40
2.5
  9
$DIMTSZ
 40
0.0
  9
$DIMTOL
 70
     0
  9
$DIMLIM
 70
     0
  9
$DIMTIH
 70
     1
  9
$DIMTOH
 70
     1
  9
$DIMSE1
 70
     0
  9
$DIMSE2
 70
     0
  9
$DIMTAD
 70
     1
  9
$DIMZIN
 70
     0
  9
$DIMBLK
  1

  9
$DIMASO
 70
     1
  9
$DIMSHO
 70
     1
  9
$DIMPOST
  1

  9
$DIMAPOST
  1

  9
$DIMALT
 70
     0
  9
$DIMALTD
 70
     3
  9
$DIMALTF
 40
0.0393700787
  9
$DIMLFAC
 40
1.0
  9
$DIMTOFL
 70
     1
  9
$DIMTVP
 40
0.0
  9
$DIMTIX
 70
     0
  9
$DIMSOXD
 70
     0
  9
$DIMSAH
 70
     0
  9
$DIMBLK1
  1

  9
$DIMBLK2
  1

  9
$DIMSTYLE
  2
ISO-25
  9
$DIMCLRD
 70
     0
  9
$DIMCLRE
 70
     0
  9
$DIMCLRT
 70
     0
  9
$DIMTFAC
 40
1.0
  9
$DIMGAP
 40
1.524
  9
$DIMJUST
 70
     0
  9
$DIMSD1
 70
     0
  9
$DIMSD2
 70
     0
  9
$DIMTOLJ
 70
     0
  9
$DIMTZIN
 70
     0
  9
$DIMALTZ
 70
     0
  9
$DIMALTTZ
 70
     0
  9
$DIMUPT
 70
     0
  9
$DIMDEC
 70
     2
  9
$DIMTDEC
 70
     0
  9
$DIMALTU
 70
     2
  9
$DIMALTTD
 70
     3
  9
$DIMTXSTY
  7
Standard
  9
$DIMAUNIT
 70
     0
  9
$DIMADEC
 70
     2
  9
$DIMALTRND
 40
0.0
  9
$DIMAZIN
 70
     0
  9
$DIMDSEP
 70
    44
  9
$DIMATFIT
 70
     3
  9
$DIMFRAC
 70
     0
  9
$DIMLDRBLK
  1

  9
$DIMLUNIT
 70
     2
  9
$DIMLWD
 70
    -2
  9
$DIMLWE
 70
    -2
  9
$DIMTMOVE
 70
     0
  9
$LUNITS
 70
     2
  9
$LUPREC
 70
     3
  9
$SKETCHINC
 40
1.0
  9
$FILLETRAD
 40
10.0
  9
$AUNITS
 70
     0
  9
$AUPREC
 70
     2
  9
$MENU
  1
.
  9
$ELEVATION
 40
0.0
  9
$PELEVATION
 40
0.0
  9
$THICKNESS
 40
0.0
  9
$LIMCHECK
 70
     0
  9
$CHAMFERA
 40
0.0
  9
$CHAMFERB
 40
0.0
  9
$CHAMFERC
 40
0.0
  9
$CHAMFERD
 40
0.0
  9
$SKPOLY
 70
     0
  9
$TDCREATE
 40
2459095.427027268
  9
$TDUCREATE
 40
2459095.343693935
  9
$TDUPDATE
 40
2459095.4270275
  9
$TDUUPDATE
 40
2459095.343694167
  9
$TDINDWG
 40
0.0000000116
  9
$TDUSRTIMER
 40
0.0000000116
  9
$USRTIMER
 70
     1
  9
$ANGBASE
 50
0.0
  9
$ANGDIR
 70
     0
  9
$PDMODE
 70
     0
  9
$PDSIZE
 40
-1.0
  9
$PLINEWID
 40
0.0
  9
$SPLFRAME
 70
     0
  9
$SPLINETYPE
 70
     6
  9
$SPLINESEGS
 70
     8
  9
$HANDSEED
  5
290
  9
$SURFTAB1
 70
     6
  9
$SURFTAB2
 70
     6
  9
$SURFTYPE
 70
     6
  9
$SURFU
 70
     6
  9
$SURFV
 70
     6
  9
$UCSBASE
  2

  9
$UCSNAME
  2

  9
$UCSORG
 10
0.0
 20
0.0
 30
0.0
  9
$UCSXDIR
 10
1.0
 20
0.0
 30
0.0
  9
$UCSYDIR
 10
0.0
 20
1.0
 30
0.0
  9
$UCSORTHOREF
  2

  9
$UCSORTHOVIEW
 70
     0
  9
$UCSORGTOP
 10
0.0
 20
0.0
 30
0.0
  9
$UCSORGBOTTOM
 10
0.0
 20
0.0
 30
0.0
  9
$UCSORGLEFT
 10
0.0
 20
0.0
 30
0.0
  9
$UCSORGRIGHT
 10
0.0
 20
0.0
 30
0.0
  9
$UCSORGFRONT
 10
0.0
 20
0.0
 30
0.0
  9
$UCSORGBACK
 10
0.0
 20
0.0
 30
0.0
  9
$PUCSBASE
  2

  9
$PUCSNAME
  2

  9
$PUCSORG
 10
0.0
 20
0.0
 30
0.0
  9
$PUCSXDIR
 10
1.0
 20
0.0
 30
0.0
  9
$PUCSYDIR
 10
0.0
 20
1.0
 30
0.0
  9
$PUCSORTHOREF
  2

  9
$PUCSORTHOVIEW
 70
     0
  9
$PUCSORGTOP
 10
0.0
 20
0.0
 30
0.0
  9
$PUCSORGBOTTOM
 10
0.0
 20
0.0
 30
0.0
  9
$PUCSORGLEFT
 10
0.0
 20
0.0
 30
0.0
  9
$PUCSORGRIGHT
 10
0.0
 20
0.0
 30
0.0
  9
$PUCSORGFRONT
 10
0.0
 20
0.0
 30
0.0
  9
$PUCSORGBACK
 10
0.0
 20
0.0
 30
0.0
  9
$USERI1
 70
     0
  9
$USERI2
 70
     0
  9
$USERI3
 70
     0
  9
$USERI4
 70
     0
  9
$USERI5
 70
     0
  9
$USERR1
 40
0.0
  9
$USERR2
 40
0.0
  9
$USERR3
 40
0.0
  9
$USERR4
 40
0.0
  9
$USERR5
 40
0.0
  9
$WORLDVIEW
 70
     1
  9
$SHADEDGE
 70
     3
  9
$SHADEDIF
 70
    70
  9
$TILEMODE
 70
     1
  9
$MAXACTVP
 70
    64
  9
$PINSBASE
 10
0.0
 20
0.0
 30
0.0
  9
$PLIMCHECK
 70
     0
  9
$PEXTMIN
 10
1.0000000000E+20
 20
1.0000000000E+20
 30
1.0000000000E+20
  9
$PEXTMAX
 10
-1.0000000000E+20
 20
-1.0000000000E+20
 30
-1.0000000000E+20
  9
$PLIMMIN
 10
0.0
 20
0.0
  9
$PLIMMAX
 10
420.0
 20
297.0
  9
$UNITMODE
 70
     0
  9
$VISRETAIN
 70
     1
  9
$PLINEGEN
 70
     0
  9
$PSLTSCALE
 70
     1
  9
$TREEDEPTH
 70
  3020
  9
$CMLSTYLE
  2
Standard
  9
$CMLJUST
 70
     0
  9
$CMLSCALE
 40
20.0
  9
$PROXYGRAPHICS
 70
     1
  9
$MEASUREMENT
 70
     1
  9
$CELWEIGHT
370
    -1
  9
$ENDCAPS
280
     0
  9
$JOINSTYLE
280
     0
  9
$LWDISPLAY
290
     1
  9
$INSUNITS
 70
     4
  9
$HYPERLINKBASE
  1

  9
$STYLESHEET
  1

  9
$XEDIT
290
     1
  9
$CEPSNTYPE
380
     0
  9
$PSTYLEMODE
290
     1
  9
$FINGERPRINTGUID
  2
{646cd993-73b0-4f5e-ad88-4ac78f16e6dd}
  9
$VERSIONGUID
  2
{FAEB1C32-E019-11D5-929B-00C0DF256EC4}
  9
$EXTNAMES
290
     1
  9
$PSVPSCALE
 40
0.0
  9
$OLESTARTUP
290
     0
  0
ENDSEC
  0
SECTION
  2
CLASSES
  0
CLASS
  1
ACDBDICTIONARYWDFLT
  2
AcDbDictionaryWithDefault
  3
ObjectDBX Classes
 90
        0
280
     0
281
     0
  0
CLASS
  1
VISUALSTYLE
  2
AcDbVisualStyle
  3
ObjectDBX Classes
 90
     4095
280
     0
281
     0
  0
CLASS
  1
MATERIAL
  2
AcDbMaterial
  3
ObjectDBX Classes
 90
     1153
280
     0
281
     0
  0
CLASS
  1
SCALE
  2
AcDbScale
  3
ObjectDBX Classes
 90
     1153
280
     0
281
     0
  0
CLASS
  1
TABLESTYLE
  2
AcDbTableStyle
  3
ObjectDBX Classes
 90
     4095
280
     0
281
     0
  0
CLASS
  1
MLEADERSTYLE
  2
AcDbMLeaderStyle
  3
ACDB_MLEADERSTYLE_CLASS
 90
     4095
280
     0
281
     0
  0
CLASS
  1
SUN
  2
AcDbSun
  3
SCENEOE
 90
     1153
280
     0
281
     0
  0
CLASS
  1
ACDBPLACEHOLDER
  2
AcDbPlaceHolder
  3
ObjectDBX Classes
 90
        0
280
     0
281
     0
  0
CLASS
  1
LAYOUT
  2
AcDbLayout
  3
ObjectDBX Classes
 90
        0
280
     0
281
     0
  0
ENDSEC
  0
SECTION
  2
TABLES
  0
TABLE
  2
VPORT
  5
8
330
0
100
AcDbSymbolTable
 70
     1
  0
VPORT
  5
29
330
8
100
AcDbSymbolTableRecord
100
AcDbViewportTableRecord
  2
*Active
 70
     0
 10
0.0
 20
0.0
 11
1.0
 21
1.0
 12
10000.0
 22
5000.0
 13
0.0
 23
0.0
 14
10.0
 24
10.0
 15
10.0
 25
10.0
 16
0.0
 26
0.0
 36
1.0
 17
0.0
 27
0.0
 37
0.0
 40
10000.0
 41
2.0
 42
50.0
 43
0.0
 44
0.0
 50
0.0
 51
0.0
 71
     0
 72
  2000
 73
     1
 74
     3
 75
     0
 76
     0
 77
     0
 78
     0
281
     0
 65
     1
110
0.0
120
0.0
130
0.0
111
1.0
121
0.0
131
0.0
112
0.0
122
1.0
132
0.0
 79
     0
146
0.0
  0
ENDTAB
  0
TABLE
  2
LTYPE
  5
5
330
0
100
AcDbSymbolTable
 70
     6
  0
LTYPE
  5
14
330
5
100
AcDbSymbolTableRecord
100
AcDbLinetypeTableRecord
  2
ByBlock
 70
     0
  3

 72
    65
 73
     0
 40
0.0
  0
LTYPE
  5
15
330
5
100
AcDbSymbolTableRecord
100
AcDbLinetypeTableRecord
  2
ByLayer
 70
     0
  3

 72
    65
 73
     0
 40
0.0
  0
LTYPE
  5
16
330
5
100
AcDbSymbolTableRecord
100
AcDbLinetypeTableRecord
  2
Continuous
 70
     0
  3
Solid line
 72
    65
 73
     0
 40
0.0
  0
LTYPE
  5
6E
330
5
100
AcDbSymbolTableRecord
100
AcDbLinetypeTableRecord
  2
HIDDEN
 70
     0
  3
Hidden __ __ __ __ __ __ __ __ __ __ __ __ __ __
 72
    65
 73
     2
 40
1.905
 49
1.27
 74
     0
 49
-0.635
 74
     0
  0
LTYPE
  5
6F
330
5
100
AcDbSymbolTableRecord
100
AcDbLinetypeTableRecord
  2
PHANTOM
 70
     0
  3
Phantom ______  __  __  ______  __  __  ______
 72
    65
 73
     6
 40
12.7
 49
6.35
 74
     0
 49
-1.27
 74
     0
 49
1.27
 74
     0
 49
-1.27
 74
     0
 49
1.27
 74
     0
 49
-1.27
 74
     0
  0
LTYPE
  5
70
330
5
100
AcDbSymbolTableRecord
100
AcDbLinetypeTableRecord
  2
CENTER
 70
     0
  3
Center ____ _ ____ _ ____ _ ____ _ ____ _ ____
 72
    65
 73
     4
 40
10.16
 49
6.35
 74
     0
 49
-1.27
 74
     0
 49
1.27
 74
     0
 49
-1.27
 74
     0
  0
LTYPE
  5
71
330
5
100
AcDbSymbolTableRecord
100
AcDbLinetypeTableRecord
  2
CENTERX2
 70
     0
  3
Center (2x) ________  __  ________  __  _____
 72
    65
 73
     4
 40
20.32
 49
12.7
 74
     0
 49
-2.54
 74
     0
 49
2.54
 74
     0
 49
-2.54
 74
     0
  0
LTYPE
  5
72
330
5
100
AcDbSymbolTableRecord
100
AcDbLinetypeTableRecord
  2
DOT2
 70
     0
  3
Dot (.5x) ........................................
 72
    65
 73
     2
 40
0.635
 49
0.0
 74
     0
 49
-0.635
 74
     0
  0
ENDTAB
  0
TABLE
  2
LAYER
  5
2
330
0
100
AcDbSymbolTable
 70
    13
  0
LAYER
  5
10
330
2
100
AcDbSymbolTableRecord
100
AcDbLayerTableRecord
  2
0
 70
     0
 62
     7
  6
Continuous
370
    -3
390
F
  0
LAYER
  5
73
330
2
100
AcDbSymbolTableRecord
100
AcDbLayerTableRecord
  2
FORMAT
 70
     0
 62
     7
  6
Continuous
370
    -3
390
F
  0
LAYER
  5
74
330
2
100
AcDbSymbolTableRecord
100
AcDbLayerTableRecord
  2
OSA
 70
     0
 62
     7
  6
CENTER
370
    -3
390
F
  0
LAYER
  5
75
330
2
100
AcDbSymbolTableRecord
100
AcDbLayerTableRecord
  2
0_35
 70
     0
 62
     7
  6
Continuous
370
    35
390
F
  0
LAYER
  5
76
330
2
100
AcDbSymbolTableRecord
100
AcDbLayerTableRecord
  2
0_5
 70
     0
 62
     7
  6
Continuous
370
    50
390
F
  0
LAYER
  5
77
330
2
100
AcDbSymbolTableRecord
100
AcDbLayerTableRecord
  2
0_25
 70
     0
 62
     7
  6
Continuous
370
    25
390
F
  0
LAYER
  5
78
330
2
100
AcDbSymbolTableRecord
100
AcDbLayerTableRecord
  2
0_18
 70
     0
 62
     7
  6
Continuous
370
    -3
390
F
  0
LAYER
  5
79
330
2
100
AcDbSymbolTableRecord
100
AcDbLayerTableRecord
  2
SLD-0
 70
     0
 62
   179
  6
Continuous
370
    -3
390
F
  0
LAYER
  5
7A
330
2
100
AcDbSymbolTableRecord
100
AcDbLayerTableRecord
  2
KOTY
 70
     0
 62
     7
  6
Continuous
370
    -3
390
F
  0
LAYER
  5
7B
330
2
100
AcDbSymbolTableRecord
100
AcDbLayerTableRecord
  2
SILNA
 70
     0
 62
   179
  6
Continuous
370
    -3
390
F
  0
LAYER
  5
7C
330
2
100
AcDbSymbolTableRecord
100
AcDbLayerTableRecord
  2
0_18_1
 70
     0
 62
   179
  6
Continuous
370
    -3
390
F
  0
LAYER
  5
7D
330
2
100
AcDbSymbolTableRecord
100
AcDbLayerTableRecord
  2
0_35_1
 70
     0
 62
   179
  6
Continuous
370
    35
390
F
  0
LAYER
  5
7E
330
2
100
AcDbSymbolTableRecord
100
AcDbLayerTableRecord
  2
0_5_1
 70
     0
 62
   179
  6
Continuous
370
    50
390
F
  0
ENDTAB
  0
TABLE
  2
STYLE
  5
3
330
0
100
AcDbSymbolTable
 70
     1
  0
STYLE
  5
11
330
3
100
AcDbSymbolTableRecord
100
AcDbTextStyleTableRecord
  2
Standard
 70
     0
 40
0.0
 41
1.0
 50
0.0
 71
     0
 42
2.0
  3
txt
  4

  0
ENDTAB
  0
TABLE
  2
VIEW
  5
6
330
0
100
AcDbSymbolTable
 70
     0
  0
ENDTAB
  0
TABLE
  2
UCS
  5
7
330
0
100
AcDbSymbolTable
 70
     0
  0
ENDTAB
  0
TABLE
  2
APPID
  5
9
330
0
100
AcDbSymbolTable
 70
     1
  0
APPID
  5
12
330
9
100
AcDbSymbolTableRecord
100
AcDbRegAppTableRecord
  2
ACAD
 70
     0
  0
ENDTAB
  0
TABLE
  2
DIMSTYLE
  5
A
330
0
100
AcDbSymbolTable
 70
     1
100
AcDbDimStyleTable
  0
DIMSTYLE
105
27
330
A
100
AcDbSymbolTableRecord
100
AcDbDimStyleTableRecord
  2
ISO-25
 70
     0
 41
2.5
 42
0.625
 43
3.75
 44
1.25
 73
     0
 74
     0
 77
     1
 78
     8
140
2.5
141
2.5
143
0.0393700787
147
0.625
171
     3
172
     1
178
     0
271
     2
272
     2
274
     3
278
    44
283
     0
284
     8
340
11
  0
ENDTAB
  0
TABLE
  2
BLOCK_RECORD
  5
1
330
0
100
AcDbSymbolTable
 70
     1
  0
BLOCK_RECORD
  5
1F
330
1
100
AcDbSymbolTableRecord
100
AcDbBlockTableRecord
  2
*Model_Space
340
22
  0
BLOCK_RECORD
  5
1B
330
1
100
AcDbSymbolTableRecord
100
AcDbBlockTableRecord
  2
*Paper_Space
340
1E
  0
BLOCK_RECORD
  5
23
330
1
100
AcDbSymbolTableRecord
100
AcDbBlockTableRecord
  2
*Paper_Space0
340
26
  0
ENDTAB
  0
ENDSEC
  0
SECTION
  2
BLOCKS
  0
BLOCK
  5
20
330
1F
100
AcDbEntity
  8
0
100
AcDbBlockBegin
  2
*Model_Space
 70
     0
 10
0.0
 20
0.0
 30
0.0
  3
*Model_Space
  1

  0
ENDBLK
  5
21
330
1F
100
AcDbEntity
  8
0
100
AcDbBlockEnd
  0
BLOCK
  5
1C
330
1B
100
AcDbEntity
 67
     1
  8
0
100
AcDbBlockBegin
  2
*Paper_Space
 70
     0
 10
0.0
 20
0.0
 30
0.0
  3
*Paper_Space
  1

  0
ENDBLK
  5
1D
330
1B
100
AcDbEntity
 67
     1
  8
0
100
AcDbBlockEnd
  0
BLOCK
  5
24
330
23
100
AcDbEntity
  8
0
100
AcDbBlockBegin
  2
*Paper_Space0
 70
     0
 10
0.0
 20
0.0
 30
0.0
  3
*Paper_Space0
  1

  0
ENDBLK
  5
25
330
23
100
AcDbEntity
  8
0
100
AcDbBlockEnd
  0
ENDSEC
  0
SECTION
  2
ENTITIES
  0
ARC
  5
7F
330
1F
100
AcDbEntity
  8
0
  6
Continuous
 62
     7
370
    25
100
AcDbCircle
 10
1902.052059367
 20
6442.7558630526
 30
0.0
 40
124.8437500000002
100
AcDbArc
 50
4.5909196559
 51
175.4038403602
  0
ARC
  5
80
330
1F
100
AcDbEntity
  8
0
  6
Continuous
 62
     7
370
    25
100
AcDbCircle
 10
1902.052059367
 20
6442.7558630526
 30
0.0
 40
124.84375
100
AcDbArc
 50
184.5742202764
 51
355.4154153204
  0
ARC
  5
81
330
1F
100
AcDbEntity
  8
0
  6
Continuous
 62
     7
370
    25
100
AcDbCircle
 10
1902.052059367
 20
6442.7558630526
 30
0.0
 40
117.5000000000002
100
AcDbArc
 50
4.8800711249
 51
175.1269846652
  0
ARC
  5
82
330
1F
100
AcDbEntity
  8
0
  6
Continuous
 62
     7
370
    25
100
AcDbCircle
 10
1902.052059367
 20
6442.7558630526
 30
0.0
 40
117.5000000000002
100
AcDbArc
 50
184.877037445
 51
355.12896765
  0
LINE
  5
83
330
1F
100
AcDbEntity
  8
0
  6
Continuous
 62
     7
370
    25
100
AcDbLine
 10
2087.0520593671
 20
6432.7558630526
 30
0.0
 11
2087.0520593671
 21
6425.2558630526
 31
0.0
  0
LINE
  5
84
330
1F
100
AcDbEntity
  8
0
  6
Continuous
 62
     7
370
    25
100
AcDbLine
 10
2137.0520593671
 20
6425.2558630526
 30
0.0
 11
2137.0520593671
 21
6432.7558630526
 31
0.0
  0
ARC
  5
85
330
1F
100
AcDbEntity
  8
0
  6
Continuous
 62
     7
370
    25
100
AcDbCircle
 10
2127.0520593671
 20
6425.2558630526
 30
0.0
 40
10.0
100
AcDbArc
 50
270.0
 51
0.0
  0
ARC
  5
86
330
1F
100
AcDbEntity
  8
0
  6
Continuous
 62
     7
370
    25
100
AcDbCircle
 10
2097.0520593671
 20
6425.2558630526
 30
0.0
 40
9.999999999999545
100
AcDbArc
 50
180.0
 51
270.0
  0
ARC
  5
87
330
1F
100
AcDbEntity
  8
0
  6
Continuous
 62
     7
370
    25
100
AcDbCircle
 10
1707.052059367
 20
6425.2558630526
 30
0.0
 40
10.0
100
AcDbArc
 50
270.0
 51
0.0
  0
ARC
  5
88
330
1F
100
AcDbEntity
  8
0
  6
Continuous
 62
     7
370
    25
100
AcDbCircle
 10
1677.052059367
 20
6425.2558630526
 30
0.0
 40
10.0
100
AcDbArc
 50
180.0
 51
270.0
  0
LINE
  5
89
330
1F
100
AcDbEntity
  8
0
  6
Continuous
 62
     7
370
    25
100
AcDbLine
 10
1667.052059367
 20
6432.7558630526
 30
0.0
 11
1667.052059367
 21
6425.2558630526
 31
0.0
  0
LINE
  5
8A
330
1F
100
AcDbEntity
  8
0
  6
Continuous
 62
     7
370
    25
100
AcDbLine
 10
1717.052059367
 20
6425.2558630526
 30
0.0
 11
1717.052059367
 21
6432.7558630526
 31
0.0
  0
LINE
  5
8B
330
1F
100
AcDbEntity
  8
0
  6
Continuous
 62
     7
370
    25
100
AcDbLine
 10
2124.5520593671
 20
6452.7558630526
 30
0.0
 11
2124.5520593671
 21
6507.7558630526
 31
0.0
  0
LINE
  5
8C
330
1F
100
AcDbEntity
  8
0
  6
Continuous
 62
     7
370
    25
100
AcDbLine
 10
2099.5520593671
 20
6507.7558630526
 30
0.0
 11
2099.5520593671
 21
6452.7558630526
 31
0.0
  0
LINE
  5
8D
330
1F
100
AcDbEntity
  8
0
  6
Continuous
 62
     7
370
    25
100
AcDbLine
 10
1704.552059367
 20
6452.7558630526
 30
0.0
 11
1704.552059367
 21
6507.7558630526
 31
0.0
  0
LINE
  5
8E
330
1F
100
AcDbEntity
  8
0
  6
Continuous
 62
     7
370
    25
100
AcDbLine
 10
1679.552059367
 20
6507.7558630526
 30
0.0
 11
1679.552059367
 21
6452.7558630526
 31
0.0
  0
LINE
  5
8F
330
1F
100
AcDbEntity
  8
0
  6
Continuous
 62
     7
370
    25
100
AcDbLine
 10
1922.0520593669
 20
6647.7558630526
 30
0.0
 11
1922.0520593669
 21
7855.2558630527
 31
0.0
  0
LINE
  5
90
330
1F
100
AcDbEntity
  8
0
  6
Continuous
 62
     7
370
    25
100
AcDbLine
 10
1922.0520593669
 20
7955.2558630527
 30
0.0
 11
1922.0520593669
 21
8087.7558630526
 31
0.0
  0
LINE
  5
91
330
1F
100
AcDbEntity
  8
0
  6
Continuous
 62
     7
370
    25
100
AcDbLine
 10
1882.0520593669
 20
8087.7558630526
 30
0.0
 11
1882.0520593669
 21
7955.2558630527
 31
0.0
  0
LINE
  5
92
330
1F
100
AcDbEntity
  8
0
  6
Continuous
 62
     7
370
    25
100
AcDbLine
 10
1882.0520593669
 20
7855.2558630527
 30
0.0
 11
1882.0520593669
 21
6647.7558630526
 31
0.0
  0
LINE
  5
93
330
1F
100
AcDbEntity
  8
0
  6
Continuous
 62
     7
370
    25
100
AcDbLine
 10
1920.8020593669
 20
6612.7558630526
 30
0.0
 11
1920.8020593669
 21
6647.7558630526
 31
0.0
  0
LINE
  5
94
330
1F
100
AcDbEntity
  8
0
  6
Continuous
 62
     7
370
    25
100
AcDbLine
 10
1883.3020593669
 20
6647.7558630526
 30
0.0
 11
1883.3020593669
 21
6612.7558630526
 31
0.0
  0
LINE
  5
95
330
1F
100
AcDbEntity
  8
0
  6
Continuous
 62
     7
370
    25
100
AcDbLine
 10
1372.9277026398
 20
7217.7558630528
 30
0.0
 11
1722.9277026398
 21
7217.7558630528
 31
0.0
  0
LINE
  5
96
330
1F
100
AcDbEntity
  8
0
  6
Continuous
 62
     7
370
    25
100
AcDbLine
 10
1372.9277026398
 20
7587.7558630528
 30
0.0
 11
1722.9277026398
 21
7587.7558630528
 31
0.0
  0
LINE
  5
97
330
1F
100
AcDbEntity
  8
0
  6
Continuous
 62
     7
370
    25
100
AcDbLine
 10
1722.9277026398
 20
7217.7558630528
 30
0.0
 11
1722.9277026398
 21
7587.7558630528
 31
0.0
  0
CIRCLE
  5
98
330
1F
100
AcDbEntity
  8
0
  6
Continuous
 62
     7
370
    25
100
AcDbCircle
 10
1547.9277026398
 20
7402.7558630528
 30
0.0
 40
100.0
  0
LINE
  5
99
330
1F
100
AcDbEntity
  8
0
  6
Continuous
 62
     7
370
    25
100
AcDbLine
 10
1694.652359736
 20
7362.0972231345
 30
0.0
 11
1588.586342558
 21
7256.0312059565
 31
0.0
  0
LINE
  5
9A
330
1F
100
AcDbEntity
  8
0
  6
Continuous
 62
     7
370
    25
100
AcDbLine
 10
1588.586342558
 20
7256.0312059565
 30
0.0
 11
1606.2640120877
 21
7238.3535364269
 31
0.0
  0
LINE
  5
9B
330
1F
100
AcDbEntity
  8
0
  6
Continuous
 62
     7
370
    25
100
AcDbLine
 10
1606.2640120877
 20
7238.3535364269
 30
0.0
 11
1712.3300292657
 21
7344.4195536049
 31
0.0
  0
LINE
  5
9C
330
1F
100
AcDbEntity
  8
0
  6
Continuous
 62
     7
370
    25
100
AcDbLine
 10
1712.3300292657
 20
7344.4195536049
 30
0.0
 11
1694.652359736
 21
7362.0972231345
 31
0.0
  0
LINE
  5
9D
330
1F
100
AcDbEntity
  8
0
  6
Continuous
 62
     7
370
    25
100
AcDbLine
 10
1507.2690627216
 20
7256.0312059565
 30
0.0
 11
1401.2030455436
 21
7362.0972231345
 31
0.0
  0
LINE
  5
9E
330
1F
100
AcDbEntity
  8
0
  6
Continuous
 62
     7
370
    25
100
AcDbLine
 10
1401.2030455436
 20
7362.0972231345
 30
0.0
 11
1383.5253760139
 21
7344.4195536049
 31
0.0
  0
LINE
  5
9F
330
1F
100
AcDbEntity
  8
0
  6
Continuous
 62
     7
370
    25
100
AcDbLine
 10
1383.5253760139
 20
7344.4195536049
 30
0.0
 11
1489.5913931919
 21
7238.3535364269
 31
0.0
  0
LINE
  5
A0
330
1F
100
AcDbEntity
  8
0
  6
Continuous
 62
     7
370
    25
100
AcDbLine
 10
1489.5913931919
 20
7238.3535364269
 30
0.0
 11
1507.2690627216
 21
7256.0312059565
 31
0.0
  0
LINE
  5
A1
330
1F
100
AcDbEntity
  8
0
  6
Continuous
 62
     7
370
    25
100
AcDbLine
 10
1489.5913931919
 20
7567.1581896786
 30
0.0
 11
1383.5253760139
 21
7461.0921725006
 31
0.0
  0
LINE
  5
A2
330
1F
100
AcDbEntity
  8
0
  6
Continuous
 62
     7
370
    25
100
AcDbLine
 10
1383.5253760139
 20
7461.0921725006
 30
0.0
 11
1401.2030455436
 21
7443.414502971
 31
0.0
  0
LINE
  5
A3
330
1F
100
AcDbEntity
  8
0
  6
Continuous
 62
     7
370
    25
100
AcDbLine
 10
1401.2030455436
 20
7443.414502971
 30
0.0
 11
1507.2690627216
 21
7549.480520149
 31
0.0
  0
LINE
  5
A4
330
1F
100
AcDbEntity
  8
0
  6
Continuous
 62
     7
370
    25
100
AcDbLine
 10
1507.2690627216
 20
7549.480520149
 30
0.0
 11
1489.5913931919
 21
7567.1581896786
 31
0.0
  0
LINE
  5
A5
330
1F
100
AcDbEntity
  8
0
  6
Continuous
 62
     7
370
    25
100
AcDbLine
 10
1712.3300292657
 20
7461.0921725006
 30
0.0
 11
1606.2640120877
 21
7567.1581896786
 31
0.0
  0
LINE
  5
A6
330
1F
100
AcDbEntity
  8
0
  6
Continuous
 62
     7
370
    25
100
AcDbLine
 10
1606.2640120877
 20
7567.1581896786
 30
0.0
 11
1588.586342558
 21
7549.480520149
 31
0.0
  0
LINE
  5
A7
330
1F
100
AcDbEntity
  8
0
  6
Continuous
 62
     7
370
    25
100
AcDbLine
 10
1588.586342558
 20
7549.480520149
 30
0.0
 11
1694.652359736
 21
7443.414502971
 31
0.0
  0
LINE
  5
A8
330
1F
100
AcDbEntity
  8
0
  6
Continuous
 62
     7
370
    25
100
AcDbLine
 10
1694.652359736
 20
7443.414502971
 30
0.0
 11
1712.3300292657
 21
7461.0921725006
 31
0.0
  0
LINE
  5
A9
330
1F
100
AcDbEntity
  8
0
  6
Continuous
 62
     7
370
    25
100
AcDbLine
 10
1372.9277026398
 20
7217.7558630528
 30
0.0
 11
1372.9277026398
 21
7587.7558630528
 31
0.0
  0
LINE
  5
AA
330
1F
100
AcDbEntity
  8
0
  6
Continuous
 62
     7
370
    25
100
AcDbLine
 10
1372.9277026398
 20
7602.7558630528
 30
0.0
 11
1722.9277026398
 21
7602.7558630528
 31
0.0
  0
LINE
  5
AB
330
1F
100
AcDbEntity
  8
0
  6
Continuous
 62
     7
370
    25
100
AcDbLine
 10
1722.9277026398
 20
7587.7558630528
 30
0.0
 11
1722.9277026398
 21
7602.7558630528
 31
0.0
  0
LINE
  5
AC
330
1F
100
AcDbEntity
  8
0
  6
Continuous
 62
     7
370
    25
100
AcDbLine
 10
1372.9277026398
 20
7587.7558630528
 30
0.0
 11
1372.9277026398
 21
7602.7558630528
 31
0.0
  0
LINE
  5
AD
330
1F
100
AcDbEntity
  8
0
  6
Continuous
 62
     7
370
    25
100
AcDbLine
 10
1372.9277026398
 20
7602.7558630528
 30
0.0
 11
1372.9277026398
 21
7607.7558630528
 31
0.0
  0
LINE
  5
AE
330
1F
100
AcDbEntity
  8
0
  6
Continuous
 62
     7
370
    25
100
AcDbLine
 10
1372.9277026398
 20
7607.7558630528
 30
0.0
 11
1722.9277026398
 21
7607.7558630528
 31
0.0
  0
LINE
  5
AF
330
1F
100
AcDbEntity
  8
0
  6
Continuous
 62
     7
370
    25
100
AcDbLine
 10
1722.9277026398
 20
7602.7558630528
 30
0.0
 11
1722.9277026398
 21
7607.7558630528
 31
0.0
  0
LINE
  5
B0
330
1F
100
AcDbEntity
  8
0
  6
Continuous
 62
     7
370
    25
100
AcDbLine
 10
1722.9277026398
 20
7607.7558630528
 30
0.0
 11
1722.9277026398
 21
7855.2558630527
 31
0.0
  0
LINE
  5
B1
330
1F
100
AcDbEntity
  8
0
  6
Continuous
 62
     7
370
    25
100
AcDbLine
 10
1535.4277026398
 20
7855.2558630527
 30
0.0
 11
1535.4277026398
 21
7617.7558630528
 31
0.0
  0
LINE
  5
B2
330
1F
100
AcDbEntity
  8
0
  6
Continuous
 62
     7
370
    25
100
AcDbLine
 10
1535.4277026398
 20
7617.7558630528
 30
0.0
 11
1560.4277026398
 21
7617.7558630528
 31
0.0
  0
LINE
  5
B3
330
1F
100
AcDbEntity
  8
0
  6
Continuous
 62
     7
370
    25
100
AcDbLine
 10
1560.4277026398
 20
7617.7558630528
 30
0.0
 11
1560.4277026398
 21
7855.2558630527
 31
0.0
  0
LINE
  5
B4
330
1F
100
AcDbEntity
  8
0
  6
Continuous
 62
     7
370
    25
100
AcDbLine
 10
1372.9277026398
 20
7607.7558630528
 30
0.0
 11
1372.9277026398
 21
7855.2558630527
 31
0.0
  0
LINE
  5
B5
330
1F
100
AcDbEntity
  8
0
  6
Continuous
 62
     7
370
    25
100
AcDbLine
 10
2077.052059368
 20
7217.7558630528
 30
0.0
 11
2427.052059368
 21
7217.7558630528
 31
0.0
  0
LINE
  5
B6
330
1F
100
AcDbEntity
  8
0
  6
Continuous
 62
     7
370
    25
100
AcDbLine
 10
2077.052059368
 20
7217.7558630528
 30
0.0
 11
2077.052059368
 21
7587.7558630528
 31
0.0
  0
LINE
  5
B7
330
1F
100
AcDbEntity
  8
0
  6
Continuous
 62
     7
370
    25
100
AcDbLine
 10
2077.052059368
 20
7587.7558630528
 30
0.0
 11
2427.052059368
 21
7587.7558630528
 31
0.0
  0
LINE
  5
B8
330
1F
100
AcDbEntity
  8
0
  6
Continuous
 62
     7
370
    25
100
AcDbLine
 10
2427.052059368
 20
7217.7558630528
 30
0.0
 11
2427.052059368
 21
7587.7558630528
 31
0.0
  0
CIRCLE
  5
B9
330
1F
100
AcDbEntity
  8
0
  6
Continuous
 62
     7
370
    25
100
AcDbCircle
 10
2252.052059368
 20
7402.7558630528
 30
0.0
 40
100.0
  0
LINE
  5
BA
330
1F
100
AcDbEntity
  8
0
  6
Continuous
 62
     7
370
    25
100
AcDbLine
 10
2398.7767164642
 20
7362.0972231345
 30
0.0
 11
2292.7106992862
 21
7256.0312059565
 31
0.0
  0
LINE
  5
BB
330
1F
100
AcDbEntity
  8
0
  6
Continuous
 62
     7
370
    25
100
AcDbLine
 10
2292.7106992862
 20
7256.0312059565
 30
0.0
 11
2310.3883688158
 21
7238.3535364269
 31
0.0
  0
LINE
  5
BC
330
1F
100
AcDbEntity
  8
0
  6
Continuous
 62
     7
370
    25
100
AcDbLine
 10
2310.3883688158
 20
7238.3535364269
 30
0.0
 11
2416.4543859938
 21
7344.4195536049
 31
0.0
  0
LINE
  5
BD
330
1F
100
AcDbEntity
  8
0
  6
Continuous
 62
     7
370
    25
100
AcDbLine
 10
2416.4543859938
 20
7344.4195536049
 30
0.0
 11
2398.7767164642
 21
7362.0972231345
 31
0.0
  0
LINE
  5
BE
330
1F
100
AcDbEntity
  8
0
  6
Continuous
 62
     7
370
    25
100
AcDbLine
 10
2211.3934194497
 20
7256.0312059565
 30
0.0
 11
2105.3274022718
 21
7362.0972231345
 31
0.0
  0
LINE
  5
BF
330
1F
100
AcDbEntity
  8
0
  6
Continuous
 62
     7
370
    25
100
AcDbLine
 10
2105.3274022718
 20
7362.0972231345
 30
0.0
 11
2087.6497327421
 21
7344.4195536049
 31
0.0
  0
LINE
  5
C0
330
1F
100
AcDbEntity
  8
0
  6
Continuous
 62
     7
370
    25
100
AcDbLine
 10
2087.6497327421
 20
7344.4195536049
 30
0.0
 11
2193.7157499201
 21
7238.3535364269
 31
0.0
  0
LINE
  5
C1
330
1F
100
AcDbEntity
  8
0
  6
Continuous
 62
     7
370
    25
100
AcDbLine
 10
2193.7157499201
 20
7238.3535364269
 30
0.0
 11
2211.3934194497
 21
7256.0312059565
 31
0.0
  0
LINE
  5
C2
330
1F
100
AcDbEntity
  8
0
  6
Continuous
 62
     7
370
    25
100
AcDbLine
 10
2193.7157499201
 20
7567.1581896786
 30
0.0
 11
2087.6497327421
 21
7461.0921725006
 31
0.0
  0
LINE
  5
C3
330
1F
100
AcDbEntity
  8
0
  6
Continuous
 62
     7
370
    25
100
AcDbLine
 10
2105.3274022718
 20
7443.414502971
 30
0.0
 11
2211.3934194497
 21
7549.480520149
 31
0.0
  0
LINE
  5
C4
330
1F
100
AcDbEntity
  8
0
  6
Continuous
 62
     7
370
    25
100
AcDbLine
 10
2211.3934194497
 20
7549.480520149
 30
0.0
 11
2193.7157499201
 21
7567.1581896786
 31
0.0
  0
LINE
  5
C5
330
1F
100
AcDbEntity
  8
0
  6
Continuous
 62
     7
370
    25
100
AcDbLine
 10
2416.4543859938
 20
7461.0921725006
 30
0.0
 11
2310.3883688158
 21
7567.1581896786
 31
0.0
  0
LINE
  5
C6
330
1F
100
AcDbEntity
  8
0
  6
Continuous
 62
     7
370
    25
100
AcDbLine
 10
2310.3883688158
 20
7567.1581896786
 30
0.0
 11
2292.7106992862
 21
7549.480520149
 31
0.0
  0
LINE
  5
C7
330
1F
100
AcDbEntity
  8
0
  6
Continuous
 62
     7
370
    25
100
AcDbLine
 10
2292.7106992862
 20
7549.480520149
 30
0.0
 11
2398.7767164642
 21
7443.414502971
 31
0.0
  0
LINE
  5
C8
330
1F
100
AcDbEntity
  8
0
  6
Continuous
 62
     7
370
    25
100
AcDbLine
 10
2398.7767164642
 20
7443.414502971
 30
0.0
 11
2416.4543859938
 21
7461.0921725006
 31
0.0
  0
LINE
  5
C9
330
1F
100
AcDbEntity
  8
0
  6
Continuous
 62
     7
370
    25
100
AcDbLine
 10
2087.6497327421
 20
7461.0921725006
 30
0.0
 11
2105.3274022718
 21
7443.414502971
 31
0.0
  0
LINE
  5
CA
330
1F
100
AcDbEntity
  8
0
  6
Continuous
 62
     7
370
    25
100
AcDbLine
 10
2077.052059368
 20
7587.7558630528
 30
0.0
 11
2077.052059368
 21
7602.7558630528
 31
0.0
  0
LINE
  5
CB
330
1F
100
AcDbEntity
  8
0
  6
Continuous
 62
     7
370
    25
100
AcDbLine
 10
2077.052059368
 20
7602.7558630528
 30
0.0
 11
2427.052059368
 21
7602.7558630528
 31
0.0
  0
LINE
  5
CC
330
1F
100
AcDbEntity
  8
0
  6
Continuous
 62
     7
370
    25
100
AcDbLine
 10
2427.052059368
 20
7587.7558630528
 30
0.0
 11
2427.052059368
 21
7602.7558630528
 31
0.0
  0
LINE
  5
CD
330
1F
100
AcDbEntity
  8
0
  6
Continuous
 62
     7
370
    25
100
AcDbLine
 10
2077.052059368
 20
7602.7558630528
 30
0.0
 11
2077.052059368
 21
7607.7558630528
 31
0.0
  0
LINE
  5
CE
330
1F
100
AcDbEntity
  8
0
  6
Continuous
 62
     7
370
    25
100
AcDbLine
 10
2077.052059368
 20
7607.7558630528
 30
0.0
 11
2427.052059368
 21
7607.7558630528
 31
0.0
  0
LINE
  5
CF
330
1F
100
AcDbEntity
  8
0
  6
Continuous
 62
     7
370
    25
100
AcDbLine
 10
2427.052059368
 20
7602.7558630528
 30
0.0
 11
2427.052059368
 21
7607.7558630528
 31
0.0
  0
LINE
  5
D0
330
1F
100
AcDbEntity
  8
0
  6
Continuous
 62
     7
370
    25
100
AcDbLine
 10
2077.052059368
 20
7607.7558630528
 30
0.0
 11
2077.052059368
 21
7855.2558630527
 31
0.0
  0
LINE
  5
D1
330
1F
100
AcDbEntity
  8
0
  6
Continuous
 62
     7
370
    25
100
AcDbLine
 10
2427.052059368
 20
7607.7558630528
 30
0.0
 11
2427.052059368
 21
7855.2558630527
 31
0.0
  0
LINE
  5
D2
330
1F
100
AcDbEntity
  8
0
  6
Continuous
 62
     7
370
    25
100
AcDbLine
 10
2239.552059368
 20
7855.2558630527
 30
0.0
 11
2239.552059368
 21
7617.7558630528
 31
0.0
  0
LINE
  5
D3
330
1F
100
AcDbEntity
  8
0
  6
Continuous
 62
     7
370
    25
100
AcDbLine
 10
2239.552059368
 20
7617.7558630528
 30
0.0
 11
2264.552059368
 21
7617.7558630528
 31
0.0
  0
LINE
  5
D4
330
1F
100
AcDbEntity
  8
0
  6
Continuous
 62
     7
370
    25
100
AcDbLine
 10
2264.552059368
 20
7617.7558630528
 30
0.0
 11
2264.552059368
 21
7855.2558630527
 31
0.0
  0
ARC
  5
D5
330
1F
100
AcDbEntity
  8
0
  6
Continuous
 62
     7
370
    25
100
AcDbCircle
 10
1902.052059367
 20
6442.7558630526
 30
0.0
 40
142.5000000000015
100
AcDbArc
 50
4.0240638894
 51
175.9759361106
  0
SPLINE
  5
D6
330
1F
100
AcDbEntity
  8
0
  6
Continuous
 62
     7
370
    25
100
AcDbSpline
210
0.0
220
0.0
230
1.0
 70
    24
 71
     3
 72
    13
 73
     9
 74
     0
 42
0.00000001
 43
0.00000001
 40
0.0
 40
0.0
 40
0.0
 40
0.0
 40
0.1436284629975015
 40
0.3589893601037573
 40
0.57424357240633
 40
0.7890306159712486
 40
0.9231846029095201
 40
1.0
 40
1.0
 40
1.0
 40
1.0
 10
2044.200749125345
 20
6452.755863052582
 30
0.0
 10
2042.873978701913
 20
6452.755863052582
 30
0.0
 10
2039.557808248145
 20
6452.755863052582
 30
0.0
 10
2034.571400795419
 20
6452.755863052583
 30
0.0
 10
2030.035988679584
 20
6452.755863052582
 30
0.0
 10
2027.549924557258
 20
6452.755863052582
 30
0.0
 10
2026.522181377777
 20
6452.755863052582
 30
0.0
 10
2026.606257731159
 20
6452.755863052582
 30
0.0
 10
2026.63687050704
 20
6452.755863052582
 30
0.0
  0
SPLINE
  5
D7
330
1F
100
AcDbEntity
  8
0
  6
Continuous
 62
     7
370
    25
100
AcDbSpline
210
0.0
220
0.0
230
1.0
 70
    24
 71
     3
 72
    13
 73
     9
 74
     0
 42
0.00000001
 43
0.00000001
 40
0.0
 40
0.0
 40
0.0
 40
0.0
 40
0.0235685307771022
 40
0.2375968091526465
 40
0.4516697928565867
 40
0.6662261686572712
 40
0.8006594198147704
 40
1.0
 40
1.0
 40
1.0
 40
1.0
 10
1777.56518846429
 20
6452.755863052582
 30
0.0
 10
1777.577678212412
 20
6452.755863052582
 30
0.0
 10
1777.703588661775
 20
6452.755863052582
 30
0.0
 10
1776.62755409897
 20
6452.755863052584
 30
0.0
 10
1773.580087319103
 20
6452.755863052582
 30
0.0
 10
1769.477046397915
 20
6452.755863052583
 30
0.0
 10
1764.835256777438
 20
6452.755863052582
 30
0.0
 10
1761.74748642187
 20
6452.755863052583
 30
0.0
 10
1759.903369608752
 20
6452.755863052582
 30
0.0
  0
SPLINE
  5
D8
330
1F
100
AcDbEntity
  8
0
  6
Continuous
 62
     7
370
    25
100
AcDbSpline
210
0.0
220
0.0
230
1.0
 70
    24
 71
     3
 72
    13
 73
     9
 74
     0
 42
0.00000001
 43
0.00000001
 40
0.0
 40
0.0
 40
0.0
 40
0.0
 40
0.0774017711393095
 40
0.2913292591423777
 40
0.5052413265942458
 40
0.7195621899328385
 40
0.9344957374789021
 40
1.0
 40
1.0
 40
1.0
 40
1.0
 10
2026.589108727872
 20
6432.755863052583
 30
0.0
 10
2026.579235330377
 20
6432.755863052583
 30
0.0
 10
2026.542073266318
 20
6432.755863052582
 30
0.0
 10
2028.055054318738
 20
6432.755863052583
 30
0.0
 10
2031.54632585519
 20
6432.755863052583
 30
0.0
 10
2036.521950778198
 20
6432.755863052583
 30
0.0
 10
2041.010275468837
 20
6432.755863052582
 30
0.0
 10
2043.596631729623
 20
6432.755863052583
 30
0.0
 10
2044.200749125345
 20
6432.755863052583
 30
0.0
  0
ARC
  5
D9
330
1F
100
AcDbEntity
  8
0
  6
Continuous
 62
     7
370
    25
100
AcDbCircle
 10
1902.052059367
 20
6442.7558630526
 30
0.0
 40
142.5000000000017
100
AcDbArc
 50
184.0240638894
 51
355.9759361106
  0
SPLINE
  5
DA
330
1F
100
AcDbEntity
  8
0
  6
Continuous
 62
     7
370
    25
100
AcDbSpline
210
0.0
220
0.0
230
1.0
 70
    24
 71
     3
 72
    13
 73
     9
 74
     0
 42
0.00000001
 43
0.00000001
 40
0.0
 40
0.0
 40
0.0
 40
0.0
 40
0.064265786342765
 40
0.1994017482592552
 40
0.4142726465494062
 40
0.629158527065922
 40
0.8436443149449342
 40
1.0
 40
1.0
 40
1.0
 40
1.0
 10
1759.903369608752
 20
6432.755863052583
 30
0.0
 10
1760.496591164559
 20
6432.755863052583
 30
0.0
 10
1762.337219313137
 20
6432.755863052583
 30
0.0
 10
1766.104791429377
 20
6432.755863052584
 30
0.0
 10
1770.836425404111
 20
6432.755863052583
 30
0.0
 10
1774.924566851463
 20
6432.755863052582
 30
0.0
 10
1777.333077531061
 20
6432.755863052583
 30
0.0
 10
1777.388999595259
 20
6432.755863052583
 30
0.0
 10
1777.412577682651
 20
6432.755863052583
 30
0.0
  0
ARC
  5
DB
330
1F
100
AcDbEntity
  8
0
  6
Continuous
 62
     7
370
    25
100
AcDbCircle
 10
1902.052059367
 20
6442.7558630526
 30
0.0
 40
152.5000000000018
100
AcDbArc
 50
183.7597980573
 51
356.2402019427
  0
LINE
  5
DC
330
1F
100
AcDbEntity
  8
0
  6
Continuous
 62
     7
370
    25
100
AcDbLine
 10
2044.2007491253
 20
6432.7558630526
 30
0.0
 11
2054.2238373024
 21
6432.7558630526
 31
0.0
  0
LINE
  5
DD
330
1F
100
AcDbEntity
  8
0
  6
Continuous
 62
     7
370
    25
100
AcDbLine
 10
1749.8802814317
 20
6432.7558630526
 30
0.0
 11
1759.9033696088
 21
6432.7558630526
 31
0.0
  0
ARC
  5
DE
330
1F
100
AcDbEntity
  8
0
  6
Continuous
 62
     7
370
    25
100
AcDbCircle
 10
1902.052059367
 20
6442.7558630526
 30
0.0
 40
152.5000000000017
100
AcDbArc
 50
3.7597980573
 51
176.2402019427
  0
LINE
  5
DF
330
1F
100
AcDbEntity
  8
0
  6
Continuous
 62
     7
370
    25
100
AcDbLine
 10
1759.9033696088
 20
6452.7558630526
 30
0.0
 11
1749.8802814317
 21
6452.7558630526
 31
0.0
  0
LINE
  5
E0
330
1F
100
AcDbEntity
  8
0
  6
Continuous
 62
     7
370
    25
100
AcDbLine
 10
2054.2238373024
 20
6452.7558630526
 30
0.0
 11
2044.2007491253
 21
6452.7558630526
 31
0.0
  0
LINE
  5
E1
330
1F
100
AcDbEntity
  8
0
  6
Continuous
 62
     7
370
    25
100
AcDbLine
 10
2054.2238373024
 20
6452.7558630526
 30
0.0
 11
2152.0520593671
 21
6452.7558630526
 31
0.0
  0
LINE
  5
E2
330
1F
100
AcDbEntity
  8
0
  6
Continuous
 62
     7
370
    25
100
AcDbLine
 10
2152.0520593671
 20
6452.7558630526
 30
0.0
 11
2152.0520593671
 21
6432.7558630526
 31
0.0
  0
LINE
  5
E3
330
1F
100
AcDbEntity
  8
0
  6
Continuous
 62
     7
370
    25
100
AcDbLine
 10
2152.0520593671
 20
6432.7558630526
 30
0.0
 11
2054.2238373024
 21
6432.7558630526
 31
0.0
  0
LINE
  5
E4
330
1F
100
AcDbEntity
  8
0
  6
Continuous
 62
     7
370
    25
100
AcDbLine
 10
2031.6514173108
 20
6432.7558630526
 30
0.0
 11
2031.6514173108
 21
6452.7558630526
 31
0.0
  0
LINE
  5
E5
330
1F
100
AcDbEntity
  8
0
  6
Continuous
 62
     7
370
    25
100
AcDbLine
 10
1652.052059367
 20
6452.7558630526
 30
0.0
 11
1749.8802814317
 21
6452.7558630526
 31
0.0
  0
LINE
  5
E6
330
1F
100
AcDbEntity
  8
0
  6
Continuous
 62
     7
370
    25
100
AcDbLine
 10
1772.4527014233
 20
6452.7558630526
 30
0.0
 11
1772.4527014233
 21
6432.7558630526
 31
0.0
  0
LINE
  5
E7
330
1F
100
AcDbEntity
  8
0
  6
Continuous
 62
     7
370
    25
100
AcDbLine
 10
1749.8802814317
 20
6432.7558630526
 30
0.0
 11
1652.052059367
 21
6432.7558630526
 31
0.0
  0
LINE
  5
E8
330
1F
100
AcDbEntity
  8
0
  6
Continuous
 62
     7
370
    25
100
AcDbLine
 10
1652.052059367
 20
6432.7558630526
 30
0.0
 11
1652.052059367
 21
6452.7558630526
 31
0.0
  0
SPLINE
  5
E9
330
1F
100
AcDbEntity
  8
0
  6
Continuous
 62
     7
370
    25
100
AcDbSpline
210
0.0
220
0.0
230
1.0
 70
    24
 71
     3
 72
    13
 73
     9
 74
     0
 42
0.00000001
 43
0.00000001
 40
0.0
 40
0.0
 40
0.0
 40
0.0
 40
0.1949849776883908
 40
0.4071607278466126
 40
0.6197664013851185
 40
0.7526903538147974
 40
0.966907778965294
 40
1.0
 40
1.0
 40
1.0
 40
1.0
 10
1784.946351845679
 20
6452.755863052583
 30
0.0
 10
1784.897442673642
 20
6452.755863052583
 30
0.0
 10
1784.795312272002
 20
6452.755863052582
 30
0.0
 10
1783.615128958021
 20
6452.755863052585
 30
0.0
 10
1782.011224411783
 20
6452.755863052581
 30
0.0
 10
1780.054946983606
 20
6452.755863052585
 30
0.0
 10
1778.557991461807
 20
6452.75586305258
 30
0.0
 10
1777.583144571267
 20
6452.755863052583
 30
0.0
 10
1777.452701423276
 20
6452.755863052582
 30
0.0
  0
SPLINE
  5
EA
330
1F
100
AcDbEntity
  8
0
  6
Continuous
 62
     7
370
    25
100
AcDbSpline
210
0.0
220
0.0
230
1.0
 70
    24
 71
     3
 72
    13
 73
     9
 74
     0
 42
0.00000001
 43
0.00000001
 40
0.0
 40
0.0
 40
0.0
 40
0.0
 40
0.1926904240197936
 40
0.4094267293862781
 40
0.6258433191028315
 40
0.7616114739550619
 40
0.9762843504282845
 40
1.0
 40
1.0
 40
1.0
 40
1.0
 10
2026.651417310821
 20
6452.755863052582
 30
0.0
 10
2025.897461535083
 20
6452.755863052582
 30
0.0
 10
2024.2954636728
 20
6452.755863052582
 30
0.0
 10
2022.080974372382
 20
6452.755863052583
 30
0.0
 10
2020.500442611966
 20
6452.755863052583
 30
0.0
 10
2019.501101862802
 20
6452.755863052582
 30
0.0
 10
2019.025900290066
 20
6452.755863052584
 30
0.0
 10
2019.154738618364
 20
6452.755863052582
 30
0.0
 10
2019.167555865469
 20
6452.755863052582
 30
0.0
  0
SPLINE
  5
EB
330
1F
100
AcDbEntity
  8
0
  6
Continuous
 62
     7
370
    25
100
AcDbSpline
210
0.0
220
0.0
230
1.0
 70
    24
 71
     3
 72
    13
 73
     9
 74
     0
 42
0.00000001
 43
0.00000001
 40
0.0
 40
0.0
 40
0.0
 40
0.0
 40
0.110172124961839
 40
0.242772958311749
 40
0.4570391030516175
 40
0.6712834385649434
 40
0.8860642355290271
 40
1.0
 40
1.0
 40
1.0
 40
1.0
 10
2019.232000849601
 20
6432.755863052583
 30
0.0
 10
2019.210186747294
 20
6432.755863052583
 30
0.0
 10
2019.162117654028
 20
6432.755863052583
 30
0.0
 10
2019.725972555016
 20
6432.755863052583
 30
0.0
 10
2020.871082584408
 20
6432.755863052583
 30
0.0
 10
2022.873631972136
 20
6432.755863052583
 30
0.0
 10
2024.914988604134
 20
6432.755863052583
 30
0.0
 10
2026.204472111243
 20
6432.755863052583
 30
0.0
 10
2026.651417310822
 20
6432.755863052583
 30
0.0
  0
SPLINE
  5
EC
330
1F
100
AcDbEntity
  8
0
  6
Continuous
 62
     7
370
    25
100
AcDbSpline
210
0.0
220
0.0
230
1.0
 70
    24
 71
     3
 72
    13
 73
     9
 74
     0
 42
0.00000001
 43
0.00000001
 40
0.0
 40
0.0
 40
0.0
 40
0.0
 40
0.1137500874366772
 40
0.2495277932580239
 40
0.464479708815877
 40
0.6794523350390956
 40
0.8938995367951743
 40
1.0
 40
1.0
 40
1.0
 40
1.0
 10
1777.452701423276
 20
6432.755863052583
 30
0.0
 10
1777.898977979881
 20
6432.755863052583
 30
0.0
 10
1778.877952210686
 20
6432.755863052583
 30
0.0
 10
1780.63604587147
 20
6432.755863052584
 30
0.0
 10
1782.564181398955
 20
6432.755863052583
 30
0.0
 10
1784.136771694691
 20
6432.755863052583
 30
0.0
 10
1784.954948038713
 20
6432.755863052584
 30
0.0
 10
1784.892639356606
 20
6432.755863052583
 30
0.0
 10
1784.872015341035
 20
6432.755863052583
 30
0.0
  0
LINE
  5
ED
330
1F
100
AcDbEntity
  8
0
  6
Continuous
 62
     7
370
    25
100
AcDbLine
 10
1920.8159431157
 20
6612.7558630526
 30
0.0
 11
1920.8159431157
 21
6594.0970889848
 31
0.0
  0
LINE
  5
EE
330
1F
100
AcDbEntity
  8
0
  6
Continuous
 62
     7
370
    25
100
AcDbLine
 10
1920.8159431157
 20
6612.7558630526
 30
0.0
 11
1939.5798268644
 21
6612.7558630526
 31
0.0
  0
LINE
  5
EF
330
1F
100
AcDbEntity
  8
0
  6
Continuous
 62
     7
370
    25
100
AcDbLine
 10
1939.5798268644
 20
6612.7558630526
 30
0.0
 11
1939.5798268644
 21
6590.5662708954
 31
0.0
  0
LINE
  5
F0
330
1F
100
AcDbEntity
  8
0
  6
Continuous
 62
     7
370
    25
100
AcDbLine
 10
1883.2881756184
 20
6612.7558630526
 30
0.0
 11
1883.2881756184
 21
6594.0970889848
 31
0.0
  0
LINE
  5
F1
330
1F
100
AcDbEntity
  8
0
  6
Continuous
 62
     7
370
    25
100
AcDbLine
 10
1883.2881756184
 20
6612.7558630526
 30
0.0
 11
1920.8159431157
 21
6612.7558630526
 31
0.0
  0
LINE
  5
F2
330
1F
100
AcDbEntity
  8
0
  6
Continuous
 62
     7
370
    25
100
AcDbLine
 10
1864.5242918697
 20
6612.7558630526
 30
0.0
 11
1864.5242918697
 21
6590.5662708954
 31
0.0
  0
LINE
  5
F3
330
1F
100
AcDbEntity
  8
0
  6
Continuous
 62
     7
370
    25
100
AcDbLine
 10
1864.5242918697
 20
6612.7558630526
 30
0.0
 11
1883.2881756184
 21
6612.7558630526
 31
0.0
  0
LINE
  5
F4
330
1F
100
AcDbEntity
  8
0
  6
Continuous
 62
     7
370
    25
100
AcDbLine
 10
2127.0520593671
 20
6415.2558630526
 30
0.0
 11
2097.052059367
 21
6415.2558630526
 31
0.0
  0
LINE
  5
F5
330
1F
100
AcDbEntity
  8
0
  6
Continuous
 62
     7
370
    25
100
AcDbLine
 10
1707.052059367
 20
6415.2558630526
 30
0.0
 11
1677.052059367
 21
6415.2558630526
 31
0.0
  0
LINE
  5
F6
330
1F
100
AcDbEntity
  8
0
  6
Continuous
 62
     7
370
    25
100
AcDbLine
 10
2124.5520593671
 20
6507.7558630526
 30
0.0
 11
2099.5520593671
 21
6507.7558630526
 31
0.0
  0
LINE
  5
F7
330
1F
100
AcDbEntity
  8
0
  6
Continuous
 62
     7
370
    25
100
AcDbLine
 10
1679.552059367
 20
6507.7558630526
 30
0.0
 11
1704.552059367
 21
6507.7558630526
 31
0.0
  0
LINE
  5
F8
330
1F
100
AcDbEntity
  8
0
  6
Continuous
 62
     7
370
    25
100
AcDbLine
 10
1922.0520593669
 20
6647.7558630526
 30
0.0
 11
1882.0520593669
 21
6647.7558630526
 31
0.0
  0
LINE
  5
F9
330
1F
100
AcDbEntity
  8
0
  6
Continuous
 62
     7
370
    25
100
AcDbLine
 10
1882.0520593669
 20
8087.7558630526
 30
0.0
 11
1922.0520593669
 21
8087.7558630526
 31
0.0
  0
CIRCLE
  5
FA
330
1F
100
AcDbEntity
  8
0
  6
Continuous
 62
     7
370
    25
100
AcDbCircle
 10
1502.052059368
 20
8572.7558630527
 30
0.0
 40
25.0
  0
CIRCLE
  5
FB
330
1F
100
AcDbEntity
  8
0
  6
Continuous
 62
     7
370
    25
100
AcDbCircle
 10
2302.052059368
 20
8572.7558630527
 30
0.0
 40
24.99999999999818
  0
LINE
  5
FC
330
1F
100
AcDbEntity
  8
0
  6
Continuous
 62
     7
370
    25
100
AcDbLine
 10
3152.052059368
 20
8915.2558630526
 30
0.0
 11
3137.052059368
 21
8915.2558630526
 31
0.0
  0
LINE
  5
FD
330
1F
100
AcDbEntity
  8
0
  6
Continuous
 62
     7
370
    25
100
AcDbLine
 10
3152.052059368
 20
8915.2558630526
 30
0.0
 11
3152.052059368
 21
7665.2558630526
 31
0.0
  0
LINE
  5
FE
330
1F
100
AcDbEntity
  8
0
  6
Continuous
 62
     7
370
    25
100
AcDbLine
 10
3152.052059368
 20
7665.2558630526
 30
0.0
 11
3137.052059368
 21
7665.2558630526
 31
0.0
  0
LINE
  5
FF
330
1F
100
AcDbEntity
  8
0
  6
Continuous
 62
     7
370
    25
100
AcDbLine
 10
3137.052059368
 20
8495.2558630526
 30
0.0
 11
3137.052059368
 21
7665.2558630526
 31
0.0
  0
LINE
  5
100
330
1F
100
AcDbEntity
  8
0
  6
Continuous
 62
     7
370
    25
100
AcDbLine
 10
2177.052059368
 20
8495.2558630526
 30
0.0
 11
2177.052059368
 21
8525.2558630526
 31
0.0
  0
LINE
  5
101
330
1F
100
AcDbEntity
  8
0
  6
Continuous
 62
     7
370
    25
100
AcDbLine
 10
2177.052059368
 20
8525.2558630526
 30
0.0
 11
2219.7796460085
 21
8525.2558630526
 31
0.0
  0
LINE
  5
102
330
1F
100
AcDbEntity
  8
0
  6
Continuous
 62
     7
370
    25
100
AcDbLine
 10
2384.3244727274
 20
8525.2558630526
 30
0.0
 11
3137.052059368
 21
8525.2558630526
 31
0.0
  0
LINE
  5
103
330
1F
100
AcDbEntity
  8
0
  6
Continuous
 62
     7
370
    25
100
AcDbLine
 10
3137.052059368
 20
8610.2558630526
 30
0.0
 11
3137.052059368
 21
8525.2558630526
 31
0.0
  0
LINE
  5
104
330
1F
100
AcDbEntity
  8
0
  6
Continuous
 62
     7
370
    25
100
AcDbLine
 10
2177.052059368
 20
8610.2558630526
 30
0.0
 11
2214.7666081175
 21
8610.2558630526
 31
0.0
  0
LINE
  5
105
330
1F
100
AcDbEntity
  8
0
  6
Continuous
 62
     7
370
    25
100
AcDbLine
 10
2389.3375106185
 20
8610.2558630526
 30
0.0
 11
3137.052059368
 21
8610.2558630526
 31
0.0
  0
LINE
  5
106
330
1F
100
AcDbEntity
  8
0
  6
Continuous
 62
     7
370
    25
100
AcDbLine
 10
2177.052059368
 20
8610.2558630526
 30
0.0
 11
2177.052059368
 21
8640.2558630526
 31
0.0
  0
LINE
  5
107
330
1F
100
AcDbEntity
  8
0
  6
Continuous
 62
     7
370
    25
100
AcDbLine
 10
3137.052059368
 20
8915.2558630526
 30
0.0
 11
3137.052059368
 21
8640.2558630526
 31
0.0
  0
LINE
  5
108
330
1F
100
AcDbEntity
  8
0
  6
Continuous
 62
     7
370
    25
100
AcDbLine
 10
2177.052059368
 20
8655.2558630526
 30
0.0
 11
2254.9484501643
 21
8655.2558630526
 31
0.0
  0
LINE
  5
109
330
1F
100
AcDbEntity
  8
0
  6
Continuous
 62
     7
370
    25
100
AcDbLine
 10
2349.1556685716
 20
8655.2558630526
 30
0.0
 11
3137.052059368
 21
8655.2558630526
 31
0.0
  0
LINE
  5
10A
330
1F
100
AcDbEntity
  8
0
  6
Continuous
 62
     7
370
    25
100
AcDbLine
 10
2177.052059368
 20
8640.2558630526
 30
0.0
 11
2177.052059368
 21
8655.2558630526
 31
0.0
  0
LINE
  5
10B
330
1F
100
AcDbEntity
  8
0
  6
Continuous
 62
     7
370
    25
100
AcDbLine
 10
2177.052059368
 20
8480.2558630526
 30
0.0
 11
2280.4014242736
 21
8480.2558630526
 31
0.0
  0
LINE
  5
10C
330
1F
100
AcDbEntity
  8
0
  6
Continuous
 62
     7
370
    25
100
AcDbLine
 10
2323.7026944623
 20
8480.2558630526
 30
0.0
 11
3137.052059368
 21
8480.2558630526
 31
0.0
  0
LINE
  5
10D
330
1F
100
AcDbEntity
  8
0
  6
Continuous
 62
     7
370
    25
100
AcDbLine
 10
2177.052059368
 20
8480.2558630526
 30
0.0
 11
2177.052059368
 21
8495.2558630526
 31
0.0
  0
LINE
  5
10E
330
1F
100
AcDbEntity
  8
0
  6
Continuous
 62
     7
370
    25
100
AcDbLine
 10
2889.552059368
 20
7865.2558630526
 30
0.0
 11
3137.052059368
 21
7865.2558630526
 31
0.0
  0
LINE
  5
10F
330
1F
100
AcDbEntity
  8
0
  6
Continuous
 62
     7
370
    25
100
AcDbLine
 10
2889.552059368
 20
7942.7558630526
 30
0.0
 11
3137.052059368
 21
7942.7558630526
 31
0.0
  0
LINE
  5
110
330
1F
100
AcDbEntity
  8
0
  6
Continuous
 62
     7
370
    25
100
AcDbLine
 10
1627.052059368
 20
8610.2558630528
 30
0.0
 11
1627.052059368
 21
8640.2558630528
 31
0.0
  0
LINE
  5
111
330
1F
100
AcDbEntity
  8
0
  6
Continuous
 62
     7
370
    25
100
AcDbLine
 10
1627.052059368
 20
8610.2558630528
 30
0.0
 11
1589.3375106184
 21
8610.2558630528
 31
0.0
  0
LINE
  5
112
330
1F
100
AcDbEntity
  8
0
  6
Continuous
 62
     7
370
    25
100
AcDbLine
 10
1414.7666081175
 20
8610.2558630528
 30
0.0
 11
667.052059368
 21
8610.2558630528
 31
0.0
  0
LINE
  5
113
330
1F
100
AcDbEntity
  8
0
  6
Continuous
 62
     7
370
    25
100
AcDbLine
 10
667.052059368
 20
8610.2558630528
 30
0.0
 11
667.052059368
 21
8525.2558630528
 31
0.0
  0
LINE
  5
114
330
1F
100
AcDbEntity
  8
0
  6
Continuous
 62
     7
370
    25
100
AcDbLine
 10
1627.052059368
 20
8525.2558630528
 30
0.0
 11
1584.3244727275
 21
8525.2558630528
 31
0.0
  0
LINE
  5
115
330
1F
100
AcDbEntity
  8
0
  6
Continuous
 62
     7
370
    25
100
AcDbLine
 10
1419.7796460084
 20
8525.2558630528
 30
0.0
 11
667.052059368
 21
8525.2558630528
 31
0.0
  0
LINE
  5
116
330
1F
100
AcDbEntity
  8
0
  6
Continuous
 62
     7
370
    25
100
AcDbLine
 10
1627.052059368
 20
8495.2558630528
 30
0.0
 11
1627.052059368
 21
8525.2558630528
 31
0.0
  0
LINE
  5
117
330
1F
100
AcDbEntity
  8
0
  6
Continuous
 62
     7
370
    25
100
AcDbLine
 10
667.052059368
 20
8495.2558630528
 30
0.0
 11
667.052059368
 21
7665.2558630528
 31
0.0
  0
LINE
  5
118
330
1F
100
AcDbEntity
  8
0
  6
Continuous
 62
     7
370
    25
100
AcDbLine
 10
652.052059368
 20
7665.2558630528
 30
0.0
 11
667.052059368
 21
7665.2558630528
 31
0.0
  0
LINE
  5
119
330
1F
100
AcDbEntity
  8
0
  6
Continuous
 62
     7
370
    25
100
AcDbLine
 10
652.052059368
 20
8915.2558630528
 30
0.0
 11
652.052059368
 21
7665.2558630528
 31
0.0
  0
LINE
  5
11A
330
1F
100
AcDbEntity
  8
0
  6
Continuous
 62
     7
370
    25
100
AcDbLine
 10
667.052059368
 20
8915.2558630528
 30
0.0
 11
667.052059368
 21
8640.2558630528
 31
0.0
  0
LINE
  5
11B
330
1F
100
AcDbEntity
  8
0
  6
Continuous
 62
     7
370
    25
100
AcDbLine
 10
652.052059368
 20
8915.2558630528
 30
0.0
 11
667.052059368
 21
8915.2558630528
 31
0.0
  0
LINE
  5
11C
330
1F
100
AcDbEntity
  8
0
  6
Continuous
 62
     7
370
    25
100
AcDbLine
 10
1627.052059368
 20
8655.2558630528
 30
0.0
 11
1549.1556685713
 21
8655.2558630528
 31
0.0
  0
LINE
  5
11D
330
1F
100
AcDbEntity
  8
0
  6
Continuous
 62
     7
370
    25
100
AcDbLine
 10
1454.9484501646
 20
8655.2558630528
 30
0.0
 11
667.052059368
 21
8655.2558630528
 31
0.0
  0
LINE
  5
11E
330
1F
100
AcDbEntity
  8
0
  6
Continuous
 62
     7
370
    25
100
AcDbLine
 10
1627.052059368
 20
8640.2558630528
 30
0.0
 11
1627.052059368
 21
8655.2558630528
 31
0.0
  0
LINE
  5
11F
330
1F
100
AcDbEntity
  8
0
  6
Continuous
 62
     7
370
    25
100
AcDbLine
 10
1627.052059368
 20
8480.2558630528
 30
0.0
 11
1627.052059368
 21
8495.2558630528
 31
0.0
  0
LINE
  5
120
330
1F
100
AcDbEntity
  8
0
  6
Continuous
 62
     7
370
    25
100
AcDbLine
 10
1627.052059368
 20
8480.2558630528
 30
0.0
 11
1523.702694463
 21
8480.2558630528
 31
0.0
  0
LINE
  5
121
330
1F
100
AcDbEntity
  8
0
  6
Continuous
 62
     7
370
    25
100
AcDbLine
 10
1480.4014242729
 20
8480.2558630528
 30
0.0
 11
667.052059368
 21
8480.2558630528
 31
0.0
  0
LINE
  5
122
330
1F
100
AcDbEntity
  8
0
  6
Continuous
 62
     7
370
    25
100
AcDbLine
 10
914.552059368
 20
7865.2558630528
 30
0.0
 11
667.052059368
 21
7865.2558630528
 31
0.0
  0
LINE
  5
123
330
1F
100
AcDbEntity
  8
0
  6
Continuous
 62
     7
370
    25
100
AcDbLine
 10
914.552059368
 20
7942.7558630528
 30
0.0
 11
667.052059368
 21
7942.7558630528
 31
0.0
  0
LINE
  5
124
330
1F
100
AcDbEntity
  8
0
  6
Continuous
 62
     7
370
    25
100
AcDbLine
 10
1569.3262947943
 20
8564.0231326015
 30
0.0
 11
1543.2519434962
 21
8626.6506947265
 31
0.0
  0
LINE
  5
125
330
1F
100
AcDbEntity
  8
0
  6
Continuous
 62
     7
370
    25
100
AcDbLine
 10
1460.8521752397
 20
8518.8610313789
 30
0.0
 11
1528.126410666
 21
8510.1283009277
 31
0.0
  0
LINE
  5
126
330
1F
100
AcDbEntity
  8
0
  6
Continuous
 62
     7
370
    25
100
AcDbLine
 10
1543.2519434962
 20
8626.6506947265
 30
0.0
 11
1475.9777080699
 21
8635.3834251777
 31
0.0
  0
CIRCLE
  5
127
330
1F
100
AcDbEntity
  8
0
  6
Continuous
 62
     7
370
    25
100
AcDbCircle
 10
1502.052059368
 20
8572.7558630527
 30
0.0
 40
34.99999999999856
  0
LINE
  5
128
330
1F
100
AcDbEntity
  8
0
  6
Continuous
 62
     7
370
    25
100
AcDbLine
 10
1528.126410666
 20
8510.1283009277
 30
0.0
 11
1569.3262947943
 21
8564.0231326015
 31
0.0
  0
LINE
  5
129
330
1F
100
AcDbEntity
  8
0
  6
Continuous
 62
     7
370
    25
100
AcDbLine
 10
1434.7778239416
 20
8581.4885935039
 30
0.0
 11
1460.8521752397
 21
8518.8610313789
 31
0.0
  0
LINE
  5
12A
330
1F
100
AcDbEntity
  8
0
  6
Continuous
 62
     7
370
    25
100
AcDbLine
 10
1475.9777080699
 20
8635.3834251777
 30
0.0
 11
1434.7778239416
 21
8581.4885935039
 31
0.0
  0
CIRCLE
  5
12B
330
1F
100
AcDbEntity
  8
0
  6
Continuous
 62
     7
370
    25
100
AcDbCircle
 10
1502.052059368
 20
8572.7558630527
 30
0.0
 40
95.00000000000023
  0
LINE
  5
12C
330
1F
100
AcDbEntity
  8
0
  6
Continuous
 62
     7
370
    25
100
AcDbLine
 10
2260.8521752397
 20
8518.8610313789
 30
0.0
 11
2328.126410666
 21
8510.1283009277
 31
0.0
  0
LINE
  5
12D
330
1F
100
AcDbEntity
  8
0
  6
Continuous
 62
     7
370
    25
100
AcDbLine
 10
2275.9777080699
 20
8635.3834251777
 30
0.0
 11
2234.7778239416
 21
8581.4885935039
 31
0.0
  0
CIRCLE
  5
12E
330
1F
100
AcDbEntity
  8
0
  6
Continuous
 62
     7
370
    25
100
AcDbCircle
 10
2302.052059368
 20
8572.7558630527
 30
0.0
 40
35.00000000000024
  0
LINE
  5
12F
330
1F
100
AcDbEntity
  8
0
  6
Continuous
 62
     7
370
    25
100
AcDbLine
 10
2343.2519434962
 20
8626.6506947265
 30
0.0
 11
2275.9777080699
 21
8635.3834251777
 31
0.0
  0
LINE
  5
130
330
1F
100
AcDbEntity
  8
0
  6
Continuous
 62
     7
370
    25
100
AcDbLine
 10
2369.3262947943
 20
8564.0231326015
 30
0.0
 11
2343.2519434962
 21
8626.6506947265
 31
0.0
  0
LINE
  5
131
330
1F
100
AcDbEntity
  8
0
  6
Continuous
 62
     7
370
    25
100
AcDbLine
 10
2234.7778239416
 20
8581.4885935039
 30
0.0
 11
2260.8521752397
 21
8518.8610313789
 31
0.0
  0
LINE
  5
132
330
1F
100
AcDbEntity
  8
0
  6
Continuous
 62
     7
370
    25
100
AcDbLine
 10
2328.126410666
 20
8510.1283009277
 30
0.0
 11
2369.3262947943
 21
8564.0231326015
 31
0.0
  0
CIRCLE
  5
133
330
1F
100
AcDbEntity
  8
0
  6
Continuous
 62
     7
370
    25
100
AcDbCircle
 10
2302.052059368
 20
8572.7558630527
 30
0.0
 40
94.99999999999847
  0
LINE
  5
134
330
1F
100
AcDbEntity
  8
0
  6
Continuous
 62
     7
370
    25
100
AcDbLine
 10
2889.552059368
 20
7940.2558630527
 30
0.0
 11
914.552059368
 21
7940.2558630527
 31
0.0
  0
LINE
  5
135
330
1F
100
AcDbEntity
  8
0
  6
Continuous
 62
     7
370
    25
100
AcDbLine
 10
2889.552059368
 20
7940.2558630527
 30
0.0
 11
2889.552059368
 21
7870.2558630527
 31
0.0
  0
LINE
  5
136
330
1F
100
AcDbEntity
  8
0
  6
Continuous
 62
     7
370
    25
100
AcDbLine
 10
2889.552059368
 20
7870.2558630527
 30
0.0
 11
914.552059368
 21
7870.2558630527
 31
0.0
  0
LINE
  5
137
330
1F
100
AcDbEntity
  8
0
  6
Continuous
 62
     7
370
    25
100
AcDbLine
 10
914.552059368
 20
7940.2558630527
 30
0.0
 11
914.552059368
 21
7870.2558630527
 31
0.0
  0
LINE
  5
138
330
1F
100
AcDbEntity
  8
0
  6
Continuous
 62
     7
370
    25
100
AcDbLine
 10
2889.552059368
 20
7870.2558630527
 30
0.0
 11
2889.552059368
 21
7855.2558630527
 31
0.0
  0
LINE
  5
139
330
1F
100
AcDbEntity
  8
0
  6
Continuous
 62
     7
370
    25
100
AcDbLine
 10
2889.552059368
 20
7855.2558630527
 30
0.0
 11
914.552059368
 21
7855.2558630527
 31
0.0
  0
LINE
  5
13A
330
1F
100
AcDbEntity
  8
0
  6
Continuous
 62
     7
370
    25
100
AcDbLine
 10
914.552059368
 20
7870.2558630527
 30
0.0
 11
914.552059368
 21
7855.2558630527
 31
0.0
  0
LINE
  5
13B
330
1F
100
AcDbEntity
  8
0
  6
Continuous
 62
     7
370
    25
100
AcDbLine
 10
2889.552059368
 20
7955.2558630527
 30
0.0
 11
914.552059368
 21
7955.2558630527
 31
0.0
  0
LINE
  5
13C
330
1F
100
AcDbEntity
  8
0
  6
Continuous
 62
     7
370
    25
100
AcDbLine
 10
2889.552059368
 20
7955.2558630527
 30
0.0
 11
2889.552059368
 21
7940.2558630527
 31
0.0
  0
LINE
  5
13D
330
1F
100
AcDbEntity
  8
0
  6
Continuous
 62
     7
370
    25
100
AcDbLine
 10
914.552059368
 20
7955.2558630527
 30
0.0
 11
914.552059368
 21
7940.2558630527
 31
0.0
  0
LINE
  5
13E
330
1F
100
AcDbEntity
  8
0
  6
Continuous
 62
     7
370
    25
100
AcDbLine
 10
2777.052059368
 20
8610.2558630526
 30
0.0
 11
2777.052059368
 21
8600.2558630527
 31
0.0
  0
LINE
  5
13F
330
1F
100
AcDbEntity
  8
0
  6
Continuous
 62
     7
370
    25
100
AcDbLine
 10
2777.052059368
 20
8600.2558630527
 30
0.0
 11
2392.9847267653
 21
8600.2558630527
 31
0.0
  0
LINE
  5
140
330
1F
100
AcDbEntity
  8
0
  6
Continuous
 62
     7
370
    25
100
AcDbLine
 10
2211.1193919706
 20
8600.2558630527
 30
0.0
 11
1592.9847267653
 21
8600.2558630526
 31
0.0
  0
LINE
  5
141
330
1F
100
AcDbEntity
  8
0
  6
Continuous
 62
     7
370
    25
100
AcDbLine
 10
1411.1193919706
 20
8600.2558630526
 30
0.0
 11
1027.052059368
 21
8600.2558630526
 31
0.0
  0
LINE
  5
142
330
1F
100
AcDbEntity
  8
0
  6
Continuous
 62
     7
370
    25
100
AcDbLine
 10
1027.052059368
 20
8610.2558630528
 30
0.0
 11
1027.052059368
 21
8600.2558630526
 31
0.0
  0
LINE
  5
143
330
1F
100
AcDbEntity
  8
0
  6
Continuous
 62
     7
370
    25
100
AcDbLine
 10
2177.052059368
 20
8495.2558630527
 30
0.0
 11
1627.052059368
 21
8495.2558630526
 31
0.0
  0
LINE
  5
144
330
1F
100
AcDbEntity
  8
0
  6
Continuous
 62
     7
370
    25
100
AcDbLine
 10
2177.052059368
 20
8645.2558630527
 30
0.0
 11
1627.052059368
 21
8645.2558630526
 31
0.0
  0
LINE
  5
145
330
1F
100
AcDbEntity
  8
0
  6
Continuous
 62
     7
370
    25
100
AcDbLine
 10
2777.052059368
 20
8540.2558630527
 30
0.0
 11
2391.3199147247
 21
8540.2558630527
 31
0.0
  0
LINE
  5
146
330
1F
100
AcDbEntity
  8
0
  6
Continuous
 62
     7
370
    25
100
AcDbLine
 10
2212.7842040112
 20
8540.2558630527
 30
0.0
 11
1591.3199147247
 21
8540.2558630526
 31
0.0
  0
LINE
  5
147
330
1F
100
AcDbEntity
  8
0
  6
Continuous
 62
     7
370
    25
100
AcDbLine
 10
1412.7842040112
 20
8540.2558630526
 30
0.0
 11
1027.052059368
 21
8540.2558630526
 31
0.0
  0
LINE
  5
148
330
1F
100
AcDbEntity
  8
0
  6
Continuous
 62
     7
370
    25
100
AcDbLine
 10
2777.052059368
 20
8540.2558630527
 30
0.0
 11
2777.052059368
 21
8525.2558630526
 31
0.0
  0
LINE
  5
149
330
1F
100
AcDbEntity
  8
0
  6
Continuous
 62
     7
370
    25
100
AcDbLine
 10
1027.052059368
 20
8540.2558630526
 30
0.0
 11
1027.052059368
 21
8525.2558630528
 31
0.0
  0
LINE
  5
14A
330
1F
100
AcDbEntity
  8
0
  6
Continuous
 62
     7
370
    25
100
AcDbLine
 10
2777.052059368
 20
8600.2558630527
 30
0.0
 11
2777.052059368
 21
8540.2558630527
 31
0.0
  0
LINE
  5
14B
330
1F
100
AcDbEntity
  8
0
  6
Continuous
 62
     7
370
    25
100
AcDbLine
 10
1027.052059368
 20
8600.2558630526
 30
0.0
 11
1027.052059368
 21
8540.2558630526
 31
0.0
  0
LINE
  5
14C
330
1F
100
AcDbEntity
  8
0
  6
Continuous
 62
     8
370
    25
100
AcDbLine
 10
2087.0520593671
 20
6425.2558630526
 30
0.0
 11
2137.0520593671
 21
6425.2558630526
 31
0.0
  0
LINE
  5
14D
330
1F
100
AcDbEntity
  8
0
  6
Continuous
 62
     8
370
    25
100
AcDbLine
 10
1667.052059367
 20
6425.2558630526
 30
0.0
 11
1717.052059367
 21
6425.2558630526
 31
0.0
  0
LINE
  5
14E
330
1F
100
AcDbEntity
  8
0
  6
Continuous
 62
     8
370
    25
100
AcDbLine
 10
2177.052059368
 20
8495.2558630526
 30
0.0
 11
2247.1089069284
 21
8495.2558630526
 31
0.0
  0
LINE
  5
14F
330
1F
100
AcDbEntity
  8
0
  6
Continuous
 62
     8
370
    25
100
AcDbLine
 10
2356.9952118075
 20
8495.2558630526
 30
0.0
 11
3137.052059368
 21
8495.2558630526
 31
0.0
  0
LINE
  5
150
330
1F
100
AcDbEntity
  8
0
  6
Continuous
 62
     8
370
    25
100
AcDbLine
 10
2177.052059368
 20
8640.2558630526
 30
0.0
 11
2235.2033495823
 21
8640.2558630526
 31
0.0
  0
LINE
  5
151
330
1F
100
AcDbEntity
  8
0
  6
Continuous
 62
     8
370
    25
100
AcDbLine
 10
2368.9007691536
 20
8640.2558630526
 30
0.0
 11
3137.052059368
 21
8640.2558630526
 31
0.0
  0
LINE
  5
152
330
1F
100
AcDbEntity
  8
0
  6
Continuous
 62
     8
370
    25
100
AcDbLine
 10
1627.052059368
 20
8640.2558630528
 30
0.0
 11
1568.9007691535
 21
8640.2558630528
 31
0.0
  0
LINE
  5
153
330
1F
100
AcDbEntity
  8
0
  6
Continuous
 62
     8
370
    25
100
AcDbLine
 10
1435.2033495825
 20
8640.2558630528
 30
0.0
 11
667.052059368
 21
8640.2558630528
 31
0.0
  0
LINE
  5
154
330
1F
100
AcDbEntity
  8
0
  6
Continuous
 62
     8
370
    25
100
AcDbLine
 10
1627.052059368
 20
8495.2558630528
 30
0.0
 11
1556.9952118077
 21
8495.2558630528
 31
0.0
  0
LINE
  5
155
330
1F
100
AcDbEntity
  8
0
  6
Continuous
 62
     8
370
    25
100
AcDbLine
 10
1447.1089069282
 20
8495.2558630528
 30
0.0
 11
667.052059368
 21
8495.2558630528
 31
0.0
  0
LINE
  5
156
330
1F
100
AcDbEntity
  8
0
  6
Continuous
 62
     8
370
    25
100
AcDbLine
 10
2177.052059368
 20
8630.2558630527
 30
0.0
 11
1627.052059368
 21
8630.2558630526
 31
0.0
  0
LINE
  5
157
330
1F
100
AcDbEntity
  8
0
  6
Continuous
 62
     8
370
    25
100
AcDbLine
 10
2177.052059368
 20
8510.2558630527
 30
0.0
 11
1627.052059368
 21
8510.2558630526
 31
0.0
  0
LINE
  5
158
330
1F
100
AcDbEntity
  8
0
  6
Continuous
 62
     7
370
    25
100
AcDbLine
 10
4287.2440256398
 20
6432.7558630526
 30
0.0
 11
4287.2440256398
 21
6425.2558630526
 31
0.0
  0
LINE
  5
159
330
1F
100
AcDbEntity
  8
0
  6
Continuous
 62
     7
370
    25
100
AcDbLine
 10
4337.2440256398
 20
6425.2558630526
 30
0.0
 11
4337.2440256398
 21
6432.7558630526
 31
0.0
  0
ARC
  5
15A
330
1F
100
AcDbEntity
  8
0
  6
Continuous
 62
     7
370
    25
100
AcDbCircle
 10
4327.2440256398
 20
6425.2558630526
 30
0.0
 40
10.0
100
AcDbArc
 50
270.0
 51
0.0
  0
ARC
  5
15B
330
1F
100
AcDbEntity
  8
0
  6
Continuous
 62
     7
370
    25
100
AcDbCircle
 10
4297.2440256398
 20
6425.2558630526
 30
0.0
 40
10.0
100
AcDbArc
 50
180.0
 51
270.0
  0
LINE
  5
15C
330
1F
100
AcDbEntity
  8
0
  6
Continuous
 62
     7
370
    25
100
AcDbLine
 10
4324.7440256398
 20
6452.7558630526
 30
0.0
 11
4324.7440256398
 21
6507.7558630526
 31
0.0
  0
LINE
  5
15D
330
1F
100
AcDbEntity
  8
0
  6
Continuous
 62
     7
370
    25
100
AcDbLine
 10
4299.7440256398
 20
6507.7558630526
 30
0.0
 11
4299.7440256398
 21
6452.7558630526
 31
0.0
  0
LINE
  5
15E
330
1F
100
AcDbEntity
  8
0
  6
Continuous
 62
     7
370
    25
100
AcDbLine
 10
4279.7440256398
 20
6590.2737201954
 30
0.0
 11
4256.4940256398
 21
6595.2558630526
 31
0.0
  0
LINE
  5
15F
330
1F
100
AcDbEntity
  8
0
  6
Continuous
 62
     7
370
    25
100
AcDbLine
 10
4256.4940256398
 20
6290.2558630526
 30
0.0
 11
4291.4940256398
 21
6297.7558630526
 31
0.0
  0
LINE
  5
160
330
1F
100
AcDbEntity
  8
0
  6
Continuous
 62
     7
370
    25
100
AcDbLine
 10
4332.9940256398
 20
6297.7558630526
 30
0.0
 11
4367.9940256398
 21
6290.2558630526
 31
0.0
  0
LINE
  5
161
330
1F
100
AcDbEntity
  8
0
  6
Continuous
 62
     7
370
    25
100
AcDbLine
 10
4367.9940256398
 20
6595.2558630526
 30
0.0
 11
4344.7440256398
 21
6590.2737201954
 31
0.0
  0
LINE
  5
162
330
1F
100
AcDbEntity
  8
0
  6
Continuous
 62
     7
370
    25
100
AcDbLine
 10
4291.4940256398
 20
6302.7558630526
 30
0.0
 11
4332.9940256398
 21
6302.7558630526
 31
0.0
  0
LINE
  5
163
330
1F
100
AcDbEntity
  8
0
  6
Continuous
 62
     7
370
    25
100
AcDbLine
 10
4332.2440256398
 20
6647.7558630526
 30
0.0
 11
4332.2440256398
 21
7592.7558630528
 31
0.0
  0
LINE
  5
164
330
1F
100
AcDbEntity
  8
0
  6
Continuous
 62
     7
370
    25
100
AcDbLine
 10
4332.2440256398
 20
7602.7558630528
 30
0.0
 11
4332.2440256398
 21
7665.2558630528
 31
0.0
  0
LINE
  5
165
330
1F
100
AcDbEntity
  8
0
  6
Continuous
 62
     7
370
    25
100
AcDbLine
 10
4292.2440256398
 20
7796.610019557
 30
0.0
 11
4292.2440256398
 21
7753.9017065486
 31
0.0
  0
LINE
  5
166
330
1F
100
AcDbEntity
  8
0
  6
Continuous
 62
     7
370
    25
100
AcDbLine
 10
4292.2440256398
 20
7665.2558630528
 30
0.0
 11
4292.2440256398
 21
6647.7558630526
 31
0.0
  0
LINE
  5
167
330
1F
100
AcDbEntity
  8
0
  6
Continuous
 62
     7
370
    25
100
AcDbLine
 10
4330.9940256398
 20
6612.7558630526
 30
0.0
 11
4330.9940256398
 21
6647.7558630526
 31
0.0
  0
LINE
  5
168
330
1F
100
AcDbEntity
  8
0
  6
Continuous
 62
     7
370
    25
100
AcDbLine
 10
4293.4940256398
 20
6647.7558630526
 30
0.0
 11
4293.4940256398
 21
6612.7558630526
 31
0.0
  0
LINE
  5
169
330
1F
100
AcDbEntity
  8
0
  6
Continuous
 62
     7
370
    25
100
AcDbLine
 10
4430.2440256396
 20
8547.7558630527
 30
0.0
 11
4591.0220677759
 21
8547.7558630527
 31
0.0
  0
LINE
  5
16A
330
1F
100
AcDbEntity
  8
0
  6
Continuous
 62
     7
370
    25
100
AcDbLine
 10
4733.5220677759
 20
8547.7558630527
 30
0.0
 11
4844.2440256396
 21
8547.7558630527
 31
0.0
  0
LINE
  5
16B
330
1F
100
AcDbEntity
  8
0
  6
Continuous
 62
     7
370
    25
100
AcDbLine
 10
4844.2440256396
 20
8597.7558630527
 30
0.0
 11
4733.5220677759
 21
8597.7558630527
 31
0.0
  0
LINE
  5
16C
330
1F
100
AcDbEntity
  8
0
  6
Continuous
 62
     7
370
    25
100
AcDbLine
 10
4591.0220677759
 20
8597.7558630527
 30
0.0
 11
4430.2440256396
 21
8597.7558630527
 31
0.0
  0
LINE
  5
16D
330
1F
100
AcDbEntity
  8
0
  6
Continuous
 62
     7
370
    25
100
AcDbLine
 10
4230.2440256393
 20
7916.5058630528
 30
0.0
 11
4225.2440256396
 21
7916.5058630528
 31
0.0
  0
LINE
  5
16E
330
1F
100
AcDbEntity
  8
0
  6
Continuous
 62
     7
370
    25
100
AcDbLine
 10
4225.2440256396
 20
7891.5058630528
 30
0.0
 11
4230.2440256393
 21
7891.5058630528
 31
0.0
  0
LINE
  5
16F
330
1F
100
AcDbEntity
  8
0
  6
Continuous
 62
     7
370
    25
100
AcDbLine
 10
4646.0220677759
 20
8477.7558630527
 30
0.0
 11
4671.0220677759
 21
8477.7558630527
 31
0.0
  0
LINE
  5
170
330
1F
100
AcDbEntity
  8
0
  6
Continuous
 62
     7
370
    25
100
AcDbLine
 10
4671.0220677759
 20
8667.7558630527
 30
0.0
 11
4646.0220677759
 21
8667.7558630527
 31
0.0
  0
LINE
  5
171
330
1F
100
AcDbEntity
  8
0
  6
Continuous
 62
     7
370
    25
100
AcDbLine
 10
4646.0220677759
 20
8660.2558630527
 30
0.0
 11
4633.5220677759
 21
8660.2558630527
 31
0.0
  0
LINE
  5
172
330
1F
100
AcDbEntity
  8
0
  6
Continuous
 62
     7
370
    25
100
AcDbLine
 10
4633.5220677759
 20
8485.2558630527
 30
0.0
 11
4646.0220677759
 21
8485.2558630527
 31
0.0
  0
LINE
  5
173
330
1F
100
AcDbEntity
  8
0
  6
Continuous
 62
     7
370
    25
100
AcDbLine
 10
4633.5220677759
 20
8612.7558630527
 30
0.0
 11
4591.0220677759
 21
8612.7558630527
 31
0.0
  0
LINE
  5
174
330
1F
100
AcDbEntity
  8
0
  6
Continuous
 62
     7
370
    25
100
AcDbLine
 10
4591.0220677759
 20
8532.7558630527
 30
0.0
 11
4633.5220677759
 21
8532.7558630527
 31
0.0
  0
LINE
  5
175
330
1F
100
AcDbEntity
  8
0
  6
Continuous
 62
     7
370
    25
100
AcDbLine
 10
4230.2440256396
 20
7917.7558630527
 30
0.0
 11
4225.24402564
 21
7917.7558630527
 31
0.0
  0
LINE
  5
176
330
1F
100
AcDbEntity
  8
0
  6
Continuous
 62
     7
370
    25
100
AcDbLine
 10
4390.2440256396
 20
8647.7558630527
 30
0.0
 11
4380.2440256396
 21
8647.7558630527
 31
0.0
  0
LINE
  5
177
330
1F
100
AcDbEntity
  8
0
  6
Continuous
 62
     7
370
    25
100
AcDbLine
 10
4380.2440256396
 20
8497.7558630527
 30
0.0
 11
4390.2440256396
 21
8497.7558630527
 31
0.0
  0
LINE
  5
178
330
1F
100
AcDbEntity
  8
0
  6
Continuous
 62
     7
370
    25
100
AcDbLine
 10
4428.635743647
 20
8530.2558630527
 30
0.0
 11
4427.7440256396
 21
8526.4407160915
 31
0.0
  0
LINE
  5
179
330
1F
100
AcDbEntity
  8
0
  6
Continuous
 62
     7
370
    25
100
AcDbLine
 10
4427.7440256396
 20
8526.4407160915
 30
0.0
 11
4392.7440256396
 21
8526.4407160915
 31
0.0
  0
LINE
  5
17A
330
1F
100
AcDbEntity
  8
0
  6
Continuous
 62
     7
370
    25
100
AcDbLine
 10
4392.7440256396
 20
8526.4407160915
 30
0.0
 11
4391.6362930572
 21
8530.2558630527
 31
0.0
  0
SPLINE
  5
17B
330
1F
100
AcDbEntity
  8
0
  6
Continuous
 62
     7
370
    25
100
AcDbSpline
210
0.0
220
0.0
230
1.0
 70
     8
 71
     3
 72
     9
 73
     5
 74
     0
 42
0.00000001
 43
0.00000001
 40
0.0
 40
0.0
 40
0.0
 40
0.0
 40
0.5808091115780325
 40
1.0
 40
1.0
 40
1.0
 40
1.0
 10
4390.652282937392
 20
8529.504650749548
 30
0.0
 10
4390.649912589935
 20
8528.900768984638
 30
0.0
 10
4390.64583147721
 20
8527.861043965057
 30
0.0
 10
4392.12427541274
 20
8526.860242814786
 30
0.0
 10
4392.744025639556
 20
8526.440716091469
 30
0.0
  0
SPLINE
  5
17C
330
1F
100
AcDbEntity
  8
0
  6
Continuous
 62
     7
370
    25
100
AcDbSpline
210
0.0
220
0.0
230
1.0
 70
     8
 71
     3
 72
     9
 73
     5
 74
     0
 42
0.00000001
 43
0.00000001
 40
0.0
 40
0.0
 40
0.0
 40
0.0
 40
0.6003381133876621
 40
1.0
 40
1.0
 40
1.0
 40
1.0
 10
4427.744025639556
 20
8526.440716091469
 30
0.0
 10
4428.562038214699
 20
8527.045664960015
 30
0.0
 10
4429.924624658741
 20
8528.053345223947
 30
0.0
 10
4429.946395816244
 20
8529.090233695331
 30
0.0
 10
4429.955096918125
 20
8529.50463849801
 30
0.0
  0
LINE
  5
17D
330
1F
100
AcDbEntity
  8
0
  6
Continuous
 62
     7
370
    25
100
AcDbLine
 10
4427.7440256396
 20
8619.0710100139
 30
0.0
 11
4392.7440256396
 21
8619.0710100139
 31
0.0
  0
LINE
  5
17E
330
1F
100
AcDbEntity
  8
0
  6
Continuous
 62
     7
370
    25
100
AcDbLine
 10
4427.7440256396
 20
8619.0710100139
 30
0.0
 11
4429.7148256914
 21
8617.2456365994
 31
0.0
  0
LINE
  5
17F
330
1F
100
AcDbEntity
  8
0
  6
Continuous
 62
     7
370
    25
100
AcDbLine
 10
4429.9551112271
 20
8616.0070138474
 30
0.0
 11
4430.2440256396
 21
8614.5177191897
 31
0.0
  0
SPLINE
  5
180
330
1F
100
AcDbEntity
  8
0
  6
Continuous
 62
     7
370
    25
100
AcDbSpline
210
0.0
220
0.0
230
1.0
 70
     8
 71
     3
 72
     9
 73
     5
 74
     0
 42
0.00000001
 43
0.00000001
 40
0.0
 40
0.0
 40
0.0
 40
0.0
 40
0.0788279947000431
 40
1.0
 40
1.0
 40
1.0
 40
1.0
 10
4391.114837128786
 20
8617.694511050831
 30
0.0
 10
4391.123589292754
 20
8617.731574089687
 30
0.0
 10
4391.234617919088
 20
8618.201750186337
 30
0.0
 10
4392.020288185105
 20
8618.654213487478
 30
0.0
 10
4392.744025639557
 20
8619.071010013917
 30
0.0
  0
SPLINE
  5
181
330
1F
100
AcDbEntity
  8
0
  6
Continuous
 62
     7
370
    25
100
AcDbSpline
210
0.0
220
0.0
230
1.0
 70
     8
 71
     3
 72
     9
 73
     5
 74
     0
 42
0.00000001
 43
0.00000001
 40
0.0
 40
0.0
 40
0.0
 40
0.0
 40
0.4962229202406789
 40
1.0
 40
1.0
 40
1.0
 40
1.0
 10
4390.244025639557
 20
8594.005863052704
 30
0.0
 10
4390.202452956482
 20
8597.560706285785
 30
0.0
 10
4390.118674716144
 20
8604.724509262393
 30
0.0
 10
4391.864512552582
 20
8611.727777188245
 30
0.0
 10
4392.744025639556
 20
8615.255863052704
 30
0.0
  0
LINE
  5
182
330
1F
100
AcDbEntity
  8
0
  6
Continuous
 62
     7
370
    25
100
AcDbLine
 10
4427.7440256396
 20
8615.2558630527
 30
0.0
 11
4392.7440256396
 21
8615.2558630527
 31
0.0
  0
SPLINE
  5
183
330
1F
100
AcDbEntity
  8
0
  6
Continuous
 62
     7
370
    25
100
AcDbSpline
210
0.0
220
0.0
230
1.0
 70
     8
 71
     3
 72
    10
 73
     6
 74
     0
 42
0.00000001
 43
0.00000001
 40
0.0
 40
0.0
 40
0.0
 40
0.0
 40
0.3315739395276495
 40
0.672162541304455
 40
1.0
 40
1.0
 40
1.0
 40
1.0
 10
4427.744025639556
 20
8615.255863052704
 30
0.0
 10
4428.423685872719
 20
8612.95452070786
 30
0.0
 10
4429.801484592961
 20
8608.289268302546
 30
0.0
 10
4430.173525415954
 20
8601.118959212283
 30
0.0
 10
4430.220826341681
 20
8596.346548346854
 30
0.0
 10
4430.244025639557
 20
8594.005863052704
 30
0.0
  0
SPLINE
  5
184
330
1F
100
AcDbEntity
  8
0
  6
Continuous
 62
     7
370
    25
100
AcDbSpline
210
0.0
220
0.0
230
1.0
 70
     8
 71
     3
 72
     9
 73
     5
 74
     0
 42
0.00000001
 43
0.00000001
 40
0.0
 40
0.0
 40
0.0
 40
0.0
 40
0.4962229202406796
 40
0.9999999999999999
 40
0.9999999999999999
 40
0.9999999999999999
 40
0.9999999999999999
 10
4430.244025639557
 20
8594.005863052704
 30
0.0
 10
4430.28559832263
 20
8590.451019819622
 30
0.0
 10
4430.369376562969
 20
8583.287216843013
 30
0.0
 10
4428.62353872653
 20
8576.283948917162
 30
0.0
 10
4427.744025639556
 20
8572.755863052704
 30
0.0
  0
LINE
  5
185
330
1F
100
AcDbEntity
  8
0
  6
Continuous
 62
     7
370
    25
100
AcDbLine
 10
4427.7440256396
 20
8572.7558630527
 30
0.0
 11
4392.7440256396
 21
8572.7558630527
 31
0.0
  0
SPLINE
  5
186
330
1F
100
AcDbEntity
  8
0
  6
Continuous
 62
     7
370
    25
100
AcDbSpline
210
0.0
220
0.0
230
1.0
 70
     8
 71
     3
 72
    10
 73
     6
 74
     0
 42
0.00000001
 43
0.00000001
 40
0.0
 40
0.0
 40
0.0
 40
0.0
 40
0.3315739395275104
 40
0.6721625413041694
 40
1.0
 40
1.0
 40
1.0
 40
1.0
 10
4392.744025639556
 20
8572.755863052704
 30
0.0
 10
4392.064365406393
 20
8575.057205397545
 30
0.0
 10
4390.686566686152
 20
8579.722457802858
 30
0.0
 10
4390.314525863158
 20
8586.892766893123
 30
0.0
 10
4390.267224937431
 20
8591.665177758554
 30
0.0
 10
4390.244025639557
 20
8594.005863052704
 30
0.0
  0
SPLINE
  5
187
330
1F
100
AcDbEntity
  8
0
  6
Continuous
 62
     7
370
    25
100
AcDbSpline
210
0.0
220
0.0
230
1.0
 70
     8
 71
     3
 72
     9
 73
     5
 74
     0
 42
0.00000001
 43
0.00000001
 40
0.0
 40
0.0
 40
0.0
 40
0.0
 40
0.4962229202406786
 40
1.0
 40
1.0
 40
1.0
 40
1.0
 10
4390.244025639557
 20
8551.505863052704
 30
0.0
 10
4390.202452956482
 20
8555.060706285785
 30
0.0
 10
4390.118674716144
 20
8562.224509262393
 30
0.0
 10
4391.864512552582
 20
8569.227777188245
 30
0.0
 10
4392.744025639556
 20
8572.755863052704
 30
0.0
  0
SPLINE
  5
188
330
1F
100
AcDbEntity
  8
0
  6
Continuous
 62
     7
370
    25
100
AcDbSpline
210
0.0
220
0.0
230
1.0
 70
     8
 71
     3
 72
    10
 73
     6
 74
     0
 42
0.00000001
 43
0.00000001
 40
0.0
 40
0.0
 40
0.0
 40
0.0
 40
0.3315739395275102
 40
0.6721625413041695
 40
1.0
 40
1.0
 40
1.0
 40
1.0
 10
4427.744025639556
 20
8572.755863052704
 30
0.0
 10
4428.423685872719
 20
8570.454520707863
 30
0.0
 10
4429.80148459296
 20
8565.78926830255
 30
0.0
 10
4430.173525415954
 20
8558.618959212286
 30
0.0
 10
4430.220826341681
 20
8553.846548346854
 30
0.0
 10
4430.244025639557
 20
8551.505863052704
 30
0.0
  0
SPLINE
  5
189
330
1F
100
AcDbEntity
  8
0
  6
Continuous
 62
     7
370
    25
100
AcDbSpline
210
0.0
220
0.0
230
1.0
 70
     8
 71
     3
 72
     9
 73
     5
 74
     0
 42
0.00000001
 43
0.00000001
 40
0.0
 40
0.0
 40
0.0
 40
0.0
 40
0.4962229202406792
 40
1.0
 40
1.0
 40
1.0
 40
1.0
 10
4430.244025639557
 20
8551.505863052704
 30
0.0
 10
4430.28559832263
 20
8547.951019819622
 30
0.0
 10
4430.369376562969
 20
8540.787216843015
 30
0.0
 10
4428.62353872653
 20
8533.783948917162
 30
0.0
 10
4427.744025639556
 20
8530.255863052704
 30
0.0
  0
LINE
  5
18A
330
1F
100
AcDbEntity
  8
0
  6
Continuous
 62
     7
370
    25
100
AcDbLine
 10
4427.7440256396
 20
8530.2558630527
 30
0.0
 11
4392.7440256396
 21
8530.2558630527
 31
0.0
  0
SPLINE
  5
18B
330
1F
100
AcDbEntity
  8
0
  6
Continuous
 62
     7
370
    25
100
AcDbSpline
210
0.0
220
0.0
230
1.0
 70
     8
 71
     3
 72
    10
 73
     6
 74
     0
 42
0.00000001
 43
0.00000001
 40
0.0
 40
0.0
 40
0.0
 40
0.0
 40
0.3315739395276491
 40
0.6721625413044536
 40
1.0
 40
1.0
 40
1.0
 40
1.0
 10
4392.744025639556
 20
8530.255863052704
 30
0.0
 10
4392.064365406392
 20
8532.557205397547
 30
0.0
 10
4390.686566686152
 20
8537.222457802862
 30
0.0
 10
4390.314525863158
 20
8544.392766893125
 30
0.0
 10
4390.267224937431
 20
8549.165177758556
 30
0.0
 10
4390.244025639557
 20
8551.505863052704
 30
0.0
  0
LINE
  5
18C
330
1F
100
AcDbEntity
  8
0
  6
Continuous
 62
     7
370
    25
100
AcDbLine
 10
4430.2440256396
 20
8594.0058630527
 30
0.0
 11
4430.2440256396
 21
8551.5058630527
 31
0.0
  0
SPLINE
  5
18D
330
1F
100
AcDbEntity
  8
0
  6
Continuous
 62
     7
370
    25
100
AcDbSpline
210
0.0
220
0.0
230
1.0
 70
    24
 71
     3
 72
     9
 73
     5
 74
     0
 42
0.00000001
 43
0.00000001
 40
0.0
 40
0.0
 40
0.0
 40
0.0
 40
0.7169484261070668
 40
1.0
 40
1.0
 40
1.0
 40
1.0
 10
4390.244025639557
 20
8530.255863052704
 30
0.0
 10
4390.168259460069
 20
8530.255863052704
 30
0.0
 10
4390.062580757489
 20
8530.255863052704
 30
0.0
 10
4392.152477170562
 20
8530.255863052704
 30
0.0
 10
4392.744025639556
 20
8530.255863052704
 30
0.0
  0
SPLINE
  5
18E
330
1F
100
AcDbEntity
  8
0
  6
Continuous
 62
     7
370
    25
100
AcDbSpline
210
0.0
220
0.0
230
1.0
 70
    24
 71
     3
 72
     9
 73
     5
 74
     0
 42
0.00000001
 43
0.00000001
 40
0.0
 40
0.0
 40
0.0
 40
0.0
 40
0.4054701119094976
 40
1.0
 40
1.0
 40
1.0
 40
1.0
 10
4392.744025639556
 20
8615.255863052704
 30
0.0
 10
4391.978298911107
 20
8615.255863052704
 30
0.0
 10
4390.089807735169
 20
8615.255863052704
 30
0.0
 10
4390.186524582899
 20
8615.255863052704
 30
0.0
 10
4390.244025639557
 20
8615.255863052704
 30
0.0
  0
SPLINE
  5
18F
330
1F
100
AcDbEntity
  8
0
  6
Continuous
 62
     7
370
    25
100
AcDbSpline
210
0.0
220
0.0
230
1.0
 70
    24
 71
     3
 72
     9
 73
     5
 74
     0
 42
0.00000001
 43
0.00000001
 40
0.0
 40
0.0
 40
0.0
 40
0.0
 40
0.405470111909537
 40
1.0
 40
1.0
 40
1.0
 40
1.0
 10
4427.744025639556
 20
8530.255863052704
 30
0.0
 10
4428.509752368004
 20
8530.255863052704
 30
0.0
 10
4430.398243543945
 20
8530.255863052704
 30
0.0
 10
4430.301526696214
 20
8530.255863052704
 30
0.0
 10
4430.244025639557
 20
8530.255863052704
 30
0.0
  0
LINE
  5
190
330
1F
100
AcDbEntity
  8
0
  6
Continuous
 62
     7
370
    25
100
AcDbLine
 10
4430.2440256396
 20
8551.5058630527
 30
0.0
 11
4430.2440256396
 21
8530.2558630527
 31
0.0
  0
SPLINE
  5
191
330
1F
100
AcDbEntity
  8
0
  6
Continuous
 62
     7
370
    25
100
AcDbSpline
210
0.0
220
0.0
230
1.0
 70
    24
 71
     3
 72
     9
 73
     5
 74
     0
 42
0.00000001
 43
0.00000001
 40
0.0
 40
0.0
 40
0.0
 40
0.0
 40
0.7169484261070668
 40
1.0
 40
1.0
 40
1.0
 40
1.0
 10
4430.244025639557
 20
8615.255863052704
 30
0.0
 10
4430.319791819044
 20
8615.255863052704
 30
0.0
 10
4430.425470521624
 20
8615.255863052704
 30
0.0
 10
4428.33557410855
 20
8615.255863052704
 30
0.0
 10
4427.744025639556
 20
8615.255863052704
 30
0.0
  0
LINE
  5
192
330
1F
100
AcDbEntity
  8
0
  6
Continuous
 62
     7
370
    25
100
AcDbLine
 10
4430.2440256396
 20
8615.2558630527
 30
0.0
 11
4430.2440256396
 21
8594.0058630527
 31
0.0
  0
LINE
  5
193
330
1F
100
AcDbEntity
  8
0
  6
Continuous
 62
     7
370
    25
100
AcDbLine
 10
4322.7440256402
 20
7607.7558630528
 30
0.0
 11
4322.7440256402
 21
7665.2558630528
 31
0.0
  0
LINE
  5
194
330
1F
100
AcDbEntity
  8
0
  6
Continuous
 62
     7
370
    25
100
AcDbLine
 10
4322.7440256402
 20
7757.4022919821
 30
0.0
 11
4322.7440256402
 21
7793.1094341235
 31
0.0
  0
LINE
  5
195
330
1F
100
AcDbEntity
  8
0
  6
Continuous
 62
     7
370
    25
100
AcDbLine
 10
4312.7440256402
 20
7607.7558630528
 30
0.0
 11
4322.7440256402
 21
7607.7558630528
 31
0.0
  0
LINE
  5
196
330
1F
100
AcDbEntity
  8
0
  6
Continuous
 62
     7
370
    25
100
AcDbLine
 10
4312.7440256402
 20
7607.7558630528
 30
0.0
 11
4312.7440256402
 21
7665.2558630528
 31
0.0
  0
LINE
  5
197
330
1F
100
AcDbEntity
  8
0
  6
Continuous
 62
     7
370
    25
100
AcDbLine
 10
4312.7440256402
 20
7751.4073830176
 30
0.0
 11
4312.7440256402
 21
7799.104343088
 31
0.0
  0
ARC
  5
198
330
1F
100
AcDbEntity
  8
0
  6
Continuous
 62
     7
370
    25
100
AcDbCircle
 10
4327.7440256402
 20
7607.7558630528
 30
0.0
 40
5.0
100
AcDbArc
 50
180.0
 51
270.0
  0
LINE
  5
199
330
1F
100
AcDbEntity
  8
0
  6
Continuous
 62
     7
370
    25
100
AcDbLine
 10
4327.7440256402
 20
7602.7558630528
 30
0.0
 11
4327.7440256402
 21
7592.7558630528
 31
0.0
  0
ARC
  5
19A
330
1F
100
AcDbEntity
  8
0
  6
Continuous
 62
     7
370
    25
100
AcDbCircle
 10
4327.7440256402
 20
7607.7558630528
 30
0.0
 40
15.0
100
AcDbArc
 50
180.0
 51
270.0
  0
LINE
  5
19B
330
1F
100
AcDbEntity
  8
0
  6
Continuous
 62
     7
370
    25
100
AcDbLine
 10
4422.7440256402
 20
7592.7558630528
 30
0.0
 11
4422.7440256402
 21
7602.7558630528
 31
0.0
  0
LINE
  5
19C
330
1F
100
AcDbEntity
  8
0
  6
Continuous
 62
     7
370
    25
100
AcDbLine
 10
4422.7440256402
 20
7602.7558630528
 30
0.0
 11
4327.7440256402
 21
7602.7558630528
 31
0.0
  0
LINE
  5
19D
330
1F
100
AcDbEntity
  8
0
  6
Continuous
 62
     7
370
    25
100
AcDbLine
 10
4422.7440256402
 20
7592.7558630528
 30
0.0
 11
4327.7440256402
 21
7592.7558630528
 31
0.0
  0
ARC
  5
19E
330
1F
100
AcDbEntity
  8
0
  6
Continuous
 62
     7
370
    25
100
AcDbCircle
 10
4422.7440256402
 20
7587.7558630528
 30
0.0
 40
15.00000000000091
100
AcDbArc
 50
0.0
 51
90.0
  0
LINE
  5
19F
330
1F
100
AcDbEntity
  8
0
  6
Continuous
 62
     7
370
    25
100
AcDbLine
 10
4437.7440256402
 20
7587.7558630528
 30
0.0
 11
4427.7440256402
 21
7587.7558630528
 31
0.0
  0
ARC
  5
1A0
330
1F
100
AcDbEntity
  8
0
  6
Continuous
 62
     7
370
    25
100
AcDbCircle
 10
4422.7440256402
 20
7587.7558630528
 30
0.0
 40
5.000000000000909
100
AcDbArc
 50
0.0
 51
90.0
  0
LINE
  5
1A1
330
1F
100
AcDbEntity
  8
0
  6
Continuous
 62
     7
370
    25
100
AcDbLine
 10
4437.7440256402
 20
7217.7558630528
 30
0.0
 11
4427.7440256402
 21
7217.7558630528
 31
0.0
  0
LINE
  5
1A2
330
1F
100
AcDbEntity
  8
0
  6
Continuous
 62
     7
370
    25
100
AcDbLine
 10
4437.7440256402
 20
7217.7558630528
 30
0.0
 11
4437.7440256402
 21
7587.7558630528
 31
0.0
  0
LINE
  5
1A3
330
1F
100
AcDbEntity
  8
0
  6
Continuous
 62
     7
370
    25
100
AcDbLine
 10
4427.7440256402
 20
7217.7558630528
 30
0.0
 11
4427.7440256402
 21
7587.7558630528
 31
0.0
  0
LINE
  5
1A4
330
1F
100
AcDbEntity
  8
0
  6
Continuous
 62
     7
370
    25
100
AcDbLine
 10
4262.2440256398
 20
6432.7558630526
 30
0.0
 11
4362.2440256398
 21
6432.7558630526
 31
0.0
  0
LINE
  5
1A5
330
1F
100
AcDbEntity
  8
0
  6
Continuous
 62
     7
370
    25
100
AcDbLine
 10
4262.2440256398
 20
6432.7558630526
 30
0.0
 11
4262.2440256398
 21
6452.7558630526
 31
0.0
  0
LINE
  5
1A6
330
1F
100
AcDbEntity
  8
0
  6
Continuous
 62
     7
370
    25
100
AcDbLine
 10
4262.2440256398
 20
6452.7558630526
 30
0.0
 11
4362.2440256398
 21
6452.7558630526
 31
0.0
  0
LINE
  5
1A7
330
1F
100
AcDbEntity
  8
0
  6
Continuous
 62
     7
370
    25
100
AcDbLine
 10
4362.2440256398
 20
6432.7558630526
 30
0.0
 11
4362.2440256398
 21
6452.7558630526
 31
0.0
  0
LINE
  5
1A8
330
1F
100
AcDbEntity
  8
0
  6
Continuous
 62
     7
370
    25
100
AcDbLine
 10
4327.244023833
 20
6415.2558630526
 30
0.0
 11
4297.2440256398
 21
6415.2558630526
 31
0.0
  0
LINE
  5
1A9
330
1F
100
AcDbEntity
  8
0
  6
Continuous
 62
     7
370
    25
100
AcDbLine
 10
4299.7440256398
 20
6507.7558630526
 30
0.0
 11
4324.7440256398
 21
6507.7558630526
 31
0.0
  0
ELLIPSE
  5
1AA
330
1F
100
AcDbEntity
  8
0
  6
Continuous
 62
     7
370
    25
100
AcDbEllipse
 10
4132.0679901369
 20
6442.7558630526
 30
0.0
 11
310.3189371418594
 21
0.0
 31
0.0
210
0.0
220
0.0
230
1.0
 40
0.5361109642
 41
1.031247488784166
 42
1.074826660447572
  0
LINE
  5
1AB
330
1F
100
AcDbEntity
  8
0
  6
Continuous
 62
     7
370
    25
100
AcDbLine
 10
4291.4940256398
 20
6585.4874730764
 30
0.0
 11
4291.4940256398
 21
6452.7558630526
 31
0.0
  0
LINE
  5
1AC
330
1F
100
AcDbEntity
  8
0
  6
Continuous
 62
     7
370
    25
100
AcDbLine
 10
4262.2440256398
 20
6452.7558630526
 30
0.0
 11
4256.4940256398
 21
6452.7558630526
 31
0.0
  0
LINE
  5
1AD
330
1F
100
AcDbEntity
  8
0
  6
Continuous
 62
     7
370
    25
100
AcDbLine
 10
4256.4940256398
 20
6595.2558630526
 30
0.0
 11
4256.4940256398
 21
6452.7558630526
 31
0.0
  0
LINE
  5
1AE
330
1F
100
AcDbEntity
  8
0
  6
Continuous
 62
     7
370
    25
100
AcDbLine
 10
4291.4940256398
 20
6417.0743289666
 30
0.0
 11
4291.4940256398
 21
6297.7558630526
 31
0.0
  0
LINE
  5
1AF
330
1F
100
AcDbEntity
  8
0
  6
Continuous
 62
     7
370
    25
100
AcDbLine
 10
4256.4940256398
 20
6432.7558630526
 30
0.0
 11
4256.4940256398
 21
6290.2558630526
 31
0.0
  0
LINE
  5
1B0
330
1F
100
AcDbEntity
  8
0
  6
Continuous
 62
     7
370
    25
100
AcDbLine
 10
4256.4940256398
 20
6432.7558630526
 30
0.0
 11
4262.2440256398
 21
6432.7558630526
 31
0.0
  0
LINE
  5
1B1
330
1F
100
AcDbEntity
  8
0
  6
Continuous
 62
     7
370
    25
100
AcDbLine
 10
4367.9940256398
 20
6432.7558630526
 30
0.0
 11
4367.9940256398
 21
6290.2558630526
 31
0.0
  0
LINE
  5
1B2
330
1F
100
AcDbEntity
  8
0
  6
Continuous
 62
     7
370
    25
100
AcDbLine
 10
4332.9940256398
 20
6417.0743289666
 30
0.0
 11
4332.9940256398
 21
6297.7558630526
 31
0.0
  0
LINE
  5
1B3
330
1F
100
AcDbEntity
  8
0
  6
Continuous
 62
     7
370
    25
100
AcDbLine
 10
4362.2440256398
 20
6432.7558630526
 30
0.0
 11
4367.9940256398
 21
6432.7558630526
 31
0.0
  0
LINE
  5
1B4
330
1F
100
AcDbEntity
  8
0
  6
Continuous
 62
     7
370
    25
100
AcDbLine
 10
4367.9940256398
 20
6595.2558630526
 30
0.0
 11
4367.9940256398
 21
6452.7558630526
 31
0.0
  0
LINE
  5
1B5
330
1F
100
AcDbEntity
  8
0
  6
Continuous
 62
     7
370
    25
100
AcDbLine
 10
4332.9940256398
 20
6585.4874730764
 30
0.0
 11
4332.9940256398
 21
6452.7558630526
 31
0.0
  0
ELLIPSE
  5
1B6
330
1F
100
AcDbEntity
  8
0
  6
Continuous
 62
     7
370
    25
100
AcDbEllipse
 10
4492.4200611428
 20
6442.7558630526
 30
0.0
 11
310.3189371418594
 21
0.0
 31
0.0
210
0.0
220
0.0
230
1.0
 40
0.5361109642
 41
2.066765993142224
 42
2.110345164805632
  0
LINE
  5
1B7
330
1F
100
AcDbEntity
  8
0
  6
Continuous
 62
     7
370
    25
100
AcDbLine
 10
4367.9940256398
 20
6452.7558630526
 30
0.0
 11
4362.2440256398
 21
6452.7558630526
 31
0.0
  0
ELLIPSE
  5
1B8
330
1F
100
AcDbEntity
  8
0
  6
Continuous
 62
     7
370
    25
100
AcDbEllipse
 10
4247.2440256398
 20
6442.7558630526
 30
0.0
 11
242.487113059643
 21
9.094947017729280E-13
 31
0.0
210
0.0
220
0.0
230
1.0
 40
0.5773502692
 41
1.299422247474152
 42
1.387284120242603
  0
ELLIPSE
  5
1B9
330
1F
100
AcDbEntity
  8
0
  6
Continuous
 62
     7
370
    25
100
AcDbEllipse
 10
4377.2440256398
 20
6442.7558630526
 30
0.0
 11
242.487113059643
 21
0.0
 31
0.0
210
0.0
220
0.0
230
1.0
 40
0.5773502692
 41
1.754308533347188
 42
1.842170406115635
  0
LINE
  5
1BA
330
1F
100
AcDbEntity
  8
0
  6
Continuous
 62
     7
370
    25
100
AcDbLine
 10
4279.7440256398
 20
6612.7558630526
 30
0.0
 11
4279.7440256398
 21
6589.0754955107
 31
0.0
  0
LINE
  5
1BB
330
1F
100
AcDbEntity
  8
0
  6
Continuous
 62
     7
370
    25
100
AcDbLine
 10
4279.7440256398
 20
6612.7558630526
 30
0.0
 11
4312.2440256398
 21
6612.7558630526
 31
0.0
  0
LINE
  5
1BC
330
1F
100
AcDbEntity
  8
0
  6
Continuous
 62
     7
370
    25
100
AcDbLine
 10
4312.2440256398
 20
6612.7558630526
 30
0.0
 11
4312.2440256398
 21
6577.6323497605
 31
0.0
  0
LINE
  5
1BD
330
1F
100
AcDbEntity
  8
0
  6
Continuous
 62
     7
370
    25
100
AcDbLine
 10
4344.7440256398
 20
6612.7558630526
 30
0.0
 11
4344.7440256398
 21
6589.0754955107
 31
0.0
  0
LINE
  5
1BE
330
1F
100
AcDbEntity
  8
0
  6
Continuous
 62
     7
370
    25
100
AcDbLine
 10
4312.2440256398
 20
6612.7558630526
 30
0.0
 11
4344.7440256398
 21
6612.7558630526
 31
0.0
  0
LINE
  5
1BF
330
1F
100
AcDbEntity
  8
0
  6
Continuous
 62
     7
370
    25
100
AcDbLine
 10
4312.2440256398
 20
6647.7558630526
 30
0.0
 11
4292.2440256398
 21
6647.7558630526
 31
0.0
  0
LINE
  5
1C0
330
1F
100
AcDbEntity
  8
0
  6
Continuous
 62
     7
370
    25
100
AcDbLine
 10
4332.2440256398
 20
6647.7558630526
 30
0.0
 11
4312.2440256398
 21
6647.7558630526
 31
0.0
  0
LINE
  5
1C1
330
1F
100
AcDbEntity
  8
0
  6
Continuous
 62
     7
370
    25
100
AcDbLine
 10
4230.2440256396
 20
8630.2558630527
 30
0.0
 11
4225.2440256396
 21
8630.2558630527
 31
0.0
  0
LINE
  5
1C2
330
1F
100
AcDbEntity
  8
0
  6
Continuous
 62
     7
370
    25
100
AcDbLine
 10
4230.2440256396
 20
8515.2558630527
 30
0.0
 11
4225.2440256396
 21
8515.2558630527
 31
0.0
  0
LINE
  5
1C3
330
1F
100
AcDbEntity
  8
0
  6
Continuous
 62
     7
370
    25
100
AcDbLine
 10
4844.2440256396
 20
8547.7558630527
 30
0.0
 11
4844.2440256396
 21
8597.7558630527
 31
0.0
  0
CIRCLE
  5
1C4
330
1F
100
AcDbEntity
  8
0
  6
Continuous
 62
     7
370
    25
100
AcDbCircle
 10
4305.2440256396
 20
8805.2558630528
 30
0.0
 40
25.0
  0
LINE
  5
1C5
330
1F
100
AcDbEntity
  8
0
  6
Continuous
 62
     7
370
    25
100
AcDbLine
 10
4380.2440256396
 20
7665.2558630528
 30
0.0
 11
4230.2440256396
 21
7665.2558630528
 31
0.0
  0
LINE
  5
1C6
330
1F
100
AcDbEntity
  8
0
  6
Continuous
 62
     7
370
    25
100
AcDbLine
 10
4230.2440256396
 20
7665.2558630528
 30
0.0
 11
4230.2440256396
 21
8915.2558630528
 31
0.0
  0
LINE
  5
1C7
330
1F
100
AcDbEntity
  8
0
  6
Continuous
 62
     7
370
    25
100
AcDbLine
 10
4380.2440256396
 20
8915.2558630528
 30
0.0
 11
4380.2440256396
 21
7665.2558630528
 31
0.0
  0
CIRCLE
  5
1C8
330
1F
100
AcDbEntity
  8
0
  6
Continuous
 62
     7
370
    25
100
AcDbCircle
 10
4305.2440256396
 20
7775.2558630528
 30
0.0
 40
25.0
  0
LINE
  5
1C9
330
1F
100
AcDbEntity
  8
0
  6
Continuous
 62
     7
370
    25
100
AcDbLine
 10
4230.2440256396
 20
8915.2558630528
 30
0.0
 11
4380.2440256396
 21
8915.2558630528
 31
0.0
  0
LINE
  5
1CA
330
1F
100
AcDbEntity
  8
0
  6
Continuous
 62
     7
370
    25
100
AcDbLine
 10
4220.2440256396
 20
8645.2558630528
 30
0.0
 11
4230.2440256396
 21
8645.2558630528
 31
0.0
  0
ARC
  5
1CB
330
1F
100
AcDbEntity
  8
0
  6
Continuous
 62
     7
370
    25
100
AcDbCircle
 10
4220.2440256396
 20
8640.2558630528
 30
0.0
 40
5.000000000001819
100
AcDbArc
 50
90.0
 51
180.0
  0
LINE
  5
1CC
330
1F
100
AcDbEntity
  8
0
  6
Continuous
 62
     7
370
    25
100
AcDbLine
 10
4215.2440256396
 20
8495.2558630528
 30
0.0
 11
4215.2440256396
 21
8640.2558630528
 31
0.0
  0
ARC
  5
1CD
330
1F
100
AcDbEntity
  8
0
  6
Continuous
 62
     7
370
    25
100
AcDbCircle
 10
4220.2440256396
 20
8495.2558630528
 30
0.0
 40
5.000000000001819
100
AcDbArc
 50
180.0
 51
270.0
  0
LINE
  5
1CE
330
1F
100
AcDbEntity
  8
0
  6
Continuous
 62
     7
370
    25
100
AcDbLine
 10
4230.2440256396
 20
8490.2558630528
 30
0.0
 11
4220.2440256396
 21
8490.2558630528
 31
0.0
  0
LINE
  5
1CF
330
1F
100
AcDbEntity
  8
0
  6
Continuous
 62
     7
370
    25
100
AcDbLine
 10
4220.2440256396
 20
8480.2558630528
 30
0.0
 11
4230.2440256396
 21
8480.2558630528
 31
0.0
  0
ARC
  5
1D0
330
1F
100
AcDbEntity
  8
0
  6
Continuous
 62
     7
370
    25
100
AcDbCircle
 10
4220.2440256396
 20
8495.2558630528
 30
0.0
 40
15.00000000000182
100
AcDbArc
 50
180.0
 51
270.0
  0
LINE
  5
1D1
330
1F
100
AcDbEntity
  8
0
  6
Continuous
 62
     7
370
    25
100
AcDbLine
 10
4205.2440256396
 20
8640.2558630528
 30
0.0
 11
4205.2440256396
 21
8495.2558630528
 31
0.0
  0
ARC
  5
1D2
330
1F
100
AcDbEntity
  8
0
  6
Continuous
 62
     7
370
    25
100
AcDbCircle
 10
4220.2440256396
 20
8640.2558630528
 30
0.0
 40
15.00000000000182
100
AcDbArc
 50
90.0
 51
180.0
  0
LINE
  5
1D3
330
1F
100
AcDbEntity
  8
0
  6
Continuous
 62
     7
370
    25
100
AcDbLine
 10
4230.2440256396
 20
8655.2558630528
 30
0.0
 11
4220.2440256396
 21
8655.2558630528
 31
0.0
  0
LINE
  5
1D4
330
1F
100
AcDbEntity
  8
0
  6
Continuous
 62
     7
370
    25
100
AcDbLine
 10
4225.2440256396
 20
7916.5058630528
 30
0.0
 11
4225.2440256396
 21
7891.5058630528
 31
0.0
  0
LINE
  5
1D5
330
1F
100
AcDbEntity
  8
0
  6
Continuous
 62
     7
370
    25
100
AcDbLine
 10
4646.0220677759
 20
8667.7558630527
 30
0.0
 11
4646.0220677759
 21
8477.7558630527
 31
0.0
  0
LINE
  5
1D6
330
1F
100
AcDbEntity
  8
0
  6
Continuous
 62
     7
370
    25
100
AcDbLine
 10
4671.0220677759
 20
8667.7558630527
 30
0.0
 11
4671.0220677759
 21
8477.7558630527
 31
0.0
  0
LINE
  5
1D7
330
1F
100
AcDbEntity
  8
0
  6
Continuous
 62
     7
370
    25
100
AcDbLine
 10
4633.5220677759
 20
8653.5344627211
 30
0.0
 11
4633.5220677759
 21
8660.2558630527
 31
0.0
  0
LINE
  5
1D8
330
1F
100
AcDbEntity
  8
0
  6
Continuous
 62
     7
370
    25
100
AcDbLine
 10
4633.5220677759
 20
8485.2558630527
 30
0.0
 11
4633.5220677759
 21
8653.5344627211
 31
0.0
  0
LINE
  5
1D9
330
1F
100
AcDbEntity
  8
0
  6
Continuous
 62
     7
370
    25
100
AcDbLine
 10
4733.5220677759
 20
8635.3834251777
 30
0.0
 11
4671.0220677759
 21
8635.3834251777
 31
0.0
  0
LINE
  5
1DA
330
1F
100
AcDbEntity
  8
0
  6
Continuous
 62
     7
370
    25
100
AcDbLine
 10
4733.5220677759
 20
8581.4885935039
 30
0.0
 11
4671.0220677759
 21
8581.4885935039
 31
0.0
  0
LINE
  5
1DB
330
1F
100
AcDbEntity
  8
0
  6
Continuous
 62
     7
370
    25
100
AcDbLine
 10
4733.5220677759
 20
8635.3834251777
 30
0.0
 11
4733.5220677759
 21
8581.4885935039
 31
0.0
  0
LINE
  5
1DC
330
1F
100
AcDbEntity
  8
0
  6
Continuous
 62
     7
370
    25
100
AcDbLine
 10
4733.5220677759
 20
8518.8610313789
 30
0.0
 11
4671.0220677759
 21
8518.8610313789
 31
0.0
  0
LINE
  5
1DD
330
1F
100
AcDbEntity
  8
0
  6
Continuous
 62
     7
370
    25
100
AcDbLine
 10
4733.5220677759
 20
8581.4885935039
 30
0.0
 11
4733.5220677759
 21
8518.8610313789
 31
0.0
  0
LINE
  5
1DE
330
1F
100
AcDbEntity
  8
0
  6
Continuous
 62
     7
370
    25
100
AcDbLine
 10
4591.0220677759
 20
8609.6832229011
 30
0.0
 11
4591.0220677759
 21
8612.7558630527
 31
0.0
  0
LINE
  5
1DF
330
1F
100
AcDbEntity
  8
0
  6
Continuous
 62
     7
370
    25
100
AcDbLine
 10
4591.0220677759
 20
8532.7558630527
 30
0.0
 11
4591.0220677759
 21
8609.6832229011
 31
0.0
  0
LINE
  5
1E0
330
1F
100
AcDbEntity
  8
0
  6
Continuous
 62
     7
370
    25
100
AcDbLine
 10
4733.5220677759
 20
8510.1283009277
 30
0.0
 11
4671.0220677759
 21
8510.1283009277
 31
0.0
  0
LINE
  5
1E1
330
1F
100
AcDbEntity
  8
0
  6
Continuous
 62
     7
370
    25
100
AcDbLine
 10
4733.5220677759
 20
8518.8610313789
 30
0.0
 11
4733.5220677759
 21
8510.1283009277
 31
0.0
  0
LINE
  5
1E2
330
1F
100
AcDbEntity
  8
0
  6
Continuous
 62
     7
370
    25
100
AcDbLine
 10
4225.24402564
 20
7916.5058630528
 30
0.0
 11
4225.24402564
 21
7917.7558630527
 31
0.0
  0
LINE
  5
1E3
330
1F
100
AcDbEntity
  8
0
  6
Continuous
 62
     7
370
    25
100
AcDbLine
 10
4390.2440256396
 20
8497.7558630527
 30
0.0
 11
4390.2440256396
 21
8647.7558630527
 31
0.0
  0
ARC
  5
1E4
330
1F
100
AcDbEntity
  8
0
  6
Continuous
 62
     7
370
    25
100
AcDbCircle
 10
4230.2440256396
 20
8630.2558630526
 30
0.0
 40
5.0
100
AcDbArc
 50
90.0
 51
180.0
  0
ARC
  5
1E5
330
1F
100
AcDbEntity
  8
0
  6
Continuous
 62
     7
370
    25
100
AcDbCircle
 10
4230.2440256396
 20
8510.2558630526
 30
0.0
 40
15.0
100
AcDbArc
 50
180.0
 51
270.0
  0
ARC
  5
1E6
330
1F
100
AcDbEntity
  8
0
  6
Continuous
 62
     7
370
    25
100
AcDbCircle
 10
4230.2440256396
 20
8630.2558630526
 30
0.0
 40
15.0
100
AcDbArc
 50
90.0
 51
180.0
  0
ARC
  5
1E7
330
1F
100
AcDbEntity
  8
0
  6
Continuous
 62
     7
370
    25
100
AcDbCircle
 10
4230.2440256396
 20
8510.2558630526
 30
0.0
 40
4.999999999999091
100
AcDbArc
 50
180.0
 51
270.0
  0
LINE
  5
1E8
330
1F
100
AcDbEntity
  8
0
  6
Continuous
 62
     7
370
    25
100
AcDbLine
 10
4225.2440256396
 20
8630.2558630526
 30
0.0
 11
4225.2440256396
 21
8510.2558630526
 31
0.0
  0
LINE
  5
1E9
330
1F
100
AcDbEntity
  8
0
  6
Continuous
 62
     8
370
    25
100
AcDbLine
 10
4287.2440256398
 20
6425.2558630526
 30
0.0
 11
4337.2440256398
 21
6425.2558630526
 31
0.0
  0
LINE
  5
1EA
330
1F
100
AcDbEntity
  8
0
  6
Continuous
 62
     8
370
    25
100
AcDbLine
 10
4230.2440256396
 20
8610.2558630527
 30
0.0
 11
4225.2440256396
 21
8610.2558630527
 31
0.0
  0
LINE
  5
1EB
330
1F
100
AcDbEntity
  8
0
  6
Continuous
 62
     8
370
    25
100
AcDbLine
 10
4230.2440256396
 20
8535.2558630527
 30
0.0
 11
4225.2440256396
 21
8535.2558630527
 31
0.0
  0
ARC
  5
1EC
330
1F
100
AcDbEntity
  8
0
  6
Continuous
 62
     7
370
    25
100
AcDbCircle
 10
2342.6568373456
 20
5098.2226568046
 30
0.0
 40
14.99999999999953
100
AcDbArc
 50
72.7745693041
 51
82.7413844723
  0
ARC
  5
1ED
330
1F
100
AcDbEntity
  8
0
  6
Continuous
 62
     7
370
    25
100
AcDbCircle
 10
2342.6568373456
 20
5087.9822356649
 30
0.0
 40
15.00000000000053
100
AcDbArc
 50
277.2586155277
 51
287.3797717594
  0
ARC
  5
1EE
330
1F
100
AcDbEntity
  8
0
  6
Continuous
 62
     7
370
    25
100
AcDbCircle
 10
2261.4472813903
 20
5098.2226568046
 30
0.0
 40
15.0000000000001
100
AcDbArc
 50
97.2586155277
 51
107.2494602873
  0
ARC
  5
1EF
330
1F
100
AcDbEntity
  8
0
  6
Continuous
 62
     7
370
    25
100
AcDbCircle
 10
2261.4472813903
 20
5087.9822356649
 30
0.0
 40
15.00000000000037
100
AcDbArc
 50
252.6905737627
 51
262.7413844723
  0
ARC
  5
1F0
330
1F
100
AcDbEntity
  8
0
  6
Continuous
 62
     7
370
    25
100
AcDbCircle
 10
1542.6568373456
 20
5098.2226568046
 30
0.0
 40
15.00000000000039
100
AcDbArc
 50
55.6727826662
 51
82.7413844723
  0
LWPOLYLINE
  5
1F1
330
1F
100
AcDbEntity
  8
0
  6
Continuous
 62
     7
370
    25
100
AcDbPolyline
 90
        3
 70
   128
 43
0.0
 10
1459.552059368
 20
5113.1024462347
 10
1458.6781482012
 20
5112.9648378298
 10
1457.818300736
 20
5112.7770547451
  0
LWPOLYLINE
  5
1F2
330
1F
100
AcDbEntity
  8
0
  6
Continuous
 62
     7
370
    25
100
AcDbPolyline
 90
        3
 70
   128
 43
0.0
 10
1454.345785652
 20
5111.4351039011
 10
1453.7404300072
 20
5111.0913957388
 10
1452.9951839924
 20
5110.6146723621
  0
LWPOLYLINE
  5
1F3
330
1F
100
AcDbEntity
  8
0
  6
Continuous
 62
     7
370
    25
100
AcDbPolyline
 90
        3
 70
   128
 43
0.0
 10
1544.552059368
 20
5073.1024462347
 10
1545.4259705347
 20
5073.2400546397
 10
1546.2858179999
 20
5073.4278377244
  0
LWPOLYLINE
  5
1F4
330
1F
100
AcDbEntity
  8
0
  6
Continuous
 62
     7
370
    25
100
AcDbPolyline
 90
        3
 70
   128
 43
0.0
 10
1549.7583330839
 20
5074.7697885683
 10
1550.3636887287
 20
5075.1134967306
 10
1551.1089347435
 20
5075.5902201074
  0
ARC
  5
1F5
330
1F
100
AcDbEntity
  8
0
  6
Continuous
 62
     7
370
    25
100
AcDbCircle
 10
1461.4472813903
 20
5087.9822356649
 30
0.0
 40
15.0000000000004
100
AcDbArc
 50
235.6727826662
 51
262.7413844723
  0
LINE
  5
1F6
330
1F
100
AcDbEntity
  8
0
  6
Continuous
 62
     7
370
    25
100
AcDbLine
 10
1477.052059368
 20
5073.1024462347
 30
0.0
 11
1477.052059368
 21
4912.3244040984
 31
0.0
  0
LINE
  5
1F7
330
1F
100
AcDbEntity
  8
0
  6
Continuous
 62
     7
370
    25
100
AcDbLine
 10
1477.052059368
 20
4769.8244040984
 30
0.0
 11
1477.052059368
 21
4659.1024462347
 31
0.0
  0
LINE
  5
1F8
330
1F
100
AcDbEntity
  8
0
  6
Continuous
 62
     7
370
    25
100
AcDbLine
 10
1527.052059368
 20
4659.1024462347
 30
0.0
 11
1527.052059368
 21
4769.8244040984
 31
0.0
  0
LINE
  5
1F9
330
1F
100
AcDbEntity
  8
0
  6
Continuous
 62
     7
370
    25
100
AcDbLine
 10
1527.052059368
 20
4912.3244040984
 30
0.0
 11
1527.052059368
 21
5073.1024462347
 31
0.0
  0
LINE
  5
1FA
330
1F
100
AcDbEntity
  8
0
  6
Continuous
 62
     7
370
    25
100
AcDbLine
 10
2277.052059368
 20
5073.1024462347
 30
0.0
 11
2277.052059368
 21
4912.3244040984
 31
0.0
  0
LINE
  5
1FB
330
1F
100
AcDbEntity
  8
0
  6
Continuous
 62
     7
370
    25
100
AcDbLine
 10
2277.052059368
 20
4769.8244040984
 30
0.0
 11
2277.052059368
 21
4659.1024462347
 31
0.0
  0
LINE
  5
1FC
330
1F
100
AcDbEntity
  8
0
  6
Continuous
 62
     7
370
    25
100
AcDbLine
 10
2327.052059368
 20
4659.1024462347
 30
0.0
 11
2327.052059368
 21
4769.8244040984
 31
0.0
  0
LINE
  5
1FD
330
1F
100
AcDbEntity
  8
0
  6
Continuous
 62
     7
370
    25
100
AcDbLine
 10
2327.052059368
 20
4912.3244040984
 30
0.0
 11
2327.052059368
 21
5073.1024462347
 31
0.0
  0
LINE
  5
1FE
330
1F
100
AcDbEntity
  8
0
  6
Continuous
 62
     7
370
    25
100
AcDbLine
 10
1407.052059368
 20
4857.3244040984
 30
0.0
 11
1407.052059368
 21
4832.3244040984
 31
0.0
  0
LINE
  5
1FF
330
1F
100
AcDbEntity
  8
0
  6
Continuous
 62
     7
370
    25
100
AcDbLine
 10
1597.052059368
 20
4832.3244040984
 30
0.0
 11
1597.052059368
 21
4857.3244040984
 31
0.0
  0
LINE
  5
200
330
1F
100
AcDbEntity
  8
0
  6
Continuous
 62
     7
370
    25
100
AcDbLine
 10
1589.552059368
 20
4857.3244040984
 30
0.0
 11
1589.552059368
 21
4869.8244040984
 31
0.0
  0
LINE
  5
201
330
1F
100
AcDbEntity
  8
0
  6
Continuous
 62
     7
370
    25
100
AcDbLine
 10
1414.552059368
 20
4869.8244040984
 30
0.0
 11
1414.552059368
 21
4857.3244040984
 31
0.0
  0
LINE
  5
202
330
1F
100
AcDbEntity
  8
0
  6
Continuous
 62
     7
370
    25
100
AcDbLine
 10
1542.052059368
 20
4869.8244040984
 30
0.0
 11
1542.052059368
 21
4912.3244040984
 31
0.0
  0
LINE
  5
203
330
1F
100
AcDbEntity
  8
0
  6
Continuous
 62
     7
370
    25
100
AcDbLine
 10
1462.052059368
 20
4912.3244040984
 30
0.0
 11
1462.052059368
 21
4869.8244040984
 31
0.0
  0
LINE
  5
204
330
1F
100
AcDbEntity
  8
0
  6
Continuous
 62
     7
370
    25
100
AcDbLine
 10
2207.052059368
 20
4857.3244040984
 30
0.0
 11
2207.052059368
 21
4832.3244040984
 31
0.0
  0
LINE
  5
205
330
1F
100
AcDbEntity
  8
0
  6
Continuous
 62
     7
370
    25
100
AcDbLine
 10
2397.052059368
 20
4832.3244040984
 30
0.0
 11
2397.052059368
 21
4857.3244040984
 31
0.0
  0
LINE
  5
206
330
1F
100
AcDbEntity
  8
0
  6
Continuous
 62
     7
370
    25
100
AcDbLine
 10
2389.552059368
 20
4857.3244040984
 30
0.0
 11
2389.552059368
 21
4869.8244040984
 31
0.0
  0
LINE
  5
207
330
1F
100
AcDbEntity
  8
0
  6
Continuous
 62
     7
370
    25
100
AcDbLine
 10
2214.552059368
 20
4869.8244040984
 30
0.0
 11
2214.552059368
 21
4857.3244040984
 31
0.0
  0
LINE
  5
208
330
1F
100
AcDbEntity
  8
0
  6
Continuous
 62
     7
370
    25
100
AcDbLine
 10
2342.052059368
 20
4869.8244040984
 30
0.0
 11
2342.052059368
 21
4912.3244040984
 31
0.0
  0
LINE
  5
209
330
1F
100
AcDbEntity
  8
0
  6
Continuous
 62
     7
370
    25
100
AcDbLine
 10
2262.052059368
 20
4912.3244040984
 30
0.0
 11
2262.052059368
 21
4869.8244040984
 31
0.0
  0
LINE
  5
20A
330
1F
100
AcDbEntity
  8
0
  6
Continuous
 62
     7
370
    25
100
AcDbLine
 10
1577.052059368
 20
5113.1024462347
 30
0.0
 11
1577.052059368
 21
5123.1024462347
 31
0.0
  0
LINE
  5
20B
330
1F
100
AcDbEntity
  8
0
  6
Continuous
 62
     7
370
    25
100
AcDbLine
 10
1427.052059368
 20
5123.1024462347
 30
0.0
 11
1427.052059368
 21
5113.1024462347
 31
0.0
  0
LINE
  5
20C
330
1F
100
AcDbEntity
  8
0
  6
Continuous
 62
     7
370
    25
100
AcDbLine
 10
2377.052059368
 20
5113.1024462347
 30
0.0
 11
2377.052059368
 21
5123.1024462347
 31
0.0
  0
LINE
  5
20D
330
1F
100
AcDbEntity
  8
0
  6
Continuous
 62
     7
370
    25
100
AcDbLine
 10
2227.052059368
 20
5123.1024462347
 30
0.0
 11
2227.052059368
 21
5113.1024462347
 31
0.0
  0
SPLINE
  5
20E
330
1F
100
AcDbEntity
  8
0
  6
Continuous
 62
     7
370
    25
100
AcDbSpline
210
0.0
220
0.0
230
1.0
 70
     8
 71
     3
 72
     9
 73
     5
 74
     0
 42
0.00000001
 43
0.00000001
 40
0.0
 40
0.0
 40
0.0
 40
0.0
 40
0.4962229202406798
 40
1.0
 40
1.0
 40
1.0
 40
1.0
 10
2334.275622167278
 20
5113.102446234732
 30
0.0
 10
2336.952021810066
 20
5113.144018917807
 30
0.0
 10
2342.345564779605
 20
5113.227797158145
 30
0.0
 10
2347.618242798336
 20
5111.481959321707
 30
0.0
 10
2350.274497133124
 20
5110.602446234733
 30
0.0
  0
LINE
  5
20F
330
1F
100
AcDbEntity
  8
0
  6
Continuous
 62
     7
370
    25
100
AcDbLine
 10
2350.2744971331
 20
5075.6024462347
 30
0.0
 11
2350.2744971331
 21
5110.6024462347
 31
0.0
  0
SPLINE
  5
210
330
1F
100
AcDbEntity
  8
0
  6
Continuous
 62
     7
370
    25
100
AcDbSpline
210
0.0
220
0.0
230
1.0
 70
     8
 71
     3
 72
    10
 73
     6
 74
     0
 42
0.00000001
 43
0.00000001
 40
0.0
 40
0.0
 40
0.0
 40
0.0
 40
0.3315739395275103
 40
0.6721625413041675
 40
1.0
 40
1.0
 40
1.0
 40
1.0
 10
2350.274497133124
 20
5075.602446234732
 30
0.0
 10
2348.541843560007
 20
5074.92278600157
 30
0.0
 10
2345.029429916868
 20
5073.544987281329
 30
0.0
 10
2339.63098857091
 20
5073.172946458334
 30
0.0
 10
2336.037896584008
 20
5073.125645532607
 30
0.0
 10
2334.275622167278
 20
5073.102446234732
 30
0.0
  0
SPLINE
  5
211
330
1F
100
AcDbEntity
  8
0
  6
Continuous
 62
     7
370
    25
100
AcDbSpline
210
0.0
220
0.0
230
1.0
 70
     8
 71
     3
 72
     9
 73
     5
 74
     0
 42
0.00000001
 43
0.00000001
 40
0.0
 40
0.0
 40
0.0
 40
0.0
 40
0.4962229202406785
 40
1.0
 40
1.0
 40
1.0
 40
1.0
 10
2334.275622167278
 20
5073.102446234732
 30
0.0
 10
2331.599222524489
 20
5073.060873551659
 30
0.0
 10
2326.20567955495
 20
5072.977095311319
 30
0.0
 10
2320.933001536218
 20
5074.722933147758
 30
0.0
 10
2318.276747201431
 20
5075.602446234732
 30
0.0
  0
LINE
  5
212
330
1F
100
AcDbEntity
  8
0
  6
Continuous
 62
     7
370
    25
100
AcDbLine
 10
2318.2767472014
 20
5075.6024462347
 30
0.0
 11
2318.2767472014
 21
5110.6024462347
 31
0.0
  0
SPLINE
  5
213
330
1F
100
AcDbEntity
  8
0
  6
Continuous
 62
     7
370
    25
100
AcDbSpline
210
0.0
220
0.0
230
1.0
 70
     8
 71
     3
 72
    10
 73
     6
 74
     0
 42
0.00000001
 43
0.00000001
 40
0.0
 40
0.0
 40
0.0
 40
0.0
 40
0.3315739395276483
 40
0.6721625413044534
 40
1.0
 40
1.0
 40
1.0
 40
1.0
 10
2318.276747201431
 20
5110.602446234733
 30
0.0
 10
2320.009400774548
 20
5111.282106467896
 30
0.0
 10
2323.521814417689
 20
5112.659905188137
 30
0.0
 10
2328.920255763647
 20
5113.031946011131
 30
0.0
 10
2332.513347750549
 20
5113.079246936858
 30
0.0
 10
2334.275622167278
 20
5113.102446234732
 30
0.0
  0
SPLINE
  5
214
330
1F
100
AcDbEntity
  8
0
  6
Continuous
 62
     7
370
    25
100
AcDbSpline
210
0.0
220
0.0
230
1.0
 70
     8
 71
     3
 72
     9
 73
     5
 74
     0
 42
0.00000001
 43
0.00000001
 40
0.0
 40
0.0
 40
0.0
 40
0.0
 40
0.7169484261070636
 40
0.9999999999999999
 40
0.9999999999999999
 40
0.9999999999999999
 40
0.9999999999999999
 10
2294.165528318848
 20
5113.102446234732
 30
0.0
 10
2300.021293181922
 20
5113.17821241422
 30
0.0
 10
2308.188916751264
 20
5113.2838911168
 30
0.0
 10
2316.051290061449
 20
5111.193994703726
 30
0.0
 10
2318.276747201431
 20
5110.602446234733
 30
0.0
  0
SPLINE
  5
215
330
1F
100
AcDbEntity
  8
0
  6
Continuous
 62
     7
370
    25
100
AcDbSpline
210
0.0
220
0.0
230
1.0
 70
     8
 71
     3
 72
     9
 73
     5
 74
     0
 42
0.00000001
 43
0.00000001
 40
0.0
 40
0.0
 40
0.0
 40
0.0
 40
0.4054701119095634
 40
1.0
 40
1.0
 40
1.0
 40
1.0
 10
2318.276747201431
 20
5075.602446234732
 30
0.0
 10
2315.067306470421
 20
5074.836719506285
 30
0.0
 10
2307.151949365812
 20
5072.948228330344
 30
0.0
 10
2299.007592120483
 20
5073.044945178075
 30
0.0
 10
2294.165528318848
 20
5073.102446234732
 30
0.0
  0
LINE
  5
216
330
1F
100
AcDbEntity
  8
0
  6
Continuous
 62
     7
370
    25
100
AcDbLine
 10
2294.1655283188
 20
5073.1024462347
 30
0.0
 11
2334.2756221673
 21
5073.1024462347
 31
0.0
  0
SPLINE
  5
217
330
1F
100
AcDbEntity
  8
0
  6
Continuous
 62
     7
370
    25
100
AcDbSpline
210
0.0
220
0.0
230
1.0
 70
     8
 71
     3
 72
     9
 73
     5
 74
     0
 42
0.00000001
 43
0.00000001
 40
0.0
 40
0.0
 40
0.0
 40
0.0
 40
0.7169484261070681
 40
1.0
 40
1.0
 40
1.0
 40
1.0
 10
2294.165528318848
 20
5073.102446234732
 30
0.0
 10
2288.309763455774
 20
5073.026680055244
 30
0.0
 10
2280.142139886433
 20
5072.921001352664
 30
0.0
 10
2272.279766576247
 20
5075.010897765739
 30
0.0
 10
2270.054309436266
 20
5075.602446234732
 30
0.0
  0
LINE
  5
218
330
1F
100
AcDbEntity
  8
0
  6
Continuous
 62
     7
370
    25
100
AcDbLine
 10
2270.0543094363
 20
5075.6024462347
 30
0.0
 11
2270.0543094363
 21
5110.6024462347
 31
0.0
  0
SPLINE
  5
219
330
1F
100
AcDbEntity
  8
0
  6
Continuous
 62
     7
370
    25
100
AcDbSpline
210
0.0
220
0.0
230
1.0
 70
     8
 71
     3
 72
     9
 73
     5
 74
     0
 42
0.00000001
 43
0.00000001
 40
0.0
 40
0.0
 40
0.0
 40
0.0
 40
0.4054701119094961
 40
1.0
 40
1.0
 40
1.0
 40
1.0
 10
2270.054309436266
 20
5110.602446234733
 30
0.0
 10
2273.263750167275
 20
5111.368172963182
 30
0.0
 10
2281.179107271885
 20
5113.25666413912
 30
0.0
 10
2289.323464517214
 20
5113.159947291389
 30
0.0
 10
2294.165528318848
 20
5113.102446234732
 30
0.0
  0
SPLINE
  5
21A
330
1F
100
AcDbEntity
  8
0
  6
Continuous
 62
     7
370
    25
100
AcDbSpline
210
0.0
220
0.0
230
1.0
 70
     8
 71
     3
 72
     9
 73
     5
 74
     0
 42
0.00000001
 43
0.00000001
 40
0.0
 40
0.0
 40
0.0
 40
0.0
 40
0.4962229202406786
 40
1.0
 40
1.0
 40
1.0
 40
1.0
 10
2261.941965519529
 20
5113.102446234732
 30
0.0
 10
2263.299053090204
 20
5113.144018917807
 30
0.0
 10
2266.033887607756
 20
5113.227797158145
 30
0.0
 10
2268.707436688018
 20
5111.481959321707
 30
0.0
 10
2270.054309436266
 20
5110.602446234733
 30
0.0
  0
SPLINE
  5
21B
330
1F
100
AcDbEntity
  8
0
  6
Continuous
 62
     7
370
    25
100
AcDbSpline
210
0.0
220
0.0
230
1.0
 70
     8
 71
     3
 72
    10
 73
     6
 74
     0
 42
0.00000001
 43
0.00000001
 40
0.0
 40
0.0
 40
0.0
 40
0.0
 40
0.3315739395276491
 40
0.672162541304454
 40
1.0
 40
1.0
 40
1.0
 40
1.0
 10
2270.054309436266
 20
5075.602446234732
 30
0.0
 10
2269.17575505643
 20
5074.92278600157
 30
0.0
 10
2267.394760610769
 20
5073.544987281328
 30
0.0
 10
2264.657442336439
 20
5073.172946458334
 30
0.0
 10
2262.835539359858
 20
5073.125645532607
 30
0.0
 10
2261.941965519529
 20
5073.102446234732
 30
0.0
  0
LINE
  5
21C
330
1F
100
AcDbEntity
  8
0
  6
Continuous
 62
     7
370
    25
100
AcDbLine
 10
2294.1655283188
 20
5073.1024462347
 30
0.0
 11
2261.9419655195
 21
5073.1024462347
 31
0.0
  0
SPLINE
  5
21D
330
1F
100
AcDbEntity
  8
0
  6
Continuous
 62
     7
370
    25
100
AcDbSpline
210
0.0
220
0.0
230
1.0
 70
     8
 71
     3
 72
     9
 73
     5
 74
     0
 42
0.00000001
 43
0.00000001
 40
0.0
 40
0.0
 40
0.0
 40
0.0
 40
0.4962229202406788
 40
0.9999999999999999
 40
0.9999999999999999
 40
0.9999999999999999
 40
0.9999999999999999
 10
2261.941965519529
 20
5073.102446234732
 30
0.0
 10
2260.584877948855
 20
5073.060873551659
 30
0.0
 10
2257.850043431302
 20
5072.977095311319
 30
0.0
 10
2255.176494351041
 20
5074.722933147758
 30
0.0
 10
2253.829621602793
 20
5075.602446234732
 30
0.0
  0
LINE
  5
21E
330
1F
100
AcDbEntity
  8
0
  6
Continuous
 62
     7
370
    25
100
AcDbLine
 10
2253.8296216028
 20
5075.6024462347
 30
0.0
 11
2253.8296216028
 21
5110.6024462347
 31
0.0
  0
SPLINE
  5
21F
330
1F
100
AcDbEntity
  8
0
  6
Continuous
 62
     7
370
    25
100
AcDbSpline
210
0.0
220
0.0
230
1.0
 70
     8
 71
     3
 72
     9
 73
     5
 74
     0
 42
0.00000001
 43
0.00000001
 40
0.0
 40
0.0
 40
0.0
 40
0.0
 40
0.8337111000084365
 40
1.0
 40
1.0
 40
1.0
 40
1.0
 10
2253.829621602793
 20
5110.602446234733
 30
0.0
 10
2254.705151114281
 20
5111.352303944827
 30
0.0
 10
2255.755310469818
 20
5112.251725471167
 30
0.0
 10
2256.839155708878
 20
5112.453361595471
 30
0.0
 10
2257.019387141442
 20
5112.486891444779
 30
0.0
  0
SPLINE
  5
220
330
1F
100
AcDbEntity
  8
0
  6
Continuous
 62
     7
370
    25
100
AcDbSpline
210
0.0
220
0.0
230
1.0
 70
     8
 71
     3
 72
     9
 73
     5
 74
     0
 42
0.00000001
 43
0.00000001
 40
0.0
 40
0.0
 40
0.0
 40
0.0
 40
0.8336444524501676
 40
1.0
 40
1.0
 40
1.0
 40
1.0
 10
2350.274497133124
 20
5110.602446234733
 30
0.0
 10
2349.398966997719
 20
5111.352291020724
 30
0.0
 10
2348.348722936439
 20
5112.251768950178
 30
0.0
 10
2347.264790298543
 20
5112.453405691593
 30
0.0
 10
2347.084472091059
 20
5112.486949082117
 30
0.0
  0
LINE
  5
221
330
1F
100
AcDbEntity
  8
0
  6
Continuous
 62
     7
370
    25
100
AcDbLine
 10
2347.0839317703
 20
5073.8922321201
 30
0.0
 11
2350.2744971331
 21
5075.6024462347
 31
0.0
  0
LINE
  5
222
330
1F
100
AcDbEntity
  8
0
  6
Continuous
 62
     7
370
    25
100
AcDbLine
 10
2344.552059368
 20
5073.1024462347
 30
0.0
 11
2334.2756221673
 21
5073.1024462347
 31
0.0
  0
LINE
  5
223
330
1F
100
AcDbEntity
  8
0
  6
Continuous
 62
     7
370
    25
100
AcDbLine
 10
2261.9419655195
 20
5073.1024462347
 30
0.0
 11
2259.552059368
 21
5073.1024462347
 31
0.0
  0
SPLINE
  5
224
330
1F
100
AcDbEntity
  8
0
  6
Continuous
 62
     7
370
    25
100
AcDbSpline
210
0.0
220
0.0
230
1.0
 70
     8
 71
     3
 72
     9
 73
     5
 74
     0
 42
0.00000001
 43
0.00000001
 40
0.0
 40
0.0
 40
0.0
 40
0.0
 40
0.4054701119094976
 40
1.0
 40
1.0
 40
1.0
 40
1.0
 10
1477.514672927399
 20
5110.602446234733
 30
0.0
 10
1480.780840758166
 20
5111.368172963182
 30
0.0
 10
1488.836102378769
 20
5113.256664139121
 30
0.0
 10
1497.124411734334
 20
5113.15994729139
 30
0.0
 10
1502.052059367959
 20
5113.102446234732
 30
0.0
  0
SPLINE
  5
225
330
1F
100
AcDbEntity
  8
0
  6
Continuous
 62
     7
370
    25
100
AcDbSpline
210
0.0
220
0.0
230
1.0
 70
     8
 71
     3
 72
     9
 73
     5
 74
     0
 42
0.00000001
 43
0.00000001
 40
0.0
 40
0.0
 40
0.0
 40
0.0
 40
0.4962229202406789
 40
1.0
 40
1.0
 40
1.0
 40
1.0
 10
1465.24597970712
 20
5113.102446234732
 30
0.0
 10
1467.298369404667
 20
5113.144018917807
 30
0.0
 10
1471.434392981633
 20
5113.227797158145
 30
0.0
 10
1475.477731603831
 20
5111.481959321707
 30
0.0
 10
1477.514672927399
 20
5110.602446234733
 30
0.0
  0
SPLINE
  5
226
330
1F
100
AcDbEntity
  8
0
  6
Continuous
 62
     7
370
    25
100
AcDbSpline
210
0.0
220
0.0
230
1.0
 70
     8
 71
     3
 72
    10
 73
     6
 74
     0
 42
0.00000001
 43
0.00000001
 40
0.0
 40
0.0
 40
0.0
 40
0.0
 40
0.3315739395276477
 40
0.6721625413044522
 40
1.0
 40
1.0
 40
1.0
 40
1.0
 10
1526.589445808518
 20
5110.602446234733
 30
0.0
 10
1527.91812643081
 20
5111.282106467896
 30
0.0
 10
1530.611611162856
 20
5112.659905188137
 30
0.0
 10
1534.751391046293
 20
5113.031946011131
 30
0.0
 10
1537.506743744132
 20
5113.079246936858
 30
0.0
 10
1538.858139028797
 20
5113.102446234732
 30
0.0
  0
SPLINE
  5
227
330
1F
100
AcDbEntity
  8
0
  6
Continuous
 62
     7
370
    25
100
AcDbSpline
210
0.0
220
0.0
230
1.0
 70
     8
 71
     3
 72
     9
 73
     5
 74
     0
 42
0.00000001
 43
0.00000001
 40
0.0
 40
0.0
 40
0.0
 40
0.0
 40
0.7169484261070647
 40
1.0
 40
1.0
 40
1.0
 40
1.0
 10
1502.052059367959
 20
5113.102446234732
 30
0.0
 10
1508.011325303456
 20
5113.17821241422
 30
0.0
 10
1516.323312217014
 20
5113.283891116801
 30
0.0
 10
1524.324653550749
 20
5111.193994703726
 30
0.0
 10
1526.589445808518
 20
5110.602446234733
 30
0.0
  0
LINE
  5
228
330
1F
100
AcDbEntity
  8
0
  6
Continuous
 62
     7
370
    25
100
AcDbLine
 10
1477.5146729274
 20
5075.6024462347
 30
0.0
 11
1477.5146729274
 21
5110.6024462347
 31
0.0
  0
SPLINE
  5
229
330
1F
100
AcDbEntity
  8
0
  6
Continuous
 62
     7
370
    25
100
AcDbSpline
210
0.0
220
0.0
230
1.0
 70
     8
 71
     3
 72
    10
 73
     6
 74
     0
 42
0.00000001
 43
0.00000001
 40
0.0
 40
0.0
 40
0.0
 40
0.0
 40
0.3315739395276495
 40
0.672162541304455
 40
1.0
 40
1.0
 40
1.0
 40
1.0
 10
1477.514672927399
 20
5075.602446234732
 30
0.0
 10
1476.185992305107
 20
5074.92278600157
 30
0.0
 10
1473.492507573061
 20
5073.544987281328
 30
0.0
 10
1469.352727689625
 20
5073.172946458334
 30
0.0
 10
1466.597374991785
 20
5073.125645532608
 30
0.0
 10
1465.24597970712
 20
5073.102446234732
 30
0.0
  0
SPLINE
  5
22A
330
1F
100
AcDbEntity
  8
0
  6
Continuous
 62
     7
370
    25
100
AcDbSpline
210
0.0
220
0.0
230
1.0
 70
     8
 71
     3
 72
     9
 73
     5
 74
     0
 42
0.00000001
 43
0.00000001
 40
0.0
 40
0.0
 40
0.0
 40
0.0
 40
0.4962229202406796
 40
0.9999999999999999
 40
0.9999999999999999
 40
0.9999999999999999
 40
0.9999999999999999
 10
1465.24597970712
 20
5073.102446234732
 30
0.0
 10
1463.193590009574
 20
5073.060873551659
 30
0.0
 10
1459.057566432607
 20
5072.97709531132
 30
0.0
 10
1455.014227810409
 20
5074.722933147758
 30
0.0
 10
1452.977286486841
 20
5075.602446234732
 30
0.0
  0
LINE
  5
22B
330
1F
100
AcDbEntity
  8
0
  6
Continuous
 62
     7
370
    25
100
AcDbLine
 10
1452.9772864868
 20
5075.6024462347
 30
0.0
 11
1452.9772864868
 21
5110.6024462347
 31
0.0
  0
SPLINE
  5
22C
330
1F
100
AcDbEntity
  8
0
  6
Continuous
 62
     7
370
    25
100
AcDbSpline
210
0.0
220
0.0
230
1.0
 70
     8
 71
     3
 72
    10
 73
     6
 74
     0
 42
0.00000001
 43
0.00000001
 40
0.0
 40
0.0
 40
0.0
 40
0.0
 40
0.3315739395275104
 40
0.6721625413041694
 40
1.0
 40
1.0
 40
1.0
 40
1.0
 10
1452.977286486841
 20
5110.602446234733
 30
0.0
 10
1454.305967109133
 20
5111.282106467896
 30
0.0
 10
1456.999451841177
 20
5112.659905188137
 30
0.0
 10
1461.139231724614
 20
5113.031946011131
 30
0.0
 10
1463.894584422454
 20
5113.079246936858
 30
0.0
 10
1465.24597970712
 20
5113.102446234732
 30
0.0
  0
LINE
  5
22D
330
1F
100
AcDbEntity
  8
0
  6
Continuous
 62
     7
370
    25
100
AcDbLine
 10
1526.5894458085
 20
5075.6024462347
 30
0.0
 11
1526.5894458085
 21
5110.6024462347
 31
0.0
  0
SPLINE
  5
22E
330
1F
100
AcDbEntity
  8
0
  6
Continuous
 62
     7
370
    25
100
AcDbSpline
210
0.0
220
0.0
230
1.0
 70
     8
 71
     3
 72
     9
 73
     5
 74
     0
 42
0.00000001
 43
0.00000001
 40
0.0
 40
0.0
 40
0.0
 40
0.0
 40
0.4054701119095638
 40
1.0
 40
1.0
 40
1.0
 40
1.0
 10
1526.589445808518
 20
5075.602446234732
 30
0.0
 10
1523.323277977751
 20
5074.836719506285
 30
0.0
 10
1515.268016357148
 20
5072.948228330344
 30
0.0
 10
1506.979707001582
 20
5073.044945178075
 30
0.0
 10
1502.052059367959
 20
5073.102446234732
 30
0.0
  0
SPLINE
  5
22F
330
1F
100
AcDbEntity
  8
0
  6
Continuous
 62
     7
370
    25
100
AcDbSpline
210
0.0
220
0.0
230
1.0
 70
     8
 71
     3
 72
     9
 73
     5
 74
     0
 42
0.00000001
 43
0.00000001
 40
0.0
 40
0.0
 40
0.0
 40
0.0
 40
0.7169484261070668
 40
1.0
 40
1.0
 40
1.0
 40
1.0
 10
1502.052059367959
 20
5073.102446234732
 30
0.0
 10
1496.092793432461
 20
5073.026680055244
 30
0.0
 10
1487.780806518904
 20
5072.921001352664
 30
0.0
 10
1479.779465185168
 20
5075.010897765739
 30
0.0
 10
1477.514672927399
 20
5075.602446234732
 30
0.0
  0
SPLINE
  5
230
330
1F
100
AcDbEntity
  8
0
  6
Continuous
 62
     7
370
    25
100
AcDbSpline
210
0.0
220
0.0
230
1.0
 70
     8
 71
     3
 72
     9
 73
     5
 74
     0
 42
0.00000001
 43
0.00000001
 40
0.0
 40
0.0
 40
0.0
 40
0.0
 40
0.4962229202406788
 40
1.0
 40
1.0
 40
1.0
 40
1.0
 10
1538.858139028797
 20
5113.102446234732
 30
0.0
 10
1540.910528726344
 20
5113.144018917807
 30
0.0
 10
1545.04655230331
 20
5113.227797158145
 30
0.0
 10
1549.089890925508
 20
5111.481959321707
 30
0.0
 10
1551.126832249077
 20
5110.602446234733
 30
0.0
  0
LINE
  5
231
330
1F
100
AcDbEntity
  8
0
  6
Continuous
 62
     7
370
    25
100
AcDbLine
 10
1551.1268322491
 20
5075.6024462347
 30
0.0
 11
1551.1268322491
 21
5110.6024462347
 31
0.0
  0
SPLINE
  5
232
330
1F
100
AcDbEntity
  8
0
  6
Continuous
 62
     7
370
    25
100
AcDbSpline
210
0.0
220
0.0
230
1.0
 70
     8
 71
     3
 72
    10
 73
     6
 74
     0
 42
0.00000001
 43
0.00000001
 40
0.0
 40
0.0
 40
0.0
 40
0.0
 40
0.3315739395275095
 40
0.6721625413041682
 40
1.0
 40
1.0
 40
1.0
 40
1.0
 10
1551.126832249077
 20
5075.602446234732
 30
0.0
 10
1549.798151626785
 20
5074.92278600157
 30
0.0
 10
1547.10466689474
 20
5073.544987281329
 30
0.0
 10
1542.964887011304
 20
5073.172946458334
 30
0.0
 10
1540.209534313464
 20
5073.125645532608
 30
0.0
 10
1538.858139028797
 20
5073.102446234732
 30
0.0
  0
SPLINE
  5
233
330
1F
100
AcDbEntity
  8
0
  6
Continuous
 62
     7
370
    25
100
AcDbSpline
210
0.0
220
0.0
230
1.0
 70
     8
 71
     3
 72
     9
 73
     5
 74
     0
 42
0.00000001
 43
0.00000001
 40
0.0
 40
0.0
 40
0.0
 40
0.0
 40
0.4962229202406788
 40
1.0
 40
1.0
 40
1.0
 40
1.0
 10
1538.858139028797
 20
5073.102446234732
 30
0.0
 10
1536.805749331251
 20
5073.060873551659
 30
0.0
 10
1532.669725754284
 20
5072.97709531132
 30
0.0
 10
1528.626387132087
 20
5074.722933147758
 30
0.0
 10
1526.589445808518
 20
5075.602446234732
 30
0.0
  0
LINE
  5
234
330
1F
100
AcDbEntity
  8
0
  6
Continuous
 62
     7
370
    25
100
AcDbLine
 10
1502.052059368
 20
5073.1024462347
 30
0.0
 11
1538.8581390288
 21
5073.1024462347
 31
0.0
  0
LINE
  5
235
330
1F
100
AcDbEntity
  8
0
  6
Continuous
 62
     7
370
    25
100
AcDbLine
 10
1502.052059368
 20
5073.1024462347
 30
0.0
 11
1465.2459797071
 21
5073.1024462347
 31
0.0
  0
LINE
  5
236
330
1F
100
AcDbEntity
  8
0
  6
Continuous
 62
     7
370
    25
100
AcDbLine
 10
1544.552059368
 20
5073.1024462347
 30
0.0
 11
1538.8581390288
 21
5073.1024462347
 31
0.0
  0
LINE
  5
237
330
1F
100
AcDbEntity
  8
0
  6
Continuous
 62
     7
370
    25
100
AcDbLine
 10
1465.2459797071
 20
5073.1024462347
 30
0.0
 11
1459.552059368
 21
5073.1024462347
 31
0.0
  0
LINE
  5
238
330
1F
100
AcDbEntity
  8
0
  6
Continuous
 62
     7
370
    25
100
AcDbLine
 10
1372.9277026398
 20
5080.6024462341
 30
0.0
 11
1372.9277026398
 21
5123.1024462347
 31
0.0
  0
LINE
  5
239
330
1F
100
AcDbEntity
  8
0
  6
Continuous
 62
     7
370
    25
100
AcDbLine
 10
1722.9277026398
 20
5080.6024462341
 30
0.0
 11
1722.9277026398
 21
5130.6024462343
 31
0.0
  0
LINE
  5
23A
330
1F
100
AcDbEntity
  8
0
  6
Continuous
 62
     7
370
    25
100
AcDbLine
 10
1372.9277026398
 20
5065.6024462341
 30
0.0
 11
1477.052059368
 21
5065.6024462341
 31
0.0
  0
LINE
  5
23B
330
1F
100
AcDbEntity
  8
0
  6
Continuous
 62
     7
370
    25
100
AcDbLine
 10
1527.052059368
 20
5065.6024462341
 30
0.0
 11
1722.9277026398
 21
5065.6024462341
 31
0.0
  0
LINE
  5
23C
330
1F
100
AcDbEntity
  8
0
  6
Continuous
 62
     7
370
    25
100
AcDbLine
 10
1372.9277026398
 20
5065.6024462341
 30
0.0
 11
1372.9277026398
 21
5080.6024462341
 31
0.0
  0
LINE
  5
23D
330
1F
100
AcDbEntity
  8
0
  6
Continuous
 62
     7
370
    25
100
AcDbLine
 10
1722.9277026398
 20
5065.6024462341
 30
0.0
 11
1722.9277026398
 21
5080.6024462341
 31
0.0
  0
LINE
  5
23E
330
1F
100
AcDbEntity
  8
0
  6
Continuous
 62
     7
370
    25
100
AcDbLine
 10
2077.052059368
 20
5080.6024462341
 30
0.0
 11
2077.052059368
 21
5130.6024462343
 31
0.0
  0
LINE
  5
23F
330
1F
100
AcDbEntity
  8
0
  6
Continuous
 62
     7
370
    25
100
AcDbLine
 10
2427.052059368
 20
5080.6024462341
 30
0.0
 11
2427.052059368
 21
5123.1024462349
 31
0.0
  0
LINE
  5
240
330
1F
100
AcDbEntity
  8
0
  6
Continuous
 62
     7
370
    25
100
AcDbLine
 10
2077.052059368
 20
5065.6024462341
 30
0.0
 11
2277.052059368
 21
5065.6024462341
 31
0.0
  0
LINE
  5
241
330
1F
100
AcDbEntity
  8
0
  6
Continuous
 62
     7
370
    25
100
AcDbLine
 10
2327.052059368
 20
5065.6024462341
 30
0.0
 11
2427.052059368
 21
5065.6024462341
 31
0.0
  0
LINE
  5
242
330
1F
100
AcDbEntity
  8
0
  6
Continuous
 62
     7
370
    25
100
AcDbLine
 10
2077.052059368
 20
5065.6024462341
 30
0.0
 11
2077.052059368
 21
5080.6024462341
 31
0.0
  0
LINE
  5
243
330
1F
100
AcDbEntity
  8
0
  6
Continuous
 62
     7
370
    25
100
AcDbLine
 10
2427.052059368
 20
5065.6024462341
 30
0.0
 11
2427.052059368
 21
5080.6024462341
 31
0.0
  0
LINE
  5
244
330
1F
100
AcDbEntity
  8
0
  6
Continuous
 62
     7
370
    25
100
AcDbLine
 10
1502.052059368
 20
4659.1024462347
 30
0.0
 11
1527.052059368
 21
4659.1024462347
 31
0.0
  0
LINE
  5
245
330
1F
100
AcDbEntity
  8
0
  6
Continuous
 62
     7
370
    25
100
AcDbLine
 10
1477.052059368
 20
4659.1024462347
 30
0.0
 11
1502.052059368
 21
4659.1024462347
 31
0.0
  0
LINE
  5
246
330
1F
100
AcDbEntity
  8
0
  6
Continuous
 62
     7
370
    25
100
AcDbLine
 10
2302.052059368
 20
4659.1024462347
 30
0.0
 11
2327.052059368
 21
4659.1024462347
 31
0.0
  0
LINE
  5
247
330
1F
100
AcDbEntity
  8
0
  6
Continuous
 62
     7
370
    25
100
AcDbLine
 10
2277.052059368
 20
4659.1024462347
 30
0.0
 11
2302.052059368
 21
4659.1024462347
 31
0.0
  0
LINE
  5
248
330
1F
100
AcDbEntity
  8
0
  6
Continuous
 62
     7
370
    25
100
AcDbLine
 10
3152.052059368
 20
5273.102446235
 30
0.0
 11
3137.052059368
 21
5273.102446235
 31
0.0
  0
LINE
  5
249
330
1F
100
AcDbEntity
  8
0
  6
Continuous
 62
     7
370
    25
100
AcDbLine
 10
3152.052059368
 20
5273.102446235
 30
0.0
 11
3152.052059368
 21
5123.102446235
 31
0.0
  0
LINE
  5
24A
330
1F
100
AcDbEntity
  8
0
  6
Continuous
 62
     7
370
    25
100
AcDbLine
 10
3152.052059368
 20
5123.102446235
 30
0.0
 11
3137.052059368
 21
5123.102446235
 31
0.0
  0
LINE
  5
24B
330
1F
100
AcDbEntity
  8
0
  6
Continuous
 62
     7
370
    25
100
AcDbLine
 10
3137.052059368
 20
5273.102446235
 30
0.0
 11
3137.052059368
 21
5123.102446235
 31
0.0
  0
LINE
  5
24C
330
1F
100
AcDbEntity
  8
0
  6
Continuous
 62
     7
370
    25
100
AcDbLine
 10
2177.052059368
 20
5138.102446235
 30
0.0
 11
3137.052059368
 21
5138.102446235
 31
0.0
  0
LINE
  5
24D
330
1F
100
AcDbEntity
  8
0
  6
Continuous
 62
     7
370
    25
100
AcDbLine
 10
2177.052059368
 20
5138.102446235
 30
0.0
 11
2177.052059368
 21
5283.102446235
 31
0.0
  0
LINE
  5
24E
330
1F
100
AcDbEntity
  8
0
  6
Continuous
 62
     7
370
    25
100
AcDbLine
 10
2177.052059368
 20
5283.102446235
 30
0.0
 11
3137.052059368
 21
5283.102446235
 31
0.0
  0
LINE
  5
24F
330
1F
100
AcDbEntity
  8
0
  6
Continuous
 62
     7
370
    25
100
AcDbLine
 10
3137.052059368
 20
5273.102446235
 30
0.0
 11
3137.052059368
 21
5283.102446235
 31
0.0
  0
LINE
  5
250
330
1F
100
AcDbEntity
  8
0
  6
Continuous
 62
     7
370
    25
100
AcDbLine
 10
2177.052059368
 20
5283.102446235
 30
0.0
 11
2177.052059368
 21
5298.102446235
 31
0.0
  0
LINE
  5
251
330
1F
100
AcDbEntity
  8
0
  6
Continuous
 62
     7
370
    25
100
AcDbLine
 10
2177.052059368
 20
5298.102446235
 30
0.0
 11
3137.052059368
 21
5298.102446235
 31
0.0
  0
LINE
  5
252
330
1F
100
AcDbEntity
  8
0
  6
Continuous
 62
     7
370
    25
100
AcDbLine
 10
3137.052059368
 20
5283.102446235
 30
0.0
 11
3137.052059368
 21
5298.102446235
 31
0.0
  0
LINE
  5
253
330
1F
100
AcDbEntity
  8
0
  6
Continuous
 62
     7
370
    25
100
AcDbLine
 10
2177.052059368
 20
5123.102446235
 30
0.0
 11
2177.052059368
 21
5138.102446235
 31
0.0
  0
LINE
  5
254
330
1F
100
AcDbEntity
  8
0
  6
Continuous
 62
     7
370
    25
100
AcDbLine
 10
2177.052059368
 20
5123.102446235
 30
0.0
 11
2269.3603172913
 21
5123.1024462347
 31
0.0
  0
LINE
  5
255
330
1F
100
AcDbEntity
  8
0
  6
Continuous
 62
     7
370
    25
100
AcDbLine
 10
2334.7438014446
 20
5123.1024462347
 30
0.0
 11
3137.052059368
 21
5123.102446235
 31
0.0
  0
LINE
  5
256
330
1F
100
AcDbEntity
  8
0
  6
Continuous
 62
     7
370
    25
100
AcDbLine
 10
652.052059368
 20
5123.1024462347
 30
0.0
 11
667.052059368
 21
5123.1024462347
 31
0.0
  0
LINE
  5
257
330
1F
100
AcDbEntity
  8
0
  6
Continuous
 62
     7
370
    25
100
AcDbLine
 10
652.052059368
 20
5273.1024462347
 30
0.0
 11
652.052059368
 21
5123.1024462347
 31
0.0
  0
LINE
  5
258
330
1F
100
AcDbEntity
  8
0
  6
Continuous
 62
     7
370
    25
100
AcDbLine
 10
667.052059368
 20
5273.1024462347
 30
0.0
 11
667.052059368
 21
5123.1024462347
 31
0.0
  0
LINE
  5
259
330
1F
100
AcDbEntity
  8
0
  6
Continuous
 62
     7
370
    25
100
AcDbLine
 10
652.052059368
 20
5273.1024462347
 30
0.0
 11
667.052059368
 21
5273.1024462347
 31
0.0
  0
LINE
  5
25A
330
1F
100
AcDbEntity
  8
0
  6
Continuous
 62
     7
370
    25
100
AcDbLine
 10
1627.052059368
 20
5298.1024462347
 30
0.0
 11
667.052059368
 21
5298.1024462347
 31
0.0
  0
LINE
  5
25B
330
1F
100
AcDbEntity
  8
0
  6
Continuous
 62
     7
370
    25
100
AcDbLine
 10
1627.052059368
 20
5283.1024462347
 30
0.0
 11
1627.052059368
 21
5298.1024462347
 31
0.0
  0
LINE
  5
25C
330
1F
100
AcDbEntity
  8
0
  6
Continuous
 62
     7
370
    25
100
AcDbLine
 10
1627.052059368
 20
5283.1024462347
 30
0.0
 11
667.052059368
 21
5283.1024462347
 31
0.0
  0
LINE
  5
25D
330
1F
100
AcDbEntity
  8
0
  6
Continuous
 62
     7
370
    25
100
AcDbLine
 10
667.052059368
 20
5283.1024462347
 30
0.0
 11
667.052059368
 21
5298.1024462347
 31
0.0
  0
LINE
  5
25E
330
1F
100
AcDbEntity
  8
0
  6
Continuous
 62
     7
370
    25
100
AcDbLine
 10
667.052059368
 20
5273.1024462347
 30
0.0
 11
667.052059368
 21
5283.1024462347
 31
0.0
  0
LINE
  5
25F
330
1F
100
AcDbEntity
  8
0
  6
Continuous
 62
     7
370
    25
100
AcDbLine
 10
1627.052059368
 20
5138.1024462347
 30
0.0
 11
667.052059368
 21
5138.1024462347
 31
0.0
  0
LINE
  5
260
330
1F
100
AcDbEntity
  8
0
  6
Continuous
 62
     7
370
    25
100
AcDbLine
 10
1627.052059368
 20
5138.1024462347
 30
0.0
 11
1627.052059368
 21
5283.1024462347
 31
0.0
  0
LINE
  5
261
330
1F
100
AcDbEntity
  8
0
  6
Continuous
 62
     7
370
    25
100
AcDbLine
 10
1627.052059368
 20
5123.1024462347
 30
0.0
 11
1627.052059368
 21
5138.1024462347
 31
0.0
  0
LINE
  5
262
330
1F
100
AcDbEntity
  8
0
  6
Continuous
 62
     7
370
    25
100
AcDbLine
 10
1627.052059368
 20
5123.1024462347
 30
0.0
 11
1534.7438014443
 21
5123.1024462347
 31
0.0
  0
LINE
  5
263
330
1F
100
AcDbEntity
  8
0
  6
Continuous
 62
     7
370
    25
100
AcDbLine
 10
1469.3603172916
 20
5123.1024462347
 30
0.0
 11
667.052059368
 21
5123.1024462347
 31
0.0
  0
LINE
  5
264
330
1F
100
AcDbEntity
  8
0
  6
Continuous
 62
     7
370
    25
100
AcDbLine
 10
1597.052059368
 20
4832.3244040984
 30
0.0
 11
1407.052059368
 21
4832.3244040984
 31
0.0
  0
LINE
  5
265
330
1F
100
AcDbEntity
  8
0
  6
Continuous
 62
     7
370
    25
100
AcDbLine
 10
1597.052059368
 20
4857.3244040984
 30
0.0
 11
1407.052059368
 21
4857.3244040984
 31
0.0
  0
LINE
  5
266
330
1F
100
AcDbEntity
  8
0
  6
Continuous
 62
     7
370
    25
100
AcDbLine
 10
1468.4207073936
 20
4869.8244040984
 30
0.0
 11
1589.552059368
 21
4869.8244040984
 31
0.0
  0
LINE
  5
267
330
1F
100
AcDbEntity
  8
0
  6
Continuous
 62
     7
370
    25
100
AcDbLine
 10
1414.552059368
 20
4869.8244040984
 30
0.0
 11
1468.4207073936
 21
4869.8244040984
 31
0.0
  0
LINE
  5
268
330
1F
100
AcDbEntity
  8
0
  6
Continuous
 62
     7
370
    25
100
AcDbLine
 10
1543.2519434962
 20
4769.8244040984
 30
0.0
 11
1543.2519434962
 21
4832.3244040984
 31
0.0
  0
LINE
  5
269
330
1F
100
AcDbEntity
  8
0
  6
Continuous
 62
     7
370
    25
100
AcDbLine
 10
1543.2519434962
 20
4769.8244040984
 30
0.0
 11
1475.9777080699
 21
4769.8244040984
 31
0.0
  0
LINE
  5
26A
330
1F
100
AcDbEntity
  8
0
  6
Continuous
 62
     7
370
    25
100
AcDbLine
 10
1475.9777080699
 20
4769.8244040984
 30
0.0
 11
1475.9777080699
 21
4832.3244040984
 31
0.0
  0
LINE
  5
26B
330
1F
100
AcDbEntity
  8
0
  6
Continuous
 62
     7
370
    25
100
AcDbLine
 10
1434.7778239416
 20
4769.8244040984
 30
0.0
 11
1434.7778239416
 21
4832.3244040984
 31
0.0
  0
LINE
  5
26C
330
1F
100
AcDbEntity
  8
0
  6
Continuous
 62
     7
370
    25
100
AcDbLine
 10
1475.9777080699
 20
4769.8244040984
 30
0.0
 11
1434.7778239416
 21
4769.8244040984
 31
0.0
  0
LINE
  5
26D
330
1F
100
AcDbEntity
  8
0
  6
Continuous
 62
     7
370
    25
100
AcDbLine
 10
1569.3262947943
 20
4769.8244040984
 30
0.0
 11
1569.3262947943
 21
4832.3244040984
 31
0.0
  0
LINE
  5
26E
330
1F
100
AcDbEntity
  8
0
  6
Continuous
 62
     7
370
    25
100
AcDbLine
 10
1569.3262947943
 20
4769.8244040984
 30
0.0
 11
1543.2519434962
 21
4769.8244040984
 31
0.0
  0
LINE
  5
26F
330
1F
100
AcDbEntity
  8
0
  6
Continuous
 62
     7
370
    25
100
AcDbLine
 10
1486.6777270368
 20
4912.3244040984
 30
0.0
 11
1542.052059368
 21
4912.3244040984
 31
0.0
  0
LINE
  5
270
330
1F
100
AcDbEntity
  8
0
  6
Continuous
 62
     7
370
    25
100
AcDbLine
 10
1462.052059368
 20
4912.3244040984
 30
0.0
 11
1486.6777270368
 21
4912.3244040984
 31
0.0
  0
LINE
  5
271
330
1F
100
AcDbEntity
  8
0
  6
Continuous
 62
     7
370
    25
100
AcDbLine
 10
2397.052059368
 20
4832.3244040984
 30
0.0
 11
2207.052059368
 21
4832.3244040984
 31
0.0
  0
LINE
  5
272
330
1F
100
AcDbEntity
  8
0
  6
Continuous
 62
     7
370
    25
100
AcDbLine
 10
2397.052059368
 20
4857.3244040984
 30
0.0
 11
2207.052059368
 21
4857.3244040984
 31
0.0
  0
LINE
  5
273
330
1F
100
AcDbEntity
  8
0
  6
Continuous
 62
     7
370
    25
100
AcDbLine
 10
2268.4207073936
 20
4869.8244040984
 30
0.0
 11
2389.552059368
 21
4869.8244040984
 31
0.0
  0
LINE
  5
274
330
1F
100
AcDbEntity
  8
0
  6
Continuous
 62
     7
370
    25
100
AcDbLine
 10
2214.552059368
 20
4869.8244040984
 30
0.0
 11
2268.4207073936
 21
4869.8244040984
 31
0.0
  0
LINE
  5
275
330
1F
100
AcDbEntity
  8
0
  6
Continuous
 62
     7
370
    25
100
AcDbLine
 10
2343.2519434962
 20
4769.8244040984
 30
0.0
 11
2343.2519434962
 21
4832.3244040984
 31
0.0
  0
LINE
  5
276
330
1F
100
AcDbEntity
  8
0
  6
Continuous
 62
     7
370
    25
100
AcDbLine
 10
2343.2519434962
 20
4769.8244040984
 30
0.0
 11
2275.9777080699
 21
4769.8244040984
 31
0.0
  0
LINE
  5
277
330
1F
100
AcDbEntity
  8
0
  6
Continuous
 62
     7
370
    25
100
AcDbLine
 10
2275.9777080699
 20
4769.8244040984
 30
0.0
 11
2275.9777080699
 21
4832.3244040984
 31
0.0
  0
LINE
  5
278
330
1F
100
AcDbEntity
  8
0
  6
Continuous
 62
     7
370
    25
100
AcDbLine
 10
2234.7778239416
 20
4769.8244040984
 30
0.0
 11
2234.7778239416
 21
4832.3244040984
 31
0.0
  0
LINE
  5
279
330
1F
100
AcDbEntity
  8
0
  6
Continuous
 62
     7
370
    25
100
AcDbLine
 10
2275.9777080699
 20
4769.8244040984
 30
0.0
 11
2234.7778239416
 21
4769.8244040984
 31
0.0
  0
LINE
  5
27A
330
1F
100
AcDbEntity
  8
0
  6
Continuous
 62
     7
370
    25
100
AcDbLine
 10
2369.3262947943
 20
4769.8244040984
 30
0.0
 11
2369.3262947943
 21
4832.3244040984
 31
0.0
  0
LINE
  5
27B
330
1F
100
AcDbEntity
  8
0
  6
Continuous
 62
     7
370
    25
100
AcDbLine
 10
2369.3262947943
 20
4769.8244040984
 30
0.0
 11
2343.2519434962
 21
4769.8244040984
 31
0.0
  0
LINE
  5
27C
330
1F
100
AcDbEntity
  8
0
  6
Continuous
 62
     7
370
    25
100
AcDbLine
 10
2286.6777270368
 20
4912.3244040984
 30
0.0
 11
2342.052059368
 21
4912.3244040984
 31
0.0
  0
LINE
  5
27D
330
1F
100
AcDbEntity
  8
0
  6
Continuous
 62
     7
370
    25
100
AcDbLine
 10
2262.052059368
 20
4912.3244040984
 30
0.0
 11
2286.6777270368
 21
4912.3244040984
 31
0.0
  0
LINE
  5
27E
330
1F
100
AcDbEntity
  8
0
  6
Continuous
 62
     7
370
    25
100
AcDbLine
 10
2177.052059368
 20
5130.6024462343
 30
0.0
 11
1627.052059368
 21
5130.6024462343
 31
0.0
  0
LINE
  5
27F
330
1F
100
AcDbEntity
  8
0
  6
Continuous
 62
     7
370
    25
100
AcDbLine
 10
1502.052059368
 20
5113.1024462347
 30
0.0
 11
1577.052059368
 21
5113.1024462347
 31
0.0
  0
LINE
  5
280
330
1F
100
AcDbEntity
  8
0
  6
Continuous
 62
     7
370
    25
100
AcDbLine
 10
1427.052059368
 20
5113.1024462347
 30
0.0
 11
1502.052059368
 21
5113.1024462347
 31
0.0
  0
LINE
  5
281
330
1F
100
AcDbEntity
  8
0
  6
Continuous
 62
     7
370
    25
100
AcDbLine
 10
1502.052059368
 20
5123.1024462347
 30
0.0
 11
1534.7438014443
 21
5123.1024462347
 31
0.0
  0
LINE
  5
282
330
1F
100
AcDbEntity
  8
0
  6
Continuous
 62
     7
370
    25
100
AcDbLine
 10
1469.3603172916
 20
5123.1024462347
 30
0.0
 11
1502.052059368
 21
5123.1024462347
 31
0.0
  0
LINE
  5
283
330
1F
100
AcDbEntity
  8
0
  6
Continuous
 62
     7
370
    25
100
AcDbLine
 10
2319.3652435566
 20
5113.1024462347
 30
0.0
 11
2377.052059368
 21
5113.1024462347
 31
0.0
  0
LINE
  5
284
330
1F
100
AcDbEntity
  8
0
  6
Continuous
 62
     7
370
    25
100
AcDbLine
 10
2227.052059368
 20
5113.1024462347
 30
0.0
 11
2319.3652435566
 21
5113.1024462347
 31
0.0
  0
LINE
  5
285
330
1F
100
AcDbEntity
  8
0
  6
Continuous
 62
     7
370
    25
100
AcDbLine
 10
2319.3652435566
 20
5123.1024462347
 30
0.0
 11
2334.7438014446
 21
5123.1024462347
 31
0.0
  0
LINE
  5
286
330
1F
100
AcDbEntity
  8
0
  6
Continuous
 62
     7
370
    25
100
AcDbLine
 10
2269.3603172913
 20
5123.1024462347
 30
0.0
 11
2319.3652435566
 21
5123.1024462347
 31
0.0
  0
LINE
  5
287
330
1F
100
AcDbEntity
  8
0
  6
Continuous
 62
     7
370
    25
100
AcDbLine
 10
2177.052059368
 20
5288.1024462347
 30
0.0
 11
1627.052059368
 21
5288.1024462347
 31
0.0
  0
LINE
  5
288
330
1F
100
AcDbEntity
  8
0
  6
Continuous
 62
     7
370
    25
100
AcDbLine
 10
2177.052059368
 20
5138.1024462347
 30
0.0
 11
1627.052059368
 21
5138.1024462347
 31
0.0
  0
LINE
  5
289
330
1F
100
AcDbEntity
  8
0
  6
Continuous
 62
     8
370
    25
100
AcDbLine
 10
1372.9277026398
 20
5080.6024462341
 30
0.0
 11
1452.9772864868
 21
5080.6024462341
 31
0.0
  0
LINE
  5
28A
330
1F
100
AcDbEntity
  8
0
  6
Continuous
 62
     8
370
    25
100
AcDbLine
 10
1551.1268322491
 20
5080.6024462341
 30
0.0
 11
1722.9277026398
 21
5080.6024462341
 31
0.0
  0
LINE
  5
28B
330
1F
100
AcDbEntity
  8
0
  6
Continuous
 62
     8
370
    25
100
AcDbLine
 10
2077.052059368
 20
5080.6024462341
 30
0.0
 11
2253.8296216028
 21
5080.6024462341
 31
0.0
  0
LINE
  5
28C
330
1F
100
AcDbEntity
  8
0
  6
Continuous
 62
     8
370
    25
100
AcDbLine
 10
2350.2744971331
 20
5080.6024462341
 30
0.0
 11
2427.052059368
 21
5080.6024462341
 31
0.0
  0
LINE
  5
28D
330
1F
100
AcDbEntity
  8
0
  6
Continuous
 62
     8
370
    25
100
AcDbLine
 10
2177.052059368
 20
5273.1024462347
 30
0.0
 11
1627.052059368
 21
5273.1024462347
 31
0.0
  0
LINE
  5
28E
330
1F
100
AcDbEntity
  8
0
  6
Continuous
 62
     8
370
    25
100
AcDbLine
 10
2177.052059368
 20
5153.1024462347
 30
0.0
 11
1627.052059368
 21
5153.1024462347
 31
0.0
  0
ENDSEC
  0
SECTION
  2
OBJECTS
  0
DICTIONARY
  5
C
330
0
100
AcDbDictionary
281
     1
  3
ACAD_GROUP
350
D
  3
ACAD_LAYOUT
350
1A
  3
ACAD_MLINESTYLE
350
17
  3
ACAD_PLOTSETTINGS
350
19
  3
ACAD_PLOTSTYLENAME
350
E
  3
ACAD_SCALELIST
350
47
  3
DWGPROPS
350
28F
  0
DICTIONARY
  5
D
102
{ACAD_REACTORS
330
C
102
}
330
C
100
AcDbDictionary
281
     1
  0
DICTIONARY
  5
1A
102
{ACAD_REACTORS
330
C
102
}
330
C
100
AcDbDictionary
281
     1
  3
Layout1
350
1E
  3
Layout2
350
26
  3
Model
350
22
  0
DICTIONARY
  5
17
102
{ACAD_REACTORS
330
C
102
}
330
C
100
AcDbDictionary
281
     1
  3
Standard
350
18
  0
DICTIONARY
  5
19
102
{ACAD_REACTORS
330
C
102
}
330
C
100
AcDbDictionary
281
     1
  0
ACDBDICTIONARYWDFLT
  5
E
102
{ACAD_REACTORS
330
C
102
}
330
C
100
AcDbDictionary
281
     1
  3
Normal
350
F
100
AcDbDictionaryWithDefault
340
F
  0
DICTIONARY
  5
47
102
{ACAD_REACTORS
330
C
102
}
330
C
100
AcDbDictionary
281
     1
  3
A0
350
48
  3
A1
350
49
  3
A2
350
4A
  3
A3
350
4B
  3
A4
350
4C
  3
A5
350
4D
  3
A6
350
4E
  3
A7
350
4F
  3
A8
350
50
  3
A9
350
51
  3
B0
350
52
  3
B1
350
53
  3
B2
350
54
  3
B3
350
55
  3
B4
350
56
  3
B5
350
57
  3
B6
350
58
  3
B7
350
59
  3
B8
350
5A
  3
B9
350
5B
  3
C0
350
5C
  3
C1
350
5D
  3
C2
350
5E
  3
C3
350
5F
  3
C4
350
60
  3
C5
350
61
  3
C6
350
62
  3
C7
350
63
  3
C8
350
64
  3
C9
350
65
  3
D0
350
66
  3
D1
350
67
  3
D2
350
68
  0
XRECORD
  5
28F
102
{ACAD_REACTORS
330
C
102
}
330
C
100
AcDbXrecord
280
     1
  1
DWGPROPS COOKIE
  2

  3

  4

  6

  7

  8
radek.stransky
  9

300
=
301
=
302
=
303
=
304
=
305
=
306
=
307
=
308
=
309
=
 40
0.0
 41
2459095.343693935
 42
2459095.343694167
  1

 90
        0
  0
LAYOUT
  5
1E
102
{ACAD_REACTORS
330
1A
102
}
330
1A
100
AcDbPlotSettings
  1

  2
none_device
  4

  6

 40
0.0
 41
0.0
 42
0.0
 43
0.0
 44
0.0
 45
0.0
 46
0.0
 47
0.0
 48
0.0
 49
0.0
140
0.0
141
0.0
142
1.0
143
1.0
 70
   688
 72
     1
 73
     0
 74
     5
  7

 75
    16
147
1.0
148
0.0
149
0.0
100
AcDbLayout
  1
Layout1
 70
     1
 71
     1
 10
0.0
 20
0.0
 11
420.0
 21
297.0
 12
0.0
 22
0.0
 32
0.0
 14
1.0000000000E+20
 24
1.0000000000E+20
 34
1.0000000000E+20
 15
-1.0000000000E+20
 25
-1.0000000000E+20
 35
-1.0000000000E+20
146
0.0
 13
0.0
 23
0.0
 33
0.0
 16
1.0
 26
0.0
 36
0.0
 17
0.0
 27
1.0
 37
0.0
 76
     0
330
1B
  0
LAYOUT
  5
26
102
{ACAD_REACTORS
330
1A
102
}
330
1A
100
AcDbPlotSettings
  1

  2
none_device
  4

  6

 40
0.0
 41
0.0
 42
0.0
 43
0.0
 44
0.0
 45
0.0
 46
0.0
 47
0.0
 48
0.0
 49
0.0
140
0.0
141
0.0
142
1.0
143
1.0
 70
   688
 72
     1
 73
     0
 74
     5
  7

 75
    16
147
1.0
148
0.0
149
0.0
100
AcDbLayout
  1
Layout2
 70
     1
 71
     2
 10
0.0
 20
0.0
 11
0.0
 21
0.0
 12
0.0
 22
0.0
 32
0.0
 14
0.0
 24
0.0
 34
0.0
 15
0.0
 25
0.0
 35
0.0
146
0.0
 13
0.0
 23
0.0
 33
0.0
 16
1.0
 26
0.0
 36
0.0
 17
0.0
 27
1.0
 37
0.0
 76
     0
330
23
  0
LAYOUT
  5
22
102
{ACAD_REACTORS
330
1A
102
}
330
1A
100
AcDbPlotSettings
  1

  2
none_device
  4
Letter_(8.50_x_11.00_Inches)
  6

 40
6.35
 41
6.35
 42
6.35000508
 43
6.35000508
 44
215.9
 45
279.4
 46
0.0
 47
0.0
 48
0.0
 49
0.0
140
0.0
141
0.0
142
1.0
143
1.0
 70
  1712
 72
     1
 73
     0
 74
     0
  7

 75
     0
147
1.0
148
0.0
149
0.0
100
AcDbLayout
  1
Model
 70
     1
 71
     0
 10
0.0
 20
0.0
 11
20000.0
 21
10000.0
 12
0.0
 22
0.0
 32
0.0
 14
0.0
 24
0.0
 34
0.0
 15
20000.0
 25
10000.0
 35
0.0
146
0.0
 13
0.0
 23
0.0
 33
0.0
 16
1.0
 26
0.0
 36
0.0
 17
0.0
 27
1.0
 37
0.0
 76
     0
330
1F
331
29
  0
MLINESTYLE
  5
18
102
{ACAD_REACTORS
330
17
102
}
330
17
100
AcDbMlineStyle
  2
Standard
 70
     0
  3

 62
   256
 51
90.0
 52
90.0
 71
     2
 49
0.5
 62
   256
  6
BYLAYER
 49
-0.5
 62
   256
  6
BYLAYER
  0
ACDBPLACEHOLDER
  5
F
102
{ACAD_REACTORS
330
E
102
}
330
E
  0
SCALE
  5
48
102
{ACAD_REACTORS
330
47
102
}
330
47
100
AcDbScale
 70
     0
300
1:1
140
1.0
141
1.0
290
     1
  0
SCALE
  5
49
102
{ACAD_REACTORS
330
47
102
}
330
47
100
AcDbScale
 70
     0
300
1:2
140
1.0
141
2.0
290
     0
  0
SCALE
  5
4A
102
{ACAD_REACTORS
330
47
102
}
330
47
100
AcDbScale
 70
     0
300
1:4
140
1.0
141
4.0
290
     0
  0
SCALE
  5
4B
102
{ACAD_REACTORS
330
47
102
}
330
47
100
AcDbScale
 70
     0
300
1:5
140
1.0
141
5.0
290
     0
  0
SCALE
  5
4C
102
{ACAD_REACTORS
330
47
102
}
330
47
100
AcDbScale
 70
     0
300
1:8
140
1.0
141
8.0
290
     0
  0
SCALE
  5
4D
102
{ACAD_REACTORS
330
47
102
}
330
47
100
AcDbScale
 70
     0
300
1:10
140
1.0
141
10.0
290
     0
  0
SCALE
  5
4E
102
{ACAD_REACTORS
330
47
102
}
330
47
100
AcDbScale
 70
     0
300
1:16
140
1.0
141
16.0
290
     0
  0
SCALE
  5
4F
102
{ACAD_REACTORS
330
47
102
}
330
47
100
AcDbScale
 70
     0
300
1:20
140
1.0
141
20.0
290
     0
  0
SCALE
  5
50
102
{ACAD_REACTORS
330
47
102
}
330
47
100
AcDbScale
 70
     0
300
1:30
140
1.0
141
30.0
290
     0
  0
SCALE
  5
51
102
{ACAD_REACTORS
330
47
102
}
330
47
100
AcDbScale
 70
     0
300
1:40
140
1.0
141
40.0
290
     0
  0
SCALE
  5
52
102
{ACAD_REACTORS
330
47
102
}
330
47
100
AcDbScale
 70
     0
300
1:50
140
1.0
141
50.0
290
     0
  0
SCALE
  5
53
102
{ACAD_REACTORS
330
47
102
}
330
47
100
AcDbScale
 70
     0
300
1:100
140
1.0
141
100.0
290
     0
  0
SCALE
  5
54
102
{ACAD_REACTORS
330
47
102
}
330
47
100
AcDbScale
 70
     0
300
2:1
140
2.0
141
1.0
290
     0
  0
SCALE
  5
55
102
{ACAD_REACTORS
330
47
102
}
330
47
100
AcDbScale
 70
     0
300
4:1
140
4.0
141
1.0
290
     0
  0
SCALE
  5
56
102
{ACAD_REACTORS
330
47
102
}
330
47
100
AcDbScale
 70
     0
300
8:1
140
8.0
141
1.0
290
     0
  0
SCALE
  5
57
102
{ACAD_REACTORS
330
47
102
}
330
47
100
AcDbScale
 70
     0
300
10:1
140
10.0
141
1.0
290
     0
  0
SCALE
  5
58
102
{ACAD_REACTORS
330
47
102
}
330
47
100
AcDbScale
 70
     0
300
100:1
140
100.0
141
1.0
290
     0
  0
SCALE
  5
59
102
{ACAD_REACTORS
330
47
102
}
330
47
100
AcDbScale
 70
     0
300
1/128" = 1'-0"
140
0.0078125
141
12.0
290
     0
  0
SCALE
  5
5A
102
{ACAD_REACTORS
330
47
102
}
330
47
100
AcDbScale
 70
     0
300
1/64" = 1'-0"
140
0.015625
141
12.0
290
     0
  0
SCALE
  5
5B
102
{ACAD_REACTORS
330
47
102
}
330
47
100
AcDbScale
 70
     0
300
1/32" = 1'-0"
140
0.03125
141
12.0
290
     0
  0
SCALE
  5
5C
102
{ACAD_REACTORS
330
47
102
}
330
47
100
AcDbScale
 70
     0
300
1/16" = 1'-0"
140
0.0625
141
12.0
290
     0
  0
SCALE
  5
5D
102
{ACAD_REACTORS
330
47
102
}
330
47
100
AcDbScale
 70
     0
300
3/32" = 1'-0"
140
0.09375
141
12.0
290
     0
  0
SCALE
  5
5E
102
{ACAD_REACTORS
330
47
102
}
330
47
100
AcDbScale
 70
     0
300
1/8" = 1'-0"
140
0.125
141
12.0
290
     0
  0
SCALE
  5
5F
102
{ACAD_REACTORS
330
47
102
}
330
47
100
AcDbScale
 70
     0
300
3/16" = 1'-0"
140
0.1875
141
12.0
290
     0
  0
SCALE
  5
60
102
{ACAD_REACTORS
330
47
102
}
330
47
100
AcDbScale
 70
     0
300
1/4" = 1'-0"
140
0.25
141
12.0
290
     0
  0
SCALE
  5
61
102
{ACAD_REACTORS
330
47
102
}
330
47
100
AcDbScale
 70
     0
300
3/8" = 1'-0"
140
0.375
141
12.0
290
     0
  0
SCALE
  5
62
102
{ACAD_REACTORS
330
47
102
}
330
47
100
AcDbScale
 70
     0
300
1/2" = 1'-0"
140
0.5
141
12.0
290
     0
  0
SCALE
  5
63
102
{ACAD_REACTORS
330
47
102
}
330
47
100
AcDbScale
 70
     0
300
3/4" = 1'-0"
140
0.75
141
12.0
290
     0
  0
SCALE
  5
64
102
{ACAD_REACTORS
330
47
102
}
330
47
100
AcDbScale
 70
     0
300
1" = 1'-0"
140
1.0
141
12.0
290
     0
  0
SCALE
  5
65
102
{ACAD_REACTORS
330
47
102
}
330
47
100
AcDbScale
 70
     0
300
1-1/2" = 1'-0"
140
1.5
141
12.0
290
     0
  0
SCALE
  5
66
102
{ACAD_REACTORS
330
47
102
}
330
47
100
AcDbScale
 70
     0
300
3" = 1'-0"
140
3.0
141
12.0
290
     0
  0
SCALE
  5
67
102
{ACAD_REACTORS
330
47
102
}
330
47
100
AcDbScale
 70
     0
300
6" = 1'-0"
140
6.0
141
12.0
290
     0
  0
SCALE
  5
68
102
{ACAD_REACTORS
330
47
102
}
330
47
100
AcDbScale
 70
     0
300
1'-0" = 1'-0"
140
12.0
141
12.0
290
     0
  0
ENDSEC
  0
EOF
