  0
SECTION
  2
HEADER
  9
$ACADVER
  1
AC1015
  9
$ACADMAINTVER
 70
     6
  9
$DWGCODEPAGE
  3
ANSI_1250
  9
$INSBASE
 10
0.0
 20
0.0
 30
0.0
  9
$EXTMIN
 10
0.0
 20
0.0
 30
0.0
  9
$EXTMAX
 10
20000.0
 20
10000.0
 30
0.0
  9
$LIMMIN
 10
0.0
 20
0.0
  9
$LIMMAX
 10
20000.0
 20
10000.0
  9
$ORTHOMODE
 70
     0
  9
$REGENMODE
 70
     1
  9
$FILLMODE
 70
     1
  9
$QTEXTMODE
 70
     0
  9
$MIRRTEXT
 70
     1
  9
$LTSCALE
 40
1.0
  9
$ATTMODE
 70
     1
  9
$TEXTSIZE
 40
2.0
  9
$TRACEWID
 40
1.0
  9
$TEXTSTYLE
  7
Standard
  9
$CLAYER
  8
0
  9
$CELTYPE
  6
ByLayer
  9
$CECOLOR
 62
   256
  9
$CELTSCALE
 40
1.0
  9
$DISPSILH
 70
     0
  9
$DIMSCALE
 40
1.0
  9
$DIMASZ
 40
2.0
  9
$DIMEXO
 40
1.0
  9
$DIMDLI
 40
3.75
  9
$DIMRND
 40
0.0
  9
$DIMDLE
 40
0.0
  9
$DIMEXE
 40
1.0
  9
$DIMTP
 40
0.0
  9
$DIMTM
 40
0.0
  9
$DIMTXT
 40
2.0
  9
$DIMCEN
 40
2.5
  9
$DIMTSZ
 40
0.0
  9
$DIMTOL
 70
     0
  9
$DIMLIM
 70
     0
  9
$DIMTIH
 70
     1
  9
$DIMTOH
 70
     1
  9
$DIMSE1
 70
     0
  9
$DIMSE2
 70
     0
  9
$DIMTAD
 70
     1
  9
$DIMZIN
 70
     0
  9
$DIMBLK
  1

  9
$DIMASO
 70
     1
  9
$DIMSHO
 70
     1
  9
$DIMPOST
  1

  9
$DIMAPOST
  1

  9
$DIMALT
 70
     0
  9
$DIMALTD
 70
     3
  9
$DIMALTF
 40
0.0393700787
  9
$DIMLFAC
 40
1.0
  9
$DIMTOFL
 70
     1
  9
$DIMTVP
 40
0.0
  9
$DIMTIX
 70
     0
  9
$DIMSOXD
 70
     0
  9
$DIMSAH
 70
     0
  9
$DIMBLK1
  1

  9
$DIMBLK2
  1

  9
$DIMSTYLE
  2
ISO-25
  9
$DIMCLRD
 70
     0
  9
$DIMCLRE
 70
     0
  9
$DIMCLRT
 70
     0
  9
$DIMTFAC
 40
1.0
  9
$DIMGAP
 40
1.524
  9
$DIMJUST
 70
     0
  9
$DIMSD1
 70
     0
  9
$DIMSD2
 70
     0
  9
$DIMTOLJ
 70
     0
  9
$DIMTZIN
 70
     0
  9
$DIMALTZ
 70
     0
  9
$DIMALTTZ
 70
     0
  9
$DIMUPT
 70
     0
  9
$DIMDEC
 70
     2
  9
$DIMTDEC
 70
     0
  9
$DIMALTU
 70
     2
  9
$DIMALTTD
 70
     3
  9
$DIMTXSTY
  7
Standard
  9
$DIMAUNIT
 70
     0
  9
$DIMADEC
 70
     2
  9
$DIMALTRND
 40
0.0
  9
$DIMAZIN
 70
     0
  9
$DIMDSEP
 70
    44
  9
$DIMATFIT
 70
     3
  9
$DIMFRAC
 70
     0
  9
$DIMLDRBLK
  1

  9
$DIMLUNIT
 70
     2
  9
$DIMLWD
 70
    -2
  9
$DIMLWE
 70
    -2
  9
$DIMTMOVE
 70
     0
  9
$LUNITS
 70
     2
  9
$LUPREC
 70
     3
  9
$SKETCHINC
 40
1.0
  9
$FILLETRAD
 40
10.0
  9
$AUNITS
 70
     0
  9
$AUPREC
 70
     2
  9
$MENU
  1
.
  9
$ELEVATION
 40
0.0
  9
$PELEVATION
 40
0.0
  9
$THICKNESS
 40
0.0
  9
$LIMCHECK
 70
     0
  9
$CHAMFERA
 40
0.0
  9
$CHAMFERB
 40
0.0
  9
$CHAMFERC
 40
0.0
  9
$CHAMFERD
 40
0.0
  9
$SKPOLY
 70
     0
  9
$TDCREATE
 40
2458701.305147315
  9
$TDUCREATE
 40
2458701.221813981
  9
$TDUPDATE
 40
2458701.305147951
  9
$TDUUPDATE
 40
2458701.221814618
  9
$TDINDWG
 40
0.0000000116
  9
$TDUSRTIMER
 40
0.0000000116
  9
$USRTIMER
 70
     1
  9
$ANGBASE
 50
0.0
  9
$ANGDIR
 70
     0
  9
$PDMODE
 70
     0
  9
$PDSIZE
 40
-1.0
  9
$PLINEWID
 40
0.0
  9
$SPLFRAME
 70
     0
  9
$SPLINETYPE
 70
     6
  9
$SPLINESEGS
 70
     8
  9
$HANDSEED
  5
2C9
  9
$SURFTAB1
 70
     6
  9
$SURFTAB2
 70
     6
  9
$SURFTYPE
 70
     6
  9
$SURFU
 70
     6
  9
$SURFV
 70
     6
  9
$UCSBASE
  2

  9
$UCSNAME
  2

  9
$UCSORG
 10
0.0
 20
0.0
 30
0.0
  9
$UCSXDIR
 10
1.0
 20
0.0
 30
0.0
  9
$UCSYDIR
 10
0.0
 20
1.0
 30
0.0
  9
$UCSORTHOREF
  2

  9
$UCSORTHOVIEW
 70
     0
  9
$UCSORGTOP
 10
0.0
 20
0.0
 30
0.0
  9
$UCSORGBOTTOM
 10
0.0
 20
0.0
 30
0.0
  9
$UCSORGLEFT
 10
0.0
 20
0.0
 30
0.0
  9
$UCSORGRIGHT
 10
0.0
 20
0.0
 30
0.0
  9
$UCSORGFRONT
 10
0.0
 20
0.0
 30
0.0
  9
$UCSORGBACK
 10
0.0
 20
0.0
 30
0.0
  9
$PUCSBASE
  2

  9
$PUCSNAME
  2

  9
$PUCSORG
 10
0.0
 20
0.0
 30
0.0
  9
$PUCSXDIR
 10
1.0
 20
0.0
 30
0.0
  9
$PUCSYDIR
 10
0.0
 20
1.0
 30
0.0
  9
$PUCSORTHOREF
  2

  9
$PUCSORTHOVIEW
 70
     0
  9
$PUCSORGTOP
 10
0.0
 20
0.0
 30
0.0
  9
$PUCSORGBOTTOM
 10
0.0
 20
0.0
 30
0.0
  9
$PUCSORGLEFT
 10
0.0
 20
0.0
 30
0.0
  9
$PUCSORGRIGHT
 10
0.0
 20
0.0
 30
0.0
  9
$PUCSORGFRONT
 10
0.0
 20
0.0
 30
0.0
  9
$PUCSORGBACK
 10
0.0
 20
0.0
 30
0.0
  9
$USERI1
 70
     0
  9
$USERI2
 70
     0
  9
$USERI3
 70
     0
  9
$USERI4
 70
     0
  9
$USERI5
 70
     0
  9
$USERR1
 40
0.0
  9
$USERR2
 40
0.0
  9
$USERR3
 40
0.0
  9
$USERR4
 40
0.0
  9
$USERR5
 40
0.0
  9
$WORLDVIEW
 70
     1
  9
$SHADEDGE
 70
     3
  9
$SHADEDIF
 70
    70
  9
$TILEMODE
 70
     1
  9
$MAXACTVP
 70
    64
  9
$PINSBASE
 10
0.0
 20
0.0
 30
0.0
  9
$PLIMCHECK
 70
     0
  9
$PEXTMIN
 10
1.0000000000E+20
 20
1.0000000000E+20
 30
1.0000000000E+20
  9
$PEXTMAX
 10
-1.0000000000E+20
 20
-1.0000000000E+20
 30
-1.0000000000E+20
  9
$PLIMMIN
 10
0.0
 20
0.0
  9
$PLIMMAX
 10
420.0
 20
297.0
  9
$UNITMODE
 70
     0
  9
$VISRETAIN
 70
     1
  9
$PLINEGEN
 70
     0
  9
$PSLTSCALE
 70
     1
  9
$TREEDEPTH
 70
  3020
  9
$CMLSTYLE
  2
Standard
  9
$CMLJUST
 70
     0
  9
$CMLSCALE
 40
20.0
  9
$PROXYGRAPHICS
 70
     1
  9
$MEASUREMENT
 70
     1
  9
$CELWEIGHT
370
    -1
  9
$ENDCAPS
280
     0
  9
$JOINSTYLE
280
     0
  9
$LWDISPLAY
290
     1
  9
$INSUNITS
 70
     4
  9
$HYPERLINKBASE
  1

  9
$STYLESHEET
  1

  9
$XEDIT
290
     1
  9
$CEPSNTYPE
380
     0
  9
$PSTYLEMODE
290
     1
  9
$FINGERPRINTGUID
  2
{F09A8AB1-F3AC-400E-8737-5E1854B5BB8B}
  9
$VERSIONGUID
  2
{FAEB1C32-E019-11D5-929B-00C0DF256EC4}
  9
$EXTNAMES
290
     1
  9
$PSVPSCALE
 40
0.0
  9
$OLESTARTUP
290
     0
  0
ENDSEC
  0
SECTION
  2
CLASSES
  0
CLASS
  1
ACDBDICTIONARYWDFLT
  2
AcDbDictionaryWithDefault
  3
ObjectDBX Classes
 90
        0
280
     0
281
     0
  0
CLASS
  1
VISUALSTYLE
  2
AcDbVisualStyle
  3
ObjectDBX Classes
 90
     4095
280
     0
281
     0
  0
CLASS
  1
MATERIAL
  2
AcDbMaterial
  3
ObjectDBX Classes
 90
     1153
280
     0
281
     0
  0
CLASS
  1
SCALE
  2
AcDbScale
  3
ObjectDBX Classes
 90
     1153
280
     0
281
     0
  0
CLASS
  1
TABLESTYLE
  2
AcDbTableStyle
  3
ObjectDBX Classes
 90
     4095
280
     0
281
     0
  0
CLASS
  1
MLEADERSTYLE
  2
AcDbMLeaderStyle
  3
ACDB_MLEADERSTYLE_CLASS
 90
     4095
280
     0
281
     0
  0
CLASS
  1
SUN
  2
AcDbSun
  3
SCENEOE
 90
     1153
280
     0
281
     0
  0
CLASS
  1
ACDBPLACEHOLDER
  2
AcDbPlaceHolder
  3
ObjectDBX Classes
 90
        0
280
     0
281
     0
  0
CLASS
  1
LAYOUT
  2
AcDbLayout
  3
ObjectDBX Classes
 90
        0
280
     0
281
     0
  0
ENDSEC
  0
SECTION
  2
TABLES
  0
TABLE
  2
VPORT
  5
8
330
0
100
AcDbSymbolTable
 70
     1
  0
VPORT
  5
29
330
8
100
AcDbSymbolTableRecord
100
AcDbViewportTableRecord
  2
*Active
 70
     0
 10
0.0
 20
0.0
 11
1.0
 21
1.0
 12
10000.0
 22
5000.0
 13
0.0
 23
0.0
 14
10.0
 24
10.0
 15
10.0
 25
10.0
 16
0.0
 26
0.0
 36
1.0
 17
0.0
 27
0.0
 37
0.0
 40
10000.0
 41
2.0
 42
50.0
 43
0.0
 44
0.0
 50
0.0
 51
0.0
 71
     0
 72
  2000
 73
     1
 74
     3
 75
     0
 76
     0
 77
     0
 78
     0
281
     0
 65
     1
110
0.0
120
0.0
130
0.0
111
1.0
121
0.0
131
0.0
112
0.0
122
1.0
132
0.0
 79
     0
146
0.0
  0
ENDTAB
  0
TABLE
  2
LTYPE
  5
5
330
0
100
AcDbSymbolTable
 70
     6
  0
LTYPE
  5
14
330
5
100
AcDbSymbolTableRecord
100
AcDbLinetypeTableRecord
  2
ByBlock
 70
     0
  3

 72
    65
 73
     0
 40
0.0
  0
LTYPE
  5
15
330
5
100
AcDbSymbolTableRecord
100
AcDbLinetypeTableRecord
  2
ByLayer
 70
     0
  3

 72
    65
 73
     0
 40
0.0
  0
LTYPE
  5
16
330
5
100
AcDbSymbolTableRecord
100
AcDbLinetypeTableRecord
  2
Continuous
 70
     0
  3
Solid line
 72
    65
 73
     0
 40
0.0
  0
LTYPE
  5
6E
330
5
100
AcDbSymbolTableRecord
100
AcDbLinetypeTableRecord
  2
HIDDEN
 70
     0
  3
Hidden __ __ __ __ __ __ __ __ __ __ __ __ __ __
 72
    65
 73
     2
 40
1.905
 49
1.27
 74
     0
 49
-0.635
 74
     0
  0
LTYPE
  5
6F
330
5
100
AcDbSymbolTableRecord
100
AcDbLinetypeTableRecord
  2
PHANTOM
 70
     0
  3
Phantom ______  __  __  ______  __  __  ______
 72
    65
 73
     6
 40
12.7
 49
6.35
 74
     0
 49
-1.27
 74
     0
 49
1.27
 74
     0
 49
-1.27
 74
     0
 49
1.27
 74
     0
 49
-1.27
 74
     0
  0
LTYPE
  5
70
330
5
100
AcDbSymbolTableRecord
100
AcDbLinetypeTableRecord
  2
CENTER
 70
     0
  3
Center ____ _ ____ _ ____ _ ____ _ ____ _ ____
 72
    65
 73
     4
 40
10.16
 49
6.35
 74
     0
 49
-1.27
 74
     0
 49
1.27
 74
     0
 49
-1.27
 74
     0
  0
LTYPE
  5
71
330
5
100
AcDbSymbolTableRecord
100
AcDbLinetypeTableRecord
  2
CENTERX2
 70
     0
  3
Center (2x) ________  __  ________  __  _____
 72
    65
 73
     4
 40
20.32
 49
12.7
 74
     0
 49
-2.54
 74
     0
 49
2.54
 74
     0
 49
-2.54
 74
     0
  0
LTYPE
  5
72
330
5
100
AcDbSymbolTableRecord
100
AcDbLinetypeTableRecord
  2
DOT2
 70
     0
  3
Dot (.5x) ........................................
 72
    65
 73
     2
 40
0.635
 49
0.0
 74
     0
 49
-0.635
 74
     0
  0
ENDTAB
  0
TABLE
  2
LAYER
  5
2
330
0
100
AcDbSymbolTable
 70
    13
  0
LAYER
  5
10
330
2
100
AcDbSymbolTableRecord
100
AcDbLayerTableRecord
  2
0
 70
     0
 62
     7
  6
Continuous
370
    -3
390
F
  0
LAYER
  5
73
330
2
100
AcDbSymbolTableRecord
100
AcDbLayerTableRecord
  2
FORMAT
 70
     0
 62
     7
  6
Continuous
370
    -3
390
F
  0
LAYER
  5
74
330
2
100
AcDbSymbolTableRecord
100
AcDbLayerTableRecord
  2
OSA
 70
     0
 62
     7
  6
CENTER
370
    -3
390
F
  0
LAYER
  5
75
330
2
100
AcDbSymbolTableRecord
100
AcDbLayerTableRecord
  2
0_35
 70
     0
 62
     7
  6
Continuous
370
    35
390
F
  0
LAYER
  5
76
330
2
100
AcDbSymbolTableRecord
100
AcDbLayerTableRecord
  2
0_5
 70
     0
 62
     7
  6
Continuous
370
    50
390
F
  0
LAYER
  5
77
330
2
100
AcDbSymbolTableRecord
100
AcDbLayerTableRecord
  2
0_25
 70
     0
 62
     7
  6
Continuous
370
    25
390
F
  0
LAYER
  5
78
330
2
100
AcDbSymbolTableRecord
100
AcDbLayerTableRecord
  2
0_18
 70
     0
 62
     7
  6
Continuous
370
    -3
390
F
  0
LAYER
  5
79
330
2
100
AcDbSymbolTableRecord
100
AcDbLayerTableRecord
  2
SLD-0
 70
     0
 62
   179
  6
Continuous
370
    -3
390
F
  0
LAYER
  5
7A
330
2
100
AcDbSymbolTableRecord
100
AcDbLayerTableRecord
  2
KOTY
 70
     0
 62
     7
  6
Continuous
370
    -3
390
F
  0
LAYER
  5
7B
330
2
100
AcDbSymbolTableRecord
100
AcDbLayerTableRecord
  2
SILNA
 70
     0
 62
   179
  6
Continuous
370
    -3
390
F
  0
LAYER
  5
7C
330
2
100
AcDbSymbolTableRecord
100
AcDbLayerTableRecord
  2
0_18_1
 70
     0
 62
   179
  6
Continuous
370
    -3
390
F
  0
LAYER
  5
7D
330
2
100
AcDbSymbolTableRecord
100
AcDbLayerTableRecord
  2
0_35_1
 70
     0
 62
   179
  6
Continuous
370
    35
390
F
  0
LAYER
  5
7E
330
2
100
AcDbSymbolTableRecord
100
AcDbLayerTableRecord
  2
0_5_1
 70
     0
 62
   179
  6
Continuous
370
    50
390
F
  0
ENDTAB
  0
TABLE
  2
STYLE
  5
3
330
0
100
AcDbSymbolTable
 70
     1
  0
STYLE
  5
11
330
3
100
AcDbSymbolTableRecord
100
AcDbTextStyleTableRecord
  2
Standard
 70
     0
 40
0.0
 41
1.0
 50
0.0
 71
     0
 42
2.0
  3
txt
  4

  0
ENDTAB
  0
TABLE
  2
VIEW
  5
6
330
0
100
AcDbSymbolTable
 70
     0
  0
ENDTAB
  0
TABLE
  2
UCS
  5
7
330
0
100
AcDbSymbolTable
 70
     0
  0
ENDTAB
  0
TABLE
  2
APPID
  5
9
330
0
100
AcDbSymbolTable
 70
     1
  0
APPID
  5
12
330
9
100
AcDbSymbolTableRecord
100
AcDbRegAppTableRecord
  2
ACAD
 70
     0
  0
ENDTAB
  0
TABLE
  2
DIMSTYLE
  5
A
330
0
100
AcDbSymbolTable
 70
     1
100
AcDbDimStyleTable
  0
DIMSTYLE
105
27
330
A
100
AcDbSymbolTableRecord
100
AcDbDimStyleTableRecord
  2
ISO-25
 70
     0
 41
2.5
 42
0.625
 43
3.75
 44
1.25
 73
     0
 74
     0
 77
     1
 78
     8
140
2.5
141
2.5
143
0.0393700787
147
0.625
171
     3
172
     1
178
     0
271
     2
272
     2
274
     3
278
    44
283
     0
284
     8
340
11
  0
ENDTAB
  0
TABLE
  2
BLOCK_RECORD
  5
1
330
0
100
AcDbSymbolTable
 70
     1
  0
BLOCK_RECORD
  5
1F
330
1
100
AcDbSymbolTableRecord
100
AcDbBlockTableRecord
  2
*Model_Space
340
22
  0
BLOCK_RECORD
  5
1B
330
1
100
AcDbSymbolTableRecord
100
AcDbBlockTableRecord
  2
*Paper_Space
340
1E
  0
BLOCK_RECORD
  5
23
330
1
100
AcDbSymbolTableRecord
100
AcDbBlockTableRecord
  2
*Paper_Space0
340
26
  0
ENDTAB
  0
ENDSEC
  0
SECTION
  2
BLOCKS
  0
BLOCK
  5
20
330
1F
100
AcDbEntity
  8
0
100
AcDbBlockBegin
  2
*Model_Space
 70
     0
 10
0.0
 20
0.0
 30
0.0
  3
*Model_Space
  1

  0
ENDBLK
  5
21
330
1F
100
AcDbEntity
  8
0
100
AcDbBlockEnd
  0
BLOCK
  5
1C
330
1B
100
AcDbEntity
 67
     1
  8
0
100
AcDbBlockBegin
  2
*Paper_Space
 70
     0
 10
0.0
 20
0.0
 30
0.0
  3
*Paper_Space
  1

  0
ENDBLK
  5
1D
330
1B
100
AcDbEntity
 67
     1
  8
0
100
AcDbBlockEnd
  0
BLOCK
  5
24
330
23
100
AcDbEntity
  8
0
100
AcDbBlockBegin
  2
*Paper_Space0
 70
     0
 10
0.0
 20
0.0
 30
0.0
  3
*Paper_Space0
  1

  0
ENDBLK
  5
25
330
23
100
AcDbEntity
  8
0
100
AcDbBlockEnd
  0
ENDSEC
  0
SECTION
  2
ENTITIES
  0
LINE
  5
7F
330
1F
100
AcDbEntity
  8
0
  6
Continuous
 62
     7
370
    25
100
AcDbLine
 10
6297.0187553808
 20
5238.5914265071
 30
0.0
 11
6296.5240182027
 21
5275.6934254323
 31
0.0
  0
LINE
  5
80
330
1F
100
AcDbEntity
  8
0
  6
Continuous
 62
     7
370
    25
100
AcDbLine
 10
6251.1200049564
 20
5246.1844696556
 30
0.0
 11
6251.0187552914
 21
5238.5914265071
 31
0.0
  0
ARC
  5
81
330
1F
100
AcDbEntity
  8
0
  6
Continuous
 62
     7
370
    25
100
AcDbCircle
 10
6296.1240535833
 20
5275.6880929302
 30
0.0
 40
0.4000000000005457
100
AcDbArc
 50
0.7639663642
 51
90.0
  0
LINE
  5
82
330
1F
100
AcDbEntity
  8
0
  6
Continuous
 62
     7
370
    25
100
AcDbLine
 10
6251.0187552914
 20
5238.2914288793
 30
0.0
 11
6251.0187552914
 21
5233.2914261971
 31
0.0
  0
LINE
  5
83
330
1F
100
AcDbEntity
  8
0
  6
Continuous
 62
     7
370
    25
100
AcDbLine
 10
6297.0187553808
 20
5233.2914261971
 30
0.0
 11
6297.0187553808
 21
5238.2914288793
 31
0.0
  0
LINE
  5
84
330
1F
100
AcDbEntity
  8
0
  6
Continuous
 62
     7
370
    25
100
AcDbLine
 10
6251.0187552914
 20
5232.9914285694
 30
0.0
 11
6251.0187552914
 21
5218.4914289866
 31
0.0
  0
LINE
  5
85
330
1F
100
AcDbEntity
  8
0
  6
Continuous
 62
     7
370
    25
100
AcDbLine
 10
6297.0187553808
 20
5218.4914289866
 30
0.0
 11
6297.0187553808
 21
5232.9914285694
 31
0.0
  0
LINE
  5
86
330
1F
100
AcDbEntity
  8
0
  6
Continuous
 62
     7
370
    25
100
AcDbLine
 10
6253.0187556192
 20
5233.2914261971
 30
0.0
 11
6253.0187556192
 21
5232.9914285694
 31
0.0
  0
LINE
  5
87
330
1F
100
AcDbEntity
  8
0
  6
Continuous
 62
     7
370
    25
100
AcDbLine
 10
6295.018755053
 20
5232.9914285694
 30
0.0
 11
6295.018755053
 21
5233.2914261971
 31
0.0
  0
LINE
  5
88
330
1F
100
AcDbEntity
  8
0
  6
Continuous
 62
     7
370
    25
100
AcDbLine
 10
6253.0187556192
 20
5238.5914265071
 30
0.0
 11
6253.0187556192
 21
5238.2914288793
 31
0.0
  0
LINE
  5
89
330
1F
100
AcDbEntity
  8
0
  6
Continuous
 62
     7
370
    25
100
AcDbLine
 10
6295.018755053
 20
5238.2914288793
 30
0.0
 11
6295.018755053
 21
5238.5914265071
 31
0.0
  0
LINE
  5
8A
330
1F
100
AcDbEntity
  8
0
  6
Continuous
 62
     7
370
    25
100
AcDbLine
 10
6260.018754904
 20
5287.2430025493
 30
0.0
 11
6260.018754904
 21
5276.3500600015
 31
0.0
  0
LINE
  5
8B
330
1F
100
AcDbEntity
  8
0
  6
Continuous
 62
     7
370
    25
100
AcDbLine
 10
6288.0187557682
 20
5276.3500600015
 30
0.0
 11
6288.0187557682
 21
5287.2430025493
 31
0.0
  0
LINE
  5
8C
330
1F
100
AcDbEntity
  8
0
  6
Continuous
 62
     7
370
    25
100
AcDbLine
 10
6262.1187550619
 20
5276.3500600015
 30
0.0
 11
6262.1187550619
 21
5268.9230381404
 31
0.0
  0
LINE
  5
8D
330
1F
100
AcDbEntity
  8
0
  6
Continuous
 62
     7
370
    25
100
AcDbLine
 10
6285.9187556103
 20
5268.9230381404
 30
0.0
 11
6285.9187556103
 21
5276.3500600015
 31
0.0
  0
SPLINE
  5
8E
330
1F
100
AcDbEntity
  8
0
  6
Continuous
 62
     7
370
    25
100
AcDbSpline
210
0.0
220
0.0
230
1.0
 70
     8
 71
     3
 72
    19
 73
    15
 74
     0
 42
0.000000001
 43
0.00000001
 40
0.0
 40
0.0
 40
0.0
 40
0.0
 40
0.0472776198535974
 40
0.1419148884433368
 40
0.2253782693079411
 40
0.3123783622908255
 40
0.3943708128654004
 40
0.4742204205127019
 40
0.5533198920759665
 40
0.6325470563707115
 40
0.7125711633233753
 40
0.7945769559433379
 40
0.8807026529166537
 40
1.0
 40
1.0
 40
1.0
 40
1.0
 10
6281.598137845093
 20
5295.554557338794
 30
0.0
 10
6281.396150974267
 20
5295.598587806201
 30
0.0
 10
6280.789839905114
 20
5295.730755603342
 30
0.0
 10
6279.786373124459
 20
5295.884254040585
 30
0.0
 10
6278.505929249452
 20
5296.025585233709
 30
0.0
 10
6277.19333539646
 20
5296.122836673522
 30
0.0
 10
6275.827404958992
 20
5296.1843355466
 30
0.0
 10
6274.464238672685
 20
5296.211103341515
 30
0.0
 10
6273.106808262207
 20
5296.205566250305
 30
0.0
 10
6271.768741179099
 20
5296.168059131621
 30
0.0
 10
6270.463511014238
 20
5296.098461377565
 30
0.0
 10
6269.196961750458
 20
5295.992148455757
 30
0.0
 10
6267.834099916317
 20
5295.834991866266
 30
0.0
 10
6266.951774407629
 20
5295.657584731193
 30
0.0
 10
6266.439372827107
 20
5295.554557338794
 30
0.0
  0
SPLINE
  5
8F
330
1F
100
AcDbEntity
  8
0
  6
Continuous
 62
     7
370
    25
100
AcDbSpline
210
0.0
220
0.0
230
1.0
 70
     8
 71
     3
 72
    18
 73
    14
 74
     0
 42
0.000000001
 43
0.00000001
 40
0.0
 40
0.0
 40
0.0
 40
0.0
 40
0.0386116526960585
 40
0.1376387779757968
 40
0.2383051651245925
 40
0.3379373953745347
 40
0.4380369671147558
 40
0.5409666620750386
 40
0.6495366748620863
 40
0.759221932549764
 40
0.8714564404077279
 40
0.9850041569567859
 40
1.0
 40
1.0
 40
1.0
 40
1.0
 10
6266.457154103363
 20
5295.539566770633
 30
0.0
 10
6266.309886665458
 20
5295.510411760827
 30
0.0
 10
6265.78492311758
 20
5295.406483033583
 30
0.0
 10
6264.922914848675
 20
5295.062519137557
 30
0.0
 10
6263.904154217588
 20
5294.517248010928
 30
0.0
 10
6262.978700018729
 20
5293.825725317289
 30
0.0
 10
6262.15655829558
 20
5293.016082913265
 30
0.0
 10
6261.437341325446
 20
5292.081022161586
 30
0.0
 10
6260.841075225349
 20
5291.028448673976
 30
0.0
 10
6260.390016432193
 20
5289.877334109788
 30
0.0
 10
6260.103989161058
 20
5288.663250777168
 30
0.0
 10
6260.021973922202
 20
5287.773708653237
 30
0.0
 10
6260.019091201118
 20
5287.298446457275
 30
0.0
 10
6260.018754903967
 20
5287.243002549251
 30
0.0
  0
SPLINE
  5
90
330
1F
100
AcDbEntity
  8
0
  6
Continuous
 62
     7
370
    25
100
AcDbSpline
210
0.0
220
0.0
230
1.0
 70
     8
 71
     3
 72
    17
 73
    13
 74
     0
 42
0.000000001
 43
0.00000001
 40
0.0
 40
0.0
 40
0.0
 40
0.0
 40
0.1132822401424493
 40
0.2357120040123426
 40
0.3461652471088923
 40
0.4550945547215978
 40
0.5623044997025634
 40
0.6669482544635041
 40
0.7702106590594404
 40
0.8728318491280203
 40
0.9752447732800392
 40
1.0
 40
1.0
 40
1.0
 40
1.0
 10
6288.018755768234
 20
5287.243002549251
 30
0.0
 10
6288.001446279267
 20
5287.662143109891
 30
0.0
 10
6287.965429562722
 20
5288.534269767935
 30
0.0
 10
6287.674620714463
 20
5289.791464671262
 30
0.0
 10
6287.217982415342
 20
5290.984786262016
 30
0.0
 10
6286.61646821629
 20
5292.058297585293
 30
0.0
 10
6285.878029789666
 20
5293.023094909032
 30
0.0
 10
6285.018011067358
 20
5293.86323556259
 30
0.0
 10
6284.053627020279
 20
5294.570301736031
 30
0.0
 10
6282.994857412878
 20
5295.114782355677
 30
0.0
 10
6282.159076407363
 20
5295.43995421928
 30
0.0
 10
6281.671839378875
 20
5295.526216638774
 30
0.0
 10
6281.576991234714
 20
5295.543008938869
 30
0.0
  0
LINE
  5
91
330
1F
100
AcDbEntity
  8
0
  6
Continuous
 62
     7
370
    25
100
AcDbLine
 10
6260.018754904
 20
5276.3500600015
 30
0.0
 11
6260.018754904
 21
5265.220218793
 31
0.0
  0
LINE
  5
92
330
1F
100
AcDbEntity
  8
0
  6
Continuous
 62
     7
370
    25
100
AcDbLine
 10
6288.0187557682
 20
5265.220218793
 30
0.0
 11
6288.0187557682
 21
5276.3500600015
 31
0.0
  0
LINE
  5
93
330
1F
100
AcDbEntity
  8
0
  6
Continuous
 62
     7
370
    25
100
AcDbLine
 10
6288.0187557682
 20
5165.1605232511
 30
0.0
 11
6288.0187557682
 21
5265.220218793
 31
0.0
  0
LINE
  5
94
330
1F
100
AcDbEntity
  8
0
  6
Continuous
 62
     7
370
    25
100
AcDbLine
 10
6260.018754904
 20
5265.220218793
 30
0.0
 11
6260.018754904
 21
5165.1656380747
 31
0.0
  0
LINE
  5
95
330
1F
100
AcDbEntity
  8
0
  6
Continuous
 62
     7
370
    25
100
AcDbLine
 10
6250.0187551275
 20
5218.1914239083
 30
0.0
 11
6250.0187551275
 21
5180.4914264832
 31
0.0
  0
LINE
  5
96
330
1F
100
AcDbEntity
  8
0
  6
Continuous
 62
     7
370
    25
100
AcDbLine
 10
6298.0187555447
 20
5180.4914264832
 30
0.0
 11
6298.0187555447
 21
5218.1914239083
 31
0.0
  0
LINE
  5
97
330
1F
100
AcDbEntity
  8
0
  6
Continuous
 62
     7
370
    25
100
AcDbLine
 10
6250.0187551275
 20
5180.1914251302
 30
0.0
 11
6250.0187551275
 21
5155.4914261107
 31
0.0
  0
LINE
  5
98
330
1F
100
AcDbEntity
  8
0
  6
Continuous
 62
     7
370
    25
100
AcDbLine
 10
6298.0187555447
 20
5155.4914261107
 30
0.0
 11
6298.0187555447
 21
5180.1914251302
 31
0.0
  0
LINE
  5
99
330
1F
100
AcDbEntity
  8
0
  6
Continuous
 62
     7
370
    25
100
AcDbLine
 10
6250.0187551275
 20
5155.1914266203
 30
0.0
 11
6250.0187551275
 21
5131.1914264117
 31
0.0
  0
LINE
  5
9A
330
1F
100
AcDbEntity
  8
0
  6
Continuous
 62
     7
370
    25
100
AcDbLine
 10
6298.0187555447
 20
5131.1914264117
 30
0.0
 11
6298.0187555447
 21
5155.1914266203
 31
0.0
  0
LINE
  5
9B
330
1F
100
AcDbEntity
  8
0
  6
Continuous
 62
     7
370
    25
100
AcDbLine
 10
6253.0187556192
 20
5218.4914289866
 30
0.0
 11
6253.0187556192
 21
5218.1914239083
 31
0.0
  0
LINE
  5
9C
330
1F
100
AcDbEntity
  8
0
  6
Continuous
 62
     7
370
    25
100
AcDbLine
 10
6295.018755053
 20
5218.1914239083
 30
0.0
 11
6295.018755053
 21
5218.4914289866
 31
0.0
  0
LINE
  5
9D
330
1F
100
AcDbEntity
  8
0
  6
Continuous
 62
     7
370
    25
100
AcDbLine
 10
6253.0187556192
 20
5155.4914261107
 30
0.0
 11
6253.0187556192
 21
5155.1914266203
 31
0.0
  0
LINE
  5
9E
330
1F
100
AcDbEntity
  8
0
  6
Continuous
 62
     7
370
    25
100
AcDbLine
 10
6295.018755053
 20
5155.1914266203
 30
0.0
 11
6295.018755053
 21
5155.4914261107
 31
0.0
  0
LINE
  5
9F
330
1F
100
AcDbEntity
  8
0
  6
Continuous
 62
     7
370
    25
100
AcDbLine
 10
6253.0187556192
 20
5180.4914264832
 30
0.0
 11
6253.0187556192
 21
5180.1914251302
 31
0.0
  0
LINE
  5
A0
330
1F
100
AcDbEntity
  8
0
  6
Continuous
 62
     7
370
    25
100
AcDbLine
 10
6295.018755053
 20
5180.1914251302
 30
0.0
 11
6295.018755053
 21
5180.4914264832
 31
0.0
  0
LWPOLYLINE
  5
A1
330
1F
100
AcDbEntity
  8
0
  6
Continuous
 62
     7
370
    25
100
AcDbPolyline
 90
        5
 70
   128
 43
0.0
 10
6251.5171767816
 20
5275.6934254323
 10
6251.5065094128
 20
5274.8935012971
 10
6251.4638343498
 20
5271.6937749539
 10
6251.2931396857
 20
5258.8949142848
 10
6251.1236240759
 20
5246.1844696556
  0
LINE
  5
A2
330
1F
100
AcDbEntity
  8
0
  6
Continuous
 62
     7
370
    25
100
AcDbLine
 10
6251.0187552914
 20
5238.5914265071
 30
0.0
 11
6260.018754904
 21
5238.5914265071
 31
0.0
  0
LINE
  5
A3
330
1F
100
AcDbEntity
  8
0
  6
Continuous
 62
     7
370
    25
100
AcDbLine
 10
6288.0187557682
 20
5238.5914265071
 30
0.0
 11
6297.0187553808
 21
5238.5914265071
 31
0.0
  0
LINE
  5
A4
330
1F
100
AcDbEntity
  8
0
  6
Continuous
 62
     7
370
    25
100
AcDbLine
 10
6251.9170755193
 20
5276.0880975877
 30
0.0
 11
6260.018754904
 21
5276.0880975877
 31
0.0
  0
LINE
  5
A5
330
1F
100
AcDbEntity
  8
0
  6
Continuous
 62
     7
370
    25
100
AcDbLine
 10
6288.0187557682
 20
5276.0880975877
 30
0.0
 11
6296.1240542725
 21
5276.0880975877
 31
0.0
  0
ARC
  5
A6
330
1F
100
AcDbEntity
  8
0
  6
Continuous
 62
     7
370
    25
100
AcDbCircle
 10
6251.917122839
 20
5275.6881162962
 30
0.0
 40
0.3999812942245387
100
AcDbArc
 50
90.0067783646
 51
179.239464381
  0
LINE
  5
A7
330
1F
100
AcDbEntity
  8
0
  6
Continuous
 62
     7
370
    25
100
AcDbLine
 10
6251.0187552914
 20
5233.2914261971
 30
0.0
 11
6260.018754904
 21
5233.2914261971
 31
0.0
  0
LINE
  5
A8
330
1F
100
AcDbEntity
  8
0
  6
Continuous
 62
     7
370
    25
100
AcDbLine
 10
6288.0187557682
 20
5233.2914261971
 30
0.0
 11
6297.0187553808
 21
5233.2914261971
 31
0.0
  0
LINE
  5
A9
330
1F
100
AcDbEntity
  8
0
  6
Continuous
 62
     7
370
    25
100
AcDbLine
 10
6251.0187552914
 20
5238.2914288793
 30
0.0
 11
6260.018754904
 21
5238.2914288793
 31
0.0
  0
LINE
  5
AA
330
1F
100
AcDbEntity
  8
0
  6
Continuous
 62
     7
370
    25
100
AcDbLine
 10
6288.0187557682
 20
5238.2914288793
 30
0.0
 11
6297.0187553808
 21
5238.2914288793
 31
0.0
  0
LINE
  5
AB
330
1F
100
AcDbEntity
  8
0
  6
Continuous
 62
     7
370
    25
100
AcDbLine
 10
6251.0187552914
 20
5218.4914289866
 30
0.0
 11
6260.018754904
 21
5218.4914289866
 31
0.0
  0
LINE
  5
AC
330
1F
100
AcDbEntity
  8
0
  6
Continuous
 62
     7
370
    25
100
AcDbLine
 10
6288.0187557682
 20
5218.4914289866
 30
0.0
 11
6297.0187553808
 21
5218.4914289866
 31
0.0
  0
LINE
  5
AD
330
1F
100
AcDbEntity
  8
0
  6
Continuous
 62
     7
370
    25
100
AcDbLine
 10
6251.0187552914
 20
5232.9914285694
 30
0.0
 11
6260.018754904
 21
5232.9914285694
 31
0.0
  0
LINE
  5
AE
330
1F
100
AcDbEntity
  8
0
  6
Continuous
 62
     7
370
    25
100
AcDbLine
 10
6288.0187557682
 20
5232.9914285694
 30
0.0
 11
6297.0187553808
 21
5232.9914285694
 31
0.0
  0
SPLINE
  5
AF
330
1F
100
AcDbEntity
  8
0
  6
Continuous
 62
     7
370
    25
100
AcDbSpline
210
0.0
220
0.0
230
1.0
 70
    24
 71
     3
 72
    11
 73
     7
 74
     0
 42
0.000000001
 43
0.00000001
 40
0.0
 40
0.0
 40
0.0
 40
0.0
 40
0.2446415839588397
 40
0.4963777964396443
 40
0.7444832608227845
 40
1.0
 40
1.0
 40
1.0
 40
1.0
 10
6266.495270808035
 20
5152.462083369931
 30
0.0
 10
6267.691178127968
 20
5152.462083369931
 30
0.0
 10
6270.117674190526
 20
5152.462083369931
 30
0.0
 10
6273.920959830253
 20
5152.462083369931
 30
0.0
 10
6277.781206537497
 20
5152.462083369931
 30
0.0
 10
6280.24516268299
 20
5152.462083369931
 30
0.0
 10
6281.495270472759
 20
5152.462083369931
 30
0.0
  0
LINE
  5
B0
330
1F
100
AcDbEntity
  8
0
  6
Continuous
 62
     7
370
    25
100
AcDbLine
 10
6281.4952704728
 20
5152.4620833699
 30
0.0
 11
6281.495019947
 21
5152.421475843
 31
0.0
  0
SPLINE
  5
B1
330
1F
100
AcDbEntity
  8
0
  6
Continuous
 62
     7
370
    25
100
AcDbSpline
210
0.0
220
0.0
230
1.0
 70
     8
 71
     3
 72
    13
 73
     9
 74
     0
 42
0.000000001
 43
0.00000001
 40
0.0
 40
0.0
 40
0.0
 40
0.0
 40
0.0000039561021314
 40
0.2304948907719722
 40
0.4609857217046549
 40
0.7304915672221483
 40
0.9999960438978684
 40
1.0
 40
1.0
 40
1.0
 40
1.0
 10
6266.495521333808
 20
5152.421475843033
 30
0.0
 10
6266.495540425918
 20
5152.421475843032
 30
0.0
 10
6267.607906488351
 20
5152.421475837249
 30
0.0
 10
6269.894411609756
 20
5152.42349514912
 30
0.0
 10
6273.594989405065
 20
5152.423565023219
 30
0.0
 10
6277.510124019613
 20
5152.423765208832
 30
0.0
 10
6280.194355821015
 20
5152.421475837484
 30
0.0
 10
6281.495000854877
 20
5152.421475843032
 30
0.0
 10
6281.495019946987
 20
5152.421475843033
 30
0.0
  0
LINE
  5
B2
330
1F
100
AcDbEntity
  8
0
  6
Continuous
 62
     7
370
    25
100
AcDbLine
 10
6266.495270808
 20
5152.4620833699
 30
0.0
 11
6266.4955213338
 21
5152.421475843
 31
0.0
  0
LWPOLYLINE
  5
B3
330
1F
100
AcDbEntity
  8
0
  6
Continuous
 62
     7
370
    25
100
AcDbPolyline
 90
        9
 70
   128
 43
0.0
 10
6281.495019947
 20
5152.421475843
 10
6281.5125413842
 20
5152.4147759084
 10
6281.5293359242
 20
5152.3970714663
 10
6281.5447725959
 20
5152.3690237556
 10
6281.5582730479
 20
5152.3316870336
 10
6281.5693292439
 20
5152.286463872
 10
6281.5775276765
 20
5152.235049278
 10
6281.5825596124
 20
5152.1793729518
 10
6281.5842364587
 20
5152.1215266441
  0
SPLINE
  5
B4
330
1F
100
AcDbEntity
  8
0
  6
Continuous
 62
     7
370
    25
100
AcDbSpline
210
0.0
220
0.0
230
1.0
 70
     8
 71
     3
 72
    11
 73
     7
 74
     0
 42
0.000000001
 43
0.00000001
 40
0.0
 40
0.0
 40
0.0
 40
0.0
 40
0.2695041162462448
 40
0.5390082451176356
 40
0.7671674006741325
 40
1.0
 40
1.0
 40
1.0
 40
1.0
 10
6281.584236458683
 20
5152.121526644071
 30
0.0
 10
6280.243684923904
 20
5152.122177930458
 30
0.0
 10
6277.562581791546
 20
5152.123480503263
 30
0.0
 10
6273.602407111905
 20
5152.1237653176
 30
0.0
 10
6269.849574945761
 20
5152.123252277752
 30
0.0
 10
6267.561792559329
 20
5152.122105729791
 30
0.0
 10
6266.406304822111
 20
5152.121526644071
 30
0.0
  0
LWPOLYLINE
  5
B5
330
1F
100
AcDbEntity
  8
0
  6
Continuous
 62
     7
370
    25
100
AcDbPolyline
 90
        9
 70
   128
 43
0.0
 10
6266.4063048221
 20
5152.1215266441
 10
6266.4079816684
 20
5152.1793729518
 10
6266.4130136043
 20
5152.235049278
 10
6266.4212115712
 20
5152.286463872
 10
6266.4322682328
 20
5152.3316870336
 10
6266.4457686849
 20
5152.3690237556
 10
6266.4612053566
 20
5152.3970714663
 10
6266.4779998966
 20
5152.4147759084
 10
6266.4955213338
 20
5152.421475843
  0
SPLINE
  5
B6
330
1F
100
AcDbEntity
  8
0
  6
Continuous
 62
     7
370
    25
100
AcDbSpline
210
0.0
220
0.0
230
1.0
 70
     8
 71
     3
 72
    13
 73
     9
 74
     0
 42
0.000000001
 43
0.00000001
 40
0.0
 40
0.0
 40
0.0
 40
0.0
 40
0.0000039561021314
 40
0.269508432802315
 40
0.5390142783129185
 40
0.7695051092551447
 40
0.9999960438978687
 40
1.0
 40
1.0
 40
1.0
 40
1.0
 10
6281.495019946987
 20
5141.902692139586
 30
0.0
 10
6281.495000854877
 20
5141.902692139586
 30
0.0
 10
6280.19435582087
 20
5141.90269214517
 30
0.0
 10
6277.510124020032
 20
5141.900401201498
 30
0.0
 10
6273.594989404787
 20
5141.900602802669
 30
0.0
 10
6269.894411610193
 20
5141.900674447787
 30
0.0
 10
6267.607906488238
 20
5141.902692145401
 30
0.0
 10
6266.495540425918
 20
5141.902692139586
 30
0.0
 10
6266.495521333808
 20
5141.902692139586
 30
0.0
  0
LWPOLYLINE
  5
B7
330
1F
100
AcDbEntity
  8
0
  6
Continuous
 62
     7
370
    25
100
AcDbPolyline
 90
        9
 70
   128
 43
0.0
 10
6266.4063048221
 20
5142.2026413385
 10
6266.4079816684
 20
5142.1447950308
 10
6266.4130136043
 20
5142.089119636
 10
6266.4212115712
 20
5142.0377050419
 10
6266.4322682328
 20
5141.992480949
 10
6266.4457686849
 20
5141.955144227
 10
6266.4612053566
 20
5141.9270974477
 10
6266.4779998966
 20
5141.9093920742
 10
6266.4955213338
 20
5141.9026921396
  0
SPLINE
  5
B8
330
1F
100
AcDbEntity
  8
0
  6
Continuous
 62
     7
370
    25
100
AcDbSpline
210
0.0
220
0.0
230
1.0
 70
     8
 71
     3
 72
    11
 73
     7
 74
     0
 42
0.000000001
 43
0.00000001
 40
0.0
 40
0.0
 40
0.0
 40
0.0
 40
0.2281591554987436
 40
0.4609917589800558
 40
0.7304958857903795
 40
0.9999999999999999
 40
0.9999999999999999
 40
0.9999999999999999
 40
0.9999999999999999
 10
6266.406304822111
 20
5142.202641338547
 30
0.0
 10
6267.538277847418
 20
5142.202071531915
 30
0.0
 10
6269.825410419036
 20
5142.200920247142
 30
0.0
 10
6273.578348657649
 20
5142.200400100741
 30
0.0
 10
6277.562564237069
 20
5142.20068628535
 30
0.0
 10
6280.243679072371
 20
5142.201989654159
 30
0.0
 10
6281.584236458683
 20
5142.202641338547
 30
0.0
  0
LWPOLYLINE
  5
B9
330
1F
100
AcDbEntity
  8
0
  6
Continuous
 62
     7
370
    25
100
AcDbPolyline
 90
        9
 70
   128
 43
0.0
 10
6281.495019947
 20
5141.9026921396
 10
6281.5125413842
 20
5141.9093920742
 10
6281.5293359242
 20
5141.9270974477
 10
6281.5447725959
 20
5141.955144227
 10
6281.5582730479
 20
5141.992480949
 10
6281.5693292439
 20
5142.0377050419
 10
6281.5775276765
 20
5142.089119636
 10
6281.5825596124
 20
5142.1447950308
 10
6281.5842364587
 20
5142.2026413385
  0
SPLINE
  5
BA
330
1F
100
AcDbEntity
  8
0
  6
Continuous
 62
     7
370
    25
100
AcDbSpline
210
0.0
220
0.0
230
1.0
 70
     8
 71
     3
 72
    17
 73
    13
 74
     0
 42
0.000000001
 43
0.00000001
 40
0.0
 40
0.0
 40
0.0
 40
0.0
 40
0.0416287699602364
 40
0.158211540555361
 40
0.2646303485542822
 40
0.3592629486693618
 40
0.4480776938947214
 40
0.5429272588976753
 40
0.6520993768850268
 40
0.7693669281494777
 40
0.8844781210348693
 40
1.0
 40
1.0
 40
1.0
 40
1.0
 10
6281.584236458683
 20
5142.202641338547
 30
0.0
 10
6281.799150110841
 20
5142.211195807492
 30
0.0
 10
6282.615936675198
 20
5142.243707354472
 30
0.0
 10
6283.924976166977
 20
5142.672564820995
 30
0.0
 10
6285.236175116487
 20
5143.648143852512
 30
0.0
 10
6286.121914708379
 20
5144.891839978927
 30
0.0
 10
6286.603655978813
 20
5146.325412010077
 30
0.0
 10
6286.630750623662
 20
5147.952511909673
 30
0.0
 10
6286.064141146786
 20
5149.623235254879
 30
0.0
 10
6284.917315019803
 20
5150.997775584849
 30
0.0
 10
6283.370320627613
 20
5151.934861191591
 30
0.0
 10
6282.180304198574
 20
5152.059231005202
 30
0.0
 10
6281.584236458683
 20
5152.121526644071
 30
0.0
  0
SPLINE
  5
BB
330
1F
100
AcDbEntity
  8
0
  6
Continuous
 62
     7
370
    25
100
AcDbSpline
210
0.0
220
0.0
230
1.0
 70
     8
 71
     3
 72
    17
 73
    13
 74
     0
 42
0.000000001
 43
0.00000001
 40
0.0
 40
0.0
 40
0.0
 40
0.0
 40
0.0417269349537412
 40
0.1582370487592821
 40
0.264637817034785
 40
0.3592513665289576
 40
0.448116382266274
 40
0.5430172224055368
 40
0.6521428147996493
 40
0.7693567443771047
 40
0.8844754655620295
 40
1.0
 40
1.0
 40
1.0
 40
1.0
 10
6266.406304822111
 20
5152.121526644071
 30
0.0
 10
6266.190886706658
 20
5152.112928106028
 30
0.0
 10
6265.373977272102
 20
5152.080320695848
 30
0.0
 10
6264.064969541758
 20
5151.651363315411
 30
0.0
 10
6262.754405920479
 20
5150.675867272607
 30
0.0
 10
6261.868459565854
 20
5149.43228763263
 30
0.0
 10
6261.38677263134
 20
5147.998161729294
 30
0.0
 10
6261.359930717401
 20
5146.370724103676
 30
0.0
 10
6261.926891176871
 20
5144.70049536832
 30
0.0
 10
6263.073387903213
 20
5143.326389840104
 30
0.0
 10
6264.62016256731
 20
5142.38934013312
 30
0.0
 10
6265.810226104361
 20
5142.264947225873
 30
0.0
 10
6266.406304822111
 20
5142.202641338547
 30
0.0
  0
SPLINE
  5
BC
330
1F
100
AcDbEntity
  8
0
  6
Continuous
 62
     7
370
    25
100
AcDbSpline
210
0.0
220
0.0
230
1.0
 70
     8
 71
     3
 72
    19
 73
    15
 74
     0
 42
0.000000001
 43
0.00000001
 40
0.0
 40
0.0
 40
0.0
 40
0.0
 40
0.000003518527426
 40
0.1147826441922733
 40
0.2293069437139992
 40
0.3466111963579033
 40
0.4566142284558373
 40
0.5524843692151582
 40
0.6419734820155829
 40
0.7367711805168989
 40
0.84278665995923
 40
0.9586189478572927
 40
0.9999964814725739
 40
1.0
 40
1.0
 40
1.0
 40
1.0
 10
6281.495019946987
 20
5152.421475843033
 30
0.0
 10
6281.495039194322
 20
5152.421475843068
 30
0.0
 10
6282.122932550408
 20
5152.421477016847
 30
0.0
 10
6283.366487617789
 20
5152.19198876173
 30
0.0
 10
6284.992072957653
 20
5151.233505481873
 30
0.0
 10
6286.191493904653
 20
5149.761888975132
 30
0.0
 10
6286.781070751355
 20
5147.997106981832
 30
0.0
 10
6286.752866571739
 20
5146.278002068554
 30
0.0
 10
6286.250660029495
 20
5144.759972711585
 30
0.0
 10
6285.324345830685
 20
5143.441290394391
 30
0.0
 10
6283.950757638244
 20
5142.398805735284
 30
0.0
 10
6282.574419478957
 20
5141.958911688557
 30
0.0
 10
6281.72140522365
 20
5141.902691720125
 30
0.0
 10
6281.495039194325
 20
5141.90269213955
 30
0.0
 10
6281.495019946987
 20
5141.902692139586
 30
0.0
  0
SPLINE
  5
BD
330
1F
100
AcDbEntity
  8
0
  6
Continuous
 62
     7
370
    25
100
AcDbSpline
210
0.0
220
0.0
230
1.0
 70
     8
 71
     3
 72
    19
 73
    15
 74
     0
 42
0.000000001
 43
0.00000001
 40
0.0
 40
0.0
 40
0.0
 40
0.0
 40
0.0000035185359954
 40
0.1147808597688546
 40
0.2293153670594594
 40
0.3465684801891838
 40
0.4565215029156116
 40
0.5524405900484801
 40
0.6419810821029945
 40
0.7367599873625651
 40
0.8427607549782249
 40
0.9585216752428106
 40
0.9999964814640045
 40
1.0
 40
1.0
 40
1.0
 40
1.0
 10
6266.495521333808
 20
5141.902692139586
 30
0.0
 10
6266.495502086473
 20
5141.90269213955
 30
0.0
 10
6265.867620020817
 20
5141.902690965665
 30
0.0
 10
6264.62403974876
 20
5142.132204262407
 30
0.0
 10
6262.998658465297
 20
5143.090630270588
 30
0.0
 10
6261.799567800968
 20
5144.561790251591
 30
0.0
 10
6261.209626436935
 20
5146.326039617042
 30
0.0
 10
6261.237544932181
 20
5148.045468632054
 30
0.0
 10
6261.739674531896
 20
5149.564076981927
 30
0.0
 10
6262.666193986788
 20
5150.882679385613
 30
0.0
 10
6264.039142034075
 20
5151.925099370729
 30
0.0
 10
6265.415464728406
 20
5152.365085879826
 30
0.0
 10
6266.268604501114
 20
5152.421476263738
 30
0.0
 10
6266.49550208647
 20
5152.421475843068
 30
0.0
 10
6266.495521333808
 20
5152.421475843033
 30
0.0
  0
ARC
  5
BE
330
1F
100
AcDbEntity
  8
0
  6
Continuous
 62
     7
370
    25
100
AcDbCircle
 10
6274.0160909172
 20
5334.0528291268
 30
0.0
 40
65.35733298350196
100
AcDbArc
 50
268.7190514834
 51
272.0692530007
  0
ARC
  5
BF
330
1F
100
AcDbEntity
  8
0
  6
Continuous
 62
     7
370
    25
100
AcDbCircle
 10
6274.7189831068
 20
5316.4941914796
 30
0.0
 40
48.77400881480659
100
AcDbArc
 50
272.2034928315
 51
275.3917774462
  0
LINE
  5
C0
330
1F
100
AcDbEntity
  8
0
  6
Continuous
 62
     7
370
    25
100
AcDbLine
 10
6279.3020542383
 20
5268.9262567912
 30
0.0
 11
6279.3020542383
 21
5267.9359852229
 31
0.0
  0
ARC
  5
C1
330
1F
100
AcDbEntity
  8
0
  6
Continuous
 62
     7
370
    25
100
AcDbCircle
 10
6277.1765816751
 20
5292.6300352676
 30
0.0
 40
23.79888122737786
100
AcDbArc
 50
275.1238998091
 51
280.8194962385
  0
ARC
  5
C2
330
1F
100
AcDbEntity
  8
0
  6
Continuous
 62
     7
370
    25
100
AcDbCircle
 10
6281.5523982661
 20
5271.2921690573
 30
0.0
 40
2.975358217547352
100
AcDbArc
 50
281.0370409864
 51
301.8722754535
  0
LINE
  5
C3
330
1F
100
AcDbEntity
  8
0
  6
Continuous
 62
     7
370
    25
100
AcDbLine
 10
6283.1234691337
 20
5269.4986252938
 30
0.0
 11
6283.1234691337
 21
5268.7654136573
 31
0.0
  0
LINE
  5
C4
330
1F
100
AcDbEntity
  8
0
  6
Continuous
 62
     7
370
    25
100
AcDbLine
 10
6282.902963613
 20
5269.5618956242
 30
0.0
 11
6282.902963613
 21
5269.3511336003
 31
0.0
  0
ARC
  5
C5
330
1F
100
AcDbEntity
  8
0
  6
Continuous
 62
     7
370
    25
100
AcDbCircle
 10
6280.6284620337
 20
5263.9576872975
 30
0.0
 40
5.853428094310944
100
AcDbArc
 50
67.1340780769
 51
80.3321381415
  0
LINE
  5
C6
330
1F
100
AcDbEntity
  8
0
  6
Continuous
 62
     7
370
    25
100
AcDbLine
 10
6281.6114660025
 20
5269.8287456189
 30
0.0
 11
6281.6114660025
 21
5269.7279839669
 31
0.0
  0
LINE
  5
C7
330
1F
100
AcDbEntity
  8
0
  6
Continuous
 62
     7
370
    25
100
AcDbLine
 10
6278.4796675339
 20
5270.1686262046
 30
0.0
 11
6278.4796675339
 21
5270.1204507504
 31
0.0
  0
ARC
  5
C8
330
1F
100
AcDbEntity
  8
0
  6
Continuous
 62
     7
370
    25
100
AcDbCircle
 10
6274.3376028446
 20
5214.8351842039
 30
0.0
 40
55.44021461910874
100
AcDbArc
 50
85.7153093729
 51
88.6417353612
  0
LINE
  5
C9
330
1F
100
AcDbEntity
  8
0
  6
Continuous
 62
     7
370
    25
100
AcDbLine
 10
6275.6517560126
 20
5270.2960907374
 30
0.0
 11
6275.6517560126
 21
5270.2598213111
 31
0.0
  0
LINE
  5
CA
330
1F
100
AcDbEntity
  8
0
  6
Continuous
 62
     7
370
    25
100
AcDbLine
 10
6271.4432290893
 20
5270.2678232346
 30
0.0
 11
6271.4432290893
 21
5270.229124919
 31
0.0
  0
ARC
  5
CB
330
1F
100
AcDbEntity
  8
0
  6
Continuous
 62
     7
370
    25
100
AcDbCircle
 10
6273.317350873
 20
5221.5089078738
 30
0.0
 40
48.75624966500081
100
AcDbArc
 50
92.2029120255
 51
95.3923582522
  0
LINE
  5
CC
330
1F
100
AcDbEntity
  8
0
  6
Continuous
 62
     7
370
    25
100
AcDbLine
 10
6268.7354564339
 20
5270.1046853219
 30
0.0
 11
6268.7354564339
 21
5270.0493871127
 31
0.0
  0
LINE
  5
CD
330
1F
100
AcDbEntity
  8
0
  6
Continuous
 62
     7
370
    25
100
AcDbLine
 10
6265.9154992223
 20
5269.7385637914
 30
0.0
 11
6265.9154992223
 21
5269.6135281478
 31
0.0
  0
ARC
  5
CE
330
1F
100
AcDbEntity
  8
0
  6
Continuous
 62
     7
370
    25
100
AcDbCircle
 10
6266.4850087451
 20
5266.6934670489
 30
0.0
 40
2.975079480921224
100
AcDbArc
 50
101.0360540535
 51
121.8732623864
  0
LINE
  5
CF
330
1F
100
AcDbEntity
  8
0
  6
Continuous
 62
     7
370
    25
100
AcDbLine
 10
6264.9140415385
 20
5269.4986252938
 30
0.0
 11
6264.9140415385
 21
5269.2199586783
 31
0.0
  0
LINE
  5
D0
330
1F
100
AcDbEntity
  8
0
  6
Continuous
 62
     7
370
    25
100
AcDbLine
 10
6265.1345470592
 20
5269.2090957318
 30
0.0
 11
6265.1345470592
 21
5268.6342387353
 31
0.0
  0
ARC
  5
D1
330
1F
100
AcDbEntity
  8
0
  6
Continuous
 62
     7
370
    25
100
AcDbCircle
 10
6267.4086269315
 20
5274.0264679297
 30
0.0
 40
5.852142765700525
100
AcDbArc
 50
247.1332520352
 51
260.334182593
  0
ARC
  5
D2
330
1F
100
AcDbEntity
  8
0
  6
Continuous
 62
     7
370
    25
100
AcDbCircle
 10
6271.593596956
 20
5298.2480263557
 30
0.0
 40
29.46323236315865
100
AcDbArc
 50
260.8015109188
 51
266.0380073509
  0
LINE
  5
D3
330
1F
100
AcDbEntity
  8
0
  6
Continuous
 62
     7
370
    25
100
AcDbLine
 10
6269.5578431383
 20
5268.8552080546
 30
0.0
 11
6269.5578431383
 21
5267.8649364863
 31
0.0
  0
ARC
  5
D4
330
1F
100
AcDbEntity
  8
0
  6
Continuous
 62
     7
370
    25
100
AcDbCircle
 10
6273.6988079633
 20
5323.1219632845
 30
0.0
 40
55.41197163302612
100
AcDbArc
 50
265.7142618666
 51
268.6421805114
  0
LINE
  5
D5
330
1F
100
AcDbEntity
  8
0
  6
Continuous
 62
     7
370
    25
100
AcDbLine
 10
6266.5723805919
 20
5269.4886713181
 30
0.0
 11
6266.3181961186
 21
5269.5709555302
 31
0.0
  0
ARC
  5
D6
330
1F
100
AcDbEntity
  8
0
  6
Continuous
 62
     7
370
    25
100
AcDbCircle
 10
6273.9458144274
 20
5306.3520514283
 30
0.0
 40
37.59356753057929
100
AcDbArc
 50
258.6889349829
 51
281.9335661399
  0
ARC
  5
D7
330
1F
100
AcDbEntity
  8
0
  6
Continuous
 62
     7
370
    25
100
AcDbCircle
 10
6280.1850134757
 20
5275.3708136923
 30
0.0
 40
6.160400802843248
100
AcDbArc
 50
283.6997164067
 51
287.2598421155
  0
LINE
  5
D8
330
1F
100
AcDbEntity
  8
0
  6
Continuous
 62
     7
370
    25
100
AcDbLine
 10
6279.3020542383
 20
5268.9262567912
 30
0.0
 11
6279.0837485015
 21
5268.9899592553
 31
0.0
  0
ARC
  5
D9
330
1F
100
AcDbEntity
  8
0
  6
Continuous
 62
     7
370
    25
100
AcDbCircle
 10
6274.6801321451
 20
5314.8446545613
 30
0.0
 40
46.06565877769189
100
AcDbArc
 50
272.1097421172
 51
275.4855288116
  0
ARC
  5
DA
330
1F
100
AcDbEntity
  8
0
  6
Continuous
 62
     7
370
    25
100
AcDbCircle
 10
6273.7183083302
 20
5321.1455788666
 30
0.0
 40
52.37614235007314
100
AcDbArc
 50
265.6296892872
 51
268.7273556788
  0
LINE
  5
DB
330
1F
100
AcDbEntity
  8
0
  6
Continuous
 62
     7
370
    25
100
AcDbLine
 10
6269.7271221921
 20
5268.9217268382
 30
0.0
 11
6269.5578431383
 21
5268.8552080546
 31
0.0
  0
ARC
  5
DC
330
1F
100
AcDbEntity
  8
0
  6
Continuous
 62
     7
370
    25
100
AcDbCircle
 10
6268.3628015494
 20
5277.1989132012
 30
0.0
 40
8.057777589914908
100
AcDbArc
 50
253.1318320393
 51
259.4230386262
  0
LINE
  5
DD
330
1F
100
AcDbEntity
  8
0
  6
Continuous
 62
     7
370
    25
100
AcDbLine
 10
6278.3103884801
 20
5270.0539170657
 30
0.0
 11
6278.4796675339
 21
5270.1204507504
 31
0.0
  0
ARC
  5
DE
330
1F
100
AcDbEntity
  8
0
  6
Continuous
 62
     7
370
    25
100
AcDbCircle
 10
6274.3209867751
 20
5217.8662722458
 30
0.0
 40
52.33990444974786
100
AcDbArc
 50
85.6286166801
 51
88.7284282858
  0
LINE
  5
DF
330
1F
100
AcDbEntity
  8
0
  6
Continuous
 62
     7
370
    25
100
AcDbLine
 10
6275.4824768424
 20
5270.1932876263
 30
0.0
 11
6275.6517560126
 21
5270.2598213111
 31
0.0
  0
LWPOLYLINE
  5
E0
330
1F
100
AcDbEntity
  8
0
  6
Continuous
 62
     7
370
    25
100
AcDbPolyline
 90
        3
 70
   128
 43
0.0
 10
6267.2493240468
 20
5269.5335983191
 10
6266.7915007703
 20
5269.7040228997
 10
6266.577338022
 20
5269.8527513896
  0
ARC
  5
E1
330
1F
100
AcDbEntity
  8
0
  6
Continuous
 62
     7
370
    25
100
AcDbCircle
 10
6273.8823654502
 20
5301.3187746815
 30
0.0
 40
32.469904136697
100
AcDbArc
 50
258.2124846852
 51
283.0422700361
  0
LINE
  5
E2
330
1F
100
AcDbEntity
  8
0
  6
Continuous
 62
     7
370
    25
100
AcDbLine
 10
6275.4824768424
 20
5270.2997862254
 30
0.0
 11
6275.4824768424
 21
5270.1932876263
 31
0.0
  0
LINE
  5
E3
330
1F
100
AcDbEntity
  8
0
  6
Continuous
 62
     7
370
    25
100
AcDbLine
 10
6271.4432290893
 20
5270.229124919
 30
0.0
 11
6271.6615345932
 21
5270.1654373561
 31
0.0
  0
ARC
  5
E4
330
1F
100
AcDbEntity
  8
0
  6
Continuous
 62
     7
370
    25
100
AcDbCircle
 10
6273.3589991364
 20
5224.1103928532
 30
0.0
 40
46.08631586528178
100
AcDbArc
 50
92.1108122015
 51
95.4850865704
  0
LINE
  5
E5
330
1F
100
AcDbEntity
  8
0
  6
Continuous
 62
     7
370
    25
100
AcDbLine
 10
6268.7354564339
 20
5270.0493871127
 30
0.0
 11
6268.9537621707
 21
5269.9856846486
 31
0.0
  0
LINE
  5
E6
330
1F
100
AcDbEntity
  8
0
  6
Continuous
 62
     7
370
    25
100
AcDbLine
 10
6271.6615345932
 20
5270.2755569373
 30
0.0
 11
6271.6615345932
 21
5270.1654373561
 31
0.0
  0
LINE
  5
E7
330
1F
100
AcDbEntity
  8
0
  6
Continuous
 62
     7
370
    25
100
AcDbLine
 10
6281.6114660025
 20
5269.7279839669
 30
0.0
 11
6281.1537633322
 21
5269.6976004992
 31
0.0
  0
LINE
  5
E8
330
1F
100
AcDbEntity
  8
0
  6
Continuous
 62
     7
370
    25
100
AcDbLine
 10
6282.902963613
 20
5269.3511336003
 30
0.0
 11
6282.4452614084
 21
5269.3207501326
 31
0.0
  0
ARC
  5
E9
330
1F
100
AcDbEntity
  8
0
  6
Continuous
 62
     7
370
    25
100
AcDbCircle
 10
6280.2646397187
 20
5264.2490369363
 30
0.0
 40
5.520632726326585
100
AcDbArc
 50
66.7343449384
 51
80.7318823901
  0
LINE
  5
EA
330
1F
100
AcDbEntity
  8
0
  6
Continuous
 62
     7
370
    25
100
AcDbLine
 10
6281.1537633322
 20
5269.8981701289
 30
0.0
 11
6281.1537633322
 21
5269.6976004992
 31
0.0
  0
LINE
  5
EB
330
1F
100
AcDbEntity
  8
0
  6
Continuous
 62
     7
370
    25
100
AcDbLine
 10
6266.3935089156
 20
5269.8234408055
 30
0.0
 11
6266.3935089156
 21
5269.5899694119
 31
0.0
  0
LINE
  5
EC
330
1F
100
AcDbEntity
  8
0
  6
Continuous
 62
     7
370
    25
100
AcDbLine
 10
6266.3935089156
 20
5269.5899694119
 30
0.0
 11
6265.9154992223
 21
5269.6135281478
 31
0.0
  0
ARC
  5
ED
330
1F
100
AcDbEntity
  8
0
  6
Continuous
 62
     7
370
    25
100
AcDbCircle
 10
6266.8994389774
 20
5266.83168951
 30
0.0
 40
2.804295498874002
100
AcDbArc
 50
100.3937897579
 51
122.515526682
  0
LINE
  5
EE
330
1F
100
AcDbEntity
  8
0
  6
Continuous
 62
     7
370
    25
100
AcDbLine
 10
6265.3920512319
 20
5269.1963999425
 30
0.0
 11
6264.9140415385
 21
5269.2199586783
 31
0.0
  0
LINE
  5
EF
330
1F
100
AcDbEntity
  8
0
  6
Continuous
 62
     7
370
    25
100
AcDbLine
 10
6282.6454594403
 20
5269.3340419684
 30
0.0
 11
6282.6454594403
 21
5268.7889723931
 31
0.0
  0
LINE
  5
F0
330
1F
100
AcDbEntity
  8
0
  6
Continuous
 62
     7
370
    25
100
AcDbLine
 10
6282.6454594403
 20
5268.7889723931
 30
0.0
 11
6283.1234691337
 21
5268.7654136573
 31
0.0
  0
ARC
  5
F1
330
1F
100
AcDbEntity
  8
0
  6
Continuous
 62
     7
370
    25
100
AcDbCircle
 10
6281.1379795872
 20
5271.1539171981
 30
0.0
 40
2.804542643307834
100
AcDbArc
 50
280.3947767638
 51
302.5145396761
  0
LINE
  5
F2
330
1F
100
AcDbEntity
  8
0
  6
Continuous
 62
     7
370
    25
100
AcDbLine
 10
6281.6440017566
 20
5268.3954029237
 30
0.0
 11
6282.1220114499
 21
5268.3718441878
 31
0.0
  0
LINE
  5
F3
330
1F
100
AcDbEntity
  8
0
  6
Continuous
 62
     7
370
    25
100
AcDbLine
 10
6281.6440017566
 20
5269.385674492
 30
0.0
 11
6281.6440017566
 21
5268.3954029237
 31
0.0
  0
LINE
  5
F4
330
1F
100
AcDbEntity
  8
0
  6
Continuous
 62
     7
370
    25
100
AcDbLine
 10
6265.5922492638
 20
5269.3207501326
 30
0.0
 11
6265.5922492638
 21
5268.664622203
 31
0.0
  0
LINE
  5
F5
330
1F
100
AcDbEntity
  8
0
  6
Continuous
 62
     7
370
    25
100
AcDbLine
 10
6265.1345470592
 20
5268.6342387353
 30
0.0
 11
6265.5922492638
 21
5268.664622203
 31
0.0
  0
ARC
  5
F6
330
1F
100
AcDbEntity
  8
0
  6
Continuous
 62
     7
370
    25
100
AcDbCircle
 10
6267.7730525897
 20
5273.7369578821
 30
0.0
 40
5.521276336874621
100
AcDbArc
 50
246.7351648604
 51
260.7310624681
  0
LINE
  5
F7
330
1F
100
AcDbEntity
  8
0
  6
Continuous
 62
     7
370
    25
100
AcDbLine
 10
6266.4260446697
 20
5268.2574032698
 30
0.0
 11
6266.88374734
 21
5268.2877718364
 31
0.0
  0
LINE
  5
F8
330
1F
100
AcDbEntity
  8
0
  6
Continuous
 62
     7
370
    25
100
AcDbLine
 10
6266.88374734
 20
5269.2780434047
 30
0.0
 11
6266.88374734
 21
5268.2877718364
 31
0.0
  0
LINE
  5
F9
330
1F
100
AcDbEntity
  8
0
  6
Continuous
 62
     7
370
    25
100
AcDbLine
 10
6269.7271221921
 20
5268.9217268382
 30
0.0
 11
6269.7271221921
 21
5267.9314552699
 31
0.0
  0
LINE
  5
FA
330
1F
100
AcDbEntity
  8
0
  6
Continuous
 62
     7
370
    25
100
AcDbLine
 10
6272.5550338298
 20
5268.7823562775
 30
0.0
 11
6272.5550338298
 21
5267.7920847092
 31
0.0
  0
ARC
  5
FB
330
1F
100
AcDbEntity
  8
0
  6
Continuous
 62
     7
370
    25
100
AcDbCircle
 10
6273.7183083302
 20
5320.1553072983
 30
0.0
 40
52.37614235007314
100
AcDbArc
 50
265.6296892872
 51
268.7273556788
  0
LINE
  5
FC
330
1F
100
AcDbEntity
  8
0
  6
Continuous
 62
     7
370
    25
100
AcDbLine
 10
6269.7271221921
 20
5267.9314552699
 30
0.0
 11
6269.5578431383
 21
5267.8649364863
 31
0.0
  0
LINE
  5
FD
330
1F
100
AcDbEntity
  8
0
  6
Continuous
 62
     7
370
    25
100
AcDbLine
 10
6272.5550338298
 20
5267.7920847092
 30
0.0
 11
6272.3857546596
 21
5267.7255510245
 31
0.0
  0
LINE
  5
FE
330
1F
100
AcDbEntity
  8
0
  6
Continuous
 62
     7
370
    25
100
AcDbLine
 10
6279.0837485015
 20
5268.9899592553
 30
0.0
 11
6279.0837485015
 21
5267.999687687
 31
0.0
  0
ARC
  5
FF
330
1F
100
AcDbEntity
  8
0
  6
Continuous
 62
     7
370
    25
100
AcDbCircle
 10
6274.6790787977
 20
5313.8702518025
 30
0.0
 40
46.08155561043232
100
AcDbArc
 50
272.1103245611
 51
275.4849463678
  0
LINE
  5
100
330
1F
100
AcDbEntity
  8
0
  6
Continuous
 62
     7
370
    25
100
AcDbLine
 10
6276.375976079
 20
5268.810221449
 30
0.0
 11
6276.375976079
 21
5267.8199498807
 31
0.0
  0
LINE
  5
101
330
1F
100
AcDbEntity
  8
0
  6
Continuous
 62
     7
370
    25
100
AcDbLine
 10
6279.3020542383
 20
5267.9359852229
 30
0.0
 11
6279.0837485015
 21
5267.999687687
 31
0.0
  0
LINE
  5
102
330
1F
100
AcDbEntity
  8
0
  6
Continuous
 62
     7
370
    25
100
AcDbLine
 10
6276.5942815829
 20
5267.7562474166
 30
0.0
 11
6276.375976079
 21
5267.8199498807
 31
0.0
  0
LWPOLYLINE
  5
103
330
1F
100
AcDbEntity
  8
0
  6
Continuous
 62
     7
370
    25
100
AcDbPolyline
 90
       36
 70
   128
 43
0.0
 10
6285.9187556103
 20
5275.3236531173
 10
6285.9907542959
 20
5275.3399996911
 10
6286.8205319762
 20
5275.5613713418
 10
6287.4401054949
 20
5275.7956772004
 10
6287.8393001527
 20
5276.0390876685
 10
6288.0115622327
 20
5276.2876092349
 10
6287.9540633082
 20
5276.5371440802
 10
6287.6677458778
 20
5276.7836241875
 10
6287.1573131204
 20
5277.0229666386
 10
6286.4311460078
 20
5277.2512673293
 10
6285.5011673316
 20
5277.464786068
 10
6284.3826470569
 20
5277.6599763785
 10
6283.0939527273
 20
5277.8336792146
 10
6281.6562439918
 20
5277.9830037509
 10
6280.0931275494
 20
5278.1055210982
 10
6278.4302701846
 20
5278.1992195998
 10
6276.6949761797
 20
5278.2625495349
 10
6274.9157384176
 20
5278.2944678222
 10
6273.1217722546
 20
5278.2944678222
 10
6271.3425344925
 20
5278.2625495349
 10
6269.6072404876
 20
5278.1992195998
 10
6267.9443831228
 20
5278.1055210982
 10
6266.3812666804
 20
5277.9830037509
 10
6264.9435579449
 20
5277.8336792146
 10
6263.6548636153
 20
5277.6599763785
 10
6262.5363433406
 20
5277.464786068
 10
6261.6063646644
 20
5277.2512673293
 10
6260.8801975518
 20
5277.0229666386
 10
6260.3697647944
 20
5276.7836241875
 10
6260.083447364
 20
5276.5371440802
 10
6260.0259484395
 20
5276.2876092349
 10
6260.1982105195
 20
5276.0390876685
 10
6260.5974051773
 20
5275.7956772004
 10
6261.216978696
 20
5275.5613713418
 10
6262.0467563763
 20
5275.3399996911
 10
6262.1187550619
 20
5275.3236531173
  0
SPLINE
  5
104
330
1F
100
AcDbEntity
  8
0
  6
Continuous
 62
     7
370
    25
100
AcDbSpline
210
0.0
220
0.0
230
1.0
 70
     8
 71
     3
 72
    16
 73
    12
 74
     0
 42
0.000000001
 43
0.00000001
 40
0.0
 40
0.0
 40
0.0
 40
0.0
 40
0.2499999999999974
 40
0.2499999999999974
 40
0.4999999999999949
 40
0.4999999999999949
 40
0.7499999999999923
 40
0.7499999999999923
 40
0.8749999999999961
 40
0.8749999999999961
 40
1.0
 40
1.0
 40
1.0
 40
1.0
 10
6262.018755336101
 20
5289.236862570362
 30
0.0
 10
6261.688868979065
 20
5289.160461536902
 30
0.0
 10
6261.400095534095
 20
5289.04314480933
 30
0.0
 10
6260.901047378774
 20
5288.762007450217
 30
0.0
 10
6260.690656158964
 20
5288.596622855322
 30
0.0
 10
6260.355881235163
 20
5288.241133358923
 30
0.0
 10
6260.230049547008
 20
5288.050225843505
 30
0.0
 10
6260.103330491655
 20
5287.7523931893
 30
0.0
 10
6260.071618165346
 20
5287.651473786977
 30
0.0
 10
6260.029328450841
 20
5287.448018041434
 30
0.0
 10
6260.0187553361
 20
5287.344920717254
 30
0.0
 10
6260.0187553361
 20
5287.243002998268
 30
0.0
  0
ARC
  5
105
330
1F
100
AcDbEntity
  8
0
  6
Continuous
 62
     7
370
    25
100
AcDbCircle
 10
6274.0187553361
 20
5217.7672871961
 30
0.0
 40
72.46999990449122
100
AcDbArc
 50
80.4687357864
 51
99.5312642136
  0
SPLINE
  5
106
330
1F
100
AcDbEntity
  8
0
  6
Continuous
 62
     7
370
    25
100
AcDbSpline
210
0.0
220
0.0
230
1.0
 70
     8
 71
     3
 72
    16
 73
    12
 74
     0
 42
0.000000001
 43
0.00000001
 40
0.0
 40
0.0
 40
0.0
 40
0.0
 40
0.2500000000000017
 40
0.2500000000000017
 40
0.5000000000000034
 40
0.5000000000000034
 40
0.7500000000000051
 40
0.7500000000000051
 40
0.8750000000000026
 40
0.8750000000000026
 40
1.0
 40
1.0
 40
1.0
 40
1.0
 10
6286.018755336101
 20
5289.236862570362
 30
0.0
 10
6286.348641693136
 20
5289.160461536902
 30
0.0
 10
6286.637415138105
 20
5289.04314480933
 30
0.0
 10
6287.136463293426
 20
5288.762007450217
 30
0.0
 10
6287.346854513236
 20
5288.596622855322
 30
0.0
 10
6287.681629437037
 20
5288.241133358923
 30
0.0
 10
6287.807461125192
 20
5288.050225843505
 30
0.0
 10
6287.934180180545
 20
5287.7523931893
 30
0.0
 10
6287.965892506854
 20
5287.651473786977
 30
0.0
 10
6288.00818222136
 20
5287.448018041435
 30
0.0
 10
6288.0187553361
 20
5287.344920717506
 30
0.0
 10
6288.0187553361
 20
5287.243002998268
 30
0.0
  0
LWPOLYLINE
  5
107
330
1F
100
AcDbEntity
  8
0
  6
Continuous
 62
     7
370
    25
100
AcDbPolyline
 90
       25
 70
   128
 43
0.0
 10
6285.9187556103
 20
5276.3500600015
 10
6285.8910133734
 20
5276.4630704079
 10
6285.6698559269
 20
5276.6870050584
 10
6285.2316602737
 20
5276.9046663199
 10
6284.584589456
 20
5277.1120010768
 10
6283.7406966507
 20
5277.305135027
 10
6282.7157035142
 20
5277.4804769908
 10
6281.5287016936
 20
5277.6347636138
 10
6280.201804512
 20
5277.7651040707
 10
6278.7597283393
 20
5277.8690992747
 10
6277.2293369424
 20
5277.9447971736
 10
6275.6391384544
 20
5277.990782157
 10
6274.0187553361
 20
5278.00621976
 10
6272.3983722178
 20
5277.990782157
 10
6270.8081737298
 20
5277.9447971736
 10
6269.2777823329
 20
5277.8690992747
 10
6267.8357061602
 20
5277.7651040707
 10
6266.5088089786
 20
5277.6347636138
 10
6265.321807158
 20
5277.4804769908
 10
6264.2968140215
 20
5277.305135027
 10
6263.4529212162
 20
5277.1120010768
 10
6262.8058503985
 20
5276.9046663199
 10
6262.3676547453
 20
5276.6870050584
 10
6262.1464972988
 20
5276.4630704079
 10
6262.1187550619
 20
5276.3500600015
  0
LWPOLYLINE
  5
108
330
1F
100
AcDbEntity
  8
0
  6
Continuous
 62
     7
370
    25
100
AcDbPolyline
 90
       47
 70
   128
 43
0.0
 10
6274.0187553361
 20
5267.2668783818
 10
6275.6391384544
 20
5267.2823159848
 10
6277.2293369424
 20
5267.3283009683
 10
6278.7597283393
 20
5267.4039988671
 10
6280.201804512
 20
5267.5079940711
 10
6281.5287016936
 20
5267.638334528
 10
6282.7157035142
 20
5267.7926211511
 10
6283.7406966507
 20
5267.9679631148
 10
6284.584589456
 20
5268.1610970651
 10
6285.2316602737
 20
5268.3684318219
 10
6285.6698559269
 20
5268.5860930835
 10
6285.8910133734
 20
5268.8100277339
 10
6285.8910133734
 20
5269.036063448
 10
6285.6698559269
 20
5269.2599980985
 10
6285.2316602737
 20
5269.47765936
 10
6284.584589456
 20
5269.6849792157
 10
6283.7406966507
 20
5269.8781131659
 10
6282.7157035142
 20
5270.0534551297
 10
6281.5287016936
 20
5270.2077417527
 10
6280.201804512
 20
5270.3380971108
 10
6278.7597283393
 20
5270.4420923148
 10
6277.2293369424
 20
5270.5177902137
 10
6275.6391384544
 20
5270.5637751971
 10
6274.0187553361
 20
5270.5791978989
 10
6272.3983722178
 20
5270.5637751971
 10
6270.8081737298
 20
5270.5177902137
 10
6269.2777823329
 20
5270.4420923148
 10
6267.8357061602
 20
5270.3380971108
 10
6266.5088089786
 20
5270.2077417527
 10
6265.321807158
 20
5270.0534551297
 10
6264.2968140215
 20
5269.8781131659
 10
6263.4529212162
 20
5269.6849792157
 10
6262.8058503985
 20
5269.47765936
 10
6262.3676547453
 20
5269.2599980985
 10
6262.1464972988
 20
5269.036063448
 10
6262.1464972988
 20
5268.8100277339
 10
6262.3676547453
 20
5268.5860930835
 10
6262.8058503985
 20
5268.3684318219
 10
6263.4529212162
 20
5268.1610970651
 10
6264.2968140215
 20
5267.9679631148
 10
6265.321807158
 20
5267.7926211511
 10
6266.5088089786
 20
5267.638334528
 10
6267.8357061602
 20
5267.5079940711
 10
6269.2777823329
 20
5267.4039988671
 10
6270.8081737298
 20
5267.3283009683
 10
6272.3983722178
 20
5267.2823159848
 10
6274.0187553361
 20
5267.2668783818
  0
LWPOLYLINE
  5
109
330
1F
100
AcDbEntity
  8
0
  6
Continuous
 62
     7
370
    25
100
AcDbPolyline
 90
       43
 70
   128
 43
0.0
 10
6274.0187553361
 20
5267.5313143884
 10
6275.509177977
 20
5267.5468562995
 10
6276.9663070001
 20
5267.5931393061
 10
6278.3575925648
 20
5267.6691352282
 10
6279.6519558549
 20
5267.7731453334
 10
6280.820482564
 20
5267.9028301392
 10
6281.8370705143
 20
5268.0553137217
 10
6282.6790094048
 20
5268.2271837149
 10
6283.3274930388
 20
5268.4145807181
 10
6283.7680346936
 20
5268.6133473073
 10
6283.9907930836
 20
5268.8190429364
 10
6283.9907930836
 20
5269.0270482455
 10
6283.7680346936
 20
5269.2327289735
 10
6283.3274930388
 20
5269.4314955626
 10
6282.6790094048
 20
5269.618907467
 10
6281.8370705143
 20
5269.7907774602
 10
6280.820482564
 20
5269.9432610427
 10
6279.6519558549
 20
5270.0729458485
 10
6278.3575925648
 20
5270.1769559537
 10
6276.9663070001
 20
5270.2529369746
 10
6275.509177977
 20
5270.2992348824
 10
6274.0187553361
 20
5270.3147767936
 10
6272.5283326952
 20
5270.2992348824
 10
6271.0712036721
 20
5270.2529369746
 10
6269.6799181074
 20
5270.1769559537
 10
6268.3855548173
 20
5270.0729458485
 10
6267.2170281082
 20
5269.9432610427
 10
6266.2004401579
 20
5269.7907774602
 10
6265.3585012674
 20
5269.618907467
 10
6264.7100176334
 20
5269.4314955626
 10
6264.2694759786
 20
5269.2327289735
 10
6264.0467175886
 20
5269.0270482455
 10
6264.0467175886
 20
5268.8190429364
 10
6264.2694759786
 20
5268.6133473073
 10
6264.7100176334
 20
5268.4145807181
 10
6265.3585012674
 20
5268.2271837149
 10
6266.2004401579
 20
5268.0553137217
 10
6267.2170281082
 20
5267.9028301392
 10
6268.3855548173
 20
5267.7731453334
 10
6269.6799181074
 20
5267.6691352282
 10
6271.0712036721
 20
5267.5931393061
 10
6272.5283326952
 20
5267.5468562995
 10
6274.0187553361
 20
5267.5313143884
  0
LINE
  5
10A
330
1F
100
AcDbEntity
  8
0
  6
Continuous
 62
     7
370
    25
100
AcDbLine
 10
6268.0187552839
 20
5258.5879205619
 30
0.0
 11
6280.0187553883
 21
5258.5879205619
 31
0.0
  0
LINE
  5
10B
330
1F
100
AcDbEntity
  8
0
  6
Continuous
 62
     7
370
    25
100
AcDbLine
 10
6268.0187552839
 20
5258.5879205619
 30
0.0
 11
6268.0187552839
 21
5158.0276391362
 31
0.0
  0
LINE
  5
10C
330
1F
100
AcDbEntity
  8
0
  6
Continuous
 62
     7
370
    25
100
AcDbLine
 10
6280.0187553883
 20
5258.5879205619
 30
0.0
 11
6280.0187553883
 21
5158.0276391362
 31
0.0
  0
ELLIPSE
  5
10D
330
1F
100
AcDbEntity
  8
0
  6
Continuous
 62
     7
370
    25
100
AcDbEllipse
 10
6274.0187553361
 20
5142.3534784195
 30
0.0
 11
24.0
 21
0.0
 31
0.0
210
0.0
220
0.0
230
1.0
 40
0.6745085168
 41
1.31811607165282
 42
1.823476581936973
  0
SPLINE
  5
10E
330
1F
100
AcDbEntity
  8
0
  6
Continuous
 62
     7
370
    25
100
AcDbSpline
210
0.0
220
0.0
230
1.0
 70
     8
 71
     3
 72
    14
 73
    10
 74
     0
 42
0.000000001
 43
0.00000001
 40
0.0
 40
0.0
 40
0.0
 40
0.0
 40
0.0386157998573222
 40
0.1448437851952596
 40
0.3197431013840375
 40
0.4951372337342838
 40
0.6612272977483684
 40
0.8403300519053359
 40
1.0
 40
1.0
 40
1.0
 40
1.0
 10
6288.000497189159
 20
5165.160251304945
 30
0.0
 10
6288.005316441755
 20
5164.99187305185
 30
0.0
 10
6288.023392949049
 20
5164.360304015009
 30
0.0
 10
6287.845264293506
 20
5162.972948880137
 30
0.0
 10
6287.247867459654
 20
5161.085869204864
 30
0.0
 10
6285.929828270305
 20
5159.381729883141
 30
0.0
 10
6284.135275401602
 20
5158.28986310913
 30
0.0
 10
6282.108124162836
 20
5157.808516662769
 30
0.0
 10
6280.688058874936
 20
5157.957445957607
 30
0.0
 10
6280.018755388254
 20
5158.027639136156
 30
0.0
  0
SPLINE
  5
10F
330
1F
100
AcDbEntity
  8
0
  6
Continuous
 62
     7
370
    25
100
AcDbSpline
210
0.0
220
0.0
230
1.0
 70
     8
 71
     3
 72
    16
 73
    12
 74
     0
 42
0.000000001
 43
0.00000001
 40
0.0
 40
0.0
 40
0.0
 40
0.0
 40
0.1025083570030673
 40
0.2078043988172953
 40
0.310371751265025
 40
0.4163560837744672
 40
0.5114372670697402
 40
0.6100194629619325
 40
0.7807818753158816
 40
0.9485122576118669
 40
1.0
 40
1.0
 40
1.0
 40
1.0
 10
6268.018755283946
 20
5158.027639136156
 30
0.0
 10
6267.58961402848
 20
5157.971934184611
 30
0.0
 10
6266.719661146521
 20
5157.859009401644
 30
0.0
 10
6265.436012790348
 20
5157.95224890992
 30
0.0
 10
6264.1957754328
 20
5158.252596029544
 30
0.0
 10
6263.086796411916
 20
5158.768420661077
 30
0.0
 10
6262.120080604211
 20
5159.488974243763
 30
0.0
 10
6261.129937992489
 20
5160.60135056449
 30
0.0
 10
6260.335075717236
 20
5162.288807048454
 30
0.0
 10
6260.01022050284
 20
5163.982750365503
 30
0.0
 10
6260.040606495014
 20
5164.940317200681
 30
0.0
 10
6260.047743250424
 20
5165.165220842203
 30
0.0
  0
LINE
  5
110
330
1F
100
AcDbEntity
  8
0
  6
Continuous
 62
     7
370
    25
100
AcDbLine
 10
6288.0187557682
 20
5218.1914239083
 30
0.0
 11
6298.0187555447
 21
5218.1914239083
 31
0.0
  0
LINE
  5
111
330
1F
100
AcDbEntity
  8
0
  6
Continuous
 62
     7
370
    25
100
AcDbLine
 10
6250.0187551275
 20
5218.1914239083
 30
0.0
 11
6260.018754904
 21
5218.1914239083
 31
0.0
  0
LINE
  5
112
330
1F
100
AcDbEntity
  8
0
  6
Continuous
 62
     7
370
    25
100
AcDbLine
 10
6288.0187557682
 20
5180.4914264832
 30
0.0
 11
6298.0187555447
 21
5180.4914264832
 31
0.0
  0
LINE
  5
113
330
1F
100
AcDbEntity
  8
0
  6
Continuous
 62
     7
370
    25
100
AcDbLine
 10
6250.0187551275
 20
5180.4914264832
 30
0.0
 11
6260.018754904
 21
5180.4914264832
 31
0.0
  0
LINE
  5
114
330
1F
100
AcDbEntity
  8
0
  6
Continuous
 62
     7
370
    25
100
AcDbLine
 10
6274.0187553361
 20
5155.4914261107
 30
0.0
 11
6298.0187555447
 21
5155.4914261107
 31
0.0
  0
LINE
  5
115
330
1F
100
AcDbEntity
  8
0
  6
Continuous
 62
     7
370
    25
100
AcDbLine
 10
6250.0187551275
 20
5155.4914261107
 30
0.0
 11
6274.0187553361
 21
5155.4914261107
 31
0.0
  0
LINE
  5
116
330
1F
100
AcDbEntity
  8
0
  6
Continuous
 62
     7
370
    25
100
AcDbLine
 10
6288.0187557682
 20
5180.1914251302
 30
0.0
 11
6298.0187555447
 21
5180.1914251302
 31
0.0
  0
LINE
  5
117
330
1F
100
AcDbEntity
  8
0
  6
Continuous
 62
     7
370
    25
100
AcDbLine
 10
6250.0187551275
 20
5180.1914251302
 30
0.0
 11
6260.018754904
 21
5180.1914251302
 31
0.0
  0
LINE
  5
118
330
1F
100
AcDbEntity
  8
0
  6
Continuous
 62
     7
370
    25
100
AcDbLine
 10
6274.0187553361
 20
5155.1914266203
 30
0.0
 11
6298.0187555447
 21
5155.1914266203
 31
0.0
  0
LINE
  5
119
330
1F
100
AcDbEntity
  8
0
  6
Continuous
 62
     7
370
    25
100
AcDbLine
 10
6250.0187551275
 20
5155.1914266203
 30
0.0
 11
6274.0187553361
 21
5155.1914266203
 31
0.0
  0
LINE
  5
11A
330
1F
100
AcDbEntity
  8
0
  6
Continuous
 62
     7
370
    25
100
AcDbLine
 10
6274.0187553361
 20
5131.1914264117
 30
0.0
 11
6298.0187555447
 21
5131.1914264117
 31
0.0
  0
LINE
  5
11B
330
1F
100
AcDbEntity
  8
0
  6
Continuous
 62
     7
370
    25
100
AcDbLine
 10
6250.0187551275
 20
5131.1914264117
 30
0.0
 11
6274.0187553361
 21
5131.1914264117
 31
0.0
  0
LINE
  5
11C
330
1F
100
AcDbEntity
  8
0
  6
Continuous
 62
     7
370
    25
100
AcDbLine
 10
6266.468755123
 20
5141.8914268617
 30
0.0
 11
6281.5687555492
 21
5141.8914268617
 31
0.0
  0
SPLINE
  5
11D
330
1F
100
AcDbEntity
  8
0
  6
Continuous
 62
     7
370
    25
100
AcDbSpline
210
0.0
220
0.0
230
1.0
 70
     8
 71
     3
 72
    46
 73
    42
 74
     0
 42
0.000000001
 43
0.00000001
 40
0.0
 40
0.0
 40
0.0
 40
0.0
 40
0.0625000000000007
 40
0.0625000000000007
 40
0.1250000000000014
 40
0.1250000000000014
 40
0.1875000000000022
 40
0.1875000000000022
 40
0.2187500000000024
 40
0.2187500000000024
 40
0.2500000000000027
 40
0.2500000000000027
 40
0.3125000000000026
 40
0.3125000000000026
 40
0.3750000000000024
 40
0.3750000000000024
 40
0.4375000000000023
 40
0.4375000000000023
 40
0.4687500000000023
 40
0.4687500000000023
 40
0.5000000000000022
 40
0.5000000000000022
 40
0.5312500000000021
 40
0.5312500000000021
 40
0.562500000000002
 40
0.562500000000002
 40
0.625000000000002
 40
0.625000000000002
 40
0.656250000000002
 40
0.656250000000002
 40
0.687500000000002
 40
0.687500000000002
 40
0.7500000000000016
 40
0.7500000000000016
 40
0.8125000000000011
 40
0.8125000000000011
 40
0.8750000000000008
 40
0.8750000000000008
 40
0.9375000000000003
 40
0.9375000000000003
 40
1.0
 40
1.0
 40
1.0
 40
1.0
 10
6281.5687553361
 20
5141.891426411708
 30
0.0
 10
6281.917644651602
 20
5141.891426411708
 30
0.0
 10
6282.258079790789
 20
5141.925517636143
 30
0.0
 10
6282.923477419028
 20
5142.056283617741
 30
0.0
 10
6283.250627698339
 20
5142.153913636651
 30
0.0
 10
6283.879535320093
 20
5142.409635380378
 30
0.0
 10
6284.177133692059
 20
5142.565481909598
 30
0.0
 10
6284.599798031523
 20
5142.840446036594
 30
0.0
 10
6284.736702420341
 20
5142.939020509899
 30
0.0
 10
6285.002458051755
 20
5143.150568787045
 30
0.0
 10
6285.131470532711
 20
5143.263827802953
 30
0.0
 10
6285.498467701721
 20
5143.618858380424
 30
0.0
 10
6285.71941138443
 20
5143.877719047066
 30
0.0
 10
6286.113338336745
 20
5144.442723539391
 30
0.0
 10
6286.287969628611
 20
5144.753460845292
 30
0.0
 10
6286.569654470186
 20
5145.400988618215
 30
0.0
 10
6286.678434132912
 20
5145.738487640589
 30
0.0
 10
6286.790662557649
 20
5146.267225627601
 30
0.0
 10
6286.819633660284
 20
5146.448621328315
 30
0.0
 10
6286.858360341146
 20
5146.812531363058
 30
0.0
 10
6286.868188279423
 20
5146.994186960566
 30
0.0
 10
6286.869274835329
 20
5147.356913450933
 30
0.0
 10
6286.860532443088
 20
5147.537984315761
 30
0.0
 10
6286.824379271372
 20
5147.899539666711
 30
0.0
 10
6286.796707741105
 20
5148.081178893141
 30
0.0
 10
6286.686639388223
 20
5148.616153100538
 30
0.0
 10
6286.578619319414
 20
5148.95714691448
 30
0.0
 10
6286.367981156412
 20
5149.447320476586
 30
0.0
 10
6286.289168712539
 20
5149.607754927129
 30
0.0
 10
6286.118553192469
 20
5149.915446493329
 30
0.0
 10
6286.026535989303
 20
5150.063388634984
 30
0.0
 10
6285.731126985316
 20
5150.49060262855
 30
0.0
 10
6285.506319925185
 20
5150.755464380775
 30
0.0
 10
6285.016014484652
 20
5151.231622681803
 30
0.0
 10
6284.752051898591
 20
5151.442401845151
 30
0.0
 10
6284.186452096017
 20
5151.812230758748
 30
0.0
 10
6283.882870772796
 20
5151.97144879874
 30
0.0
 10
6283.258315329103
 20
5152.226218493307
 30
0.0
 10
6282.935022657392
 20
5152.323677373639
 30
0.0
 10
6282.264891193237
 20
5152.456602685859
 30
0.0
 10
6281.918033411352
 20
5152.491426411708
 30
0.0
 10
6281.5687553361
 20
5152.491426411708
 30
0.0
  0
LINE
  5
11E
330
1F
100
AcDbEntity
  8
0
  6
Continuous
 62
     7
370
    25
100
AcDbLine
 10
6281.5687555492
 20
5152.491425619
 30
0.0
 11
6266.468755123
 21
5152.491425619
 31
0.0
  0
SPLINE
  5
11F
330
1F
100
AcDbEntity
  8
0
  6
Continuous
 62
     7
370
    25
100
AcDbSpline
210
0.0
220
0.0
230
1.0
 70
     8
 71
     3
 72
    46
 73
    42
 74
     0
 42
0.000000001
 43
0.00000001
 40
0.0
 40
0.0
 40
0.0
 40
0.0
 40
0.0624999999999998
 40
0.0624999999999998
 40
0.1249999999999995
 40
0.1249999999999995
 40
0.1874999999999993
 40
0.1874999999999993
 40
0.2187499999999992
 40
0.2187499999999992
 40
0.2499999999999992
 40
0.2499999999999992
 40
0.3124999999999994
 40
0.3124999999999994
 40
0.3749999999999996
 40
0.3749999999999996
 40
0.4374999999999998
 40
0.4374999999999998
 40
0.4687499999999996
 40
0.4687499999999996
 40
0.4999999999999993
 40
0.4999999999999993
 40
0.5312499999999991
 40
0.5312499999999991
 40
0.5624999999999992
 40
0.5624999999999992
 40
0.6249999999999991
 40
0.6249999999999991
 40
0.6562499999999991
 40
0.6562499999999991
 40
0.6874999999999991
 40
0.6874999999999991
 40
0.7499999999999992
 40
0.7499999999999992
 40
0.8124999999999994
 40
0.8124999999999994
 40
0.8749999999999997
 40
0.8749999999999997
 40
0.9374999999999999
 40
0.9374999999999999
 40
1.0
 40
1.0
 40
1.0
 40
1.0
 10
6266.4687553361
 20
5152.491426411708
 30
0.0
 10
6266.119866020598
 20
5152.491426411708
 30
0.0
 10
6265.779430881412
 20
5152.457335187273
 30
0.0
 10
6265.114033253172
 20
5152.326569205676
 30
0.0
 10
6264.786882973862
 20
5152.228939186765
 30
0.0
 10
6264.157975352107
 20
5151.973217443038
 30
0.0
 10
6263.860376980141
 20
5151.817370913819
 30
0.0
 10
6263.437712640677
 20
5151.542406786823
 30
0.0
 10
6263.300808251859
 20
5151.443832313518
 30
0.0
 10
6263.035052620446
 20
5151.232284036372
 30
0.0
 10
6262.906040139489
 20
5151.119025020465
 30
0.0
 10
6262.539042970479
 20
5150.763994442992
 30
0.0
 10
6262.318099287771
 20
5150.505133776352
 30
0.0
 10
6261.924172335455
 20
5149.940129284025
 30
0.0
 10
6261.749541043589
 20
5149.629391978125
 30
0.0
 10
6261.467856202014
 20
5148.981864205202
 30
0.0
 10
6261.359076539288
 20
5148.644365182828
 30
0.0
 10
6261.246848114552
 20
5148.115627195817
 30
0.0
 10
6261.217877011916
 20
5147.934231495102
 30
0.0
 10
6261.179150331054
 20
5147.570321460359
 30
0.0
 10
6261.169322392778
 20
5147.388665862851
 30
0.0
 10
6261.168235836872
 20
5147.025939372483
 30
0.0
 10
6261.176978229112
 20
5146.844868507656
 30
0.0
 10
6261.213131400828
 20
5146.483313156707
 30
0.0
 10
6261.240802931095
 20
5146.301673930276
 30
0.0
 10
6261.350871283978
 20
5145.766699722879
 30
0.0
 10
6261.458891352788
 20
5145.425705908937
 30
0.0
 10
6261.669529515788
 20
5144.935532346831
 30
0.0
 10
6261.748341959661
 20
5144.775097896289
 30
0.0
 10
6261.918957479731
 20
5144.467406330087
 30
0.0
 10
6262.010974682898
 20
5144.319464188433
 30
0.0
 10
6262.306383686885
 20
5143.892250194866
 30
0.0
 10
6262.531190747015
 20
5143.627388442643
 30
0.0
 10
6263.021496187548
 20
5143.151230141614
 30
0.0
 10
6263.285458773609
 20
5142.940450978265
 30
0.0
 10
6263.851058576184
 20
5142.570622064668
 30
0.0
 10
6264.154639899404
 20
5142.411404024677
 30
0.0
 10
6264.779195343097
 20
5142.15663433011
 30
0.0
 10
6265.102488014808
 20
5142.059175449778
 30
0.0
 10
6265.772619478963
 20
5141.926250137558
 30
0.0
 10
6266.119477260849
 20
5141.891426411708
 30
0.0
 10
6266.4687553361
 20
5141.891426411708
 30
0.0
  0
LINE
  5
120
330
1F
100
AcDbEntity
  8
0
  6
Continuous
 62
     8
370
    25
100
AcDbLine
 10
6296.5240182027
 20
5275.6934254323
 30
0.0
 11
6288.0187557682
 21
5275.6934254323
 31
0.0
  0
LINE
  5
121
330
1F
100
AcDbEntity
  8
0
  6
Continuous
 62
     8
370
    25
100
AcDbLine
 10
6260.018754904
 20
5275.6934254323
 30
0.0
 11
6251.5171767816
 21
5275.6934254323
 31
0.0
  0
LINE
  5
122
330
1F
100
AcDbEntity
  8
0
  6
Continuous
 62
     8
370
    25
100
AcDbLine
 10
6251.1236240759
 20
5246.1844696556
 30
0.0
 11
6251.1200049564
 21
5246.1844696556
 31
0.0
  0
LINE
  5
123
330
1F
100
AcDbEntity
  8
0
  6
Continuous
 62
     8
370
    25
100
AcDbLine
 10
6266.4954514846
 20
5141.8914268617
 30
0.0
 11
6266.4955213338
 21
5141.9026921396
 31
0.0
  0
LINE
  5
124
330
1F
100
AcDbEntity
  8
0
  6
Continuous
 62
     8
370
    25
100
AcDbLine
 10
6281.4950893305
 20
5141.8914268617
 30
0.0
 11
6281.495019947
 21
5141.9026921396
 31
0.0
  0
ARC
  5
125
330
1F
100
AcDbEntity
  8
0
  6
Continuous
 62
     8
370
    25
100
AcDbCircle
 10
6268.1041076366
 20
5289.6841140048
 30
0.0
 40
6.101765603860771
100
AcDbArc
 50
105.8003607944
 51
184.2034306551
  0
ARC
  5
126
330
1F
100
AcDbEntity
  8
0
  6
Continuous
 62
     8
370
    25
100
AcDbCircle
 10
6279.9333356708
 20
5289.6840960349
 30
0.0
 40
6.101831470317955
100
AcDbArc
 50
355.796783992
 51
74.1919086462
  0
LINE
  5
127
330
1F
100
AcDbEntity
  8
0
  6
Continuous
 62
     8
370
    25
100
AcDbLine
 10
6268.0187552839
 20
5258.5879205619
 30
0.0
 11
6268.0187552839
 21
5267.4928097878
 31
0.0
  0
LWPOLYLINE
  5
128
330
1F
100
AcDbEntity
  8
0
  6
Continuous
 62
     8
370
    25
100
AcDbPolyline
 90
       10
 70
   128
 43
0.0
 10
6260.018754904
 20
5265.220218793
 10
6260.1402934313
 20
5264.0685229455
 10
6260.5012144566
 20
5262.9518299256
 10
6261.0905516565
 20
5261.9040696774
 10
6261.8903994232
 20
5260.9570561801
 10
6262.8764548942
 20
5260.139578477
 10
6264.0187555596
 20
5259.4764768039
 10
6265.282593821
 20
5258.9878975306
 10
6266.6295698516
 20
5258.6886822139
 10
6268.0187552839
 20
5258.5879205619
  0
LINE
  5
129
330
1F
100
AcDbEntity
  8
0
  6
Continuous
 62
     8
370
    25
100
AcDbLine
 10
6280.0187553883
 20
5258.5879205619
 30
0.0
 11
6280.0187553883
 21
5267.4928097878
 31
0.0
  0
LWPOLYLINE
  5
12A
330
1F
100
AcDbEntity
  8
0
  6
Continuous
 62
     8
370
    25
100
AcDbPolyline
 90
       10
 70
   128
 43
0.0
 10
6280.0187553883
 20
5258.5879205619
 10
6281.4079408206
 20
5258.6886822139
 10
6282.7549168512
 20
5258.9878975306
 10
6284.0187551126
 20
5259.4764768039
 10
6285.161055778
 20
5260.139578477
 10
6286.147111249
 20
5260.9570561801
 10
6286.9469590157
 20
5261.9040696774
 10
6287.5362962156
 20
5262.9518299256
 10
6287.8972172409
 20
5264.0685229455
 10
6288.0187557682
 20
5265.220218793
  0
LINE
  5
12B
330
1F
100
AcDbEntity
  8
0
  6
Continuous
 62
     7
370
    25
100
AcDbLine
 10
6546.0925666383
 20
5258.66142799
 30
0.0
 11
6550.2893408528
 21
5258.66142799
 31
0.0
  0
LINE
  5
12C
330
1F
100
AcDbEntity
  8
0
  6
Continuous
 62
     7
370
    25
100
AcDbLine
 10
6550.2893408528
 20
5265.3214274798
 30
0.0
 11
6546.0037575803
 21
5265.3214274798
 31
0.0
  0
ARC
  5
12D
330
1F
100
AcDbEntity
  8
0
  6
Continuous
 62
     7
370
    25
100
AcDbCircle
 10
6550.2893405445
 20
5264.7214264117
 30
0.0
 40
0.6000000000003638
100
AcDbArc
 50
20.2436119087
 51
90.0
  0
ARC
  5
12E
330
1F
100
AcDbEntity
  8
0
  6
Continuous
 62
     7
370
    25
100
AcDbCircle
 10
6550.2893405445
 20
5259.2614264117
 30
0.0
 40
0.599999999999659
100
AcDbArc
 50
270.0
 51
339.7563880913
  0
ARC
  5
12F
330
1F
100
AcDbEntity
  8
0
  6
Continuous
 62
     7
370
    25
100
AcDbCircle
 10
6543.1301510712
 20
5261.9016840485
 30
0.0
 40
8.230527786710972
100
AcDbArc
 50
339.7563880913
 51
0.0
  0
ARC
  5
130
330
1F
100
AcDbEntity
  8
0
  6
Continuous
 62
     7
370
    25
100
AcDbCircle
 10
6543.1301510712
 20
5262.0811687749
 30
0.0
 40
8.230527786710809
100
AcDbArc
 50
0.0
 51
20.2436119087
  0
LINE
  5
131
330
1F
100
AcDbEntity
  8
0
  6
Continuous
 62
     7
370
    25
100
AcDbLine
 10
6551.3606784633
 20
5261.9016854916
 30
0.0
 11
6551.3606784633
 21
5262.0811699782
 31
0.0
  0
ARC
  5
132
330
1F
100
AcDbEntity
  8
0
  6
Continuous
 62
     7
370
    25
100
AcDbCircle
 10
6523.2295839356
 20
5250.4012990576
 30
0.0
 40
26.56127520956401
100
AcDbArc
 50
75.2569537091
 51
89.7182671898
  0
ARC
  5
133
330
1F
100
AcDbEntity
  8
0
  6
Continuous
 62
     7
370
    25
100
AcDbCircle
 10
6523.4907952365
 20
5250.4012990576
 30
0.0
 40
26.56127520956377
100
AcDbArc
 50
90.2817328102
 51
104.7430462909
  0
LINE
  5
134
330
1F
100
AcDbEntity
  8
0
  6
Continuous
 62
     7
370
    25
100
AcDbLine
 10
6546.0029342911
 20
5265.3832523976
 30
0.0
 11
6545.8654524526
 21
5275.6934254323
 31
0.0
  0
LINE
  5
135
330
1F
100
AcDbEntity
  8
0
  6
Continuous
 62
     7
370
    25
100
AcDbLine
 10
6546.3601896307
 20
5238.5914265071
 30
0.0
 11
6546.0929596565
 21
5258.6318193827
 31
0.0
  0
LINE
  5
136
330
1F
100
AcDbEntity
  8
0
  6
Continuous
 62
     7
370
    25
100
AcDbLine
 10
6500.4614392063
 20
5246.1844696556
 30
0.0
 11
6500.3601895413
 21
5238.5914265071
 31
0.0
  0
ARC
  5
137
330
1F
100
AcDbEntity
  8
0
  6
Continuous
 62
     7
370
    25
100
AcDbCircle
 10
6500.8614035733
 20
5246.1791338838
 30
0.0
 40
0.4000000000000082
100
AcDbArc
 50
161.3199946527
 51
179.2360336361
  0
ARC
  5
138
330
1F
100
AcDbEntity
  8
0
  6
Continuous
 62
     7
370
    25
100
AcDbCircle
 10
6545.4654878332
 20
5275.6880929302
 30
0.0
 40
0.4000000000005457
100
AcDbArc
 50
0.7639663642
 51
90.0
  0
LINE
  5
139
330
1F
100
AcDbEntity
  8
0
  6
Continuous
 62
     7
370
    25
100
AcDbLine
 10
6500.8605835727
 20
5275.6934254323
 30
0.0
 11
6500.4671742908
 21
5246.197679535
 31
0.0
  0
ARC
  5
13A
330
1F
100
AcDbEntity
  8
0
  6
Continuous
 62
     7
370
    25
100
AcDbCircle
 10
6501.2605468152
 20
5275.6880929302
 30
0.0
 40
0.4000000000005457
100
AcDbArc
 50
90.0000000005
 51
179.235838154
  0
LINE
  5
13B
330
1F
100
AcDbEntity
  8
0
  6
Continuous
 62
     7
370
    25
100
AcDbLine
 10
6500.3601895413
 20
5238.2914288793
 30
0.0
 11
6500.3601895413
 21
5233.2914261971
 31
0.0
  0
LINE
  5
13C
330
1F
100
AcDbEntity
  8
0
  6
Continuous
 62
     7
370
    25
100
AcDbLine
 10
6546.3601896307
 20
5233.2914261971
 30
0.0
 11
6546.3601896307
 21
5238.2914288793
 31
0.0
  0
LINE
  5
13D
330
1F
100
AcDbEntity
  8
0
  6
Continuous
 62
     7
370
    25
100
AcDbLine
 10
6500.3601895413
 20
5222.7114899908
 30
0.0
 11
6500.3601895413
 21
5218.4914289866
 31
0.0
  0
LINE
  5
13E
330
1F
100
AcDbEntity
  8
0
  6
Continuous
 62
     7
370
    25
100
AcDbLine
 10
6500.3601895413
 20
5232.9914285694
 30
0.0
 11
6500.3601895413
 21
5232.6309843813
 31
0.0
  0
LINE
  5
13F
330
1F
100
AcDbEntity
  8
0
  6
Continuous
 62
     7
370
    25
100
AcDbLine
 10
6546.3601896307
 20
5218.4914289866
 30
0.0
 11
6546.3601896307
 21
5232.9914285694
 31
0.0
  0
LINE
  5
140
330
1F
100
AcDbEntity
  8
0
  6
Continuous
 62
     7
370
    25
100
AcDbLine
 10
6502.3601898692
 20
5233.2914261971
 30
0.0
 11
6502.3601898692
 21
5232.9914285694
 31
0.0
  0
LINE
  5
141
330
1F
100
AcDbEntity
  8
0
  6
Continuous
 62
     7
370
    25
100
AcDbLine
 10
6544.3601893029
 20
5232.9914285694
 30
0.0
 11
6544.3601893029
 21
5233.2914261971
 31
0.0
  0
LINE
  5
142
330
1F
100
AcDbEntity
  8
0
  6
Continuous
 62
     7
370
    25
100
AcDbLine
 10
6502.3601898692
 20
5238.5914265071
 30
0.0
 11
6502.3601898692
 21
5238.2914288793
 31
0.0
  0
LINE
  5
143
330
1F
100
AcDbEntity
  8
0
  6
Continuous
 62
     7
370
    25
100
AcDbLine
 10
6544.3601893029
 20
5238.2914288793
 30
0.0
 11
6544.3601893029
 21
5238.5914265071
 31
0.0
  0
LINE
  5
144
330
1F
100
AcDbEntity
  8
0
  6
Continuous
 62
     7
370
    25
100
AcDbLine
 10
6547.2925515613
 20
5142.2006036048
 30
0.0
 11
6547.2925515613
 21
5152.1235643779
 31
0.0
  0
ARC
  5
145
330
1F
100
AcDbEntity
  8
0
  6
Continuous
 62
     7
370
    25
100
AcDbCircle
 10
6546.9925514953
 20
5152.1236370884
 30
0.0
 40
0.300000000000032
100
AcDbArc
 50
1.3558165962
 51
90.1007496665
  0
ARC
  5
146
330
1F
100
AcDbEntity
  8
0
  6
Continuous
 62
     7
370
    25
100
AcDbCircle
 10
6546.9925514953
 20
5142.2005307713
 30
0.0
 40
0.299999999999817
100
AcDbArc
 50
269.8992503335
 51
1.354261171
  0
LINE
  5
147
330
1F
100
AcDbEntity
  8
0
  6
Continuous
 62
     7
370
    25
100
AcDbLine
 10
6546.9554370037
 20
5152.424331278
 30
0.0
 11
6546.0349308095
 21
5152.4403984551
 31
0.0
  0
LINE
  5
148
330
1F
100
AcDbEntity
  8
0
  6
Continuous
 62
     7
370
    25
100
AcDbLine
 10
6546.0151457927
 20
5141.8834240068
 30
0.0
 11
6546.9554370037
 21
5141.8998376359
 31
0.0
  0
LINE
  5
149
330
1F
100
AcDbEntity
  8
0
  6
Continuous
 62
     7
370
    25
100
AcDbLine
 10
6499.3601893774
 20
5180.1914251302
 30
0.0
 11
6499.3601893774
 21
5155.4914261107
 31
0.0
  0
LINE
  5
14A
330
1F
100
AcDbEntity
  8
0
  6
Continuous
 62
     7
370
    25
100
AcDbLine
 10
6547.3601897946
 20
5177.8411692832
 30
0.0
 11
6547.3601897946
 21
5180.1914251302
 31
0.0
  0
LINE
  5
14B
330
1F
100
AcDbEntity
  8
0
  6
Continuous
 62
     7
370
    25
100
AcDbLine
 10
6547.3601897946
 20
5155.4914261107
 30
0.0
 11
6547.3601897946
 21
5158.5416826312
 31
0.0
  0
LINE
  5
14C
330
1F
100
AcDbEntity
  8
0
  6
Continuous
 62
     7
370
    25
100
AcDbLine
 10
6499.3601893774
 20
5218.1914239083
 30
0.0
 11
6499.3601893774
 21
5180.4914264832
 31
0.0
  0
LINE
  5
14D
330
1F
100
AcDbEntity
  8
0
  6
Continuous
 62
     7
370
    25
100
AcDbLine
 10
6547.3601897946
 20
5180.4914264832
 30
0.0
 11
6547.3601897946
 21
5218.1914239083
 31
0.0
  0
LINE
  5
14E
330
1F
100
AcDbEntity
  8
0
  6
Continuous
 62
     7
370
    25
100
AcDbLine
 10
6499.3601893774
 20
5155.1914266203
 30
0.0
 11
6499.3601893774
 21
5131.1914264117
 31
0.0
  0
LINE
  5
14F
330
1F
100
AcDbEntity
  8
0
  6
Continuous
 62
     7
370
    25
100
AcDbLine
 10
6547.3601897946
 20
5152.491425619
 30
0.0
 11
6547.3601897946
 21
5155.1914266203
 31
0.0
  0
LINE
  5
150
330
1F
100
AcDbEntity
  8
0
  6
Continuous
 62
     7
370
    25
100
AcDbLine
 10
6547.3601897946
 20
5131.1914264117
 30
0.0
 11
6547.3601897946
 21
5141.8914268617
 31
0.0
  0
LINE
  5
151
330
1F
100
AcDbEntity
  8
0
  6
Continuous
 62
     7
370
    25
100
AcDbLine
 10
6502.3601898692
 20
5180.4914264832
 30
0.0
 11
6502.3601898692
 21
5180.1914251302
 31
0.0
  0
LINE
  5
152
330
1F
100
AcDbEntity
  8
0
  6
Continuous
 62
     7
370
    25
100
AcDbLine
 10
6544.3601893029
 20
5180.1914251302
 30
0.0
 11
6544.3601893029
 21
5180.4914264832
 31
0.0
  0
LINE
  5
153
330
1F
100
AcDbEntity
  8
0
  6
Continuous
 62
     7
370
    25
100
AcDbLine
 10
6502.3601898692
 20
5218.4914289866
 30
0.0
 11
6502.3601898692
 21
5218.1914239083
 31
0.0
  0
LINE
  5
154
330
1F
100
AcDbEntity
  8
0
  6
Continuous
 62
     7
370
    25
100
AcDbLine
 10
6544.3601893029
 20
5218.1914239083
 30
0.0
 11
6544.3601893029
 21
5218.4914289866
 31
0.0
  0
LINE
  5
155
330
1F
100
AcDbEntity
  8
0
  6
Continuous
 62
     7
370
    25
100
AcDbLine
 10
6502.3601898692
 20
5155.4914261107
 30
0.0
 11
6502.3601898692
 21
5155.1914266203
 31
0.0
  0
LINE
  5
156
330
1F
100
AcDbEntity
  8
0
  6
Continuous
 62
     7
370
    25
100
AcDbLine
 10
6544.3601893029
 20
5155.1914266203
 30
0.0
 11
6544.3601893029
 21
5155.4914261107
 31
0.0
  0
LINE
  5
157
330
1F
100
AcDbEntity
  8
0
  6
Continuous
 62
     7
370
    25
100
AcDbLine
 10
6746.8852368883
 20
5276.3821720038
 30
0.0
 11
6747.1635905794
 21
5274.4016288672
 31
0.0
  0
LINE
  5
158
330
1F
100
AcDbEntity
  8
0
  6
Continuous
 62
     7
370
    25
100
AcDbLine
 10
6774.8911050848
 20
5278.2984762345
 30
0.0
 11
6773.2210127405
 21
5290.1816903506
 31
0.0
  0
ARC
  5
159
330
1F
100
AcDbEntity
  8
0
  6
Continuous
 62
     7
370
    25
100
AcDbCircle
 10
6766.2891400039
 20
5289.2074827737
 30
0.0
 40
7.000000000000514
100
AcDbArc
 50
8.0
 51
98.0
  0
LINE
  5
15A
330
1F
100
AcDbEntity
  8
0
  6
Continuous
 62
     7
370
    25
100
AcDbLine
 10
6749.2431519321
 20
5274.6939002429
 30
0.0
 11
6750.2869484714
 21
5267.2668783818
 31
0.0
  0
LINE
  5
15B
330
1F
100
AcDbEntity
  8
0
  6
Continuous
 62
     7
370
    25
100
AcDbLine
 10
6773.8553253702
 20
5270.5791978989
 30
0.0
 11
6772.8115288309
 21
5278.00621976
 31
0.0
  0
ARC
  5
15C
330
1F
100
AcDbEntity
  8
0
  6
Continuous
 62
     7
370
    25
100
AcDbCircle
 10
6745.8949735012
 20
5276.2429938652
 30
0.0
 40
0.9999999999993939
100
AcDbArc
 50
8.0
 51
98.0
  0
LINE
  5
15D
330
1F
100
AcDbEntity
  8
0
  6
Continuous
 62
     7
370
    25
100
AcDbLine
 10
6513.72239606
 20
5276.1050998126
 30
0.0
 11
6513.72239606
 21
5276.0880975877
 31
0.0
  0
LINE
  5
15E
330
1F
100
AcDbEntity
  8
0
  6
Continuous
 62
     7
370
    25
100
AcDbLine
 10
6514.2512988067
 20
5276.1050998126
 30
0.0
 11
6514.2512988067
 21
5276.0880975877
 31
0.0
  0
LINE
  5
15F
330
1F
100
AcDbEntity
  8
0
  6
Continuous
 62
     7
370
    25
100
AcDbLine
 10
6513.72239606
 20
5276.1050998126
 30
0.0
 11
6514.2512988067
 21
5276.1050998126
 31
0.0
  0
LINE
  5
160
330
1F
100
AcDbEntity
  8
0
  6
Continuous
 62
     7
370
    25
100
AcDbLine
 10
6510.8733368806
 20
5276.1050998126
 30
0.0
 11
6510.8733368806
 21
5276.0880975877
 31
0.0
  0
LINE
  5
161
330
1F
100
AcDbEntity
  8
0
  6
Continuous
 62
     7
370
    25
100
AcDbLine
 10
6511.9048930473
 20
5276.1050998126
 30
0.0
 11
6511.9048930473
 21
5276.0880975877
 31
0.0
  0
LINE
  5
162
330
1F
100
AcDbEntity
  8
0
  6
Continuous
 62
     7
370
    25
100
AcDbLine
 10
6509.8999492592
 20
5276.1050998126
 30
0.0
 11
6509.8999492592
 21
5276.0880975877
 31
0.0
  0
LINE
  5
163
330
1F
100
AcDbEntity
  8
0
  6
Continuous
 62
     7
370
    25
100
AcDbLine
 10
6512.6315286151
 20
5276.1050998126
 30
0.0
 11
6512.6315286151
 21
5276.0880975877
 31
0.0
  0
LINE
  5
164
330
1F
100
AcDbEntity
  8
0
  6
Continuous
 62
     7
370
    25
100
AcDbLine
 10
6511.9048930473
 20
5276.1050998126
 30
0.0
 11
6512.6315286151
 21
5276.1050998126
 31
0.0
  0
LINE
  5
165
330
1F
100
AcDbEntity
  8
0
  6
Continuous
 62
     7
370
    25
100
AcDbLine
 10
6513.3302924923
 20
5276.1050998126
 30
0.0
 11
6513.3302924923
 21
5276.0880975877
 31
0.0
  0
LINE
  5
166
330
1F
100
AcDbEntity
  8
0
  6
Continuous
 62
     7
370
    25
100
AcDbLine
 10
6509.8998980365
 20
5276.1050998126
 30
0.0
 11
6509.8998980365
 21
5276.0880975877
 31
0.0
  0
LINE
  5
167
330
1F
100
AcDbEntity
  8
0
  6
Continuous
 62
     7
370
    25
100
AcDbLine
 10
6512.6824766165
 20
5276.1050998126
 30
0.0
 11
6512.6315286151
 21
5276.1050998126
 31
0.0
  0
LINE
  5
168
330
1F
100
AcDbEntity
  8
0
  6
Continuous
 62
     7
370
    25
100
AcDbLine
 10
6511.9048930473
 20
5276.1050998126
 30
0.0
 11
6511.5755997366
 21
5276.1050998126
 31
0.0
  0
LINE
  5
169
330
1F
100
AcDbEntity
  8
0
  6
Continuous
 62
     7
370
    25
100
AcDbLine
 10
6509.3992423034
 20
5276.1050998126
 30
0.0
 11
6509.3992423034
 21
5276.0880975877
 31
0.0
  0
LINE
  5
16A
330
1F
100
AcDbEntity
  8
0
  6
Continuous
 62
     7
370
    25
100
AcDbLine
 10
6509.3932175777
 20
5276.1050998126
 30
0.0
 11
6509.3932175777
 21
5276.0880975877
 31
0.0
  0
SPLINE
  5
16B
330
1F
100
AcDbEntity
  8
0
  6
Continuous
 62
     7
370
    25
100
AcDbSpline
210
0.0
220
0.0
230
1.0
 70
     8
 71
     3
 72
    14
 73
    10
 74
     0
 42
0.000000001
 43
0.00000001
 40
0.0
 40
0.0
 40
0.0
 40
0.0
 40
0.144358011008087
 40
0.2887557246495325
 40
0.4320329040010375
 40
0.5744646437203481
 40
0.7178390625415526
 40
0.8623462642631545
 40
1.0
 40
1.0
 40
1.0
 40
1.0
 10
6545.948081254111
 20
5259.625756636699
 30
0.0
 10
6545.915487862561
 20
5259.926156032162
 30
0.0
 10
6545.850292115335
 20
5260.527037441621
 30
0.0
 10
6545.788778089641
 20
5261.664834523271
 30
0.0
 10
6545.786572199132
 20
5262.816106677991
 30
0.0
 10
6545.83898618762
 20
5263.878353929631
 30
0.0
 10
6545.917339101767
 20
5264.723283116296
 30
0.0
 10
6545.988309481748
 20
5265.288342347546
 30
0.0
 10
6545.997332714736
 20
5265.352122167276
 30
0.0
 10
6546.001734747635
 20
5265.383237496456
 30
0.0
  0
SPLINE
  5
16C
330
1F
100
AcDbEntity
  8
0
  6
Continuous
 62
     7
370
    25
100
AcDbSpline
210
0.0
220
0.0
230
1.0
 70
     8
 71
     3
 72
    10
 73
     6
 74
     0
 42
0.000000001
 43
0.00000001
 40
0.0
 40
0.0
 40
0.0
 40
0.0
 40
0.2895566693330107
 40
0.7046598679053715
 40
1.0
 40
1.0
 40
1.0
 40
1.0
 10
6546.086991741406
 20
5258.631744876941
 30
0.0
 10
6546.086636229959
 20
5258.634052020981
 30
0.0
 10
6546.08577106374
 20
5258.639666644942
 30
0.0
 10
6546.024016127267
 20
5259.022282172637
 30
0.0
 10
6545.970378911906
 20
5259.44855126941
 30
0.0
 10
6545.948081254111
 20
5259.625756636699
 30
0.0
  0
LWPOLYLINE
  5
16D
330
1F
100
AcDbEntity
  8
0
  6
Continuous
 62
     7
370
    25
100
AcDbPolyline
 90
        5
 70
   128
 43
0.0
 10
6523.7674270292
 20
5275.6934254323
 10
6523.7674235367
 20
5274.8935012971
 10
6523.767409596
 20
5271.6937749539
 10
6523.7673544151
 20
5258.8949142848
 10
6523.7673004566
 20
5246.1844696556
  0
LINE
  5
16E
330
1F
100
AcDbEntity
  8
0
  6
Continuous
 62
     7
370
    25
100
AcDbLine
 10
6523.360189586
 20
5238.5914265071
 30
0.0
 11
6546.3601896307
 21
5238.5914265071
 31
0.0
  0
LINE
  5
16F
330
1F
100
AcDbEntity
  8
0
  6
Continuous
 62
     7
370
    25
100
AcDbLine
 10
6500.3601895413
 20
5238.5914265071
 30
0.0
 11
6523.360189586
 21
5238.5914265071
 31
0.0
  0
SPLINE
  5
170
330
1F
100
AcDbEntity
  8
0
  6
Continuous
 62
     7
370
    25
100
AcDbSpline
210
0.0
220
0.0
230
1.0
 70
     8
 71
     3
 72
    13
 73
     9
 74
     0
 42
0.000000001
 43
0.00000001
 40
0.0
 40
0.0
 40
0.0
 40
0.0
 40
0.0053185652389891
 40
0.2390652978232996
 40
0.5161835800067189
 40
0.7170781940018763
 40
0.858180695114237
 40
1.0
 40
1.0
 40
1.0
 40
1.0
 10
6523.767300456613
 20
5246.184469655594
 30
0.0
 10
6523.766345129344
 20
5246.185415879863
 30
0.0
 10
6523.723403924766
 20
5246.227947911855
 30
0.0
 10
6523.630354381712
 20
5246.319774980282
 30
0.0
 10
6523.508034898089
 20
5246.43931378996
 30
0.0
 10
6523.42068175619
 20
5246.523716777705
 30
0.0
 10
6523.371385745978
 20
5246.570429527071
 30
0.0
 10
6523.363993748637
 20
5246.576227852454
 30
0.0
 10
6523.360288385875
 20
5246.579134360393
 30
0.0
  0
SPLINE
  5
171
330
1F
100
AcDbEntity
  8
0
  6
Continuous
 62
     7
370
    25
100
AcDbSpline
210
0.0
220
0.0
230
1.0
 70
     8
 71
     3
 72
    11
 73
     7
 74
     0
 42
0.000000001
 43
0.00000001
 40
0.0
 40
0.0
 40
0.0
 40
0.0
 40
0.0541093959920664
 40
0.3944103870392806
 40
0.695142039902291
 40
1.0
 40
1.0
 40
1.0
 40
1.0
 10
6500.48766897534
 20
5246.306197241386
 30
0.0
 10
6500.494790241552
 20
5246.32593591382
 30
0.0
 10
6500.546698072189
 20
5246.469813650604
 30
0.0
 10
6500.825062489763
 20
5246.50443124236
 30
0.0
 10
6501.494422669437
 20
5246.573967272107
 30
0.0
 10
6502.171156983398
 20
5246.577404191583
 30
0.0
 10
6502.511829673396
 20
5246.579134360393
 30
0.0
  0
LINE
  5
172
330
1F
100
AcDbEntity
  8
0
  6
Continuous
 62
     7
370
    25
100
AcDbLine
 10
6502.5118296734
 20
5246.5791343604
 30
0.0
 11
6523.3602883859
 21
5246.5791343604
 31
0.0
  0
ARC
  5
173
330
1F
100
AcDbEntity
  8
0
  6
Continuous
 62
     7
370
    25
100
AcDbCircle
 10
6523.6640640219
 20
5268.0373707012
 30
0.0
 40
7.656752441903954
100
AcDbArc
 50
89.2265070589
 51
92.2745016981
  0
LINE
  5
174
330
1F
100
AcDbEntity
  8
0
  6
Continuous
 62
     7
370
    25
100
AcDbLine
 10
6523.3602883859
 20
5246.5791343604
 30
0.0
 11
6523.360189586
 21
5246.5791343604
 31
0.0
  0
LINE
  5
175
330
1F
100
AcDbEntity
  8
0
  6
Continuous
 62
     7
370
    25
100
AcDbLine
 10
6523.360189586
 20
5246.5791343604
 30
0.0
 11
6523.360189586
 21
5275.6880908166
 31
0.0
  0
ARC
  5
176
330
1F
100
AcDbEntity
  8
0
  6
Continuous
 62
     7
370
    25
100
AcDbCircle
 10
6523.760189586
 20
5275.6880929302
 30
0.0
 40
0.4000000000005457
100
AcDbArc
 50
90.0
 51
180.0
  0
ARC
  5
177
330
1F
100
AcDbEntity
  8
0
  6
Continuous
 62
     7
370
    25
100
AcDbCircle
 10
6518.3340148572
 20
5275.7911905733
 30
0.0
 40
5.434291660695685
100
AcDbArc
 50
358.9691697618
 51
3.1319617575
  0
LINE
  5
178
330
1F
100
AcDbEntity
  8
0
  6
Continuous
 62
     7
370
    25
100
AcDbLine
 10
6523.7601895759
 20
5276.0880975877
 30
0.0
 11
6545.4654885224
 21
5276.0880975877
 31
0.0
  0
LWPOLYLINE
  5
179
330
1F
100
AcDbEntity
  8
0
  6
Continuous
 62
     7
370
    25
100
AcDbPolyline
 90
        3
 70
   128
 43
0.0
 10
6500.8606841556
 20
5275.6934254323
 10
6500.4723580322
 20
5246.5791343604
 10
6500.4673288903
 20
5246.2020753775
  0
LINE
  5
17A
330
1F
100
AcDbEntity
  8
0
  6
Continuous
 62
     7
370
    25
100
AcDbLine
 10
6523.3602251432
 20
5275.6934254323
 30
0.0
 11
6500.8606841556
 21
5275.6934254323
 31
0.0
  0
ARC
  5
17B
330
1F
100
AcDbEntity
  8
0
  6
Continuous
 62
     7
370
    25
100
AcDbCircle
 10
6501.2606107674
 20
5275.6881360034
 30
0.0
 40
0.3999615892656604
100
AcDbArc
 50
90.0090628271
 51
179.2422502713
  0
LINE
  5
17C
330
1F
100
AcDbEntity
  8
0
  6
Continuous
 62
     7
370
    25
100
AcDbLine
 10
6501.260547503
 20
5276.0880975877
 30
0.0
 11
6523.7601895759
 21
5276.0880975877
 31
0.0
  0
LINE
  5
17D
330
1F
100
AcDbEntity
  8
0
  6
Continuous
 62
     7
370
    25
100
AcDbLine
 10
6500.8605817101
 20
5275.6934254323
 30
0.0
 11
6500.8606841556
 21
5275.6934254323
 31
0.0
  0
LINE
  5
17E
330
1F
100
AcDbEntity
  8
0
  6
Continuous
 62
     7
370
    25
100
AcDbLine
 10
6500.3601895413
 20
5238.2914288793
 30
0.0
 11
6546.3601896307
 21
5238.2914288793
 31
0.0
  0
LINE
  5
17F
330
1F
100
AcDbEntity
  8
0
  6
Continuous
 62
     7
370
    25
100
AcDbLine
 10
6500.3601895413
 20
5233.2914261971
 30
0.0
 11
6546.3601896307
 21
5233.2914261971
 31
0.0
  0
LINE
  5
180
330
1F
100
AcDbEntity
  8
0
  6
Continuous
 62
     7
370
    25
100
AcDbLine
 10
6500.3601895413
 20
5218.4914289866
 30
0.0
 11
6546.3601896307
 21
5218.4914289866
 31
0.0
  0
SPLINE
  5
181
330
1F
100
AcDbEntity
  8
0
  6
Continuous
 62
     7
370
    25
100
AcDbSpline
210
0.0
220
0.0
230
1.0
 70
     8
 71
     3
 72
    12
 73
     8
 74
     0
 42
0.000000001
 43
0.00000001
 40
0.0
 40
0.0
 40
0.0
 40
0.0
 40
0.2113655866930864
 40
0.4226091506801716
 40
0.6370171140330975
 40
0.8536048234395206
 40
1.0
 40
1.0
 40
1.0
 40
1.0
 10
6500.910245417701
 20
5227.691428259453
 30
0.0
 10
6500.897942822008
 20
5228.245928203157
 30
0.0
 10
6500.87334473299
 20
5229.354607974202
 30
0.0
 10
6500.701372547843
 20
5230.840294529517
 30
0.0
 10
6500.51321515859
 20
5231.967624853436
 30
0.0
 10
6500.375033046238
 20
5232.623910187164
 30
0.0
 10
6500.373729555717
 20
5232.628951258982
 30
0.0
 10
6500.373203842984
 20
5232.630984381279
 30
0.0
  0
SPLINE
  5
182
330
1F
100
AcDbEntity
  8
0
  6
Continuous
 62
     7
370
    25
100
AcDbSpline
210
0.0
220
0.0
230
1.0
 70
     8
 71
     3
 72
    12
 73
     8
 74
     0
 42
0.000000001
 43
0.00000001
 40
0.0
 40
0.0
 40
0.0
 40
0.0
 40
0.1936694911480654
 40
0.4035481323276889
 40
0.6173930721841849
 40
0.8339459748483603
 40
1.0
 40
1.0
 40
1.0
 40
1.0
 10
6500.364462449299
 20
5222.711489990791
 30
0.0
 10
6500.37278940322
 20
5222.748751204024
 30
0.0
 10
6500.390140234695
 20
5222.826392204263
 30
0.0
 10
6500.548931201224
 20
5223.605515181195
 30
0.0
 10
6500.739210753221
 20
5224.812001132689
 30
0.0
 10
6500.885250034578
 20
5226.254156630035
 30
0.0
 10
6500.902680483554
 20
5227.256433317658
 30
0.0
 10
6500.910245417701
 20
5227.691428259453
 30
0.0
  0
LINE
  5
183
330
1F
100
AcDbEntity
  8
0
  6
Continuous
 62
     7
370
    25
100
AcDbLine
 10
6500.3601895413
 20
5232.9914285694
 30
0.0
 11
6546.3601896307
 21
5232.9914285694
 31
0.0
  0
SPLINE
  5
184
330
1F
100
AcDbEntity
  8
0
  6
Continuous
 62
     7
370
    25
100
AcDbSpline
210
0.0
220
0.0
230
1.0
 70
     8
 71
     3
 72
    17
 73
    13
 74
     0
 42
0.000000001
 43
0.00000001
 40
0.0
 40
0.0
 40
0.0
 40
0.0
 40
0.0417269349537412
 40
0.1582370487592821
 40
0.264637817034785
 40
0.3592513665289576
 40
0.448116382266274
 40
0.5430172224055368
 40
0.6521428147996493
 40
0.7693567443771047
 40
0.8844754655620295
 40
1.0
 40
1.0
 40
1.0
 40
1.0
 10
6546.112871333109
 20
5152.121526644071
 30
0.0
 10
6546.042261213546
 20
5152.112928106028
 30
0.0
 10
6545.774493237188
 20
5152.080320695848
 30
0.0
 10
6545.255112406045
 20
5151.651363315411
 30
0.0
 10
6544.633991950867
 20
5150.675867272607
 30
0.0
 10
6544.158602736122
 20
5149.43228763263
 30
0.0
 10
6543.880655279129
 20
5147.998161729294
 30
0.0
 10
6543.864433610911
 20
5146.370724103676
 30
0.0
 10
6544.194575143018
 20
5144.70049536832
 30
0.0
 10
6544.796189208147
 20
5143.326389840104
 30
0.0
 10
6545.498928093792
 20
5142.38934013312
 30
0.0
 10
6545.907983677672
 20
5142.264947225873
 30
0.0
 10
6546.112871333109
 20
5142.202641338547
 30
0.0
  0
ARC
  5
185
330
1F
100
AcDbEntity
  8
0
  6
Continuous
 62
     7
370
    25
100
AcDbCircle
 10
6545.8193914744
 20
5142.1959656342
 30
0.0
 40
0.2935557740852703
100
AcDbArc
 50
272.5128513934
 51
1.3030663865
  0
ARC
  5
186
330
1F
100
AcDbEntity
  8
0
  6
Continuous
 62
     7
370
    25
100
AcDbCircle
 10
6545.8193928478
 20
5152.1282036333
 30
0.0
 40
0.2935544303075273
100
AcDbArc
 50
358.6966768153
 51
87.4874054047
  0
SPLINE
  5
187
330
1F
100
AcDbEntity
  8
0
  6
Continuous
 62
     7
370
    25
100
AcDbSpline
210
0.0
220
0.0
230
1.0
 70
     8
 71
     3
 72
    11
 73
     7
 74
     0
 42
0.000000001
 43
0.00000001
 40
0.0
 40
0.0
 40
0.0
 40
0.0
 40
0.0000079140796599
 40
0.4564385102976142
 40
0.9222131150790905
 40
1.0
 40
1.0
 40
1.0
 40
1.0
 10
6545.832261978732
 20
5152.421475843033
 30
0.0
 10
6545.83226818756
 20
5152.421475843032
 30
0.0
 10
6546.190357601788
 20
5152.421475837532
 30
0.0
 10
6546.697777361076
 20
5152.423419267589
 30
0.0
 10
6547.064734626177
 20
5152.423697833896
 30
0.0
 10
6546.969346517567
 20
5152.423539902972
 30
0.0
 10
6546.955695911394
 20
5152.423517302116
 30
0.0
  0
SPLINE
  5
188
330
1F
100
AcDbEntity
  8
0
  6
Continuous
 62
     7
370
    25
100
AcDbSpline
210
0.0
220
0.0
230
1.0
 70
     8
 71
     3
 72
    10
 73
     6
 74
     0
 42
0.000000001
 43
0.00000001
 40
0.0
 40
0.0
 40
0.0
 40
0.0
 40
0.0906696495457916
 40
0.6226923940202745
 40
1.0
 40
1.0
 40
1.0
 40
1.0
 10
6546.955695911394
 20
5141.90064974918
 30
0.0
 10
6546.969177628178
 20
5141.900626479252
 30
0.0
 10
6547.061766080234
 20
5141.900466668253
 30
0.0
 10
6546.791459862148
 20
5141.900912461413
 30
0.0
 10
6546.292656083085
 20
5141.901839825377
 30
0.0
 10
6546.085687889801
 20
5141.902224615654
 30
0.0
  0
SPLINE
  5
189
330
1F
100
AcDbEntity
  8
0
  6
Continuous
 62
     7
370
    25
100
AcDbSpline
210
0.0
220
0.0
230
1.0
 70
     8
 71
     3
 72
    48
 73
    44
 74
     0
 42
0.000000001
 43
0.00000001
 40
0.0
 40
0.0
 40
0.0
 40
0.0
 40
0.0624999999999995
 40
0.0624999999999995
 40
0.1249999999999989
 40
0.1249999999999989
 40
0.1874999999999984
 40
0.1874999999999984
 40
0.2499999999999978
 40
0.2499999999999978
 40
0.2812499999999974
 40
0.2812499999999974
 40
0.3124999999999971
 40
0.3124999999999971
 40
0.3437499999999967
 40
0.3437499999999967
 40
0.3749999999999967
 40
0.3749999999999967
 40
0.4062499999999966
 40
0.4062499999999966
 40
0.4374999999999966
 40
0.4374999999999966
 40
0.4999999999999957
 40
0.4999999999999957
 40
0.5312499999999957
 40
0.5312499999999957
 40
0.5624999999999956
 40
0.5624999999999956
 40
0.6249999999999961
 40
0.6249999999999961
 40
0.6874999999999967
 40
0.6874999999999967
 40
0.7499999999999972
 40
0.7499999999999972
 40
0.8124999999999979
 40
0.8124999999999979
 40
0.8749999999999984
 40
0.8749999999999984
 40
0.9062499999999988
 40
0.9062499999999988
 40
0.9374999999999992
 40
0.9374999999999992
 40
1.0
 40
1.0
 40
1.0
 40
1.0
 10
6546.598089663275
 20
5158.027639935094
 30
0.0
 10
6546.446507628184
 20
5157.925396561425
 30
0.0
 10
6546.272808304497
 20
5157.885244203468
 30
0.0
 10
6545.880960603328
 20
5157.930479569489
 30
0.0
 10
6545.660032949624
 20
5158.018533285067
 30
0.0
 10
6545.198826548565
 20
5158.325528892614
 30
0.0
 10
6544.956426095313
 20
5158.543584966676
 30
0.0
 10
6544.46152407173
 20
5159.129698648708
 30
0.0
 10
6544.220822819813
 20
5159.48419935656
 30
0.0
 10
6543.884394044027
 20
5160.113777051874
 30
0.0
 10
6543.7755773511
 20
5160.342146184063
 30
0.0
 10
6543.573559831266
 20
5160.824301424789
 30
0.0
 10
6543.480814309364
 20
5161.076476067409
 30
0.0
 10
6543.313045577501
 20
5161.602151674768
 30
0.0
 10
6543.238023326598
 20
5161.875657831705
 30
0.0
 10
6543.106910942191
 20
5162.443673133797
 30
0.0
 10
6543.051370743149
 20
5162.736496469492
 30
0.0
 10
6542.961784526455
 20
5163.326512273838
 30
0.0
 10
6542.927310937204
 20
5163.625474513955
 30
0.0
 10
6542.877740329706
 20
5164.230598547789
 30
0.0
 10
6542.862657464063
 20
5164.538371427473
 30
0.0
 10
6542.844900358072
 20
5165.455425204384
 30
0.0
 10
6542.868786755795
 20
5166.060743265531
 30
0.0
 10
6542.945649460088
 20
5166.961629774064
 30
0.0
 10
6542.978175464848
 20
5167.260727858005
 30
0.0
 10
6543.055570882593
 20
5167.856712860225
 30
0.0
 10
6543.100518261337
 20
5168.153741259427
 30
0.0
 10
6543.249625300785
 20
5169.028836985759
 30
0.0
 10
6543.368441749343
 20
5169.595713206942
 30
0.0
 10
6543.63490547528
 20
5170.700723397809
 30
0.0
 10
6543.782618146643
 20
5171.238825232542
 30
0.0
 10
6544.100798514872
 20
5172.286700169123
 30
0.0
 10
6544.271820198028
 20
5172.797315738721
 30
0.0
 10
6544.622441365395
 20
5173.760573070842
 30
0.0
 10
6544.803083887638
 20
5174.216899171151
 30
0.0
 10
6545.170549682597
 20
5175.072623044779
 30
0.0
 10
6545.357390465625
 20
5175.472254425797
 30
0.0
 10
6545.639697801573
 20
5176.01678067829
 30
0.0
 10
6545.734116440257
 20
5176.188798605844
 30
0.0
 10
6545.918608510325
 20
5176.503091382917
 30
0.0
 10
6546.00922622224
 20
5176.646464391218
 30
0.0
 10
6546.275030069269
 20
5177.029749734929
 30
0.0
 10
6546.445671089792
 20
5177.224319485218
 30
0.0
 10
6546.598089663275
 20
5177.327127111156
 30
0.0
  0
LINE
  5
18A
330
1F
100
AcDbEntity
  8
0
  6
Continuous
 62
     7
370
    25
100
AcDbLine
 10
6499.3601893774
 20
5180.1914251302
 30
0.0
 11
6547.3601897946
 21
5180.1914251302
 31
0.0
  0
LINE
  5
18B
330
1F
100
AcDbEntity
  8
0
  6
Continuous
 62
     7
370
    25
100
AcDbLine
 10
6499.3601893774
 20
5155.4914261107
 30
0.0
 11
6547.3601897946
 21
5155.4914261107
 31
0.0
  0
LINE
  5
18C
330
1F
100
AcDbEntity
  8
0
  6
Continuous
 62
     7
370
    25
100
AcDbLine
 10
6499.3601893774
 20
5218.1914239083
 30
0.0
 11
6547.3601897946
 21
5218.1914239083
 31
0.0
  0
LINE
  5
18D
330
1F
100
AcDbEntity
  8
0
  6
Continuous
 62
     7
370
    25
100
AcDbLine
 10
6499.3601893774
 20
5180.4914264832
 30
0.0
 11
6547.3601897946
 21
5180.4914264832
 31
0.0
  0
LINE
  5
18E
330
1F
100
AcDbEntity
  8
0
  6
Continuous
 62
     7
370
    25
100
AcDbLine
 10
6499.3601893774
 20
5155.1914266203
 30
0.0
 11
6547.3601897946
 21
5155.1914266203
 31
0.0
  0
LINE
  5
18F
330
1F
100
AcDbEntity
  8
0
  6
Continuous
 62
     7
370
    25
100
AcDbLine
 10
6546.1417069427
 20
5141.8914268617
 30
0.0
 11
6547.3601897946
 21
5141.8914268617
 31
0.0
  0
LINE
  5
190
330
1F
100
AcDbEntity
  8
0
  6
Continuous
 62
     7
370
    25
100
AcDbLine
 10
6547.3601897946
 20
5152.491425619
 30
0.0
 11
6546.1417069427
 21
5152.491425619
 31
0.0
  0
SPLINE
  5
191
330
1F
100
AcDbEntity
  8
0
  6
Continuous
 62
     7
370
    25
100
AcDbSpline
210
0.0
220
0.0
230
1.0
 70
     8
 71
     3
 72
    46
 73
    42
 74
     0
 42
0.000000001
 43
0.00000001
 40
0.0
 40
0.0
 40
0.0
 40
0.0
 40
0.0624999999999998
 40
0.0624999999999998
 40
0.1249999999999995
 40
0.1249999999999995
 40
0.1874999999999993
 40
0.1874999999999993
 40
0.2187499999999992
 40
0.2187499999999992
 40
0.2499999999999992
 40
0.2499999999999992
 40
0.3124999999999994
 40
0.3124999999999994
 40
0.3749999999999996
 40
0.3749999999999996
 40
0.4374999999999998
 40
0.4374999999999998
 40
0.4687499999999996
 40
0.4687499999999996
 40
0.4999999999999993
 40
0.4999999999999993
 40
0.5312499999999991
 40
0.5312499999999991
 40
0.5624999999999992
 40
0.5624999999999992
 40
0.6249999999999991
 40
0.6249999999999991
 40
0.6562499999999991
 40
0.6562499999999991
 40
0.6874999999999991
 40
0.6874999999999991
 40
0.7499999999999992
 40
0.7499999999999992
 40
0.8124999999999994
 40
0.8124999999999994
 40
0.8749999999999997
 40
0.8749999999999997
 40
0.9374999999999999
 40
0.9374999999999999
 40
1.0
 40
1.0
 40
1.0
 40
1.0
 10
6546.141706216843
 20
5152.491426411708
 30
0.0
 10
6546.026081152246
 20
5152.491426411708
 30
0.0
 10
6545.904377443095
 20
5152.457335187273
 30
0.0
 10
6545.64993606799
 20
5152.326569205676
 30
0.0
 10
6545.516227113239
 20
5152.228939186765
 30
0.0
 10
6545.243573335511
 20
5151.973217443038
 30
0.0
 10
6545.106574991057
 20
5151.817370913819
 30
0.0
 10
6544.902381158136
 20
5151.542406786823
 30
0.0
 10
6544.83454180658
 20
5151.443832313518
 30
0.0
 10
6544.699835029358
 20
5151.232284036372
 30
0.0
 10
6544.632865159874
 20
5151.119025020465
 30
0.0
 10
6544.438445311937
 20
5150.763994442992
 30
0.0
 10
6544.316002213634
 20
5150.505133776352
 30
0.0
 10
6544.091144626382
 20
5149.940129284025
 30
0.0
 10
6543.98768232718
 20
5149.629391978125
 30
0.0
 10
6543.817511186567
 20
5148.981864205202
 30
0.0
 10
6543.749900821376
 20
5148.644365182828
 30
0.0
 10
6543.67964661123
 20
5148.115627195817
 30
0.0
 10
6543.661372772548
 20
5147.934231495102
 30
0.0
 10
6543.636902040408
 20
5147.570321460359
 30
0.0
 10
6543.630662531889
 20
5147.388665862851
 30
0.0
 10
6543.629973724341
 20
5147.025939372483
 30
0.0
 10
6543.635524800634
 20
5146.844868507656
 30
0.0
 10
6543.658378001713
 20
5146.483313156707
 30
0.0
 10
6543.675843814496
 20
5146.301673930276
 30
0.0
 10
6543.744796798889
 20
5145.766699722879
 30
0.0
 10
6543.812004851247
 20
5145.425705908937
 30
0.0
 10
6543.939386712483
 20
5144.935532346831
 30
0.0
 10
6543.986550399244
 20
5144.775097896289
 30
0.0
 10
6544.087097137823
 20
5144.467406330087
 30
0.0
 10
6544.140614692014
 20
5144.319464188433
 30
0.0
 10
6544.309457008878
 20
5143.892250194866
 30
0.0
 10
6544.434174844368
 20
5143.627388442643
 30
0.0
 10
6544.694136386298
 20
5143.151230141614
 30
0.0
 10
6544.828655586118
 20
5142.940450978265
 30
0.0
 10
6545.102237099862
 20
5142.570622064668
 30
0.0
 10
6545.242033609501
 20
5142.411404024677
 30
0.0
 10
6545.512986302284
 20
5142.15663433011
 30
0.0
 10
6545.645361845698
 20
5142.059175449778
 30
0.0
 10
6545.901927962062
 20
5141.926250137558
 30
0.0
 10
6546.02595231376
 20
5141.891426411708
 30
0.0
 10
6546.141706216843
 20
5141.891426411708
 30
0.0
  0
LINE
  5
192
330
1F
100
AcDbEntity
  8
0
  6
Continuous
 62
     7
370
    25
100
AcDbLine
 10
6499.3601893774
 20
5131.1914264117
 30
0.0
 11
6547.3601897946
 21
5131.1914264117
 31
0.0
  0
LINE
  5
193
330
1F
100
AcDbEntity
  8
0
  6
Continuous
 62
     7
370
    25
100
AcDbLine
 10
6686.7377428106
 20
5271.8525170241
 30
0.0
 11
6546.5980903945
 21
5177.3271276508
 31
0.0
  0
LWPOLYLINE
  5
194
330
1F
100
AcDbEntity
  8
0
  6
Continuous
 62
     7
370
    25
100
AcDbPolyline
 90
       19
 70
   128
 43
0.0
 10
6686.7377428106
 20
5271.8525170241
 10
6686.8057070068
 20
5271.7517553721
 10
6687.007528334
 20
5271.4525400554
 10
6687.337082415
 20
5270.9639607821
 10
6687.7843556694
 20
5270.300859109
 10
6688.335743337
 20
5269.4833814059
 10
6688.9745114139
 20
5268.5363679086
 10
6689.681243687
 20
5267.4885927592
 10
6690.434467583
 20
5266.3718997393
 10
6691.2112800172
 20
5265.220218793
 10
6691.9881073526
 20
5264.0685229455
 10
6692.7413312486
 20
5262.9518299256
 10
6693.4480635217
 20
5261.9040696774
 10
6694.0868166975
 20
5260.9570561801
 10
6694.6382192663
 20
5260.139578477
 10
6695.0854925207
 20
5259.4764768039
 10
6695.4150466016
 20
5258.9878975306
 10
6695.6168679288
 20
5258.6886822139
 10
6695.6848321251
 20
5258.5879205619
  0
LINE
  5
195
330
1F
100
AcDbEntity
  8
0
  6
Continuous
 62
     7
370
    25
100
AcDbLine
 10
6695.6848321251
 20
5258.5879205619
 30
0.0
 11
6546.5980903945
 21
5158.0276391362
 31
0.0
  0
ARC
  5
196
330
1F
100
AcDbEntity
  8
0
  6
Continuous
 62
     7
370
    25
100
AcDbCircle
 10
6747.0862729624
 20
5276.4508185845
 30
0.0
 40
0.9609916282222897
100
AcDbArc
 50
5.6142668391
 51
95.3965714529
  0
SPLINE
  5
197
330
1F
100
AcDbEntity
  8
0
  6
Continuous
 62
     7
370
    25
100
AcDbSpline
210
0.0
220
0.0
230
1.0
 70
     8
 71
     3
 72
    30
 73
    26
 74
     0
 42
0.000000001
 43
0.00000001
 40
0.0
 40
0.0
 40
0.0
 40
0.0
 40
0.1249999999999975
 40
0.1249999999999975
 40
0.1874999999999974
 40
0.1874999999999974
 40
0.2499999999999972
 40
0.2499999999999972
 40
0.3749999999999951
 40
0.3749999999999951
 40
0.4374999999999953
 40
0.4374999999999953
 40
0.4999999999999957
 40
0.4999999999999957
 40
0.6249999999999968
 40
0.6249999999999968
 40
0.749999999999998
 40
0.749999999999998
 40
0.8749999999999991
 40
0.8749999999999991
 40
0.9375000000000012
 40
0.9375000000000012
 40
0.9687500000000007
 40
0.9687500000000007
 40
1.0
 40
1.0
 40
1.0
 40
1.0
 10
6746.99588628141
 20
5277.407544638781
 30
0.0
 10
6747.342945548753
 20
5277.456320637905
 30
0.0
 10
6747.73328303162
 20
5277.605354677796
 30
0.0
 10
6748.378763728108
 20
5277.936629867608
 30
0.0
 10
6748.605423461114
 20
5278.066342994658
 30
0.0
 10
6749.070508824019
 20
5278.353635245095
 30
0.0
 10
6749.308583300926
 20
5278.510819960519
 30
0.0
 10
6750.03852501439
 20
5279.016246801693
 30
0.0
 10
6750.546024620639
 20
5279.39798220041
 30
0.0
 10
6751.337004206964
 20
5280.022353353598
 30
0.0
 10
6751.604404182249
 20
5280.238266911262
 30
0.0
 10
6752.141437388536
 20
5280.67951193852
 30
0.0
 10
6752.411864441216
 20
5280.905475263115
 30
0.0
 10
6753.229004959579
 20
5281.597263820278
 30
0.0
 10
6753.781560094158
 20
5282.07687244228
 30
0.0
 10
6754.903266455081
 20
5283.065687355181
 30
0.0
 10
6755.474815959909
 20
5283.57715256834
 30
0.0
 10
6756.617468825626
 20
5284.608746983727
 30
0.0
 10
6757.190002336646
 20
5285.130120980979
 30
0.0
 10
6758.052109107041
 20
5285.918307453174
 30
0.0
 10
6758.340027918765
 20
5286.18206569985
 30
0.0
 10
6758.772920788623
 20
5286.579023774651
 30
0.0
 10
6758.917387612266
 20
5286.711563538602
 30
0.0
 10
6759.206692963624
 20
5286.977049463188
 30
0.0
 10
6759.352493171839
 20
5287.110878390607
 30
0.0
 10
6759.496436623648
 20
5287.243002998268
 30
0.0
  0
SPLINE
  5
198
330
1F
100
AcDbEntity
  8
0
  6
Continuous
 62
     7
370
    25
100
AcDbSpline
210
0.0
220
0.0
230
1.0
 70
     8
 71
     3
 72
    30
 73
    26
 74
     0
 42
0.000000001
 43
0.00000001
 40
0.0
 40
0.0
 40
0.0
 40
0.0
 40
0.1249999999999955
 40
0.1249999999999955
 40
0.1874999999999943
 40
0.1874999999999943
 40
0.2499999999999931
 40
0.2499999999999931
 40
0.3749999999999901
 40
0.3749999999999901
 40
0.43749999999999
 40
0.43749999999999
 40
0.4999999999999898
 40
0.4999999999999898
 40
0.6249999999999922
 40
0.6249999999999922
 40
0.7499999999999947
 40
0.7499999999999947
 40
0.8749999999999972
 40
0.8749999999999972
 40
0.9374999999999969
 40
0.9374999999999969
 40
0.9687499999999984
 40
0.9687499999999984
 40
1.0
 40
1.0
 40
1.0
 40
1.0
 10
6748.042655059032
 20
5276.54483082401
 30
0.0
 10
6748.359496393244
 20
5276.589359969589
 30
0.0
 10
6748.714515328677
 20
5276.740866029004
 30
0.0
 10
6749.302756520232
 20
5277.087717307767
 30
0.0
 10
6749.509554660308
 20
5277.224694759797
 30
0.0
 10
6749.934655310895
 20
5277.53044691603
 30
0.0
 10
6750.152220430608
 20
5277.698482031922
 30
0.0
 10
6750.819465683106
 20
5278.240821072505
 30
0.0
 10
6751.283623022123
 20
5278.652940320155
 30
0.0
 10
6752.008338014277
 20
5279.330640658562
 30
0.0
 10
6752.253816130888
 20
5279.565823275479
 30
0.0
 10
6752.74630602702
 20
5280.046539701677
 30
0.0
 10
6752.994246914921
 20
5280.292945827532
 30
0.0
 10
6753.743433393149
 20
5281.047985666877
 30
0.0
 10
6754.250029426142
 20
5281.572309887176
 30
0.0
 10
6755.279098211918
 20
5282.655149069242
 30
0.0
 10
6755.804087047564
 20
5283.216492554595
 30
0.0
 10
6756.853266690535
 20
5284.348948457549
 30
0.0
 10
6757.378758612864
 20
5284.921400814866
 30
0.0
 10
6758.170138913031
 20
5285.787145677641
 30
0.0
 10
6758.434454195847
 20
5286.076914537949
 30
0.0
 10
6758.831933529428
 20
5286.513129377159
 30
0.0
 10
6758.964594464945
 20
5286.658794919468
 30
0.0
 10
6759.230291029015
 20
5286.95061405174
 30
0.0
 10
6759.364307998007
 20
5287.097845802867
 30
0.0
 10
6759.496436623648
 20
5287.243002998268
 30
0.0
  0
LWPOLYLINE
  5
199
330
1F
100
AcDbEntity
  8
0
  6
Continuous
 62
     7
370
    25
100
AcDbPolyline
 90
       27
 70
   128
 43
0.0
 10
6774.8911050848
 20
5278.2984762345
 10
6774.8626140646
 20
5278.2944678222
 10
6774.635430961
 20
5278.2625495349
 10
6774.1848198465
 20
5278.1992195998
 10
6773.5181418947
 20
5278.1055210982
 10
6772.6463941625
 20
5277.9830037509
 10
6771.5838370613
 20
5277.8336792146
 10
6770.347949653
 20
5277.6599763785
 10
6768.9590273193
 20
5277.464786068
 10
6767.4398539356
 20
5277.2512673293
 10
6765.815403848
 20
5277.0229666386
 10
6764.1123203329
 20
5276.7836241875
 10
6762.3585728696
 20
5276.5371440802
 10
6760.5829803041
 20
5276.2876092349
 10
6758.8146893076
 20
5276.0390876685
 10
6757.082727342
 20
5275.7956772004
 10
6755.415525823
 20
5275.5613713418
 10
6753.8404730848
 20
5275.3399996911
 10
6752.3834375433
 20
5275.135227934
 10
6751.0683206609
 20
5274.9504088317
 10
6749.9167440227
 20
5274.7885673199
 10
6748.9475873998
 20
5274.6523558055
 10
6748.1767950348
 20
5274.5440243636
 10
6747.6170031122
 20
5274.4653611337
 10
6747.2774056486
 20
5274.4176327144
 10
6747.1635905794
 20
5274.4016288672
 10
6747.1635905794
 20
5274.4016288672
  0
SPLINE
  5
19A
330
1F
100
AcDbEntity
  8
0
  6
Continuous
 62
     7
370
    25
100
AcDbSpline
210
0.0
220
0.0
230
1.0
 70
     8
 71
     3
 72
    16
 73
    12
 74
     0
 42
0.000000001
 43
0.00000001
 40
0.0
 40
0.0
 40
0.0
 40
0.0
 40
0.2499999999999974
 40
0.2499999999999974
 40
0.4999999999999949
 40
0.4999999999999949
 40
0.7499999999999923
 40
0.7499999999999923
 40
0.8749999999999961
 40
0.8749999999999961
 40
1.0
 40
1.0
 40
1.0
 40
1.0
 10
6766.498188119293
 20
5289.236862570362
 30
0.0
 10
6765.954566519054
 20
5289.160461536902
 30
0.0
 10
6765.40013942832
 20
5289.04314480933
 30
0.0
 10
6764.263670956468
 20
5288.762007450217
 30
0.0
 10
6763.679772076709
 20
5288.596622855322
 30
0.0
 10
6762.504773585839
 20
5288.241133358923
 30
0.0
 10
6761.911054263846
 20
5288.050225843505
 30
0.0
 10
6761.00866191285
 20
5287.7523931893
 30
0.0
 10
6760.706816137505
 20
5287.651473786977
 30
0.0
 10
6760.102066398482
 20
5287.448018041434
 30
0.0
 10
6759.79751095099
 20
5287.344920717254
 30
0.0
 10
6759.496436623648
 20
5287.243002998268
 30
0.0
  0
LWPOLYLINE
  5
19B
330
1F
100
AcDbEntity
  8
0
  6
Continuous
 62
     7
370
    25
100
AcDbPolyline
 90
       19
 70
   128
 43
0.0
 10
6741.165515571
 20
5292.7453755294
 10
6741.1824283889
 20
5292.6250188504
 10
6741.2326602033
 20
5292.2676144992
 10
6741.3146761945
 20
5291.684010521
 10
6741.4260027698
 20
5290.8919541989
 10
6741.5632275632
 20
5289.915496007
 10
6741.722208052
 20
5288.7843041573
 10
6741.8981013588
 20
5287.5327705298
 10
6742.0855579666
 20
5286.1989079867
 10
6742.2789005331
 20
5284.8232327853
 10
6742.4722430996
 20
5283.447572485
 10
6742.6596997074
 20
5282.1137099419
 10
6742.8355930141
 20
5280.8621614133
 10
6742.9945735029
 20
5279.7309844647
 10
6743.1317982963
 20
5278.7545262729
 10
6743.2431248716
 20
5277.9624550496
 10
6743.3251408628
 20
5277.3788510714
 10
6743.3753726772
 20
5277.0214467202
 10
6743.3922854951
 20
5276.9010900412
  0
LINE
  5
19C
330
1F
100
AcDbEntity
  8
0
  6
Continuous
 62
     7
370
    25
100
AcDbLine
 10
6741.165515571
 20
5292.7453755294
 30
0.0
 11
6761.9535146049
 21
5295.6669418965
 31
0.0
  0
SPLINE
  5
19D
330
1F
100
AcDbEntity
  8
0
  6
Continuous
 62
     7
370
    25
100
AcDbSpline
210
0.0
220
0.0
230
1.0
 70
     8
 71
     3
 72
    30
 73
    26
 74
     0
 42
0.000000001
 43
0.00000001
 40
0.0
 40
0.0
 40
0.0
 40
0.0
 40
0.1250000000000049
 40
0.1250000000000049
 40
0.1875000000000072
 40
0.1875000000000072
 40
0.2500000000000096
 40
0.2500000000000096
 40
0.3750000000000118
 40
0.3750000000000118
 40
0.5000000000000139
 40
0.5000000000000139
 40
0.625000000000016
 40
0.625000000000016
 40
0.6875000000000175
 40
0.6875000000000175
 40
0.7500000000000191
 40
0.7500000000000191
 40
0.8750000000000162
 40
0.8750000000000162
 40
0.9375000000000118
 40
0.9375000000000118
 40
0.9687500000000059
 40
0.9687500000000059
 40
1.0
 40
1.0
 40
1.0
 40
1.0
 10
6761.95351411427
 20
5295.666943299877
 30
0.0
 10
6761.842606141714
 20
5295.651356200839
 30
0.0
 10
6761.734386041416
 20
5295.58179691816
 30
0.0
 10
6761.573142809599
 20
5295.400793858763
 30
0.0
 10
6761.5195821797
 20
5295.327585970661
 30
0.0
 10
6761.412362911649
 20
5295.155031655373
 30
0.0
 10
6761.358513579433
 20
5295.055168325977
 30
0.0
 10
6761.199430866631
 20
5294.722403487294
 30
0.0
 10
6761.09565286595
 20
5294.455390874628
 30
0.0
 10
6760.888731980716
 20
5293.833399888399
 30
0.0
 10
6760.784912127269
 20
5293.474980417643
 30
0.0
 10
6760.582272513831
 20
5292.697889943332
 30
0.0
 10
6760.482525086863
 20
5292.276887452629
 30
0.0
 10
6760.33236330518
 20
5291.596790094351
 30
0.0
 10
6760.282057227663
 20
5291.361091844068
 30
0.0
 10
6760.182766415474
 20
5290.882709824554
 30
0.0
 10
6760.133555791142
 20
5290.639047305499
 30
0.0
 10
6759.98648383202
 20
5289.895065178634
 30
0.0
 10
6759.889195906715
 20
5289.381861142154
 30
0.0
 10
6759.741490763497
 20
5288.585865468203
 30
0.0
 10
6759.692417691986
 20
5288.318622407894
 30
0.0
 10
6759.618954686371
 20
5287.916475241462
 30
0.0
 10
6759.59447672643
 20
5287.782131477306
 30
0.0
 10
6759.545478852422
 20
5287.512864077125
 30
0.0
 10
6759.520664708216
 20
5287.376321035677
 30
0.0
 10
6759.496436623648
 20
5287.243002998268
 30
0.0
  0
LINE
  5
19E
330
1F
100
AcDbEntity
  8
0
  6
Continuous
 62
     7
370
    25
100
AcDbLine
 10
6743.3922854951
 20
5276.9010900412
 30
0.0
 11
6746.9958929113
 21
5277.4075507079
 31
0.0
  0
LWPOLYLINE
  5
19F
330
1F
100
AcDbEntity
  8
0
  6
Continuous
 62
     7
370
    25
100
AcDbPolyline
 90
        9
 70
   128
 43
0.0
 10
6766.4981899551
 20
5289.236867324
 10
6766.2395206979
 20
5290.5795662556
 10
6765.8535955242
 20
5291.8513803635
 10
6765.3552112869
 20
5293.0034338389
 10
6764.7635457805
 20
5293.991470233
 10
6764.1013381771
 20
5294.7774915849
 10
6763.3940247587
 20
5295.3313081418
 10
6762.6688001445
 20
5295.6316410457
 10
6761.9535146049
 20
5295.6669418965
  0
ARC
  5
1A0
330
1F
100
AcDbEntity
  8
0
  6
Continuous
 62
     7
370
    25
100
AcDbCircle
 10
6759.2000961147
 20
5164.4226592264
 30
0.0
 40
129.58382200154
100
AcDbArc
 50
98.0
 51
124.0
  0
ARC
  5
1A1
330
1F
100
AcDbEntity
  8
0
  6
Continuous
 62
     7
370
    25
100
AcDbCircle
 10
6759.2000961147
 20
5164.4226592264
 30
0.0
 40
113.5838220015404
100
AcDbArc
 50
98.0
 51
124.0
  0
LWPOLYLINE
  5
1A2
330
1F
100
AcDbEntity
  8
0
  6
Continuous
 62
     7
370
    25
100
AcDbPolyline
 90
        7
 70
   128
 43
0.0
 10
6761.9535146049
 20
5295.6669418965
 10
6762.997013121
 20
5295.813599125
 10
6763.8792512706
 20
5295.9375916873
 10
6764.5694283537
 20
5296.0345833455
 10
6765.0433895877
 20
5296.101191536
 10
6765.2845797828
 20
5296.1350916777
 10
6765.3149334482
 20
5296.1393534098
  0
LWPOLYLINE
  5
1A3
330
1F
100
AcDbEntity
  8
0
  6
Continuous
 62
     7
370
    25
100
AcDbPolyline
 90
       25
 70
   128
 43
0.0
 10
6773.8553253702
 20
5270.5791978989
 10
6773.7455634168
 20
5270.5637751971
 10
6773.418333917
 20
5270.5177902137
 10
6772.8797314457
 20
5270.4420923148
 10
6772.1397844843
 20
5270.3380971108
 10
6771.2122617057
 20
5270.2077417527
 10
6770.1144782594
 20
5270.0534551297
 10
6768.8668487362
 20
5269.8781131659
 10
6767.4926338485
 20
5269.6849792157
 10
6766.0174188903
 20
5269.47765936
 10
6764.468696504
 20
5269.2599980985
 10
6762.8753153375
 20
5269.036063448
 10
6761.2669585041
 20
5268.8100277339
 10
6759.6735773376
 20
5268.5860930835
 10
6758.1248549512
 20
5268.3684318219
 10
6756.6496399931
 20
5268.1610970651
 10
6755.2754251054
 20
5267.9679631148
 10
6754.0278104833
 20
5267.7926211511
 10
6752.9300121359
 20
5267.638334528
 10
6752.0025042585
 20
5267.5079940711
 10
6751.2625423959
 20
5267.4039988671
 10
6750.7239399246
 20
5267.3283009683
 10
6750.3967104248
 20
5267.2823159848
 10
6750.2869484714
 20
5267.2668783818
 10
6750.2869484714
 20
5267.2668783818
  0
LINE
  5
1A4
330
1F
100
AcDbEntity
  8
0
  6
Continuous
 62
     8
370
    25
100
AcDbLine
 10
6550.2893408528
 20
5258.66142799
 30
0.0
 11
6550.2893408528
 21
5265.3214274798
 31
0.0
  0
LINE
  5
1A5
330
1F
100
AcDbEntity
  8
0
  6
Continuous
 62
     8
370
    25
100
AcDbLine
 10
6550.8522787831
 20
5261.9914202844
 30
0.0
 11
6550.8522787831
 21
5259.0538202678
 31
0.0
  0
LINE
  5
1A6
330
1F
100
AcDbEntity
  8
0
  6
Continuous
 62
     8
370
    25
100
AcDbLine
 10
6550.8522787831
 20
5264.9290352021
 30
0.0
 11
6550.8522787831
 21
5261.9914202844
 31
0.0
  0
LINE
  5
1A7
330
1F
100
AcDbEntity
  8
0
  6
Continuous
 62
     8
370
    25
100
AcDbLine
 10
6545.8654524526
 20
5275.6934254323
 30
0.0
 11
6523.7674270292
 21
5275.6934254323
 31
0.0
  0
LINE
  5
1A8
330
1F
100
AcDbEntity
  8
0
  6
Continuous
 62
     8
370
    25
100
AcDbLine
 10
6523.7673004566
 20
5246.1844696556
 30
0.0
 11
6500.4614392063
 21
5246.1844696556
 31
0.0
  0
LINE
  5
1A9
330
1F
100
AcDbEntity
  8
0
  6
Continuous
 62
     8
370
    25
100
AcDbLine
 10
6500.8606841556
 20
5275.6934254323
 30
0.0
 11
6500.8605817101
 21
5275.6934254323
 31
0.0
  0
SPLINE
  5
1AA
330
1F
100
AcDbEntity
  8
0
  6
Continuous
 62
     8
370
    25
100
AcDbSpline
210
0.0
220
0.0
230
1.0
 70
     8
 71
     3
 72
     9
 73
     5
 74
     0
 42
0.000000001
 43
0.00000001
 40
0.0
 40
0.0
 40
0.0
 40
0.0
 40
0.2027049790965074
 40
0.9999999999999999
 40
0.9999999999999999
 40
0.9999999999999999
 40
0.9999999999999999
 10
6543.722548126327
 20
5146.059669077834
 30
0.0
 10
6543.69904076375
 20
5146.180233200516
 30
0.0
 10
6543.583072410721
 20
5146.775009526287
 30
0.0
 10
6543.632485503101
 20
5147.429935864815
 30
0.0
 10
6543.671882315622
 20
5147.952105373582
 30
0.0
  0
SPLINE
  5
1AB
330
1F
100
AcDbEntity
  8
0
  6
Continuous
 62
     8
370
    25
100
AcDbSpline
210
0.0
220
0.0
230
1.0
 70
     8
 71
     3
 72
    10
 73
     6
 74
     0
 42
0.000000001
 43
0.00000001
 40
0.0
 40
0.0
 40
0.0
 40
0.0
 40
0.0780472517391524
 40
0.5343503380272444
 40
1.0
 40
1.0
 40
1.0
 40
1.0
 10
6547.249820618974
 20
5152.123564377865
 30
0.0
 10
6547.263583795965
 20
5152.123587454353
 30
0.0
 10
6547.357813357086
 20
5152.123745447473
 30
0.0
 10
6547.023194530377
 20
5152.123196807977
 30
0.0
 10
6546.418356309185
 20
5152.122087115323
 30
0.0
 10
6546.112871333109
 20
5152.121526644071
 30
0.0
  0
SPLINE
  5
1AC
330
1F
100
AcDbEntity
  8
0
  6
Continuous
 62
     8
370
    25
100
AcDbSpline
210
0.0
220
0.0
230
1.0
 70
     8
 71
     3
 72
    10
 73
     6
 74
     0
 42
0.000000001
 43
0.00000001
 40
0.0
 40
0.0
 40
0.0
 40
0.0
 40
0.45630308269998
 40
0.9219527494396077
 40
0.9999999999999999
 40
0.9999999999999999
 40
0.9999999999999999
 40
0.9999999999999999
 10
6546.112871333109
 20
5142.202641338547
 30
0.0
 10
6546.413167026409
 20
5142.202089726672
 30
0.0
 10
6547.019909453931
 20
5142.200975204101
 30
0.0
 10
6547.359332424545
 20
5142.200417347734
 30
0.0
 10
6547.263567583996
 20
5142.200580223998
 30
0.0
 10
6547.249820618974
 20
5142.200603604754
 30
0.0
  0
LWPOLYLINE
  5
1AD
330
1F
100
AcDbEntity
  8
0
  6
Continuous
 62
     8
370
    25
100
AcDbPolyline
 90
        9
 70
   128
 43
0.0
 10
6773.2210127405
 20
5290.1816903506
 10
6773.1063334039
 20
5290.1655821954
 10
6772.7641878418
 20
5290.1174961482
 10
6772.2002384952
 20
5290.0382368718
 10
6771.4238283924
 20
5289.9291156684
 10
6770.4477725319
 20
5289.7919355784
 10
6769.2882386736
 20
5289.6289764796
 10
6767.9644195131
 20
5289.4429205809
 10
6766.4981899551
 20
5289.236867324
  0
LWPOLYLINE
  5
1AE
330
1F
100
AcDbEntity
  8
0
  6
Continuous
 62
     8
370
    25
100
AcDbPolyline
 90
        5
 70
   128
 43
0.0
 10
6748.0426547817
 20
5276.5448330794
 10
6747.5403217367
 20
5276.4742313777
 10
6747.1776721767
 20
5276.4232694064
 10
6746.9585506013
 20
5276.3924687062
 10
6746.8852368883
 20
5276.3821720038
  0
CIRCLE
  5
1AF
330
1F
100
AcDbEntity
  8
0
  6
Continuous
 62
     7
100
AcDbCircle
 10
6274.0187553361
 20
4910.6928028059
 30
0.0
 40
21.50000000000072
  0
LINE
  5
1B0
330
1F
100
AcDbEntity
  8
0
  6
Continuous
 62
     7
370
    25
100
AcDbLine
 10
6270.6887553584
 20
4888.2563032103
 30
0.0
 11
6270.6887553584
 21
4883.7636515391
 31
0.0
  0
LINE
  5
1B1
330
1F
100
AcDbEntity
  8
0
  6
Continuous
 62
     7
370
    25
100
AcDbLine
 10
6277.3487553138
 20
4883.7636515391
 30
0.0
 11
6277.3487553138
 21
4888.2583763343
 31
0.0
  0
ARC
  5
1B2
330
1F
100
AcDbEntity
  8
0
  6
Continuous
 62
     7
370
    25
100
AcDbCircle
 10
6276.7487553361
 20
4883.7636518474
 30
0.0
 40
0.6000000000008271
100
AcDbArc
 50
290.2436119088
 51
0.0
  0
ARC
  5
1B3
330
1F
100
AcDbEntity
  8
0
  6
Continuous
 62
     7
370
    25
100
AcDbCircle
 10
6271.2887553361
 20
4883.7636518474
 30
0.0
 40
0.6000000000005125
100
AcDbArc
 50
180.0
 51
249.7563880913
  0
ARC
  5
1B4
330
1F
100
AcDbEntity
  8
0
  6
Continuous
 62
     7
370
    25
100
AcDbCircle
 10
6273.9290129729
 20
4890.9228413208
 30
0.0
 40
8.2305277867099
100
AcDbArc
 50
249.7563880913
 51
270.0
  0
ARC
  5
1B5
330
1F
100
AcDbEntity
  8
0
  6
Continuous
 62
     7
370
    25
100
AcDbCircle
 10
6274.1084976993
 20
4890.9228413208
 30
0.0
 40
8.230527786710118
100
AcDbArc
 50
270.0
 51
290.2436119087
  0
LINE
  5
1B6
330
1F
100
AcDbEntity
  8
0
  6
Continuous
 62
     7
370
    25
100
AcDbLine
 10
6273.9290129764
 20
4882.6923139286
 30
0.0
 11
6274.1084976958
 21
4882.6923139286
 31
0.0
  0
LINE
  5
1B7
330
1F
100
AcDbEntity
  8
0
  6
Continuous
 62
     7
370
    25
100
AcDbLine
 10
6260.018754904
 20
4691.7740918589
 30
0.0
 11
6260.018754904
 21
4674.5565600586
 31
0.0
  0
LINE
  5
1B8
330
1F
100
AcDbEntity
  8
0
  6
Continuous
 62
     7
370
    25
100
AcDbLine
 10
6288.0187557682
 20
4674.5565600586
 30
0.0
 11
6288.0187557682
 21
4691.7740918589
 31
0.0
  0
LINE
  5
1B9
330
1F
100
AcDbEntity
  8
0
  6
Continuous
 62
     7
370
    25
100
AcDbLine
 10
6260.018754904
 20
4742.8417123747
 30
0.0
 11
6260.018754904
 21
4691.7740918589
 31
0.0
  0
LINE
  5
1BA
330
1F
100
AcDbEntity
  8
0
  6
Continuous
 62
     7
370
    25
100
AcDbLine
 10
6288.0187557682
 20
4691.7740918589
 30
0.0
 11
6288.0187557682
 21
4742.8417123747
 31
0.0
  0
LINE
  5
1BB
330
1F
100
AcDbEntity
  8
0
  6
Continuous
 62
     7
370
    25
100
AcDbLine
 10
6260.018754904
 20
4674.5565600586
 30
0.0
 11
6260.018754904
 21
4673.0256445599
 31
0.0
  0
LINE
  5
1BC
330
1F
100
AcDbEntity
  8
0
  6
Continuous
 62
     7
370
    25
100
AcDbLine
 10
6288.0187557682
 20
4673.0256445599
 30
0.0
 11
6288.0187557682
 21
4674.5565600586
 31
0.0
  0
LINE
  5
1BD
330
1F
100
AcDbEntity
  8
0
  6
Continuous
 62
     7
370
    25
100
AcDbLine
 10
6288.0187557682
 20
4742.8417123747
 30
0.0
 11
6288.0187557682
 21
4891.1862999094
 31
0.0
  0
LINE
  5
1BE
330
1F
100
AcDbEntity
  8
0
  6
Continuous
 62
     7
370
    25
100
AcDbLine
 10
6260.018754904
 20
4891.1787152183
 30
0.0
 11
6260.018754904
 21
4742.8417123747
 31
0.0
  0
LINE
  5
1BF
330
1F
100
AcDbEntity
  8
0
  6
Continuous
 62
     7
370
    25
100
AcDbLine
 10
6272.3815180732
 20
4922.0995755759
 30
0.0
 11
6272.3815180732
 21
4923.2908023414
 31
0.0
  0
LINE
  5
1C0
330
1F
100
AcDbEntity
  8
0
  6
Continuous
 62
     7
370
    25
100
AcDbLine
 10
6272.3815180732
 20
4923.2908023414
 30
0.0
 11
6272.9194502251
 21
4923.2908703279
 31
0.0
  0
LINE
  5
1C1
330
1F
100
AcDbEntity
  8
0
  6
Continuous
 62
     7
370
    25
100
AcDbLine
 10
6272.9194502251
 20
4923.2908703279
 30
0.0
 11
6272.9194502251
 21
4921.8685936075
 31
0.0
  0
LINE
  5
1C2
330
1F
100
AcDbEntity
  8
0
  6
Continuous
 62
     7
370
    25
100
AcDbLine
 10
6272.9194502251
 20
4921.8685936075
 30
0.0
 11
6273.3237228028
 21
4921.8685936075
 31
0.0
  0
LINE
  5
1C3
330
1F
100
AcDbEntity
  8
0
  6
Continuous
 62
     7
370
    25
100
AcDbLine
 10
6273.7596054001
 20
4921.8685936075
 30
0.0
 11
6274.6641240453
 21
4921.8685936075
 31
0.0
  0
LINE
  5
1C4
330
1F
100
AcDbEntity
  8
0
  6
Continuous
 62
     7
370
    25
100
AcDbLine
 10
6274.6641240453
 20
4921.8685936075
 30
0.0
 11
6274.8284889174
 21
4921.3705157754
 31
0.0
  0
LINE
  5
1C5
330
1F
100
AcDbEntity
  8
0
  6
Continuous
 62
     7
370
    25
100
AcDbLine
 10
6274.8284889174
 20
4921.3705157754
 30
0.0
 11
6273.7594347352
 21
4921.3705157754
 31
0.0
  0
LINE
  5
1C6
330
1F
100
AcDbEntity
  8
0
  6
Continuous
 62
     7
370
    25
100
AcDbLine
 10
6273.7594347352
 20
4921.3705157754
 30
0.0
 11
6273.7596054001
 21
4920.2507009622
 31
0.0
  0
LINE
  5
1C7
330
1F
100
AcDbEntity
  8
0
  6
Continuous
 62
     7
370
    25
100
AcDbLine
 10
6273.7596054001
 20
4920.2507009622
 30
0.0
 11
6274.657245646
 21
4920.2507009622
 31
0.0
  0
LINE
  5
1C8
330
1F
100
AcDbEntity
  8
0
  6
Continuous
 62
     7
370
    25
100
AcDbLine
 10
6274.657245646
 20
4920.2507009622
 30
0.0
 11
6274.657245646
 21
4919.8016935852
 31
0.0
  0
LINE
  5
1C9
330
1F
100
AcDbEntity
  8
0
  6
Continuous
 62
     7
370
    25
100
AcDbLine
 10
6274.657245646
 20
4919.8016935852
 30
0.0
 11
6273.3237228028
 21
4919.8016935852
 31
0.0
  0
LINE
  5
1CA
330
1F
100
AcDbEntity
  8
0
  6
Continuous
 62
     7
370
    25
100
AcDbLine
 10
6273.3237228028
 20
4919.8016935852
 30
0.0
 11
6273.3237740256
 21
4921.3705157754
 31
0.0
  0
LINE
  5
1CB
330
1F
100
AcDbEntity
  8
0
  6
Continuous
 62
     7
370
    25
100
AcDbLine
 10
6273.3237740256
 20
4921.3705157754
 30
0.0
 11
6272.9194502251
 21
4921.3705157754
 31
0.0
  0
LINE
  5
1CC
330
1F
100
AcDbEntity
  8
0
  6
Continuous
 62
     7
370
    25
100
AcDbLine
 10
6272.9194502251
 20
4921.3705157754
 30
0.0
 11
6272.9194502251
 21
4919.8016935852
 31
0.0
  0
LINE
  5
1CD
330
1F
100
AcDbEntity
  8
0
  6
Continuous
 62
     7
370
    25
100
AcDbLine
 10
6272.9194502251
 20
4919.8016935852
 30
0.0
 11
6272.3815180732
 21
4919.8016935852
 31
0.0
  0
LINE
  5
1CE
330
1F
100
AcDbEntity
  8
0
  6
Continuous
 62
     7
370
    25
100
AcDbLine
 10
6272.3815180732
 20
4919.8016935852
 30
0.0
 11
6272.3815180732
 21
4921.3705157754
 31
0.0
  0
LINE
  5
1CF
330
1F
100
AcDbEntity
  8
0
  6
Continuous
 62
     7
370
    25
100
AcDbLine
 10
6272.3815180732
 20
4921.3705157754
 30
0.0
 11
6271.3279273964
 21
4922.1706801918
 31
0.0
  0
LINE
  5
1D0
330
1F
100
AcDbEntity
  8
0
  6
Continuous
 62
     7
370
    25
100
AcDbLine
 10
6271.3279273964
 20
4922.1706801918
 30
0.0
 11
6271.3281152908
 21
4919.8016935852
 31
0.0
  0
LINE
  5
1D1
330
1F
100
AcDbEntity
  8
0
  6
Continuous
 62
     7
370
    25
100
AcDbLine
 10
6271.3281152908
 20
4919.8016935852
 30
0.0
 11
6270.8302758772
 21
4919.8016935852
 31
0.0
  0
LINE
  5
1D2
330
1F
100
AcDbEntity
  8
0
  6
Continuous
 62
     7
370
    25
100
AcDbLine
 10
6270.8303268671
 20
4923.3526393664
 30
0.0
 11
6272.3815180732
 21
4922.0995755759
 31
0.0
  0
LINE
  5
1D3
330
1F
100
AcDbEntity
  8
0
  6
Continuous
 62
     7
370
    25
100
AcDbLine
 10
6274.657245646
 20
4922.873540957
 30
0.0
 11
6273.7596054001
 21
4922.873540957
 31
0.0
  0
LINE
  5
1D4
330
1F
100
AcDbEntity
  8
0
  6
Continuous
 62
     7
370
    25
100
AcDbLine
 10
6273.7596054001
 20
4922.873540957
 30
0.0
 11
6273.7596054001
 21
4921.8685936075
 31
0.0
  0
LINE
  5
1D5
330
1F
100
AcDbEntity
  8
0
  6
Continuous
 62
     7
370
    25
100
AcDbLine
 10
6270.8302758772
 20
4919.8016935852
 30
0.0
 11
6270.8303268671
 21
4923.3526393664
 31
0.0
  0
LINE
  5
1D6
330
1F
100
AcDbEntity
  8
0
  6
Continuous
 62
     7
370
    25
100
AcDbLine
 10
6273.3237228028
 20
4923.2908703279
 30
0.0
 11
6274.657245646
 21
4923.2908703279
 31
0.0
  0
LINE
  5
1D7
330
1F
100
AcDbEntity
  8
0
  6
Continuous
 62
     7
370
    25
100
AcDbLine
 10
6274.657245646
 20
4923.2908703279
 30
0.0
 11
6274.657245646
 21
4922.873540957
 31
0.0
  0
LINE
  5
1D8
330
1F
100
AcDbEntity
  8
0
  6
Continuous
 62
     7
370
    25
100
AcDbLine
 10
6273.3237228028
 20
4921.8685936075
 30
0.0
 11
6273.3237228028
 21
4923.2908703279
 31
0.0
  0
SPLINE
  5
1D9
330
1F
100
AcDbEntity
  8
0
  6
Continuous
 62
     7
370
    25
100
AcDbSpline
210
0.0
220
0.0
230
1.0
 70
     8
 71
     3
 72
    11
 73
     7
 74
     0
 42
0.000000001
 43
0.00000001
 40
0.0
 40
0.0
 40
0.0
 40
0.0
 40
0.2891137242404097
 40
0.564601582995773
 40
0.7797606937176904
 40
1.0
 40
1.0
 40
1.0
 40
1.0
 10
6281.075581596041
 20
4923.212101858553
 30
0.0
 10
6281.076351327337
 20
4923.205961948081
 30
0.0
 10
6281.077854512662
 20
4923.193971499751
 30
0.0
 10
6281.088546812255
 20
4923.18062486803
 30
0.0
 10
6281.101571001132
 20
4923.172565738117
 30
0.0
 10
6281.110789444866
 20
4923.171595092842
 30
0.0
 10
6281.115452446783
 20
4923.171104107496
 30
0.0
  0
SPLINE
  5
1DA
330
1F
100
AcDbEntity
  8
0
  6
Continuous
 62
     7
370
    25
100
AcDbSpline
210
0.0
220
0.0
230
1.0
 70
     8
 71
     3
 72
    11
 73
     7
 74
     0
 42
0.000000001
 43
0.00000001
 40
0.0
 40
0.0
 40
0.0
 40
0.0
 40
0.2780893827872858
 40
0.5510340437940916
 40
0.7701595129465215
 40
1.0
 40
1.0
 40
1.0
 40
1.0
 10
6281.115452446783
 20
4923.253098678288
 30
0.0
 10
6281.109547944684
 20
4923.252308016797
 30
0.0
 10
6281.097848175223
 20
4923.250741321246
 30
0.0
 10
6281.084885509461
 20
4923.239847370083
 30
0.0
 10
6281.076996479849
 20
4923.226478036455
 30
0.0
 10
6281.076060668664
 20
4923.216969560921
 30
0.0
 10
6281.075581596041
 20
4923.212101858553
 30
0.0
  0
SPLINE
  5
1DB
330
1F
100
AcDbEntity
  8
0
  6
Continuous
 62
     7
370
    25
100
AcDbSpline
210
0.0
220
0.0
230
1.0
 70
     8
 71
     3
 72
    11
 73
     7
 74
     0
 42
0.000000001
 43
0.00000001
 40
0.0
 40
0.0
 40
0.0
 40
0.0
 40
0.2850415965884007
 40
0.5575593173701382
 40
0.7737123266865483
 40
1.0
 40
1.0
 40
1.0
 40
1.0
 10
6281.156398509437
 20
4923.212101858553
 30
0.0
 10
6281.155635476135
 20
4923.21825182342
 30
0.0
 10
6281.154142934933
 20
4923.230281542078
 30
0.0
 10
6281.143264486021
 20
4923.243689424927
 30
0.0
 10
6281.129834022374
 20
4923.251690437981
 30
0.0
 10
6281.120318956854
 20
4923.252622150831
 30
0.0
 10
6281.115452446783
 20
4923.253098678288
 30
0.0
  0
SPLINE
  5
1DC
330
1F
100
AcDbEntity
  8
0
  6
Continuous
 62
     7
370
    25
100
AcDbSpline
210
0.0
220
0.0
230
1.0
 70
     8
 71
     3
 72
    11
 73
     7
 74
     0
 42
0.000000001
 43
0.00000001
 40
0.0
 40
0.0
 40
0.0
 40
0.0
 40
0.2850184351196854
 40
0.5576409956604556
 40
0.7739047185816336
 40
1.0
 40
1.0
 40
1.0
 40
1.0
 10
6281.115452446783
 20
4923.171104107496
 30
0.0
 10
6281.121601230633
 20
4923.171872003831
 30
0.0
 10
6281.133631378601
 20
4923.17337439955
 30
0.0
 10
6281.147011549877
 20
4923.184293097223
 30
0.0
 10
6281.154990394824
 20
4923.197729686176
 30
0.0
 10
6281.15592223443
 20
4923.207240672938
 30
0.0
 10
6281.156398509437
 20
4923.212101858553
 30
0.0
  0
LINE
  5
1DD
330
1F
100
AcDbEntity
  8
0
  6
Continuous
 62
     7
370
    25
100
AcDbLine
 10
6277.7977917947
 20
4923.3526393664
 30
0.0
 11
6277.9817335911
 21
4923.3526393664
 31
0.0
  0
LINE
  5
1DE
330
1F
100
AcDbEntity
  8
0
  6
Continuous
 62
     7
370
    25
100
AcDbLine
 10
6278.7458851606
 20
4922.4709581476
 30
0.0
 11
6278.7458851606
 21
4919.8016935852
 31
0.0
  0
LINE
  5
1DF
330
1F
100
AcDbEntity
  8
0
  6
Continuous
 62
     7
370
    25
100
AcDbLine
 10
6278.7458851606
 20
4919.8016935852
 30
0.0
 11
6278.2700803734
 21
4919.8016935852
 31
0.0
  0
LINE
  5
1E0
330
1F
100
AcDbEntity
  8
0
  6
Continuous
 62
     7
370
    25
100
AcDbLine
 10
6278.2700803734
 20
4919.8016935852
 30
0.0
 11
6278.2700803734
 21
4921.3705157754
 31
0.0
  0
LINE
  5
1E1
330
1F
100
AcDbEntity
  8
0
  6
Continuous
 62
     7
370
    25
100
AcDbLine
 10
6278.2700803734
 20
4921.3705157754
 30
0.0
 11
6277.5099742364
 21
4921.3705157754
 31
0.0
  0
LINE
  5
1E2
330
1F
100
AcDbEntity
  8
0
  6
Continuous
 62
     7
370
    25
100
AcDbLine
 10
6277.5099742364
 20
4921.3705157754
 30
0.0
 11
6277.5098033387
 21
4919.8016935852
 31
0.0
  0
LINE
  5
1E3
330
1F
100
AcDbEntity
  8
0
  6
Continuous
 62
     7
370
    25
100
AcDbLine
 10
6277.5098033387
 20
4919.8016935852
 30
0.0
 11
6277.0433350604
 21
4919.8016935852
 31
0.0
  0
LINE
  5
1E4
330
1F
100
AcDbEntity
  8
0
  6
Continuous
 62
     7
370
    25
100
AcDbLine
 10
6277.0433350604
 20
4919.8016935852
 30
0.0
 11
6277.0433350604
 21
4921.3705157754
 31
0.0
  0
LINE
  5
1E5
330
1F
100
AcDbEntity
  8
0
  6
Continuous
 62
     7
370
    25
100
AcDbLine
 10
6277.0433350604
 20
4921.3705157754
 30
0.0
 11
6276.83903106
 21
4921.3705157754
 31
0.0
  0
LINE
  5
1E6
330
1F
100
AcDbEntity
  8
0
  6
Continuous
 62
     7
370
    25
100
AcDbLine
 10
6276.83903106
 20
4921.3705157754
 30
0.0
 11
6276.6743590262
 21
4921.8684743983
 31
0.0
  0
LINE
  5
1E7
330
1F
100
AcDbEntity
  8
0
  6
Continuous
 62
     7
370
    25
100
AcDbLine
 10
6276.6743590262
 20
4921.8684743983
 30
0.0
 11
6277.0433350604
 21
4921.8684743983
 31
0.0
  0
LINE
  5
1E8
330
1F
100
AcDbEntity
  8
0
  6
Continuous
 62
     7
370
    25
100
AcDbLine
 10
6277.0433350604
 20
4921.8684743983
 30
0.0
 11
6277.0433350604
 21
4922.4773926553
 31
0.0
  0
LINE
  5
1E9
330
1F
100
AcDbEntity
  8
0
  6
Continuous
 62
     7
370
    25
100
AcDbLine
 10
6277.5098033387
 20
4922.0506755528
 30
0.0
 11
6277.5098033387
 21
4921.8685936075
 31
0.0
  0
LINE
  5
1EA
330
1F
100
AcDbEntity
  8
0
  6
Continuous
 62
     7
370
    25
100
AcDbLine
 10
6277.5098033387
 20
4921.8685936075
 30
0.0
 11
6278.2700803734
 21
4921.8685936075
 31
0.0
  0
LINE
  5
1EB
330
1F
100
AcDbEntity
  8
0
  6
Continuous
 62
     7
370
    25
100
AcDbLine
 10
6278.2700803734
 20
4921.8685936075
 30
0.0
 11
6278.2700803734
 21
4922.0551300687
 31
0.0
  0
LINE
  5
1EC
330
1F
100
AcDbEntity
  8
0
  6
Continuous
 62
     7
370
    25
100
AcDbLine
 10
6277.9817335911
 20
4922.873540957
 30
0.0
 11
6277.7977917947
 21
4922.873540957
 31
0.0
  0
SPLINE
  5
1ED
330
1F
100
AcDbEntity
  8
0
  6
Continuous
 62
     7
370
    25
100
AcDbSpline
210
0.0
220
0.0
230
1.0
 70
     8
 71
     3
 72
    12
 73
     8
 74
     0
 42
0.000000001
 43
0.00000001
 40
0.0
 40
0.0
 40
0.0
 40
0.0
 40
0.1009572793502438
 40
0.193111259147786
 40
0.2929532760653912
 40
0.4081873545780333
 40
1.0
 40
1.0
 40
1.0
 40
1.0
 10
6277.797791794682
 20
4922.873540956971
 30
0.0
 10
6277.765064357225
 20
4922.870455454203
 30
0.0
 10
6277.702463258061
 20
4922.864553499154
 30
0.0
 10
6277.624833820699
 20
4922.80482788805
 30
0.0
 10
6277.574174048623
 20
4922.719273214989
 30
0.0
 10
6277.500333214916
 20
4922.470394021072
 30
0.0
 10
6277.505488368866
 20
4922.241916192771
 30
0.0
 10
6277.509803338716
 20
4922.050675552782
 30
0.0
  0
SPLINE
  5
1EE
330
1F
100
AcDbEntity
  8
0
  6
Continuous
 62
     7
370
    25
100
AcDbSpline
210
0.0
220
0.0
230
1.0
 70
     8
 71
     3
 72
    12
 73
     8
 74
     0
 42
0.000000001
 43
0.00000001
 40
0.0
 40
0.0
 40
0.0
 40
0.0
 40
0.5919166935252297
 40
0.7068164744036288
 40
0.806419898382467
 40
0.8986249014923253
 40
1.0
 40
1.0
 40
1.0
 40
1.0
 10
6278.270080373431
 20
4922.055130068657
 30
0.0
 10
6278.274470774334
 20
4922.2457428071
 30
0.0
 10
6278.279713416958
 20
4922.473356296019
 30
0.0
 10
6278.20563067706
 20
4922.721034948393
 30
0.0
 10
6278.154818409734
 20
4922.805928148133
 30
0.0
 10
6278.077006808671
 20
4922.864910446109
 30
0.0
 10
6278.014478671754
 20
4922.87057467976
 30
0.0
 10
6277.981733591104
 20
4922.873540956971
 30
0.0
  0
SPLINE
  5
1EF
330
1F
100
AcDbEntity
  8
0
  6
Continuous
 62
     7
370
    25
100
AcDbSpline
210
0.0
220
0.0
230
1.0
 70
     8
 71
     3
 72
    11
 73
     7
 74
     0
 42
0.000000001
 43
0.00000001
 40
0.0
 40
0.0
 40
0.0
 40
0.0
 40
0.2748901120845422
 40
0.54315999098421
 40
0.7649610376549134
 40
1.0
 40
1.0
 40
1.0
 40
1.0
 10
6277.981733591104
 20
4923.352639366385
 30
0.0
 10
6278.101604112952
 20
4923.335212243785
 30
0.0
 10
6278.338458291054
 20
4923.300777699437
 30
0.0
 10
6278.584060224366
 20
4923.055160099284
 30
0.0
 10
6278.721762913156
 20
4922.770212121955
 30
0.0
 10
6278.737690565502
 20
4922.572618042669
 30
0.0
 10
6278.74588516056
 20
4922.470958147642
 30
0.0
  0
SPLINE
  5
1F0
330
1F
100
AcDbEntity
  8
0
  6
Continuous
 62
     7
370
    25
100
AcDbSpline
210
0.0
220
0.0
230
1.0
 70
     8
 71
     3
 72
    11
 73
     7
 74
     0
 42
0.000000001
 43
0.00000001
 40
0.0
 40
0.0
 40
0.0
 40
0.0
 40
0.2975741422748845
 40
0.57292729980144
 40
0.7821124754129293
 40
1.0
 40
1.0
 40
1.0
 40
1.0
 10
6277.043335060397
 20
4922.47739265531
 30
0.0
 10
6277.055947624351
 20
4922.605298140416
 30
0.0
 10
6277.080230924486
 20
4922.851557925123
 30
0.0
 10
6277.268242110765
 20
4923.141454362498
 30
0.0
 10
6277.520130962056
 20
4923.321665717461
 30
0.0
 10
6277.70398937219
 20
4923.342175509186
 30
0.0
 10
6277.797791794682
 20
4923.352639366385
 30
0.0
  0
SPLINE
  5
1F1
330
1F
100
AcDbEntity
  8
0
  6
Continuous
 62
     7
370
    25
100
AcDbSpline
210
0.0
220
0.0
230
1.0
 70
     8
 71
     3
 72
     9
 73
     5
 74
     0
 42
0.000000001
 43
0.00000001
 40
0.0
 40
0.0
 40
0.0
 40
0.0
 40
0.5472902404234438
 40
1.0
 40
1.0
 40
1.0
 40
1.0
 10
6283.030635830754
 20
4924.291686330434
 30
0.0
 10
6283.03711582173
 20
4924.304267254389
 30
0.0
 10
6283.048955957907
 20
4924.327254918016
 30
0.0
 10
6283.050185519352
 20
4924.353009894695
 30
0.0
 10
6283.050742153818
 20
4924.364669423994
 30
0.0
  0
SPLINE
  5
1F2
330
1F
100
AcDbEntity
  8
0
  6
Continuous
 62
     7
370
    25
100
AcDbSpline
210
0.0
220
0.0
230
1.0
 70
     8
 71
     3
 72
     9
 73
     5
 74
     0
 42
0.000000001
 43
0.00000001
 40
0.0
 40
0.0
 40
0.0
 40
0.0
 40
0.5724438146225006
 40
1.0
 40
1.0
 40
1.0
 40
1.0
 10
6282.972997207934
 20
4924.242258247432
 30
0.0
 10
6282.985988745296
 20
4924.249461680678
 30
0.0
 10
6283.008683614259
 20
4924.262045331792
 30
0.0
 10
6283.024061094123
 20
4924.282808786812
 30
0.0
 10
6283.030635830754
 20
4924.291686330434
 30
0.0
  0
LINE
  5
1F3
330
1F
100
AcDbEntity
  8
0
  6
Continuous
 62
     7
370
    25
100
AcDbLine
 10
6283.0968426213
 20
4924.036622223
 30
0.0
 11
6282.9729972079
 21
4924.2422582474
 31
0.0
  0
LINE
  5
1F4
330
1F
100
AcDbEntity
  8
0
  6
Continuous
 62
     7
370
    25
100
AcDbLine
 10
6282.8359577477
 20
4924.036622223
 30
0.0
 11
6282.8359577477
 21
4924.2251554397
 31
0.0
  0
LINE
  5
1F5
330
1F
100
AcDbEntity
  8
0
  6
Continuous
 62
     7
370
    25
100
AcDbLine
 10
6282.7831666589
 20
4924.036622223
 30
0.0
 11
6282.8359577477
 21
4924.036622223
 31
0.0
  0
LINE
  5
1F6
330
1F
100
AcDbEntity
  8
0
  6
Continuous
 62
     7
370
    25
100
AcDbLine
 10
6282.8359577477
 20
4924.4521429655
 30
0.0
 11
6282.8933924109
 21
4924.4521429655
 31
0.0
  0
LINE
  5
1F7
330
1F
100
AcDbEntity
  8
0
  6
Continuous
 62
     7
370
    25
100
AcDbLine
 10
6283.0336393461
 20
4924.036622223
 30
0.0
 11
6283.0968426213
 21
4924.036622223
 31
0.0
  0
SPLINE
  5
1F8
330
1F
100
AcDbEntity
  8
0
  6
Continuous
 62
     7
370
    25
100
AcDbSpline
210
0.0
220
0.0
230
1.0
 70
     8
 71
     3
 72
    10
 73
     6
 74
     0
 42
0.000000001
 43
0.00000001
 40
0.0
 40
0.0
 40
0.0
 40
0.0
 40
0.315728308151706
 40
0.5946849906556909
 40
0.9999999999999999
 40
0.9999999999999999
 40
0.9999999999999999
 40
0.9999999999999999
 10
6283.050742153818
 20
4924.364669423994
 30
0.0
 10
6283.050174745319
 20
4924.376397770962
 30
0.0
 10
6283.049106012143
 20
4924.398488510777
 30
0.0
 10
6283.038195691038
 20
4924.434992923029
 30
0.0
 10
6283.020253123746
 20
4924.453631134947
 30
0.0
 10
6283.009625193471
 20
4924.464671116767
 30
0.0
  0
LINE
  5
1F9
330
1F
100
AcDbEntity
  8
0
  6
Continuous
 62
     7
370
    25
100
AcDbLine
 10
6282.8359577477
 20
4924.2668870729
 30
0.0
 11
6282.8359577477
 21
4924.4521429655
 31
0.0
  0
LINE
  5
1FA
330
1F
100
AcDbEntity
  8
0
  6
Continuous
 62
     7
370
    25
100
AcDbLine
 10
6282.8944839209
 20
4924.2668870729
 30
0.0
 11
6282.8359577477
 21
4924.2668870729
 31
0.0
  0
SPLINE
  5
1FB
330
1F
100
AcDbEntity
  8
0
  6
Continuous
 62
     7
370
    25
100
AcDbSpline
210
0.0
220
0.0
230
1.0
 70
     8
 71
     3
 72
     9
 73
     5
 74
     0
 42
0.000000001
 43
0.00000001
 40
0.0
 40
0.0
 40
0.0
 40
0.0
 40
0.5211206318846615
 40
1.0
 40
1.0
 40
1.0
 40
1.0
 10
6282.969276574248
 20
4924.291140575406
 30
0.0
 10
6282.957410171616
 20
4924.28336167908
 30
0.0
 10
6282.93463923931
 20
4924.268434432202
 30
0.0
 10
6282.907486707974
 20
4924.267388126927
 30
0.0
 10
6282.894483920926
 20
4924.266887072918
 30
0.0
  0
SPLINE
  5
1FC
330
1F
100
AcDbEntity
  8
0
  6
Continuous
 62
     7
370
    25
100
AcDbSpline
210
0.0
220
0.0
230
1.0
 70
     8
 71
     3
 72
     9
 73
     5
 74
     0
 42
0.000000001
 43
0.00000001
 40
0.0
 40
0.0
 40
0.0
 40
0.0
 40
0.5916257833774823
 40
1.0
 40
1.0
 40
1.0
 40
1.0
 10
6282.996363160009
 20
4924.362194899913
 30
0.0
 10
6282.995378290087
 20
4924.346312790846
 30
0.0
 10
6282.993713606178
 20
4924.319467934666
 30
0.0
 10
6282.976362371229
 20
4924.299354417303
 30
0.0
 10
6282.969276574248
 20
4924.291140575406
 30
0.0
  0
LINE
  5
1FD
330
1F
100
AcDbEntity
  8
0
  6
Continuous
 62
     7
370
    25
100
AcDbLine
 10
6282.9237563208
 20
4924.2251554397
 30
0.0
 11
6283.0336393461
 21
4924.036622223
 31
0.0
  0
SPLINE
  5
1FE
330
1F
100
AcDbEntity
  8
0
  6
Continuous
 62
     7
370
    25
100
AcDbSpline
210
0.0
220
0.0
230
1.0
 70
     8
 71
     3
 72
    12
 73
     8
 74
     0
 42
0.000000001
 43
0.00000001
 40
0.0
 40
0.0
 40
0.0
 40
0.0
 40
0.2243930110234169
 40
0.4117184661009559
 40
0.5770276970377751
 40
0.7720341841487854
 40
1.0
 40
1.0
 40
1.0
 40
1.0
 10
6282.893392410869
 20
4924.452142965492
 30
0.0
 10
6282.905092103772
 20
4924.451669220791
 30
0.0
 10
6282.926558813428
 20
4924.450799989432
 30
0.0
 10
6282.955610462979
 20
4924.441505407104
 30
0.0
 10
6282.978978139445
 20
4924.424200474968
 30
0.0
 10
6282.994303330211
 20
4924.396309915911
 30
0.0
 10
6282.995641784555
 20
4924.374142360401
 30
0.0
 10
6282.996363160009
 20
4924.362194899913
 30
0.0
  0
LINE
  5
1FF
330
1F
100
AcDbEntity
  8
0
  6
Continuous
 62
     7
370
    25
100
AcDbLine
 10
6282.8359577477
 20
4924.2251554397
 30
0.0
 11
6282.9237563208
 21
4924.2251554397
 31
0.0
  0
LINE
  5
200
330
1F
100
AcDbEntity
  8
0
  6
Continuous
 62
     7
370
    25
100
AcDbLine
 10
6282.7831666589
 20
4924.4971342277
 30
0.0
 11
6282.7831666589
 21
4924.036622223
 31
0.0
  0
LINE
  5
201
330
1F
100
AcDbEntity
  8
0
  6
Continuous
 62
     7
370
    25
100
AcDbLine
 10
6282.8933924109
 20
4924.4971342277
 30
0.0
 11
6282.7831666589
 21
4924.4971342277
 31
0.0
  0
SPLINE
  5
202
330
1F
100
AcDbEntity
  8
0
  6
Continuous
 62
     7
370
    25
100
AcDbSpline
210
0.0
220
0.0
230
1.0
 70
     8
 71
     3
 72
     9
 73
     5
 74
     0
 42
0.000000001
 43
0.00000001
 40
0.0
 40
0.0
 40
0.0
 40
0.0
 40
0.5119079489076931
 40
1.0
 40
1.0
 40
1.0
 40
1.0
 10
6283.009625193471
 20
4924.464671116766
 30
0.0
 10
6282.991127243343
 20
4924.475065611376
 30
0.0
 10
6282.95499193783
 20
4924.495371009312
 30
0.0
 10
6282.913596967058
 20
4924.49655589464
 30
0.0
 10
6282.893392410869
 20
4924.497134227749
 30
0.0
  0
LINE
  5
203
330
1F
100
AcDbEntity
  8
0
  6
Continuous
 62
     7
370
    25
100
AcDbLine
 10
6275.061381785
 20
4923.2908703279
 30
0.0
 11
6275.5678746987
 21
4923.2908703279
 31
0.0
  0
LINE
  5
204
330
1F
100
AcDbEntity
  8
0
  6
Continuous
 62
     7
370
    25
100
AcDbLine
 10
6275.5678746987
 20
4923.2908703279
 30
0.0
 11
6275.5678746987
 21
4920.2507009622
 31
0.0
  0
LINE
  5
205
330
1F
100
AcDbEntity
  8
0
  6
Continuous
 62
     7
370
    25
100
AcDbLine
 10
6275.5678746987
 20
4920.2507009622
 30
0.0
 11
6276.6389941469
 21
4920.2507009622
 31
0.0
  0
LINE
  5
206
330
1F
100
AcDbEntity
  8
0
  6
Continuous
 62
     7
370
    25
100
AcDbLine
 10
6276.6389941469
 20
4920.2507009622
 30
0.0
 11
6276.6389941469
 21
4919.8016935852
 31
0.0
  0
LINE
  5
207
330
1F
100
AcDbEntity
  8
0
  6
Continuous
 62
     7
370
    25
100
AcDbLine
 10
6276.6389941469
 20
4919.8016935852
 30
0.0
 11
6275.061381785
 21
4919.8016935852
 31
0.0
  0
LINE
  5
208
330
1F
100
AcDbEntity
  8
0
  6
Continuous
 62
     7
370
    25
100
AcDbLine
 10
6275.061381785
 20
4919.8016935852
 30
0.0
 11
6275.061381785
 21
4923.2908703279
 31
0.0
  0
LINE
  5
209
330
1F
100
AcDbEntity
  8
0
  6
Continuous
 62
     7
370
    25
100
AcDbLine
 10
6266.8676666588
 20
4922.1480993447
 30
0.0
 11
6267.5098159023
 21
4921.4214637768
 31
0.0
  0
LINE
  5
20A
330
1F
100
AcDbEntity
  8
0
  6
Continuous
 62
     7
370
    25
100
AcDbLine
 10
6268.0121782839
 20
4921.6550907013
 30
0.0
 11
6267.5411870375
 21
4922.1929034111
 31
0.0
  0
SPLINE
  5
20B
330
1F
100
AcDbEntity
  8
0
  6
Continuous
 62
     7
370
    25
100
AcDbSpline
210
0.0
220
0.0
230
1.0
 70
     8
 71
     3
 72
    10
 73
     6
 74
     0
 42
0.000000001
 43
0.00000001
 40
0.0
 40
0.0
 40
0.0
 40
0.0
 40
0.3698937016861648
 40
0.6616430612179754
 40
0.9999999999999999
 40
0.9999999999999999
 40
0.9999999999999999
 40
0.9999999999999999
 10
6268.332339976722
 20
4920.61948980063
 30
0.0
 10
6268.341560165288
 20
4920.758333716236
 30
0.0
 10
6268.358052670458
 20
4921.006689157097
 30
0.0
 10
6268.239010167307
 20
4921.370874616283
 30
0.0
 10
6268.091427695507
 20
4921.55579267861
 30
0.0
 10
6268.012178283924
 20
4921.65509070128
 30
0.0
  0
SPLINE
  5
20C
330
1F
100
AcDbEntity
  8
0
  6
Continuous
 62
     7
370
    25
100
AcDbSpline
210
0.0
220
0.0
230
1.0
 70
     8
 71
     3
 72
    12
 73
     8
 74
     0
 42
0.000000001
 43
0.00000001
 40
0.0
 40
0.0
 40
0.0
 40
0.0
 40
0.2122059839990078
 40
0.3922553808069486
 40
0.5571620026202999
 40
0.7600198089315011
 40
1.0
 40
1.0
 40
1.0
 40
1.0
 10
6267.372230686987
 20
4919.801693585215
 30
0.0
 10
6267.471956487078
 20
4919.805792008588
 30
0.0
 10
6267.656296160043
 20
4919.813367801651
 30
0.0
 10
6267.908504558085
 20
4919.896656143516
 30
0.0
 10
6268.117627765817
 20
4920.053662472002
 30
0.0
 10
6268.269669406121
 20
4920.303912036828
 30
0.0
 10
6268.310314061535
 20
4920.508578267611
 30
0.0
 10
6268.332339976722
 20
4920.61948980063
 30
0.0
  0
LINE
  5
20D
330
1F
100
AcDbEntity
  8
0
  6
Continuous
 62
     7
370
    25
100
AcDbLine
 10
6266.3099697463
 20
4919.8016935852
 30
0.0
 11
6267.372230687
 21
4919.8016935852
 31
0.0
  0
LINE
  5
20E
330
1F
100
AcDbEntity
  8
0
  6
Continuous
 62
     7
370
    25
100
AcDbLine
 10
6266.3099697463
 20
4920.330596332
 30
0.0
 11
6266.3099697463
 21
4919.8016935852
 31
0.0
  0
LINE
  5
20F
330
1F
100
AcDbEntity
  8
0
  6
Continuous
 62
     7
370
    25
100
AcDbLine
 10
6267.3278028749
 20
4920.330596332
 30
0.0
 11
6266.3099697463
 21
4920.330596332
 31
0.0
  0
SPLINE
  5
210
330
1F
100
AcDbEntity
  8
0
  6
Continuous
 62
     7
370
    25
100
AcDbSpline
210
0.0
220
0.0
230
1.0
 70
     8
 71
     3
 72
    11
 73
     7
 74
     0
 42
0.000000001
 43
0.00000001
 40
0.0
 40
0.0
 40
0.0
 40
0.0
 40
0.2717739247488478
 40
0.5159049868265025
 40
0.7284082700088397
 40
1.0
 40
1.0
 40
1.0
 40
1.0
 10
6267.788963080192
 20
4920.722699899671
 30
0.0
 10
6267.778159763168
 20
4920.661732598322
 30
0.0
 10
6267.757651963785
 20
4920.545999145126
 30
0.0
 10
6267.653458302899
 20
4920.408600824422
 30
0.0
 10
6267.499208837053
 20
4920.338882194024
 30
0.0
 10
6267.389405704653
 20
4920.333574247914
 30
0.0
 10
6267.327802874887
 20
4920.330596331952
 30
0.0
  0
SPLINE
  5
211
330
1F
100
AcDbEntity
  8
0
  6
Continuous
 62
     7
370
    25
100
AcDbSpline
210
0.0
220
0.0
230
1.0
 70
     8
 71
     3
 72
    10
 73
     6
 74
     0
 42
0.000000001
 43
0.00000001
 40
0.0
 40
0.0
 40
0.0
 40
0.0
 40
0.5555109258126238
 40
0.754793698787139
 40
1.0
 40
1.0
 40
1.0
 40
1.0
 10
6267.509815902257
 20
4921.421463776825
 30
0.0
 10
6267.611031141611
 20
4921.312005127172
 30
0.0
 10
6267.748556114274
 20
4921.163279521255
 30
0.0
 10
6267.806090577812
 20
4920.902749502909
 30
0.0
 10
6267.795052392213
 20
4920.786712649095
 30
0.0
 10
6267.788963080192
 20
4920.722699899671
 30
0.0
  0
SPLINE
  5
212
330
1F
100
AcDbEntity
  8
0
  6
Continuous
 62
     7
370
    25
100
AcDbSpline
210
0.0
220
0.0
230
1.0
 70
     8
 71
     3
 72
    10
 73
     6
 74
     0
 42
0.000000001
 43
0.00000001
 40
0.0
 40
0.0
 40
0.0
 40
0.0
 40
0.330398459797712
 40
0.5904396896256296
 40
1.0
 40
1.0
 40
1.0
 40
1.0
 10
6266.492170435185
 20
4923.179655511376
 30
0.0
 10
6266.488547879283
 20
4923.054093437087
 30
0.0
 10
6266.482074178458
 20
4922.829707305813
 30
0.0
 10
6266.59823971848
 20
4922.460710564672
 30
0.0
 10
6266.765414544094
 20
4922.266740629312
 30
0.0
 10
6266.867666658753
 20
4922.148099344668
 30
0.0
  0
SPLINE
  5
213
330
1F
100
AcDbEntity
  8
0
  6
Continuous
 62
     7
370
    25
100
AcDbSpline
210
0.0
220
0.0
230
1.0
 70
     8
 71
     3
 72
    11
 73
     7
 74
     0
 42
0.000000001
 43
0.00000001
 40
0.0
 40
0.0
 40
0.0
 40
0.0
 40
0.2749207133307005
 40
0.5425921660416978
 40
0.7577338562625491
 40
1.0
 40
1.0
 40
1.0
 40
1.0
 10
6267.622362044448
 20
4924.153043132719
 30
0.0
 10
6267.470309620875
 20
4924.139765640609
 30
0.0
 10
6267.170214175686
 20
4924.113560764603
 30
0.0
 10
6266.798330474232
 20
4923.894918499613
 30
0.0
 10
6266.551130564241
 20
4923.565484383571
 30
0.0
 10
6266.512585719383
 20
4923.313250980107
 30
0.0
 10
6266.492170435185
 20
4923.179655511376
 30
0.0
  0
SPLINE
  5
214
330
1F
100
AcDbEntity
  8
0
  6
Continuous
 62
     7
370
    25
100
AcDbSpline
210
0.0
220
0.0
230
1.0
 70
     8
 71
     3
 72
    10
 73
     6
 74
     0
 42
0.000000001
 43
0.00000001
 40
0.0
 40
0.0
 40
0.0
 40
0.0
 40
0.5822766087859712
 40
0.7734537931129537
 40
1.0
 40
1.0
 40
1.0
 40
1.0
 10
6267.541187037522
 20
4922.192903411087
 30
0.0
 10
6267.387553585885
 20
4922.348155549444
 30
0.0
 10
6267.183478110202
 20
4922.554381170547
 30
0.0
 10
6267.044043605631
 20
4922.904077747569
 30
0.0
 10
6267.040715060124
 20
4923.059713292569
 30
0.0
 10
6267.038909871871
 20
4923.144119967219
 30
0.0
  0
LINE
  5
215
330
1F
100
AcDbEntity
  8
0
  6
Continuous
 62
     7
370
    25
100
AcDbLine
 10
6278.7459019244
 20
4923.6329302084
 30
0.0
 11
6278.7459019244
 21
4924.1530943555
 31
0.0
  0
LINE
  5
216
330
1F
100
AcDbEntity
  8
0
  6
Continuous
 62
     7
370
    25
100
AcDbLine
 10
6267.6567371607
 20
4923.6329302084
 30
0.0
 11
6278.7459019244
 21
4923.6329302084
 31
0.0
  0
LINE
  5
217
330
1F
100
AcDbEntity
  8
0
  6
Continuous
 62
     7
370
    25
100
AcDbLine
 10
6278.7459019244
 20
4924.1530943555
 30
0.0
 11
6267.6223620444
 21
4924.1530431327
 31
0.0
  0
SPLINE
  5
218
330
1F
100
AcDbEntity
  8
0
  6
Continuous
 62
     7
370
    25
100
AcDbSpline
210
0.0
220
0.0
230
1.0
 70
     8
 71
     3
 72
    12
 73
     8
 74
     0
 42
0.000000001
 43
0.00000001
 40
0.0
 40
0.0
 40
0.0
 40
0.0
 40
0.2019681998877615
 40
0.3744688080834399
 40
0.5436393376597897
 40
0.7598049881361464
 40
1.0
 40
1.0
 40
1.0
 40
1.0
 10
6267.038909871871
 20
4923.144119967219
 30
0.0
 10
6267.043291920071
 20
4923.204493520267
 30
0.0
 10
6267.051416666282
 20
4923.316431996035
 30
0.0
 10
6267.136458467136
 20
4923.460107292433
 30
0.0
 10
6267.271394014848
 20
4923.560547096244
 30
0.0
 10
6267.450358432634
 20
4923.619501277671
 30
0.0
 10
6267.585571074654
 20
4923.628299477109
 30
0.0
 10
6267.656737160677
 20
4923.632930208441
 30
0.0
  0
LINE
  5
219
330
1F
100
AcDbEntity
  8
0
  6
Continuous
 62
     7
370
    25
100
AcDbLine
 10
6269.4778415978
 20
4923.3526393664
 30
0.0
 11
6269.6618006237
 21
4923.3526393664
 31
0.0
  0
SPLINE
  5
21A
330
1F
100
AcDbEntity
  8
0
  6
Continuous
 62
     7
370
    25
100
AcDbSpline
210
0.0
220
0.0
230
1.0
 70
     8
 71
     3
 72
    11
 73
     7
 74
     0
 42
0.000000001
 43
0.00000001
 40
0.0
 40
0.0
 40
0.0
 40
0.0
 40
0.2748940740695411
 40
0.543155209013627
 40
0.7649552491884826
 40
1.0
 40
1.0
 40
1.0
 40
1.0
 10
6269.661800623679
 20
4923.352639366385
 30
0.0
 10
6269.781670241763
 20
4923.335213612607
 30
0.0
 10
6270.01851713519
 20
4923.30078257233
 30
0.0
 10
6270.264097381023
 20
4923.055156177598
 30
0.0
 10
6270.401769497827
 20
4922.770207590187
 30
0.0
 10
6270.417691788429
 20
4922.57261745365
 30
0.0
 10
6270.425883740926
 20
4922.470958147643
 30
0.0
  0
LINE
  5
21B
330
1F
100
AcDbEntity
  8
0
  6
Continuous
 62
     7
370
    25
100
AcDbLine
 10
6270.4258837409
 20
4922.4709581476
 30
0.0
 11
6270.4258837409
 21
4919.8016935852
 31
0.0
  0
LINE
  5
21C
330
1F
100
AcDbEntity
  8
0
  6
Continuous
 62
     7
370
    25
100
AcDbLine
 10
6270.4258837409
 20
4919.8016935852
 30
0.0
 11
6269.950147406
 21
4919.8016935852
 31
0.0
  0
LINE
  5
21D
330
1F
100
AcDbEntity
  8
0
  6
Continuous
 62
     7
370
    25
100
AcDbLine
 10
6269.950147406
 20
4919.8016935852
 30
0.0
 11
6269.950147406
 21
4921.3705157754
 31
0.0
  0
LINE
  5
21E
330
1F
100
AcDbEntity
  8
0
  6
Continuous
 62
     7
370
    25
100
AcDbLine
 10
6269.950147406
 20
4921.3705157754
 30
0.0
 11
6269.1900238067
 21
4921.3705157754
 31
0.0
  0
LINE
  5
21F
330
1F
100
AcDbEntity
  8
0
  6
Continuous
 62
     7
370
    25
100
AcDbLine
 10
6269.1900238067
 20
4921.3705157754
 30
0.0
 11
6269.1898533747
 21
4919.8016935852
 31
0.0
  0
LINE
  5
220
330
1F
100
AcDbEntity
  8
0
  6
Continuous
 62
     7
370
    25
100
AcDbLine
 10
6269.1898533747
 20
4919.8016935852
 30
0.0
 11
6268.7233846307
 21
4919.8016935852
 31
0.0
  0
LINE
  5
221
330
1F
100
AcDbEntity
  8
0
  6
Continuous
 62
     7
370
    25
100
AcDbLine
 10
6268.7233846307
 20
4919.8016935852
 30
0.0
 11
6268.7233846307
 21
4921.3705157754
 31
0.0
  0
LINE
  5
222
330
1F
100
AcDbEntity
  8
0
  6
Continuous
 62
     7
370
    25
100
AcDbLine
 10
6268.7233846307
 20
4921.3705157754
 30
0.0
 11
6268.5190296404
 21
4921.3705157754
 31
0.0
  0
LINE
  5
223
330
1F
100
AcDbEntity
  8
0
  6
Continuous
 62
     7
370
    25
100
AcDbLine
 10
6268.5190296404
 20
4921.3705157754
 30
0.0
 11
6268.3543406099
 21
4921.8684743983
 31
0.0
  0
LINE
  5
224
330
1F
100
AcDbEntity
  8
0
  6
Continuous
 62
     7
370
    25
100
AcDbLine
 10
6268.3543406099
 20
4921.8684743983
 30
0.0
 11
6268.7233846307
 21
4921.8684743983
 31
0.0
  0
LINE
  5
225
330
1F
100
AcDbEntity
  8
0
  6
Continuous
 62
     7
370
    25
100
AcDbLine
 10
6268.7233846307
 20
4921.8684743983
 30
0.0
 11
6268.7233846307
 21
4922.4773926553
 31
0.0
  0
SPLINE
  5
226
330
1F
100
AcDbEntity
  8
0
  6
Continuous
 62
     7
370
    25
100
AcDbSpline
210
0.0
220
0.0
230
1.0
 70
     8
 71
     3
 72
    11
 73
     7
 74
     0
 42
0.000000001
 43
0.00000001
 40
0.0
 40
0.0
 40
0.0
 40
0.0
 40
0.2975701598141018
 40
0.5729153687931177
 40
0.7820988509418291
 40
1.0
 40
1.0
 40
1.0
 40
1.0
 10
6268.723384630674
 20
4922.47739265531
 30
0.0
 10
6268.735994871572
 20
4922.605297543944
 30
0.0
 10
6268.760273518394
 20
4922.851554347677
 30
0.0
 10
6268.948270716949
 20
4923.141457446319
 30
0.0
 10
6269.200166422193
 20
4923.321669425658
 30
0.0
 10
6269.384032181089
 20
4923.342176522277
 30
0.0
 10
6269.47784159779
 20
4923.352639366386
 30
0.0
  0
LINE
  5
227
330
1F
100
AcDbEntity
  8
0
  6
Continuous
 62
     7
370
    25
100
AcDbLine
 10
6269.1898533747
 20
4922.0506755528
 30
0.0
 11
6269.1898533747
 21
4921.8685936075
 31
0.0
  0
LINE
  5
228
330
1F
100
AcDbEntity
  8
0
  6
Continuous
 62
     7
370
    25
100
AcDbLine
 10
6269.1898533747
 20
4921.8685936075
 30
0.0
 11
6269.950147406
 21
4921.8685936075
 31
0.0
  0
LINE
  5
229
330
1F
100
AcDbEntity
  8
0
  6
Continuous
 62
     7
370
    25
100
AcDbLine
 10
6269.950147406
 20
4921.8685936075
 30
0.0
 11
6269.950147406
 21
4922.0551300687
 31
0.0
  0
SPLINE
  5
22A
330
1F
100
AcDbEntity
  8
0
  6
Continuous
 62
     7
370
    25
100
AcDbSpline
210
0.0
220
0.0
230
1.0
 70
     8
 71
     3
 72
    12
 73
     8
 74
     0
 42
0.000000001
 43
0.00000001
 40
0.0
 40
0.0
 40
0.0
 40
0.0
 40
0.5919168752962566
 40
0.7068165329478607
 40
0.8064202446949071
 40
0.8986248756797851
 40
1.0
 40
1.0
 40
1.0
 40
1.0
 10
6269.950147406006
 20
4922.055130068657
 30
0.0
 10
6269.954537085095
 20
4922.245742593738
 30
0.0
 10
6269.959778864613
 20
4922.473355776833
 30
0.0
 10
6269.885697915502
 20
4922.721035212846
 30
0.0
 10
6269.834884923508
 20
4922.805927832783
 30
0.0
 10
6269.757073818913
 20
4922.864910581117
 30
0.0
 10
6269.694545740571
 20
4922.870574722182
 30
0.0
 10
6269.661800623679
 20
4922.873540956971
 30
0.0
  0
LINE
  5
22B
330
1F
100
AcDbEntity
  8
0
  6
Continuous
 62
     7
370
    25
100
AcDbLine
 10
6269.6618006237
 20
4922.873540957
 30
0.0
 11
6269.4778415978
 21
4922.873540957
 31
0.0
  0
SPLINE
  5
22C
330
1F
100
AcDbEntity
  8
0
  6
Continuous
 62
     7
370
    25
100
AcDbSpline
210
0.0
220
0.0
230
1.0
 70
     8
 71
     3
 72
    12
 73
     8
 74
     0
 42
0.000000001
 43
0.00000001
 40
0.0
 40
0.0
 40
0.0
 40
0.0
 40
0.1009572796885078
 40
0.1931114560156375
 40
0.2929532137226932
 40
0.4081873679926619
 40
1.0
 40
1.0
 40
1.0
 40
1.0
 10
6269.47784159779
 20
4922.873540956971
 30
0.0
 10
6269.445114183824
 20
4922.870455429732
 30
0.0
 10
6269.382513065982
 20
4922.864553421878
 30
0.0
 10
6269.304883340036
 20
4922.804828108562
 30
0.0
 10
6269.254224241657
 20
4922.719273001745
 30
0.0
 10
6269.18038235091
 20
4922.47039434734
 30
0.0
 10
6269.185537995013
 20
4922.241916329893
 30
0.0
 10
6269.189853374654
 20
4922.050675552782
 30
0.0
  0
SPLINE
  5
22D
330
1F
100
AcDbEntity
  8
0
  6
Continuous
 62
     7
370
    25
100
AcDbSpline
210
0.0
220
0.0
230
1.0
 70
     8
 71
     3
 72
     9
 73
     5
 74
     0
 42
0.000000001
 43
0.00000001
 40
0.0
 40
0.0
 40
0.0
 40
0.0
 40
0.580347918906764
 40
1.0
 40
1.0
 40
1.0
 40
1.0
 10
6281.980185922975
 20
4922.982929449972
 30
0.0
 10
6281.799402090024
 20
4922.957807086206
 30
0.0
 10
6281.487892688403
 20
4922.914518632939
 30
0.0
 10
6281.227085576723
 20
4922.741730753264
 30
0.0
 10
6281.117637329543
 20
4922.669219959971
 30
0.0
  0
SPLINE
  5
22E
330
1F
100
AcDbEntity
  8
0
  6
Continuous
 62
     7
370
    25
100
AcDbSpline
210
0.0
220
0.0
230
1.0
 70
     8
 71
     3
 72
    14
 73
    10
 74
     0
 42
0.000000001
 43
0.00000001
 40
0.0
 40
0.0
 40
0.0
 40
0.0
 40
0.1729346216953368
 40
0.3107912667402026
 40
0.4227800204969504
 40
0.5213447783173882
 40
0.6548287321018278
 40
0.8116146675069147
 40
1.0
 40
1.0
 40
1.0
 40
1.0
 10
6280.360517711187
 20
4922.82607423931
 30
0.0
 10
6280.393540020621
 20
4922.875862714787
 30
0.0
 10
6280.452886409905
 20
4922.965340594985
 30
0.0
 10
6280.557537037325
 20
4923.068672046554
 30
0.0
 10
6280.663394896728
 20
4923.129443157312
 30
0.0
 10
6280.783716006124
 20
4923.148020644959
 30
0.0
 10
6280.915870036592
 20
4923.106136469783
 30
0.0
 10
6281.048316850305
 20
4923.004332633336
 30
0.0
 10
6281.124288479665
 20
4922.912421549578
 30
0.0
 10
6281.165751782054
 20
4922.862258915302
 30
0.0
  0
SPLINE
  5
22F
330
1F
100
AcDbEntity
  8
0
  6
Continuous
 62
     7
370
    25
100
AcDbSpline
210
0.0
220
0.0
230
1.0
 70
     8
 71
     3
 72
    10
 73
     6
 74
     0
 42
0.000000001
 43
0.00000001
 40
0.0
 40
0.0
 40
0.0
 40
0.0
 40
0.2049705985100878
 40
0.4719488479469927
 40
1.0
 40
1.0
 40
1.0
 40
1.0
 10
6279.455845397705
 20
4923.025138851699
 30
0.0
 10
6279.519877638494
 20
4923.034353940551
 30
0.0
 10
6279.66731313652
 20
4923.055571864484
 30
0.0
 10
6279.977986365021
 20
4922.984257311944
 30
0.0
 10
6280.207846645546
 20
4922.889206263672
 30
0.0
 10
6280.360517711187
 20
4922.82607423931
 30
0.0
  0
SPLINE
  5
230
330
1F
100
AcDbEntity
  8
0
  6
Continuous
 62
     7
370
    25
100
AcDbSpline
210
0.0
220
0.0
230
1.0
 70
     8
 71
     3
 72
     9
 73
     5
 74
     0
 42
0.000000001
 43
0.00000001
 40
0.0
 40
0.0
 40
0.0
 40
0.0
 40
0.572247878364461
 40
1.0
 40
1.0
 40
1.0
 40
1.0
 10
6280.0710277304
 20
4922.832082201239
 30
0.0
 10
6279.959234104877
 20
4922.887649205162
 30
0.0
 10
6279.763875363064
 20
4922.984752236948
 30
0.0
 10
6279.548130654518
 20
4923.013039090205
 30
0.0
 10
6279.455845397705
 20
4923.025138851699
 30
0.0
  0
SPLINE
  5
231
330
1F
100
AcDbEntity
  8
0
  6
Continuous
 62
     7
370
    25
100
AcDbSpline
210
0.0
220
0.0
230
1.0
 70
     8
 71
     3
 72
    10
 73
     6
 74
     0
 42
0.000000001
 43
0.00000001
 40
0.0
 40
0.0
 40
0.0
 40
0.0
 40
0.2445669660110179
 40
0.5285787825840027
 40
0.9999999999999999
 40
0.9999999999999999
 40
0.9999999999999999
 40
0.9999999999999999
 10
6280.680201635504
 20
4922.578776430782
 30
0.0
 10
6280.626195497022
 20
4922.586246865068
 30
0.0
 10
6280.509472869282
 20
4922.602392598586
 30
0.0
 10
6280.308290475788
 20
4922.70064900067
 30
0.0
 10
6280.162196418245
 20
4922.781578729168
 30
0.0
 10
6280.0710277304
 20
4922.832082201239
 30
0.0
  0
SPLINE
  5
232
330
1F
100
AcDbEntity
  8
0
  6
Continuous
 62
     7
370
    25
100
AcDbSpline
210
0.0
220
0.0
230
1.0
 70
     8
 71
     3
 72
    17
 73
    13
 74
     0
 42
0.000000001
 43
0.00000001
 40
0.0
 40
0.0
 40
0.0
 40
0.0
 40
0.0544839594069691
 40
0.1073444761625698
 40
0.2217183424369117
 40
0.3548574830136791
 40
0.4999987892787552
 40
0.6451468110422751
 40
0.7782795649349125
 40
0.8926534312092543
 40
0.9455171351944985
 40
1.0
 40
1.0
 40
1.0
 40
1.0
 10
6280.680201635504
 20
4922.687346291241
 30
0.0
 10
6280.682722785543
 20
4922.687114734451
 30
0.0
 10
6280.687689963647
 20
4922.686658520501
 30
0.0
 10
6280.696794507407
 20
4922.681504077415
 30
0.0
 10
6280.705223938508
 20
4922.669975966312
 30
0.0
 10
6280.710648574946
 20
4922.652573996991
 30
0.0
 10
6280.712489090342
 20
4922.63306104125
 30
0.0
 10
6280.710648781948
 20
4922.613548439868
 30
0.0
 10
6280.705223842198
 20
4922.596146219795
 30
0.0
 10
6280.696794065897
 20
4922.584619283915
 30
0.0
 10
6280.687690310629
 20
4922.579462863195
 30
0.0
 10
6280.682722836162
 20
4922.57900753092
 30
0.0
 10
6280.680201635504
 20
4922.578776430783
 30
0.0
  0
LINE
  5
233
330
1F
100
AcDbEntity
  8
0
  6
Continuous
 62
     7
370
    25
100
AcDbLine
 10
6280.6138411768
 20
4922.6873462912
 30
0.0
 11
6280.6802016355
 21
4922.6873462912
 31
0.0
  0
SPLINE
  5
234
330
1F
100
AcDbEntity
  8
0
  6
Continuous
 62
     7
370
    25
100
AcDbSpline
210
0.0
220
0.0
230
1.0
 70
     8
 71
     3
 72
    11
 73
     7
 74
     0
 42
0.000000001
 43
0.00000001
 40
0.0
 40
0.0
 40
0.0
 40
0.0
 40
0.269300123432506
 40
0.5332260536307957
 40
0.7557095491247675
 40
1.0
 40
1.0
 40
1.0
 40
1.0
 10
6280.571631775046
 20
4922.72353003591
 30
0.0
 10
6280.572405479656
 20
4922.717917137719
 30
0.0
 10
6280.573937448715
 20
4922.706803353168
 30
0.0
 10
6280.585367482632
 20
4922.695028816588
 30
0.0
 10
6280.599136735517
 20
4922.688449519762
 30
0.0
 10
6280.608789377528
 20
4922.687725312036
 30
0.0
 10
6280.613841176772
 20
4922.687346291241
 30
0.0
  0
SPLINE
  5
235
330
1F
100
AcDbEntity
  8
0
  6
Continuous
 62
     7
370
    25
100
AcDbSpline
210
0.0
220
0.0
230
1.0
 70
     8
 71
     3
 72
    12
 73
     8
 74
     0
 42
0.000000001
 43
0.00000001
 40
0.0
 40
0.0
 40
0.0
 40
0.0
 40
0.1614752661601589
 40
0.3549326194213656
 40
0.5609343118199843
 40
0.7935703795455478
 40
1.0
 40
1.0
 40
1.0
 40
1.0
 10
6280.613841176772
 20
4922.759714711901
 30
0.0
 10
6280.610651630193
 20
4922.759281955134
 30
0.0
 10
6280.603640809597
 20
4922.758330729002
 30
0.0
 10
6280.593544053569
 20
4922.753214949373
 30
0.0
 10
6280.583472841236
 20
4922.745899624905
 30
0.0
 10
6280.574279097191
 20
4922.736278558547
 30
0.0
 10
6280.572478389574
 20
4922.72760701781
 30
0.0
 10
6280.571631775046
 20
4922.72353003591
 30
0.0
  0
LINE
  5
236
330
1F
100
AcDbEntity
  8
0
  6
Continuous
 62
     7
370
    25
100
AcDbLine
 10
6280.8913669221
 20
4922.7597147119
 30
0.0
 11
6280.6138411768
 21
4922.7597147119
 31
0.0
  0
SPLINE
  5
237
330
1F
100
AcDbEntity
  8
0
  6
Continuous
 62
     7
370
    25
100
AcDbSpline
210
0.0
220
0.0
230
1.0
 70
     8
 71
     3
 72
    11
 73
     7
 74
     0
 42
0.000000001
 43
0.00000001
 40
0.0
 40
0.0
 40
0.0
 40
0.0
 40
0.2788524210831402
 40
0.5647515338722449
 40
0.7904574246559491
 40
0.9999999999999999
 40
0.9999999999999999
 40
0.9999999999999999
 40
0.9999999999999999
 10
6280.933627080912
 20
4922.72353003591
 30
0.0
 10
6280.932511873641
 20
4922.729202088457
 30
0.0
 10
6280.930253277446
 20
4922.740689528168
 30
0.0
 10
6280.917509817566
 20
4922.751640694535
 30
0.0
 10
6280.904419811009
 20
4922.758298016364
 30
0.0
 10
6280.8956088172
 20
4922.75925431774
 30
0.0
 10
6280.891366922105
 20
4922.759714711901
 30
0.0
  0
SPLINE
  5
238
330
1F
100
AcDbEntity
  8
0
  6
Continuous
 62
     7
370
    25
100
AcDbSpline
210
0.0
220
0.0
230
1.0
 70
     8
 71
     3
 72
    11
 73
     7
 74
     0
 42
0.000000001
 43
0.00000001
 40
0.0
 40
0.0
 40
0.0
 40
0.0
 40
0.2692773556214907
 40
0.5575919003585355
 40
0.7797278607935085
 40
1.0
 40
1.0
 40
1.0
 40
1.0
 10
6280.891366922105
 20
4922.687346291241
 30
0.0
 10
6280.896818067746
 20
4922.688090900231
 30
0.0
 10
6280.90810574045
 20
4922.689632760075
 30
0.0
 10
6280.921634965623
 20
4922.6984421336
 30
0.0
 10
6280.931597455077
 20
4922.710028966158
 30
0.0
 10
6280.932952441775
 20
4922.719042336803
 30
0.0
 10
6280.933627080912
 20
4922.72353003591
 30
0.0
  0
LINE
  5
239
330
1F
100
AcDbEntity
  8
0
  6
Continuous
 62
     7
370
    25
100
AcDbLine
 10
6280.8220024824
 20
4922.6873462912
 30
0.0
 11
6280.8913669221
 21
4922.6873462912
 31
0.0
  0
SPLINE
  5
23A
330
1F
100
AcDbEntity
  8
0
  6
Continuous
 62
     7
370
    25
100
AcDbSpline
210
0.0
220
0.0
230
1.0
 70
     8
 71
     3
 72
    18
 73
    14
 74
     0
 42
0.000000001
 43
0.00000001
 40
0.0
 40
0.0
 40
0.0
 40
0.0
 40
0.0426996783974649
 40
0.087379301789859
 40
0.1377381921267248
 40
0.1948251231799933
 40
0.3263722952013278
 40
0.4720015058327037
 40
0.6184816604553605
 40
0.7544060385243444
 40
0.8760304094878779
 40
0.9358551054285473
 40
1.0
 40
1.0
 40
1.0
 40
1.0
 10
6280.809901342535
 20
4922.575771984157
 30
0.0
 10
6280.807880787801
 20
4922.576029203491
 30
0.0
 10
6280.803745987059
 20
4922.576555569185
 30
0.0
 10
6280.798378817946
 20
4922.580566358336
 30
0.0
 10
6280.793935581998
 20
4922.586194334018
 30
0.0
 10
6280.788851593571
 20
4922.596284120885
 30
0.0
 10
6280.784934566161
 20
4922.611650680176
 30
0.0
 10
6280.783661956024
 20
4922.631611209854
 30
0.0
 10
6280.786055407958
 20
4922.651707341906
 30
0.0
 10
6280.792447510752
 20
4922.669829033831
 30
0.0
 10
6280.802487193409
 20
4922.68159725285
 30
0.0
 10
6280.813121542546
 20
4922.686676302311
 30
0.0
 10
6280.818974183174
 20
4922.687117832655
 30
0.0
 10
6280.822002482409
 20
4922.687346291241
 30
0.0
  0
SPLINE
  5
23B
330
1F
100
AcDbEntity
  8
0
  6
Continuous
 62
     7
370
    25
100
AcDbSpline
210
0.0
220
0.0
230
1.0
 70
     8
 71
     3
 72
    11
 73
     7
 74
     0
 42
0.000000001
 43
0.00000001
 40
0.0
 40
0.0
 40
0.0
 40
0.0
 40
0.3146014161683816
 40
0.5566787789331639
 40
0.7424919729829794
 40
1.0
 40
1.0
 40
1.0
 40
1.0
 10
6281.117637329543
 20
4922.669219959972
 30
0.0
 10
6281.089034171794
 20
4922.649458126959
 30
0.0
 10
6281.038421650326
 20
4922.614490092789
 30
0.0
 10
6280.96195895256
 20
4922.583817076296
 30
0.0
 10
6280.887259340449
 20
4922.568932359993
 30
0.0
 10
6280.838325249601
 20
4922.573258878248
 30
0.0
 10
6280.809901342535
 20
4922.575771984157
 30
0.0
  0
SPLINE
  5
23C
330
1F
100
AcDbEntity
  8
0
  6
Continuous
 62
     7
370
    25
100
AcDbSpline
210
0.0
220
0.0
230
1.0
 70
     8
 71
     3
 72
     9
 73
     5
 74
     0
 42
0.000000001
 43
0.00000001
 40
0.0
 40
0.0
 40
0.0
 40
0.0
 40
0.5550203600795879
 40
1.0
 40
1.0
 40
1.0
 40
1.0
 10
6281.159761049593
 20
4924.092827540335
 30
0.0
 10
6281.128175898255
 20
4924.103046791945
 30
0.0
 10
6281.071267803327
 20
4924.121459182455
 30
0.0
 10
6281.01354007172
 20
4924.13710369399
 30
0.0
 10
6280.987852406496
 20
4924.1440651831
 30
0.0
  0
SPLINE
  5
23D
330
1F
100
AcDbEntity
  8
0
  6
Continuous
 62
     7
370
    25
100
AcDbSpline
210
0.0
220
0.0
230
1.0
 70
     8
 71
     3
 72
     9
 73
     5
 74
     0
 42
0.000000001
 43
0.00000001
 40
0.0
 40
0.0
 40
0.0
 40
0.0
 40
0.5806143104892749
 40
1.0
 40
1.0
 40
1.0
 40
1.0
 10
6281.699621737743
 20
4924.50901324719
 30
0.0
 10
6281.583852777567
 20
4924.442641389008
 30
0.0
 10
6281.384462307708
 20
4924.328328226239
 30
0.0
 10
6281.22615349864
 20
4924.162410894787
 30
0.0
 10
6281.159761049593
 20
4924.092827540336
 30
0.0
  0
SPLINE
  5
23E
330
1F
100
AcDbEntity
  8
0
  6
Continuous
 62
     7
370
    25
100
AcDbSpline
210
0.0
220
0.0
230
1.0
 70
     8
 71
     3
 72
     9
 73
     5
 74
     0
 42
0.000000001
 43
0.00000001
 40
0.0
 40
0.0
 40
0.0
 40
0.0
 40
0.5027874782406109
 40
1.0
 40
1.0
 40
1.0
 40
1.0
 10
6280.279069361085
 20
4923.748958100077
 30
0.0
 10
6280.130844404215
 20
4923.672504329675
 30
0.0
 10
6279.836038023219
 20
4923.520444515713
 30
0.0
 10
6279.586048724019
 20
4923.302438723524
 30
0.0
 10
6279.461750914151
 20
4923.194043513831
 30
0.0
  0
SPLINE
  5
23F
330
1F
100
AcDbEntity
  8
0
  6
Continuous
 62
     7
370
    25
100
AcDbSpline
210
0.0
220
0.0
230
1.0
 70
     8
 71
     3
 72
    11
 73
     7
 74
     0
 42
0.000000001
 43
0.00000001
 40
0.0
 40
0.0
 40
0.0
 40
0.0
 40
0.2854096718505419
 40
0.5577816502420798
 40
0.7737378773866028
 40
1.0
 40
1.0
 40
1.0
 40
1.0
 10
6281.232112240786
 20
4923.718799081144
 30
0.0
 10
6281.15065580683
 20
4923.654948125013
 30
0.0
 10
6280.991463920093
 20
4923.530162964617
 30
0.0
 10
6280.70361853192
 20
4923.508261544862
 30
0.0
 10
6280.453973605932
 20
4923.5835014451
 30
0.0
 10
6280.33826960302
 20
4923.692955605609
 30
0.0
 10
6280.279069361085
 20
4923.748958100078
 30
0.0
  0
SPLINE
  5
240
330
1F
100
AcDbEntity
  8
0
  6
Continuous
 62
     7
370
    25
100
AcDbSpline
210
0.0
220
0.0
230
1.0
 70
     8
 71
     3
 72
    10
 73
     6
 74
     0
 42
0.000000001
 43
0.00000001
 40
0.0
 40
0.0
 40
0.0
 40
0.0
 40
0.2216702401508132
 40
0.4978796026691881
 40
1.0
 40
1.0
 40
1.0
 40
1.0
 10
6281.94686878919
 20
4923.272436660227
 30
0.0
 10
6281.902173816796
 20
4923.316581139907
 30
0.0
 10
6281.80178724672
 20
4923.415731282877
 30
0.0
 10
6281.561069243601
 20
4923.567577458441
 30
0.0
 10
6281.361110640319
 20
4923.65949848217
 30
0.0
 10
6281.232112240786
 20
4923.718799081144
 30
0.0
  0
SPLINE
  5
241
330
1F
100
AcDbEntity
  8
0
  6
Continuous
 62
     7
370
    25
100
AcDbSpline
210
0.0
220
0.0
230
1.0
 70
     8
 71
     3
 72
     9
 73
     5
 74
     0
 42
0.000000001
 43
0.00000001
 40
0.0
 40
0.0
 40
0.0
 40
0.0
 40
0.5605527080647235
 40
0.9999999999999999
 40
0.9999999999999999
 40
0.9999999999999999
 40
0.9999999999999999
 10
6281.701755397761
 20
4922.299032275077
 30
0.0
 10
6281.741981730546
 20
4922.246456552002
 30
0.0
 10
6281.813743640188
 20
4922.152663903568
 30
0.0
 10
6281.874224590745
 20
4922.05126658923
 30
0.0
 10
6281.900802780682
 20
4922.006707814035
 30
0.0
  0
SPLINE
  5
242
330
1F
100
AcDbEntity
  8
0
  6
Continuous
 62
     7
370
    25
100
AcDbSpline
210
0.0
220
0.0
230
1.0
 70
     8
 71
     3
 72
     9
 73
     5
 74
     0
 42
0.000000001
 43
0.00000001
 40
0.0
 40
0.0
 40
0.0
 40
0.0
 40
0.5572887200094734
 40
1.0
 40
1.0
 40
1.0
 40
1.0
 10
6281.343378745759
 20
4922.266039241549
 30
0.0
 10
6281.411141591178
 20
4922.260906490669
 30
0.0
 10
6281.532735377283
 20
4922.251696272165
 30
0.0
 10
6281.649889809235
 20
4922.284506719806
 30
0.0
 10
6281.701755397761
 20
4922.299032275077
 30
0.0
  0
SPLINE
  5
243
330
1F
100
AcDbEntity
  8
0
  6
Continuous
 62
     7
370
    25
100
AcDbSpline
210
0.0
220
0.0
230
1.0
 70
     8
 71
     3
 72
     9
 73
     5
 74
     0
 42
0.000000001
 43
0.00000001
 40
0.0
 40
0.0
 40
0.0
 40
0.0
 40
0.56684116298571
 40
1.0
 40
1.0
 40
1.0
 40
1.0
 10
6281.249555912608
 20
4921.952397738096
 30
0.0
 10
6281.265349665298
 20
4922.012244277078
 30
0.0
 10
6281.293212413667
 20
4922.117823305013
 30
0.0
 10
6281.32821644169
 20
4922.221242362768
 30
0.0
 10
6281.343378745759
 20
4922.266039241549
 30
0.0
  0
SPLINE
  5
244
330
1F
100
AcDbEntity
  8
0
  6
Continuous
 62
     7
370
    25
100
AcDbSpline
210
0.0
220
0.0
230
1.0
 70
     8
 71
     3
 72
     9
 73
     5
 74
     0
 42
0.000000001
 43
0.00000001
 40
0.0
 40
0.0
 40
0.0
 40
0.0
 40
0.5771445688231609
 40
1.0
 40
1.0
 40
1.0
 40
1.0
 10
6281.900802780682
 20
4922.006707814035
 30
0.0
 10
6281.777308986455
 20
4921.963732549725
 30
0.0
 10
6281.563335225117
 20
4921.889270678936
 30
0.0
 10
6281.342807330551
 20
4921.933637139348
 30
0.0
 10
6281.249555912608
 20
4921.952397738096
 30
0.0
  0
SPLINE
  5
245
330
1F
100
AcDbEntity
  8
0
  6
Continuous
 62
     7
370
    25
100
AcDbSpline
210
0.0
220
0.0
230
1.0
 70
     8
 71
     3
 72
     9
 73
     5
 74
     0
 42
0.000000001
 43
0.00000001
 40
0.0
 40
0.0
 40
0.0
 40
0.0
 40
0.5603788260273942
 40
1.0
 40
1.0
 40
1.0
 40
1.0
 10
6282.086553205544
 20
4921.585777018664
 30
0.0
 10
6282.107077452142
 20
4921.514317949047
 30
0.0
 10
6282.143703116149
 20
4921.386798731157
 30
0.0
 10
6282.160427828748
 20
4921.255245406697
 30
0.0
 10
6282.167780366534
 20
4921.197411779759
 30
0.0
  0
SPLINE
  5
246
330
1F
100
AcDbEntity
  8
0
  6
Continuous
 62
     7
370
    25
100
AcDbSpline
210
0.0
220
0.0
230
1.0
 70
     8
 71
     3
 72
     9
 73
     5
 74
     0
 42
0.000000001
 43
0.00000001
 40
0.0
 40
0.0
 40
0.0
 40
0.0
 40
0.5715657353800441
 40
0.9999999999999999
 40
0.9999999999999999
 40
0.9999999999999999
 40
0.9999999999999999
 10
6281.168738999212
 20
4921.548995364902
 30
0.0
 10
6281.346582860937
 20
4921.510880001852
 30
0.0
 10
6281.657734930972
 20
4921.444194123589
 30
0.0
 10
6281.95793654696
 20
4921.543311666889
 30
0.0
 10
6282.086553205544
 20
4921.585777018664
 30
0.0
  0
SPLINE
  5
247
330
1F
100
AcDbEntity
  8
0
  6
Continuous
 62
     7
370
    25
100
AcDbSpline
210
0.0
220
0.0
230
1.0
 70
     8
 71
     3
 72
     9
 73
     5
 74
     0
 42
0.000000001
 43
0.00000001
 40
0.0
 40
0.0
 40
0.0
 40
0.0
 40
0.5669364694742466
 40
1.0
 40
1.0
 40
1.0
 40
1.0
 10
6281.124959387625
 20
4921.17139994025
 30
0.0
 10
6281.131396245443
 20
4921.242974893587
 30
0.0
 10
6281.142750000519
 20
4921.369223524945
 30
0.0
 10
6281.160885273757
 20
4921.494669352102
 30
0.0
 10
6281.168738999212
 20
4921.548995364902
 30
0.0
  0
SPLINE
  5
248
330
1F
100
AcDbEntity
  8
0
  6
Continuous
 62
     7
370
    25
100
AcDbSpline
210
0.0
220
0.0
230
1.0
 70
     8
 71
     3
 72
     9
 73
     5
 74
     0
 42
0.000000001
 43
0.00000001
 40
0.0
 40
0.0
 40
0.0
 40
0.0
 40
0.5865731835858929
 40
1.0
 40
1.0
 40
1.0
 40
1.0
 10
6282.167780366534
 20
4921.197411779759
 30
0.0
 10
6281.963396547168
 20
4921.136338142564
 30
0.0
 10
6281.614959514781
 20
4921.032218760865
 30
0.0
 10
6281.268284241985
 20
4921.130689497212
 30
0.0
 10
6281.124959387625
 20
4921.17139994025
 30
0.0
  0
SPLINE
  5
249
330
1F
100
AcDbEntity
  8
0
  6
Continuous
 62
     7
370
    25
100
AcDbSpline
210
0.0
220
0.0
230
1.0
 70
     8
 71
     3
 72
    10
 73
     6
 74
     0
 42
0.000000001
 43
0.00000001
 40
0.0
 40
0.0
 40
0.0
 40
0.0
 40
0.3230778824785884
 40
0.6047103063319277
 40
1.0
 40
1.0
 40
1.0
 40
1.0
 10
6282.071448084706
 20
4922.935958195922
 30
0.0
 10
6281.980397746946
 20
4922.931810117319
 30
0.0
 10
6281.809977298426
 20
4922.924046088833
 30
0.0
 10
6281.535373067233
 20
4922.837589846838
 30
0.0
 10
6281.391079600452
 20
4922.709353392235
 30
0.0
 10
6281.306819212431
 20
4922.634469520744
 30
0.0
  0
SPLINE
  5
24A
330
1F
100
AcDbEntity
  8
0
  6
Continuous
 62
     7
370
    25
100
AcDbSpline
210
0.0
220
0.0
230
1.0
 70
     8
 71
     3
 72
     9
 73
     5
 74
     0
 42
0.000000001
 43
0.00000001
 40
0.0
 40
0.0
 40
0.0
 40
0.0
 40
0.6064838304492597
 40
1.0
 40
1.0
 40
1.0
 40
1.0
 10
6281.306819212431
 20
4922.634469520744
 30
0.0
 10
6281.324123301822
 20
4922.619097538691
 30
0.0
 10
6281.352655124968
 20
4922.593751467976
 30
0.0
 10
6281.381677208085
 20
4922.568969068848
 30
0.0
 10
6281.393097867066
 20
4922.55921679407
 30
0.0
  0
SPLINE
  5
24B
330
1F
100
AcDbEntity
  8
0
  6
Continuous
 62
     7
370
    25
100
AcDbSpline
210
0.0
220
0.0
230
1.0
 70
     8
 71
     3
 72
     9
 73
     5
 74
     0
 42
0.000000001
 43
0.00000001
 40
0.0
 40
0.0
 40
0.0
 40
0.0
 40
0.5715425175982839
 40
1.0
 40
1.0
 40
1.0
 40
1.0
 10
6281.393097867066
 20
4922.55921679407
 30
0.0
 10
6281.403759236225
 20
4922.577699102148
 30
0.0
 10
6281.422412912602
 20
4922.61003669298
 30
0.0
 10
6281.443364030005
 20
4922.640929715306
 30
0.0
 10
6281.452340693021
 20
4922.654166061875
 30
0.0
  0
SPLINE
  5
24C
330
1F
100
AcDbEntity
  8
0
  6
Continuous
 62
     7
370
    25
100
AcDbSpline
210
0.0
220
0.0
230
1.0
 70
     8
 71
     3
 72
    10
 73
     6
 74
     0
 42
0.000000001
 43
0.00000001
 40
0.0
 40
0.0
 40
0.0
 40
0.0
 40
0.5174880653219639
 40
0.7457666778694135
 40
1.0
 40
1.0
 40
1.0
 40
1.0
 10
6281.452340693021
 20
4922.654166061875
 30
0.0
 10
6281.698159886719
 20
4922.387561792327
 30
0.0
 10
6282.052416874898
 20
4922.003350843841
 30
0.0
 10
6282.246000394971
 20
4921.328316881453
 30
0.0
 10
6282.238937158415
 20
4920.995400061668
 30
0.0
 10
6282.235215571517
 20
4920.819987718461
 30
0.0
  0
SPLINE
  5
24D
330
1F
100
AcDbEntity
  8
0
  6
Continuous
 62
     7
370
    25
100
AcDbSpline
210
0.0
220
0.0
230
1.0
 70
     8
 71
     3
 72
    11
 73
     7
 74
     0
 42
0.000000001
 43
0.00000001
 40
0.0
 40
0.0
 40
0.0
 40
0.0
 40
0.2849802550822712
 40
0.5578970364707565
 40
0.7729697851481012
 40
1.0
 40
1.0
 40
1.0
 40
1.0
 10
6282.235215571517
 20
4920.819987718461
 30
0.0
 10
6282.194147365609
 20
4920.605967633775
 30
0.0
 10
6282.113749408344
 20
4920.18698712947
 30
0.0
 10
6281.733262197293
 20
4919.717141436917
 30
0.0
 10
6281.260692939772
 20
4919.430002108532
 30
0.0
 10
6280.925004619297
 20
4919.394897718406
 30
0.0
 10
6280.752620813245
 20
4919.376870792804
 30
0.0
  0
SPLINE
  5
24E
330
1F
100
AcDbEntity
  8
0
  6
Continuous
 62
     7
370
    25
100
AcDbSpline
210
0.0
220
0.0
230
1.0
 70
     8
 71
     3
 72
    12
 73
     8
 74
     0
 42
0.000000001
 43
0.00000001
 40
0.0
 40
0.0
 40
0.0
 40
0.0
 40
0.188250265586607
 40
0.3673975597739728
 40
0.5444208287129989
 40
0.7599954127325126
 40
1.0
 40
1.0
 40
1.0
 40
1.0
 10
6280.752620813245
 20
4919.376870792804
 30
0.0
 10
6280.609613846626
 20
4919.385847471638
 30
0.0
 10
6280.330515113869
 20
4919.403366755811
 30
0.0
 10
6279.957225244444
 20
4919.601852736863
 30
0.0
 10
6279.659260773318
 20
4919.920852847022
 30
0.0
 10
6279.476783640827
 20
4920.384001068838
 30
0.0
 10
6279.52422943866
 20
4920.72913735867
 30
0.0
 10
6279.549224455649
 20
4920.910959307549
 30
0.0
  0
SPLINE
  5
24F
330
1F
100
AcDbEntity
  8
0
  6
Continuous
 62
     7
370
    25
100
AcDbSpline
210
0.0
220
0.0
230
1.0
 70
     8
 71
     3
 72
    10
 73
     6
 74
     0
 42
0.000000001
 43
0.00000001
 40
0.0
 40
0.0
 40
0.0
 40
0.0
 40
0.3502424394820676
 40
0.6174533003534457
 40
1.0
 40
1.0
 40
1.0
 40
1.0
 10
6279.549224455649
 20
4920.910959307549
 30
0.0
 10
6279.595225754935
 20
4921.079710077543
 30
0.0
 10
6279.676322877565
 20
4921.377206063537
 30
0.0
 10
6279.901721766508
 20
4921.82266706783
 30
0.0
 10
6280.036777440011
 20
4922.116368431449
 30
0.0
 10
6280.116291870171
 20
4922.289285984334
 30
0.0
  0
SPLINE
  5
250
330
1F
100
AcDbEntity
  8
0
  6
Continuous
 62
     7
370
    25
100
AcDbSpline
210
0.0
220
0.0
230
1.0
 70
     8
 71
     3
 72
    12
 73
     8
 74
     0
 42
0.000000001
 43
0.00000001
 40
0.0
 40
0.0
 40
0.0
 40
0.0
 40
0.1453478090225309
 40
0.2656531242848879
 40
0.3788453966827614
 40
0.4963764712335575
 40
1.0
 40
1.0
 40
1.0
 40
1.0
 10
6280.116291870171
 20
4922.289285984334
 30
0.0
 10
6280.132849294754
 20
4922.347061414056
 30
0.0
 10
6280.163111406031
 20
4922.452657938117
 30
0.0
 10
6280.138183653256
 20
4922.611004883653
 30
0.0
 10
6280.061449979642
 20
4922.735840847272
 30
0.0
 10
6279.827401244447
 20
4922.931946211724
 30
0.0
 10
6279.568870815808
 20
4922.976756726024
 30
0.0
 10
6279.359257933492
 20
4923.013088468906
 30
0.0
  0
SPLINE
  5
251
330
1F
100
AcDbEntity
  8
0
  6
Continuous
 62
     7
370
    25
100
AcDbSpline
210
0.0
220
0.0
230
1.0
 70
     8
 71
     3
 72
     9
 73
     5
 74
     0
 42
0.000000001
 43
0.00000001
 40
0.0
 40
0.0
 40
0.0
 40
0.0
 40
0.5505338904624663
 40
1.0
 40
1.0
 40
1.0
 40
1.0
 10
6279.359257933492
 20
4923.013088468906
 30
0.0
 10
6279.386166332926
 20
4923.112052181307
 30
0.0
 10
6279.435043250225
 20
4923.291811709494
 30
0.0
 10
6279.520094448858
 20
4923.457395160815
 30
0.0
 10
6279.558322080219
 20
4923.531819310484
 30
0.0
  0
SPLINE
  5
252
330
1F
100
AcDbEntity
  8
0
  6
Continuous
 62
     7
370
    25
100
AcDbSpline
210
0.0
220
0.0
230
1.0
 70
     8
 71
     3
 72
     9
 73
     5
 74
     0
 42
0.000000001
 43
0.00000001
 40
0.0
 40
0.0
 40
0.0
 40
0.0
 40
0.5139393398352724
 40
1.0
 40
1.0
 40
1.0
 40
1.0
 10
6279.558322080219
 20
4923.531819310483
 30
0.0
 10
6279.4635632851
 20
4923.712630645503
 30
0.0
 10
6279.279185893109
 20
4924.064445190538
 30
0.0
 10
6279.264098079712
 20
4924.461000266498
 30
0.0
 10
6279.256764487171
 20
4924.65375008851
 30
0.0
  0
SPLINE
  5
253
330
1F
100
AcDbEntity
  8
0
  6
Continuous
 62
     7
370
    25
100
AcDbSpline
210
0.0
220
0.0
230
1.0
 70
     8
 71
     3
 72
     9
 73
     5
 74
     0
 42
0.000000001
 43
0.00000001
 40
0.0
 40
0.0
 40
0.0
 40
0.0
 40
0.5494791136335953
 40
1.0
 40
1.0
 40
1.0
 40
1.0
 10
6279.256764487171
 20
4924.65375008851
 30
0.0
 10
6279.49408337401
 20
4924.601722993301
 30
0.0
 10
6279.925981295061
 20
4924.507038602362
 30
0.0
 10
6280.292095219226
 20
4924.260943933414
 30
0.0
 10
6280.457037188852
 20
4924.150073145029
 30
0.0
  0
SPLINE
  5
254
330
1F
100
AcDbEntity
  8
0
  6
Continuous
 62
     7
370
    25
100
AcDbSpline
210
0.0
220
0.0
230
1.0
 70
     8
 71
     3
 72
     9
 73
     5
 74
     0
 42
0.000000001
 43
0.00000001
 40
0.0
 40
0.0
 40
0.0
 40
0.0
 40
0.5576993501665743
 40
1.0
 40
1.0
 40
1.0
 40
1.0
 10
6281.281387586886
 20
4922.604515392777
 30
0.0
 10
6281.232659831193
 20
4922.533724589603
 30
0.0
 10
6281.145287027765
 20
4922.406790959227
 30
0.0
 10
6281.105135092283
 20
4922.258364432952
 30
0.0
 10
6281.087375865126
 20
4922.192715283927
 30
0.0
  0
SPLINE
  5
255
330
1F
100
AcDbEntity
  8
0
  6
Continuous
 62
     7
370
    25
100
AcDbSpline
210
0.0
220
0.0
230
1.0
 70
     8
 71
     3
 72
     9
 73
     5
 74
     0
 42
0.000000001
 43
0.00000001
 40
0.0
 40
0.0
 40
0.0
 40
0.0
 40
0.5592159500560039
 40
1.0
 40
1.0
 40
1.0
 40
1.0
 10
6281.087375865126
 20
4922.192715283927
 30
0.0
 10
6281.028706517683
 20
4921.685514859796
 30
0.0
 10
6280.92379293745
 20
4920.77852995695
 30
0.0
 10
6280.980740330712
 20
4919.867843039349
 30
0.0
 10
6281.005841833347
 20
4919.466426771579
 30
0.0
  0
SPLINE
  5
256
330
1F
100
AcDbEntity
  8
0
  6
Continuous
 62
     7
370
    25
100
AcDbSpline
210
0.0
220
0.0
230
1.0
 70
     8
 71
     3
 72
     9
 73
     5
 74
     0
 42
0.000000001
 43
0.00000001
 40
0.0
 40
0.0
 40
0.0
 40
0.0
 40
0.5274435470262578
 40
0.9999999999999999
 40
0.9999999999999999
 40
0.9999999999999999
 40
0.9999999999999999
 10
6281.005841833347
 20
4919.466426771579
 30
0.0
 10
6281.009161476755
 20
4919.466742598715
 30
0.0
 10
6281.01545531318
 20
4919.467341387231
 30
0.0
 10
6281.021734687805
 20
4919.468076258852
 30
0.0
 10
6281.024702046806
 20
4919.468423527179
 30
0.0
  0
SPLINE
  5
257
330
1F
100
AcDbEntity
  8
0
  6
Continuous
 62
     7
370
    25
100
AcDbSpline
210
0.0
220
0.0
230
1.0
 70
     8
 71
     3
 72
    11
 73
     7
 74
     0
 42
0.000000001
 43
0.00000001
 40
0.0
 40
0.0
 40
0.0
 40
0.0
 40
0.2658324152944399
 40
0.5199344178295734
 40
0.7395737053175455
 40
0.9999999999999999
 40
0.9999999999999999
 40
0.9999999999999999
 40
0.9999999999999999
 10
6281.024702046806
 20
4919.468423527179
 30
0.0
 10
6281.17707708928
 20
4919.519318652166
 30
0.0
 10
6281.475103305958
 20
4919.618863048024
 30
0.0
 10
6281.815617424768
 20
4919.921832319179
 30
0.0
 10
6282.040217748603
 20
4920.306246674732
 30
0.0
 10
6282.114983703317
 20
4920.585220827765
 30
0.0
 10
6282.155542787904
 20
4920.736558910904
 30
0.0
  0
SPLINE
  5
258
330
1F
100
AcDbEntity
  8
0
  6
Continuous
 62
     7
370
    25
100
AcDbSpline
210
0.0
220
0.0
230
1.0
 70
     8
 71
     3
 72
     9
 73
     5
 74
     0
 42
0.000000001
 43
0.00000001
 40
0.0
 40
0.0
 40
0.0
 40
0.0
 40
0.5734367353608494
 40
1.0
 40
1.0
 40
1.0
 40
1.0
 10
6282.155542787904
 20
4920.736558910904
 30
0.0
 10
6281.954071455906
 20
4920.689070267367
 30
0.0
 10
6281.602731334886
 20
4920.606256173662
 30
0.0
 10
6281.253977288385
 20
4920.691602079013
 30
0.0
 10
6281.105211623752
 20
4920.728007507024
 30
0.0
  0
SPLINE
  5
259
330
1F
100
AcDbEntity
  8
0
  6
Continuous
 62
     7
370
    25
100
AcDbSpline
210
0.0
220
0.0
230
1.0
 70
     8
 71
     3
 72
     9
 73
     5
 74
     0
 42
0.000000001
 43
0.00000001
 40
0.0
 40
0.0
 40
0.0
 40
0.0
 40
0.6446024072863813
 40
1.0
 40
1.0
 40
1.0
 40
1.0
 10
6281.105211623752
 20
4920.728007507024
 30
0.0
 10
6281.11160011749
 20
4920.538475844886
 30
0.0
 10
6281.121510868155
 20
4920.24444706064
 30
0.0
 10
6281.138574371334
 20
4919.950754972238
 30
0.0
 10
6281.144638699287
 20
4919.846377511022
 30
0.0
  0
SPLINE
  5
25A
330
1F
100
AcDbEntity
  8
0
  6
Continuous
 62
     7
370
    25
100
AcDbSpline
210
0.0
220
0.0
230
1.0
 70
     8
 71
     3
 72
     9
 73
     5
 74
     0
 42
0.000000001
 43
0.00000001
 40
0.0
 40
0.0
 40
0.0
 40
0.0
 40
0.6095996951551389
 40
0.9999999999999999
 40
0.9999999999999999
 40
0.9999999999999999
 40
0.9999999999999999
 10
6281.144638699287
 20
4919.846377511022
 30
0.0
 10
6281.074093909206
 20
4920.404609751056
 30
0.0
 10
6280.958370770493
 20
4921.320345510885
 30
0.0
 10
6281.257285239914
 20
4922.186296413141
 30
0.0
 10
6281.373981539899
 20
4922.524363909361
 30
0.0
  0
SPLINE
  5
25B
330
1F
100
AcDbEntity
  8
0
  6
Continuous
 62
     7
370
    25
100
AcDbSpline
210
0.0
220
0.0
230
1.0
 70
     8
 71
     3
 72
     9
 73
     5
 74
     0
 42
0.000000001
 43
0.00000001
 40
0.0
 40
0.0
 40
0.0
 40
0.0
 40
0.5183132763258448
 40
1.0
 40
1.0
 40
1.0
 40
1.0
 10
6281.373981539899
 20
4922.524363909361
 30
0.0
 10
6281.357830115201
 20
4922.538034115239
 30
0.0
 10
6281.326668604518
 20
4922.564408523348
 30
0.0
 10
6281.296108151415
 20
4922.5914769102
 30
0.0
 10
6281.281387586886
 20
4922.604515392777
 30
0.0
  0
SPLINE
  5
25C
330
1F
100
AcDbEntity
  8
0
  6
Continuous
 62
     7
370
    25
100
AcDbSpline
210
0.0
220
0.0
230
1.0
 70
     8
 71
     3
 72
    13
 73
     9
 74
     0
 42
0.000000001
 43
0.00000001
 40
0.0
 40
0.0
 40
0.0
 40
0.0
 40
0.0408733034856353
 40
0.0926352413850695
 40
0.1575220187696215
 40
0.3707534450491433
 40
0.6424879907639875
 40
1.0
 40
1.0
 40
1.0
 40
1.0
 10
6280.134349749232
 20
4922.741621908244
 30
0.0
 10
6280.163807707372
 20
4922.70657812915
 30
0.0
 10
6280.230571213874
 20
4922.627154919901
 30
0.0
 10
6280.299995759466
 20
4922.463643701825
 30
0.0
 10
6280.405156388096
 20
4922.111380791303
 30
0.0
 10
6280.478580511114
 20
4921.498707175415
 30
0.0
 10
6280.515344058766
 20
4920.560673709098
 30
0.0
 10
6280.497427403009
 20
4919.858942937311
 30
0.0
 10
6280.487247896189
 20
4919.460248377619
 30
0.0
  0
SPLINE
  5
25D
330
1F
100
AcDbEntity
  8
0
  6
Continuous
 62
     7
370
    25
100
AcDbSpline
210
0.0
220
0.0
230
1.0
 70
     8
 71
     3
 72
     9
 73
     5
 74
     0
 42
0.000000001
 43
0.00000001
 40
0.0
 40
0.0
 40
0.0
 40
0.0
 40
0.5814058103366213
 40
1.0
 40
1.0
 40
1.0
 40
1.0
 10
6280.487247896189
 20
4919.460248377619
 30
0.0
 10
6280.527868769024
 20
4919.452717077831
 30
0.0
 10
6280.597735413136
 20
4919.439763475281
 30
0.0
 10
6280.668705511835
 20
4919.437227042984
 30
0.0
 10
6280.698413182789
 20
4919.436165307162
 30
0.0
  0
SPLINE
  5
25E
330
1F
100
AcDbEntity
  8
0
  6
Continuous
 62
     7
370
    25
100
AcDbSpline
210
0.0
220
0.0
230
1.0
 70
     8
 71
     3
 72
     9
 73
     5
 74
     0
 42
0.000000001
 43
0.00000001
 40
0.0
 40
0.0
 40
0.0
 40
0.0
 40
0.5818814601400737
 40
1.0
 40
1.0
 40
1.0
 40
1.0
 10
6280.698413182789
 20
4919.436165307162
 30
0.0
 10
6280.6828601537
 20
4919.673095041503
 30
0.0
 10
6280.656131291972
 20
4920.080273737804
 30
0.0
 10
6280.702893065878
 20
4920.48527642898
 30
0.0
 10
6280.722445030505
 20
4920.654615562854
 30
0.0
  0
SPLINE
  5
25F
330
1F
100
AcDbEntity
  8
0
  6
Continuous
 62
     7
370
    25
100
AcDbSpline
210
0.0
220
0.0
230
1.0
 70
     8
 71
     3
 72
     9
 73
     5
 74
     0
 42
0.000000001
 43
0.00000001
 40
0.0
 40
0.0
 40
0.0
 40
0.0
 40
0.5578696395661195
 40
1.0
 40
1.0
 40
1.0
 40
1.0
 10
6280.722445030505
 20
4920.654615562854
 30
0.0
 10
6280.725445671907
 20
4920.427431027287
 30
0.0
 10
6280.730824422049
 20
4920.020195143751
 30
0.0
 10
6280.743843804305
 20
4919.613134659262
 30
0.0
 10
6280.749600068474
 20
4919.433160860536
 30
0.0
  0
SPLINE
  5
260
330
1F
100
AcDbEntity
  8
0
  6
Continuous
 62
     7
370
    25
100
AcDbSpline
210
0.0
220
0.0
230
1.0
 70
     8
 71
     3
 72
     9
 73
     5
 74
     0
 42
0.000000001
 43
0.00000001
 40
0.0
 40
0.0
 40
0.0
 40
0.0
 40
0.6227266425361303
 40
1.0
 40
1.0
 40
1.0
 40
1.0
 10
6280.749600068474
 20
4919.433160860536
 30
0.0
 10
6280.795133302197
 20
4919.43448658336
 30
0.0
 10
6280.868252437646
 20
4919.436615483482
 30
0.0
 10
6280.939748525248
 20
4919.451630418709
 30
0.0
 10
6280.966722094262
 20
4919.457295153735
 30
0.0
  0
SPLINE
  5
261
330
1F
100
AcDbEntity
  8
0
  6
Continuous
 62
     7
370
    25
100
AcDbSpline
210
0.0
220
0.0
230
1.0
 70
     8
 71
     3
 72
    12
 73
     8
 74
     0
 42
0.000000001
 43
0.00000001
 40
0.0
 40
0.0
 40
0.0
 40
0.0
 40
0.3969545073871696
 40
0.6998193690425498
 40
0.8215974275463933
 40
0.9200907777294048
 40
1.0
 40
1.0
 40
1.0
 40
1.0
 10
6280.966722094262
 20
4919.457295153735
 30
0.0
 10
6280.942931566768
 20
4919.900240348952
 30
0.0
 10
6280.900989551676
 20
4920.681139976666
 30
0.0
 10
6280.923787067668
 20
4921.604786751751
 30
0.0
 10
6281.027581677736
 20
4922.179451093044
 30
0.0
 10
6281.130960506695
 20
4922.505320313418
 30
0.0
 10
6281.259182994507
 20
4922.66021122733
 30
0.0
 10
6281.316615794593
 20
4922.72958922058
 30
0.0
  0
SPLINE
  5
262
330
1F
100
AcDbEntity
  8
0
  6
Continuous
 62
     7
370
    25
100
AcDbSpline
210
0.0
220
0.0
230
1.0
 70
     8
 71
     3
 72
    10
 73
     6
 74
     0
 42
0.000000001
 43
0.00000001
 40
0.0
 40
0.0
 40
0.0
 40
0.0
 40
0.555878316509855
 40
0.7891635262835452
 40
1.0
 40
1.0
 40
1.0
 40
1.0
 10
6281.316615794593
 20
4922.72958922058
 30
0.0
 10
6281.216303450979
 20
4922.6636363038
 30
0.0
 10
6281.073893070026
 20
4922.570004955302
 30
0.0
 10
6280.882604309852
 20
4922.46180324956
 30
0.0
 10
6280.786292632339
 20
4922.449076182797
 30
0.0
 10
6280.740570896113
 20
4922.443034302887
 30
0.0
  0
SPLINE
  5
263
330
1F
100
AcDbEntity
  8
0
  6
Continuous
 62
     7
370
    25
100
AcDbSpline
210
0.0
220
0.0
230
1.0
 70
     8
 71
     3
 72
    10
 73
     6
 74
     0
 42
0.000000001
 43
0.00000001
 40
0.0
 40
0.0
 40
0.0
 40
0.0
 40
0.2674289897649951
 40
0.5687113912671532
 40
1.0
 40
1.0
 40
1.0
 40
1.0
 10
6280.740570896113
 20
4922.443034302887
 30
0.0
 10
6280.680691718013
 20
4922.455713631987
 30
0.0
 10
6280.553353351612
 20
4922.482677346352
 30
0.0
 10
6280.363652922686
 20
4922.612464760698
 30
0.0
 10
6280.21932206466
 20
4922.693760460382
 30
0.0
 10
6280.134349749232
 20
4922.741621908244
 30
0.0
  0
SPLINE
  5
264
330
1F
100
AcDbEntity
  8
0
  6
Continuous
 62
     7
370
    25
100
AcDbSpline
210
0.0
220
0.0
230
1.0
 70
     8
 71
     3
 72
     9
 73
     5
 74
     0
 42
0.000000001
 43
0.00000001
 40
0.0
 40
0.0
 40
0.0
 40
0.0
 40
0.5591260674966895
 40
1.0
 40
1.0
 40
1.0
 40
1.0
 10
6280.435941335553
 20
4919.469362300334
 30
0.0
 10
6280.45792249481
 20
4920.040981277797
 30
0.0
 10
6280.497235917192
 20
4921.063324914936
 30
0.0
 10
6280.304008320283
 20
4922.066943280979
 30
0.0
 10
6280.218819309765
 20
4922.509412456749
 30
0.0
  0
SPLINE
  5
265
330
1F
100
AcDbEntity
  8
0
  6
Continuous
 62
     7
370
    25
100
AcDbSpline
210
0.0
220
0.0
230
1.0
 70
     8
 71
     3
 72
     9
 73
     5
 74
     0
 42
0.000000001
 43
0.00000001
 40
0.0
 40
0.0
 40
0.0
 40
0.0
 40
0.440813477212486
 40
1.0
 40
1.0
 40
1.0
 40
1.0
 10
6280.218819309765
 20
4922.509412456748
 30
0.0
 10
6280.212821115234
 20
4922.440440933829
 30
0.0
 10
6280.19921401191
 20
4922.283976745496
 30
0.0
 10
6280.130530485824
 20
4922.142283172318
 30
0.0
 10
6280.092123583699
 20
4922.063050035831
 30
0.0
  0
SPLINE
  5
266
330
1F
100
AcDbEntity
  8
0
  6
Continuous
 62
     7
370
    25
100
AcDbSpline
210
0.0
220
0.0
230
1.0
 70
     8
 71
     3
 72
    14
 73
    10
 74
     0
 42
0.000000001
 43
0.00000001
 40
0.0
 40
0.0
 40
0.0
 40
0.0
 40
0.187613327480762
 40
0.4147502195588058
 40
0.5473951576580088
 40
0.678176924118048
 40
0.7702527061472262
 40
0.8744885176108229
 40
1.0
 40
1.0
 40
1.0
 40
1.0
 10
6280.092123583699
 20
4922.063050035831
 30
0.0
 10
6280.001095460051
 20
4921.892599034011
 30
0.0
 10
6279.799862771649
 20
4921.515788967382
 30
0.0
 10
6279.605417087587
 20
4920.979915426378
 30
0.0
 10
6279.558920815011
 20
4920.471866926862
 30
0.0
 10
6279.643588344828
 20
4920.10534277261
 30
0.0
 10
6279.835122340343
 20
4919.822414927996
 30
0.0
 10
6280.095575119949
 20
4919.608533253931
 30
0.0
 10
6280.315691334335
 20
4919.518530832851
 30
0.0
 10
6280.435941335553
 20
4919.469362300334
 30
0.0
  0
SPLINE
  5
267
330
1F
100
AcDbEntity
  8
0
  6
Continuous
 62
     7
370
    25
100
AcDbSpline
210
0.0
220
0.0
230
1.0
 70
     8
 71
     3
 72
    11
 73
     7
 74
     0
 42
0.000000001
 43
0.00000001
 40
0.0
 40
0.0
 40
0.0
 40
0.0
 40
0.2797985810659006
 40
0.559190636109212
 40
0.7790756442725777
 40
1.0
 40
1.0
 40
1.0
 40
1.0
 10
6280.432920125121
 20
4923.109574418959
 30
0.0
 10
6280.447862757483
 20
4923.111747991141
 30
0.0
 10
6280.477726311701
 20
4923.116091977469
 30
0.0
 10
6280.510584112492
 20
4923.143835583504
 30
0.0
 10
6280.531433235493
 20
4923.1768272234
 30
0.0
 10
6280.534107663479
 20
4923.200336345974
 30
0.0
 10
6280.535448030377
 20
4923.21211862236
 30
0.0
  0
SPLINE
  5
268
330
1F
100
AcDbEntity
  8
0
  6
Continuous
 62
     7
370
    25
100
AcDbSpline
210
0.0
220
0.0
230
1.0
 70
     8
 71
     3
 72
    11
 73
     7
 74
     0
 42
0.000000001
 43
0.00000001
 40
0.0
 40
0.0
 40
0.0
 40
0.0
 40
0.2798524990850684
 40
0.556851769349853
 40
0.7767465253523144
 40
1.0
 40
1.0
 40
1.0
 40
1.0
 10
6280.535448030377
 20
4923.212118622359
 30
0.0
 10
6280.533305069653
 20
4923.22689574894
 30
0.0
 10
6280.529040996705
 20
4923.256299342296
 30
0.0
 10
6280.50105545623
 20
4923.288238574867
 30
0.0
 10
6280.468009406784
 20
4923.307928369733
 30
0.0
 10
6280.444675503285
 20
4923.310398247761
 30
0.0
 10
6280.432920125121
 20
4923.311642546651
 30
0.0
  0
SPLINE
  5
269
330
1F
100
AcDbEntity
  8
0
  6
Continuous
 62
     7
370
    25
100
AcDbSpline
210
0.0
220
0.0
230
1.0
 70
     8
 71
     3
 72
    11
 73
     7
 74
     0
 42
0.000000001
 43
0.00000001
 40
0.0
 40
0.0
 40
0.0
 40
0.0
 40
0.2823989191227255
 40
0.560666848129354
 40
0.7786361066641353
 40
1.0
 40
1.0
 40
1.0
 40
1.0
 10
6280.432920125121
 20
4923.311642546651
 30
0.0
 10
6280.418022428524
 20
4923.309634387605
 30
0.0
 10
6280.388444961935
 20
4923.305647445282
 30
0.0
 10
6280.355303196066
 20
4923.279216886143
 30
0.0
 10
6280.33432042863
 20
4923.246941236993
 30
0.0
 10
6280.331697512929
 20
4923.223785799634
 30
0.0
 10
6280.330375921721
 20
4923.212118622359
 30
0.0
  0
SPLINE
  5
26A
330
1F
100
AcDbEntity
  8
0
  6
Continuous
 62
     7
370
    25
100
AcDbSpline
210
0.0
220
0.0
230
1.0
 70
     8
 71
     3
 72
    11
 73
     7
 74
     0
 42
0.000000001
 43
0.00000001
 40
0.0
 40
0.0
 40
0.0
 40
0.0
 40
0.2798710641053347
 40
0.5593291134427141
 40
0.779209861246643
 40
1.0
 40
1.0
 40
1.0
 40
1.0
 10
6280.330375921721
 20
4923.212118622359
 30
0.0
 10
6280.332551949296
 20
4923.19717187909
 30
0.0
 10
6280.336900793214
 20
4923.167300449943
 30
0.0
 10
6280.364656823838
 20
4923.134442982454
 30
0.0
 10
6280.397643185892
 20
4923.113592607097
 30
0.0
 10
6280.421144978878
 20
4923.110915656436
 30
0.0
 10
6280.432920125121
 20
4923.109574418959
 30
0.0
  0
SPLINE
  5
26B
330
1F
100
AcDbEntity
  8
0
  6
Continuous
 62
     7
370
    25
100
AcDbSpline
210
0.0
220
0.0
230
1.0
 70
     8
 71
     3
 72
    11
 73
     7
 74
     0
 42
0.000000001
 43
0.00000001
 40
0.0
 40
0.0
 40
0.0
 40
0.0
 40
0.2848217572644381
 40
0.557500087805457
 40
0.7738075349629698
 40
1.0
 40
1.0
 40
1.0
 40
1.0
 10
6281.114513673628
 20
4923.109574418959
 30
0.0
 10
6281.129889602536
 20
4923.111494392359
 30
0.0
 10
6281.159985904867
 20
4923.115252480748
 30
0.0
 10
6281.193499348405
 20
4923.142524187103
 30
0.0
 10
6281.213521944384
 20
4923.176136560517
 30
0.0
 10
6281.215862117524
 20
4923.19994729883
 30
0.0
 10
6281.21705834269
 20
4923.212118622359
 30
0.0
  0
SPLINE
  5
26C
330
1F
100
AcDbEntity
  8
0
  6
Continuous
 62
     7
370
    25
100
AcDbSpline
210
0.0
220
0.0
230
1.0
 70
     8
 71
     3
 72
    11
 73
     7
 74
     0
 42
0.000000001
 43
0.00000001
 40
0.0
 40
0.0
 40
0.0
 40
0.0
 40
0.2848331413128382
 40
0.5575164852710889
 40
0.7738287905771971
 40
1.0
 40
1.0
 40
1.0
 40
1.0
 10
6281.21705834269
 20
4923.212118622359
 30
0.0
 10
6281.215137573648
 20
4923.227493848362
 30
0.0
 10
6281.211377967585
 20
4923.257588457158
 30
0.0
 10
6281.184100032599
 20
4923.291093539201
 30
0.0
 10
6281.150490305545
 20
4923.311110792672
 30
0.0
 10
6281.126682702064
 20
4923.313450263734
 30
0.0
 10
6281.114513673628
 20
4923.314646061955
 30
0.0
  0
SPLINE
  5
26D
330
1F
100
AcDbEntity
  8
0
  6
Continuous
 62
     7
370
    25
100
AcDbSpline
210
0.0
220
0.0
230
1.0
 70
     8
 71
     3
 72
    11
 73
     7
 74
     0
 42
0.000000001
 43
0.00000001
 40
0.0
 40
0.0
 40
0.0
 40
0.0
 40
0.277957391558646
 40
0.550875497109459
 40
0.7700815937304306
 40
1.0
 40
1.0
 40
1.0
 40
1.0
 10
6281.114513673628
 20
4923.314646061954
 30
0.0
 10
6281.099767874696
 20
4923.312665888799
 30
0.0
 10
6281.070543613844
 20
4923.308741442446
 30
0.0
 10
6281.038197177515
 20
4923.28147406245
 30
0.0
 10
6281.018519235349
 20
4923.248049249747
 30
0.0
 10
6281.016185112587
 20
4923.224284440564
 30
0.0
 10
6281.014990214998
 20
4923.212118622359
 30
0.0
  0
SPLINE
  5
26E
330
1F
100
AcDbEntity
  8
0
  6
Continuous
 62
     7
370
    25
100
AcDbSpline
210
0.0
220
0.0
230
1.0
 70
     8
 71
     3
 72
     9
 73
     5
 74
     0
 42
0.000000001
 43
0.00000001
 40
0.0
 40
0.0
 40
0.0
 40
0.0
 40
0.5626912317142166
 40
1.0
 40
1.0
 40
1.0
 40
1.0
 10
6279.621678092325
 20
4923.622314062413
 30
0.0
 10
6279.546008431395
 20
4923.781376149671
 30
0.0
 10
6279.411530307929
 20
4924.064057091353
 30
0.0
 10
6279.3961570447
 20
4924.375711656147
 30
0.0
 10
6279.389434181893
 20
4924.512000930009
 30
0.0
  0
SPLINE
  5
26F
330
1F
100
AcDbEntity
  8
0
  6
Continuous
 62
     7
370
    25
100
AcDbSpline
210
0.0
220
0.0
230
1.0
 70
     8
 71
     3
 72
     9
 73
     5
 74
     0
 42
0.000000001
 43
0.00000001
 40
0.0
 40
0.0
 40
0.0
 40
0.0
 40
0.5522611264365662
 40
0.9999999999999999
 40
0.9999999999999999
 40
0.9999999999999999
 40
0.9999999999999999
 10
6279.389434181893
 20
4924.512000930008
 30
0.0
 10
6279.53371886178
 20
4924.442322141336
 30
0.0
 10
6279.794980560244
 20
4924.316152137083
 30
0.0
 10
6280.002289889593
 20
4924.113923504692
 30
0.0
 10
6280.095110335195
 20
4924.023377884623
 30
0.0
  0
SPLINE
  5
270
330
1F
100
AcDbEntity
  8
0
  6
Continuous
 62
     7
370
    25
100
AcDbSpline
210
0.0
220
0.0
230
1.0
 70
     8
 71
     3
 72
     9
 73
     5
 74
     0
 42
0.000000001
 43
0.00000001
 40
0.0
 40
0.0
 40
0.0
 40
0.0
 40
0.556889115877661
 40
1.0
 40
1.0
 40
1.0
 40
1.0
 10
6280.095110335195
 20
4924.023377884623
 30
0.0
 10
6280.113241073997
 20
4924.032552788866
 30
0.0
 10
6280.145798253307
 20
4924.0490280691
 30
0.0
 10
6280.17965065545
 20
4924.062631125745
 30
0.0
 10
6280.194651023293
 20
4924.068658788201
 30
0.0
  0
SPLINE
  5
271
330
1F
100
AcDbEntity
  8
0
  6
Continuous
 62
     7
370
    25
100
AcDbSpline
210
0.0
220
0.0
230
1.0
 70
     8
 71
     3
 72
     9
 73
     5
 74
     0
 42
0.000000001
 43
0.00000001
 40
0.0
 40
0.0
 40
0.0
 40
0.0
 40
0.5864471791617617
 40
1.0
 40
1.0
 40
1.0
 40
1.0
 10
6280.194651023293
 20
4924.068658788201
 30
0.0
 10
6280.04655893026
 20
4924.216145532153
 30
0.0
 10
6279.794034750257
 20
4924.467637480946
 30
0.0
 10
6279.452310411385
 20
4924.558742191924
 30
0.0
 10
6279.310989347095
 20
4924.596418802139
 30
0.0
  0
SPLINE
  5
272
330
1F
100
AcDbEntity
  8
0
  6
Continuous
 62
     7
370
    25
100
AcDbSpline
210
0.0
220
0.0
230
1.0
 70
     8
 71
     3
 72
     9
 73
     5
 74
     0
 42
0.000000001
 43
0.00000001
 40
0.0
 40
0.0
 40
0.0
 40
0.0
 40
0.5266535363303364
 40
1.0
 40
1.0
 40
1.0
 40
1.0
 10
6279.310989347095
 20
4924.596418802139
 30
0.0
 10
6279.323044212603
 20
4924.406450904924
 30
0.0
 10
6279.345933768406
 20
4924.045743373102
 30
0.0
 10
6279.508529997574
 20
4923.723527327501
 30
0.0
 10
6279.585494347656
 20
4923.571007501779
 30
0.0
  0
SPLINE
  5
273
330
1F
100
AcDbEntity
  8
0
  6
Continuous
 62
     7
370
    25
100
AcDbSpline
210
0.0
220
0.0
230
1.0
 70
     8
 71
     3
 72
     9
 73
     5
 74
     0
 42
0.000000001
 43
0.00000001
 40
0.0
 40
0.0
 40
0.0
 40
0.0
 40
0.523036257463956
 40
1.0
 40
1.0
 40
1.0
 40
1.0
 10
6281.195945259923
 20
4924.077705655691
 30
0.0
 10
6281.212425728345
 20
4924.070727432187
 30
0.0
 10
6281.243934955836
 20
4924.057385673551
 30
0.0
 10
6281.27475886808
 20
4924.042530439332
 30
0.0
 10
6281.289460756624
 20
4924.035445031222
 30
0.0
  0
SPLINE
  5
274
330
1F
100
AcDbEntity
  8
0
  6
Continuous
 62
     7
370
    25
100
AcDbSpline
210
0.0
220
0.0
230
1.0
 70
     8
 71
     3
 72
     9
 73
     5
 74
     0
 42
0.000000001
 43
0.00000001
 40
0.0
 40
0.0
 40
0.0
 40
0.0
 40
0.5892279431717942
 40
1.0
 40
1.0
 40
1.0
 40
1.0
 10
6281.844359044725
 20
4923.589082610306
 30
0.0
 10
6281.949870856762
 20
4923.776662475035
 30
0.0
 10
6282.128938759531
 20
4924.095011030806
 30
0.0
 10
6282.162399079002
 20
4924.456836816219
 30
0.0
 10
6282.176143643254
 20
4924.605464738306
 30
0.0
  0
SPLINE
  5
275
330
1F
100
AcDbEntity
  8
0
  6
Continuous
 62
     7
370
    25
100
AcDbSpline
210
0.0
220
0.0
230
1.0
 70
     8
 71
     3
 72
     9
 73
     5
 74
     0
 42
0.000000001
 43
0.00000001
 40
0.0
 40
0.0
 40
0.0
 40
0.0
 40
0.5674023506171956
 40
1.0
 40
1.0
 40
1.0
 40
1.0
 10
6282.176143643254
 20
4924.605464738306
 30
0.0
 10
6281.967000885154
 20
4924.547575865862
 30
0.0
 10
6281.598403966454
 20
4924.445551486897
 30
0.0
 10
6281.317474630359
 20
4924.188783069496
 30
0.0
 10
6281.195945259923
 20
4924.077705655691
 30
0.0
  0
SPLINE
  5
276
330
1F
100
AcDbEntity
  8
0
  6
Continuous
 62
     7
370
    25
100
AcDbSpline
210
0.0
220
0.0
230
1.0
 70
     8
 71
     3
 72
     9
 73
     5
 74
     0
 42
0.000000001
 43
0.00000001
 40
0.0
 40
0.0
 40
0.0
 40
0.0
 40
0.5857153998705904
 40
1.0
 40
1.0
 40
1.0
 40
1.0
 10
6280.987852406496
 20
4924.1440651831
 30
0.0
 10
6281.114674802199
 20
4924.240312361206
 30
0.0
 10
6281.331200431765
 20
4924.404636499048
 30
0.0
 10
6281.591700550301
 20
4924.478438298298
 30
0.0
 10
6281.699621737743
 20
4924.509013247189
 30
0.0
  0
SPLINE
  5
277
330
1F
100
AcDbEntity
  8
0
  6
Continuous
 62
     7
370
    25
100
AcDbSpline
210
0.0
220
0.0
230
1.0
 70
     8
 71
     3
 72
     9
 73
     5
 74
     0
 42
0.000000001
 43
0.00000001
 40
0.0
 40
0.0
 40
0.0
 40
0.0
 40
0.5794172031752266
 40
1.0
 40
1.0
 40
1.0
 40
1.0
 10
6280.420938660199
 20
4924.138023693558
 30
0.0
 10
6280.382171985096
 20
4924.130636439487
 30
0.0
 10
6280.315265661136
 20
4924.1178869836
 30
0.0
 10
6280.251602783024
 20
4924.093830450339
 30
0.0
 10
6280.224827271694
 20
4924.083712686297
 30
0.0
  0
LINE
  5
278
330
1F
100
AcDbEntity
  8
0
  6
Continuous
 62
     7
370
    25
100
AcDbLine
 10
6279.5854943477
 20
4923.5710075018
 30
0.0
 11
6279.6216780923
 21
4923.6223140624
 31
0.0
  0
SPLINE
  5
279
330
1F
100
AcDbEntity
  8
0
  6
Continuous
 62
     7
370
    25
100
AcDbSpline
210
0.0
220
0.0
230
1.0
 70
     8
 71
     3
 72
     9
 73
     5
 74
     0
 42
0.000000001
 43
0.00000001
 40
0.0
 40
0.0
 40
0.0
 40
0.0
 40
0.5378748871946741
 40
1.0
 40
1.0
 40
1.0
 40
1.0
 10
6279.404795416439
 20
4923.035874207017
 30
0.0
 10
6279.633393368918
 20
4923.151442845141
 30
0.0
 10
6280.058395461266
 20
4923.366304406584
 30
0.0
 10
6280.533177921827
 20
4923.384636435357
 30
0.0
 10
6280.752586819971
 20
4923.39310812622
 30
0.0
  0
SPLINE
  5
27A
330
1F
100
AcDbEntity
  8
0
  6
Continuous
 62
     7
370
    25
100
AcDbSpline
210
0.0
220
0.0
230
1.0
 70
     8
 71
     3
 72
    10
 73
     6
 74
     0
 42
0.000000001
 43
0.00000001
 40
0.0
 40
0.0
 40
0.0
 40
0.0
 40
0.6407536938583384
 40
0.8395245142214143
 40
0.9999999999999999
 40
0.9999999999999999
 40
0.9999999999999999
 40
0.9999999999999999
 10
6280.752586819971
 20
4923.39310812622
 30
0.0
 10
6281.04907553295
 20
4923.363773998531
 30
0.0
 10
6281.437539220513
 20
4923.325340011283
 30
0.0
 10
6281.855817553494
 20
4923.123726371618
 30
0.0
 10
6281.985743366256
 20
4923.021495584871
 30
0.0
 10
6282.043781284982
 20
4922.975829046663
 30
0.0
  0
SPLINE
  5
27B
330
1F
100
AcDbEntity
  8
0
  6
Continuous
 62
     7
370
    25
100
AcDbSpline
210
0.0
220
0.0
230
1.0
 70
     8
 71
     3
 72
     9
 73
     5
 74
     0
 42
0.000000001
 43
0.00000001
 40
0.0
 40
0.0
 40
0.0
 40
0.0
 40
0.5674915781269007
 40
1.0
 40
1.0
 40
1.0
 40
1.0
 10
6281.289460756624
 20
4924.035445031222
 30
0.0
 10
6281.42019275822
 20
4924.152519022533
 30
0.0
 10
6281.650560937474
 20
4924.358819866143
 30
0.0
 10
6281.94381246192
 20
4924.453110059722
 30
0.0
 10
6282.07064621597
 20
4924.493891362545
 30
0.0
  0
SPLINE
  5
27C
330
1F
100
AcDbEntity
  8
0
  6
Continuous
 62
     7
370
    25
100
AcDbSpline
210
0.0
220
0.0
230
1.0
 70
     8
 71
     3
 72
     9
 73
     5
 74
     0
 42
0.000000001
 43
0.00000001
 40
0.0
 40
0.0
 40
0.0
 40
0.0
 40
0.5404786585685386
 40
1.0
 40
1.0
 40
1.0
 40
1.0
 10
6282.07064621597
 20
4924.493891362545
 30
0.0
 10
6282.047339321835
 20
4924.336879054589
 30
0.0
 10
6282.004216630929
 20
4924.046373027262
 30
0.0
 10
6281.853396408981
 20
4923.795072213216
 30
0.0
 10
6281.784091298277
 20
4923.679594126043
 30
0.0
  0
SPLINE
  5
27D
330
1F
100
AcDbEntity
  8
0
  6
Continuous
 62
     7
370
    25
100
AcDbSpline
210
0.0
220
0.0
230
1.0
 70
     8
 71
     3
 72
     9
 73
     5
 74
     0
 42
0.000000001
 43
0.00000001
 40
0.0
 40
0.0
 40
0.0
 40
0.0
 40
0.5734578029271493
 40
1.0
 40
1.0
 40
1.0
 40
1.0
 10
6281.784091298277
 20
4923.679594126043
 30
0.0
 10
6281.796899789527
 20
4923.663136228012
 30
0.0
 10
6281.81923533224
 20
4923.6344368225
 30
0.0
 10
6281.836846947611
 20
4923.602643713059
 30
0.0
 10
6281.844359044725
 20
4923.589082610306
 30
0.0
  0
SPLINE
  5
27E
330
1F
100
AcDbEntity
  8
0
  6
Continuous
 62
     7
370
    25
100
AcDbSpline
210
0.0
220
0.0
230
1.0
 70
     8
 71
     3
 72
    12
 73
     8
 74
     0
 42
0.000000001
 43
0.00000001
 40
0.0
 40
0.0
 40
0.0
 40
0.0
 40
0.0614752235350861
 40
0.1280387213856521
 40
0.2046860381494242
 40
0.4876730979135113
 40
1.0
 40
1.0
 40
1.0
 40
1.0
 10
6282.043781284982
 20
4922.975829046663
 30
0.0
 10
6282.047180019694
 20
4922.9987433666
 30
0.0
 10
6282.054258800733
 20
4923.046468613575
 30
0.0
 10
6282.024944322115
 20
4923.11941025937
 30
0.0
 10
6281.934171194463
 20
4923.248854240433
 30
0.0
 10
6281.67196248259
 20
4923.449449523535
 30
0.0
 10
6281.408138988738
 20
4923.580237652629
 30
0.0
 10
6281.238188654924
 20
4923.664489005205
 30
0.0
  0
SPLINE
  5
27F
330
1F
100
AcDbEntity
  8
0
  6
Continuous
 62
     7
370
    25
100
AcDbSpline
210
0.0
220
0.0
230
1.0
 70
     8
 71
     3
 72
    11
 73
     7
 74
     0
 42
0.000000001
 43
0.00000001
 40
0.0
 40
0.0
 40
0.0
 40
0.0
 40
0.2895391603798365
 40
0.5649752542240232
 40
0.7799378885606905
 40
1.0
 40
1.0
 40
1.0
 40
1.0
 10
6281.014990214998
 20
4923.212118622359
 30
0.0
 10
6281.01690579253
 20
4923.196750827894
 30
0.0
 10
6281.020643642363
 20
4923.166763783744
 30
0.0
 10
6281.047325610441
 20
4923.133366705058
 30
0.0
 10
6281.079850253494
 20
4923.113221048491
 30
0.0
 10
6281.102869255273
 20
4923.110799424446
 30
0.0
 10
6281.114513673628
 20
4923.109574418959
 30
0.0
  0
SPLINE
  5
280
330
1F
100
AcDbEntity
  8
0
  6
Continuous
 62
     7
370
    25
100
AcDbSpline
210
0.0
220
0.0
230
1.0
 70
     8
 71
     3
 72
     9
 73
     5
 74
     0
 42
0.000000001
 43
0.00000001
 40
0.0
 40
0.0
 40
0.0
 40
0.0
 40
0.5532696009389791
 40
0.9999999999999999
 40
0.9999999999999999
 40
0.9999999999999999
 40
0.9999999999999999
 10
6281.165751782054
 20
4922.862258915302
 30
0.0
 10
6281.311018113495
 20
4922.922728754689
 30
0.0
 10
6281.573577869525
 20
4923.032024185496
 30
0.0
 10
6281.854630962564
 20
4922.998089227362
 30
0.0
 10
6281.980185922975
 20
4922.982929449972
 30
0.0
  0
SPLINE
  5
281
330
1F
100
AcDbEntity
  8
0
  6
Continuous
 62
     7
370
    25
100
AcDbSpline
210
0.0
220
0.0
230
1.0
 70
     8
 71
     3
 72
    10
 73
     6
 74
     0
 42
0.000000001
 43
0.00000001
 40
0.0
 40
0.0
 40
0.0
 40
0.0
 40
0.2000572732475064
 40
0.4722299074418545
 40
1.0
 40
1.0
 40
1.0
 40
1.0
 10
6279.59752703532
 20
4924.545180228051
 30
0.0
 10
6279.657090254685
 20
4924.529252946205
 30
0.0
 10
6279.797687660172
 20
4924.491657018247
 30
0.0
 10
6280.077456871355
 20
4924.359697429943
 30
0.0
 10
6280.284403550457
 20
4924.226139712827
 30
0.0
 10
6280.420938660199
 20
4924.138023693558
 30
0.0
  0
SPLINE
  5
282
330
1F
100
AcDbEntity
  8
0
  6
Continuous
 62
     7
370
    25
100
AcDbSpline
210
0.0
220
0.0
230
1.0
 70
     8
 71
     3
 72
    11
 73
     7
 74
     0
 42
0.000000001
 43
0.00000001
 40
0.0
 40
0.0
 40
0.0
 40
0.0
 40
0.2932380800092875
 40
0.580987420539497
 40
0.7978100511632711
 40
1.0
 40
1.0
 40
1.0
 40
1.0
 10
6280.71338186487
 20
4924.122935336527
 30
0.0
 10
6280.870418733362
 20
4924.10864802943
 30
0.0
 10
6281.181553102923
 20
4924.080340840621
 30
0.0
 10
6281.551138378708
 20
4923.850833603062
 30
0.0
 10
6281.818828181193
 20
4923.579518302378
 30
0.0
 10
6281.905193936303
 20
4923.372386062695
 30
0.0
 10
6281.94686878919
 20
4923.272436660227
 30
0.0
  0
SPLINE
  5
283
330
1F
100
AcDbEntity
  8
0
  6
Continuous
 62
     7
370
    25
100
AcDbSpline
210
0.0
220
0.0
230
1.0
 70
     8
 71
     3
 72
    19
 73
    15
 74
     0
 42
0.000000001
 43
0.00000001
 40
0.0
 40
0.0
 40
0.0
 40
0.0
 40
0.2105232879856343
 40
0.3855537271552604
 40
0.5392732045316115
 40
0.6783891033685211
 40
0.8559798082788892
 40
0.9734514629994813
 40
0.9979905762636982
 40
0.9993572407327636
 40
0.9997498704419336
 40
0.999844732978224
 40
0.9999260351875999
 40
1.0
 40
1.0
 40
1.0
 40
1.0
 10
6281.238188654924
 20
4923.664489005205
 30
0.0
 10
6281.176953702045
 20
4923.618612964927
 30
0.0
 10
6281.064807608659
 20
4923.534595284576
 30
0.0
 10
6280.875154906141
 20
4923.476176896518
 30
0.0
 10
6280.704390762628
 20
4923.472782597071
 30
0.0
 10
6280.5378814531
 20
4923.512083063941
 30
0.0
 10
6280.395332753775
 20
4923.582175176437
 30
0.0
 10
6280.304647955603
 20
4923.653048290211
 30
0.0
 10
6280.266120488304
 20
4923.688611474535
 30
0.0
 10
6280.261116505593
 20
4923.696704678227
 30
0.0
 10
6280.260921044704
 20
4923.697361208153
 30
0.0
 10
6280.260933636679
 20
4923.697566849584
 30
0.0
 10
6280.260958616798
 20
4923.697655780528
 30
0.0
 10
6280.26099442433
 20
4923.697699588456
 30
0.0
 10
6280.261011482025
 20
4923.697720457312
 30
0.0
  0
SPLINE
  5
284
330
1F
100
AcDbEntity
  8
0
  6
Continuous
 62
     7
370
    25
100
AcDbSpline
210
0.0
220
0.0
230
1.0
 70
     8
 71
     3
 72
    13
 73
     9
 74
     0
 42
0.000000001
 43
0.00000001
 40
0.0
 40
0.0
 40
0.0
 40
0.0
 40
0.2413731802014359
 40
0.5925120474674416
 40
0.8684422896721274
 40
0.9534166395253122
 40
0.9788498006651758
 40
1.0
 40
1.0
 40
1.0
 40
1.0
 10
6280.261011482025
 20
4923.697720457312
 30
0.0
 10
6280.184346704806
 20
4923.654112415938
 30
0.0
 10
6279.996153451185
 20
4923.547065353547
 30
0.0
 10
6279.733640838218
 20
4923.369170089492
 30
0.0
 10
6279.526284241103
 20
4923.209927660076
 30
0.0
 10
6279.433338286364
 20
4923.102731551732
 30
0.0
 10
6279.409986604243
 20
4923.060180145982
 30
0.0
 10
6279.406416395126
 20
4923.043463878305
 30
0.0
 10
6279.404795416439
 20
4923.035874207017
 30
0.0
  0
SPLINE
  5
285
330
1F
100
AcDbEntity
  8
0
  6
Continuous
 62
     7
370
    25
100
AcDbSpline
210
0.0
220
0.0
230
1.0
 70
     8
 71
     3
 72
     9
 73
     5
 74
     0
 42
0.000000001
 43
0.00000001
 40
0.0
 40
0.0
 40
0.0
 40
0.0
 40
0.5483232322961897
 40
1.0
 40
1.0
 40
1.0
 40
1.0
 10
6280.224827271694
 20
4924.083712686297
 30
0.0
 10
6280.126227996513
 20
4924.190482280096
 30
0.0
 10
6279.946408376672
 20
4924.385202451537
 30
0.0
 10
6279.706078470515
 20
4924.495404515849
 30
0.0
 10
6279.59752703532
 20
4924.545180228051
 30
0.0
  0
SPLINE
  5
286
330
1F
100
AcDbEntity
  8
0
  6
Continuous
 62
     7
370
    25
100
AcDbSpline
210
0.0
220
0.0
230
1.0
 70
     8
 71
     3
 72
    12
 73
     8
 74
     0
 42
0.000000001
 43
0.00000001
 40
0.0
 40
0.0
 40
0.0
 40
0.0
 40
0.1051178289435162
 40
0.2604620954754134
 40
0.5553565002887586
 40
0.8115278152709384
 40
0.9999999999999999
 40
0.9999999999999999
 40
0.9999999999999999
 40
0.9999999999999999
 10
6280.457037188852
 20
4924.150073145029
 30
0.0
 10
6280.473478626486
 20
4924.154123754449
 30
0.0
 10
6280.514217398795
 20
4924.164160398358
 30
0.0
 10
6280.603621506261
 20
4924.17094356866
 30
0.0
 10
6280.717010612022
 20
4924.174192000763
 30
0.0
 10
6280.836470933328
 20
4924.17239197339
 30
0.0
 10
6280.906814396906
 20
4924.158827289241
 30
0.0
 10
6280.936631061876
 20
4924.153077591654
 30
0.0
  0
SPLINE
  5
287
330
1F
100
AcDbEntity
  8
0
  6
Continuous
 62
     7
370
    25
100
AcDbSpline
210
0.0
220
0.0
230
1.0
 70
     8
 71
     3
 72
    10
 73
     6
 74
     0
 42
0.000000001
 43
0.00000001
 40
0.0
 40
0.0
 40
0.0
 40
0.0
 40
0.2545811095265688
 40
0.535989993968047
 40
1.0
 40
1.0
 40
1.0
 40
1.0
 10
6280.936631061876
 20
4924.153077591654
 30
0.0
 10
6281.028711795585
 20
4924.227585946717
 30
0.0
 10
6281.222576737086
 20
4924.384454352446
 30
0.0
 10
6281.653972716691
 20
4924.570496404594
 30
0.0
 10
6281.996226040778
 20
4924.625522221538
 30
0.0
 10
6282.209272649879
 20
4924.659774814245
 30
0.0
  0
SPLINE
  5
288
330
1F
100
AcDbEntity
  8
0
  6
Continuous
 62
     7
370
    25
100
AcDbSpline
210
0.0
220
0.0
230
1.0
 70
     8
 71
     3
 72
     9
 73
     5
 74
     0
 42
0.000000001
 43
0.00000001
 40
0.0
 40
0.0
 40
0.0
 40
0.0
 40
0.5513211999327539
 40
1.0
 40
1.0
 40
1.0
 40
1.0
 10
6282.209272649879
 20
4924.659774814245
 30
0.0
 10
6282.189772907864
 20
4924.439581800784
 30
0.0
 10
6282.15440379451
 20
4924.040190278222
 30
0.0
 10
6281.959188336268
 20
4923.691343783686
 30
0.0
 10
6281.87159929871
 20
4923.534823757109
 30
0.0
  0
SPLINE
  5
289
330
1F
100
AcDbEntity
  8
0
  6
Continuous
 62
     7
370
    25
100
AcDbSpline
210
0.0
220
0.0
230
1.0
 70
     8
 71
     3
 72
    10
 73
     6
 74
     0
 42
0.000000001
 43
0.00000001
 40
0.0
 40
0.0
 40
0.0
 40
0.0
 40
0.5754177252065733
 40
0.8047542550421305
 40
1.0
 40
1.0
 40
1.0
 40
1.0
 10
6281.87159929871
 20
4923.534823757109
 30
0.0
 10
6281.934833573842
 20
4923.428406253492
 30
0.0
 10
6282.023270286421
 20
4923.279575351879
 30
0.0
 10
6282.091696799724
 20
4923.069658869545
 30
0.0
 10
6282.077826427282
 20
4922.978073890584
 30
0.0
 10
6282.071448084706
 20
4922.935958195922
 30
0.0
  0
SPLINE
  5
28A
330
1F
100
AcDbEntity
  8
0
  6
Continuous
 62
     7
370
    25
100
AcDbSpline
210
0.0
220
0.0
230
1.0
 70
     8
 71
     3
 72
    11
 73
     7
 74
     0
 42
0.000000001
 43
0.00000001
 40
0.0
 40
0.0
 40
0.0
 40
0.0
 40
0.3095263989298436
 40
0.5761953085147874
 40
0.7826945732851863
 40
1.0
 40
1.0
 40
1.0
 40
1.0
 10
6279.461750914151
 20
4923.194043513831
 30
0.0
 10
6279.527548884909
 20
4923.355862162732
 30
0.0
 10
6279.650034340728
 20
4923.657093807748
 30
0.0
 10
6279.992940820101
 20
4923.95083329358
 30
0.0
 10
6280.355787034765
 20
4924.093434135802
 30
0.0
 10
6280.592174454565
 20
4924.112935851525
 30
0.0
 10
6280.71338186487
 20
4924.122935336527
 30
0.0
  0
CIRCLE
  5
28B
330
1F
100
AcDbEntity
  8
0
  6
Continuous
 62
     7
370
    25
100
AcDbCircle
 10
6282.9107160212
 20
4924.2668698562
 30
0.0
 40
0.3953802200012433
  0
CIRCLE
  5
28C
330
1F
100
AcDbEntity
  8
0
  6
Continuous
 62
     7
370
    25
100
AcDbCircle
 10
6282.9107160212
 20
4924.2668698562
 30
0.0
 40
0.3434252279994325
  0
SPLINE
  5
28D
330
1F
100
AcDbEntity
  8
0
  6
Continuous
 62
     7
370
    25
100
AcDbSpline
210
0.0
220
0.0
230
1.0
 70
     8
 71
     3
 72
    11
 73
     7
 74
     0
 42
0.000000001
 43
0.00000001
 40
0.0
 40
0.0
 40
0.0
 40
0.0
 40
0.2794267548447495
 40
0.556557281347397
 40
0.7766494742966762
 40
1.0
 40
1.0
 40
1.0
 40
1.0
 10
6280.473985862726
 20
4923.211214308139
 30
0.0
 10
6280.4731247941
 20
4923.217117801068
 30
0.0
 10
6280.471409732799
 20
4923.228876274148
 30
0.0
 10
6280.460198399929
 20
4923.241642165424
 30
0.0
 10
6280.446969326555
 20
4923.249526792431
 30
0.0
 10
6280.437626076407
 20
4923.250517332052
 30
0.0
 10
6280.432920125121
 20
4923.251016241011
 30
0.0
  0
SPLINE
  5
28E
330
1F
100
AcDbEntity
  8
0
  6
Continuous
 62
     7
370
    25
100
AcDbSpline
210
0.0
220
0.0
230
1.0
 70
     8
 71
     3
 72
    11
 73
     7
 74
     0
 42
0.000000001
 43
0.00000001
 40
0.0
 40
0.0
 40
0.0
 40
0.0
 40
0.2798979780349605
 40
0.5593433153365426
 40
0.7791600957276198
 40
1.0
 40
1.0
 40
1.0
 40
1.0
 10
6280.432920125121
 20
4923.170216557082
 30
0.0
 10
6280.438901656468
 20
4923.17108484467
 30
0.0
 10
6280.45085504605
 20
4923.17282001568
 30
0.0
 10
6280.464017386687
 20
4923.183905008243
 30
0.0
 10
6280.47237662046
 20
4923.197096560654
 30
0.0
 10
6280.473448618976
 20
4923.206501113763
 30
0.0
 10
6280.473985862726
 20
4923.211214308139
 30
0.0
  0
SPLINE
  5
28F
330
1F
100
AcDbEntity
  8
0
  6
Continuous
 62
     7
370
    25
100
AcDbSpline
210
0.0
220
0.0
230
1.0
 70
     8
 71
     3
 72
    11
 73
     7
 74
     0
 42
0.000000001
 43
0.00000001
 40
0.0
 40
0.0
 40
0.0
 40
0.0
 40
0.2798314753390588
 40
0.5590997102728488
 40
0.7789533527239807
 40
1.0
 40
1.0
 40
1.0
 40
1.0
 10
6280.391906075919
 20
4923.211214308139
 30
0.0
 10
6280.392773843017
 20
4923.205236769144
 30
0.0
 10
6280.394507630584
 20
4923.193293722648
 30
0.0
 10
6280.405600425006
 20
4923.18015066338
 30
0.0
 10
6280.418799839203
 20
4923.171818585492
 30
0.0
 10
6280.428204880309
 20
4923.17075152898
 30
0.0
 10
6280.432920125121
 20
4923.170216557082
 30
0.0
  0
SPLINE
  5
290
330
1F
100
AcDbEntity
  8
0
  6
Continuous
 62
     7
370
    25
100
AcDbSpline
210
0.0
220
0.0
230
1.0
 70
     8
 71
     3
 72
    11
 73
     7
 74
     0
 42
0.000000001
 43
0.00000001
 40
0.0
 40
0.0
 40
0.0
 40
0.0
 40
0.2827334544770029
 40
0.5610519366703616
 40
0.7789352278843196
 40
1.0
 40
1.0
 40
1.0
 40
1.0
 10
6280.432920125121
 20
4923.251016241011
 30
0.0
 10
6280.426954522722
 20
4923.250212136097
 30
0.0
 10
6280.41511647269
 20
4923.24861648262
 30
0.0
 10
6280.401863618188
 20
4923.238031684685
 30
0.0
 10
6280.393482299071
 20
4923.225126310344
 30
0.0
 10
6280.392434016277
 20
4923.215873995697
 30
0.0
 10
6280.391906075919
 20
4923.211214308139
 30
0.0
  0
CIRCLE
  5
291
330
1F
100
AcDbEntity
  8
0
  6
Continuous
 62
     7
370
    25
100
AcDbCircle
 10
6274.0187553362
 20
4910.6928028059
 30
0.0
 40
7.081072331973701
  0
CIRCLE
  5
292
330
1F
100
AcDbEntity
  8
0
  6
Continuous
 62
     7
370
    25
100
AcDbCircle
 10
6274.0187553362
 20
4910.6928028059
 30
0.0
 40
7.372467938162117
  0
ARC
  5
293
330
1F
100
AcDbEntity
  8
0
  6
Continuous
 62
     7
370
    25
100
AcDbCircle
 10
6274.5187553307
 20
4932.7912864316
 30
0.0
 40
0.4011238364005478
100
AcDbArc
 50
88.7076652417
 51
91.2923347583
  0
LWPOLYLINE
  5
294
330
1F
100
AcDbEntity
  8
0
  6
Continuous
 62
     7
370
    25
100
AcDbPolyline
 90
        9
 70
   128
 43
0.0
 10
6274.5187553598
 20
4932.7924448889
 10
6274.5205056642
 20
4932.8698079926
 10
6274.5221898447
 20
4932.9442467433
 10
6274.5237442221
 20
4933.0129522723
 10
6274.5251101812
 20
4933.0733243269
 10
6274.5262359756
 20
4933.123084892
 10
6274.5270791718
 20
4933.1603545588
 10
6274.527607872
 20
4933.1837233049
 10
6274.5278021109
 20
4933.1923082364
  0
LWPOLYLINE
  5
295
330
1F
100
AcDbEntity
  8
0
  6
Continuous
 62
     7
370
    25
100
AcDbPolyline
 90
        9
 70
   128
 43
0.0
 10
6274.5097085506
 20
4933.1923082364
 10
6274.5099027895
 20
4933.1837233049
 10
6274.5104314897
 20
4933.1603545588
 10
6274.5112746859
 20
4933.123084892
 10
6274.5124004803
 20
4933.0733243269
 10
6274.5137664394
 20
4933.0129522723
 10
6274.515320875
 20
4932.9442467433
 10
6274.5170050555
 20
4932.8698079926
 10
6274.5187553598
 20
4932.7924448889
  0
ARC
  5
296
330
1F
100
AcDbEntity
  8
0
  6
Continuous
 62
     7
370
    25
100
AcDbCircle
 10
6274.0187553361
 20
4910.6928028059
 30
0.0
 40
22.10529824717351
100
AcDbArc
 50
181.0368357146
 51
88.7039155589
  0
ARC
  5
297
330
1F
100
AcDbEntity
  8
0
  6
Continuous
 62
     7
370
    25
100
AcDbCircle
 10
6274.0187553361
 20
4910.6928028059
 30
0.0
 40
22.50526269003784
100
AcDbArc
 50
181.0368357146
 51
88.7039155589
  0
LWPOLYLINE
  5
298
330
1F
100
AcDbEntity
  8
0
  6
Continuous
 62
     7
370
    25
100
AcDbPolyline
 90
        9
 70
   128
 43
0.0
 10
6251.9170755193
 20
4910.292802816
 10
6251.8397068277
 20
4910.2914025725
 10
6251.7652606264
 20
4910.2900552107
 10
6251.6965495095
 20
4910.2888116913
 10
6251.6361718669
 20
4910.2877189298
 10
6251.5864057139
 20
4910.2868182827
 10
6251.5491341844
 20
4910.2861437141
 10
6251.5257635757
 20
4910.2857207481
 10
6251.5171767816
 20
4910.2855653628
  0
ARC
  5
299
330
1F
100
AcDbEntity
  8
0
  6
Continuous
 62
     7
370
    25
100
AcDbCircle
 10
6275.0187553361
 20
4910.6928028059
 30
0.0
 40
22.50526269003775
100
AcDbArc
 50
91.2960844411
 51
180.0000905243
  0
ARC
  5
29A
330
1F
100
AcDbEntity
  8
0
  6
Continuous
 62
     7
370
    25
100
AcDbCircle
 10
6275.0187553361
 20
4910.6928028059
 30
0.0
 40
22.10529824717351
100
AcDbArc
 50
91.2960844411
 51
181.0368357146
  0
SPLINE
  5
29B
330
1F
100
AcDbEntity
  8
0
  6
Continuous
 62
     7
370
    25
100
AcDbSpline
210
0.0
220
0.0
230
1.0
 70
     8
 71
     3
 72
    13
 73
     9
 74
     0
 42
0.000000001
 43
0.00000001
 40
0.0
 40
0.0
 40
0.0
 40
0.0
 40
0.1414888562300273
 40
0.2822614734820966
 40
0.4825079193246301
 40
0.7612449845752476
 40
0.9947238961604987
 40
1.0
 40
1.0
 40
1.0
 40
1.0
 10
6252.513492633397
 20
4910.692767248763
 30
0.0
 10
6252.516859924574
 20
4910.6893992384
 30
0.0
 10
6252.523577461168
 20
4910.682680267077
 30
0.0
 10
6252.571702697143
 20
4910.634603833754
 30
0.0
 10
6252.658077957796
 20
4910.54855612701
 30
0.0
 10
6252.779792994713
 20
4910.427897320119
 30
0.0
 10
6252.873081044901
 20
4910.33601719704
 30
0.0
 10
6252.916124491861
 20
4910.293737137667
 30
0.0
 10
6252.917075683171
 20
4910.292802816003
 30
0.0
  0
LINE
  5
29C
330
1F
100
AcDbEntity
  8
0
  6
Continuous
 62
     7
370
    25
100
AcDbLine
 10
6252.9170756832
 20
4910.292802816
 30
0.0
 11
6251.9170755193
 21
4910.292802816
 31
0.0
  0
CIRCLE
  5
29D
330
1F
100
AcDbEntity
  8
0
  6
Continuous
 62
     7
370
    25
100
AcDbCircle
 10
6274.0187553361
 20
4910.6928028059
 30
0.0
 40
7.900000000000546
  0
CIRCLE
  5
29E
330
1F
100
AcDbEntity
  8
0
  6
Continuous
 62
     7
370
    25
100
AcDbCircle
 10
6274.0187553361
 20
4910.6928028059
 30
0.0
 40
7.5
  0
LINE
  5
29F
330
1F
100
AcDbEntity
  8
0
  6
Continuous
 62
     7
370
    25
100
AcDbLine
 10
6251.9170755193
 20
4910.6928028059
 30
0.0
 11
6252.5134218529
 21
4910.6928028059
 31
0.0
  0
LINE
  5
2A0
330
1F
100
AcDbEntity
  8
0
  6
Continuous
 62
     7
370
    25
100
AcDbLine
 10
6252.5134218529
 20
4910.6928028059
 30
0.0
 11
6252.5134926334
 21
4910.6927672488
 31
0.0
  0
LINE
  5
2A1
330
1F
100
AcDbEntity
  8
0
  6
Continuous
 62
     7
370
    25
100
AcDbLine
 10
6251.9170755193
 20
4910.292802816
 30
0.0
 11
6251.9170755193
 21
4910.6928028059
 31
0.0
  0
ARC
  5
2A2
330
1F
100
AcDbEntity
  8
0
  6
Continuous
 62
     7
370
    25
100
AcDbCircle
 10
6251.9170957926
 20
4910.2928180359
 30
0.0
 40
0.3999847704698414
100
AcDbArc
 50
90.0029040477
 51
181.0389654022
  0
LWPOLYLINE
  5
2A3
330
1F
100
AcDbEntity
  8
0
  6
Continuous
 62
     7
370
    25
100
AcDbPolyline
 90
        3
 70
   128
 43
0.0
 10
6274.5097085506
 20
4933.1923082364
 10
6274.5098646635
 20
4933.5806343597
 10
6274.5098666426
 20
4933.5856635016
  0
SPLINE
  5
2A4
330
1F
100
AcDbEntity
  8
0
  6
Continuous
 62
     7
370
    25
100
AcDbSpline
210
0.0
220
0.0
230
1.0
 70
     8
 71
     3
 72
     9
 73
     5
 74
     0
 42
0.000000001
 43
0.00000001
 40
0.0
 40
0.0
 40
0.0
 40
0.0
 40
0.161215238579336
 40
1.0
 40
1.0
 40
1.0
 40
1.0
 10
6274.527643902501
 20
4933.585898194906
 30
0.0
 10
6274.526688600062
 20
4933.58590485132
 30
0.0
 10
6274.520762966432
 20
4933.585946140304
 30
0.0
 10
6274.514837137544
 20
4933.585792430805
 30
0.0
 10
6274.509866642574
 20
4933.585663501618
 30
0.0
  0
LINE
  5
2A5
330
1F
100
AcDbEntity
  8
0
  6
Continuous
 62
     7
370
    25
100
AcDbLine
 10
6274.5276439025
 20
4933.5858981949
 30
0.0
 11
6274.5278021109
 21
4933.1923082364
 31
0.0
  0
LWPOLYLINE
  5
2A6
330
1F
100
AcDbEntity
  8
0
  6
Continuous
 62
     7
370
    25
100
AcDbPolyline
 90
        5
 70
   128
 43
0.0
 10
6251.5171767816
 20
4910.2855653628
 10
6251.5065094128
 20
4910.2855688552
 10
6251.4638343498
 20
4910.285582796
 10
6251.2931396857
 20
4910.2856379768
 10
6251.1236240759
 20
4910.2856919353
  0
SPLINE
  5
2A7
330
1F
100
AcDbEntity
  8
0
  6
Continuous
 62
     7
370
    25
100
AcDbSpline
210
0.0
220
0.0
230
1.0
 70
     8
 71
     3
 72
    13
 73
     9
 74
     0
 42
0.000000001
 43
0.00000001
 40
0.0
 40
0.0
 40
0.0
 40
0.0
 40
0.0053185652389891
 40
0.2390652978232996
 40
0.5161835800067189
 40
0.7170781940018763
 40
0.858180695114237
 40
1.0
 40
1.0
 40
1.0
 40
1.0
 10
6251.123624075944
 20
4910.285691935315
 30
0.0
 10
6251.123622309919
 20
4910.286647262583
 30
0.0
 10
6251.123542928551
 20
4910.329588467162
 30
0.0
 10
6251.138358449057
 20
4910.422638010215
 30
0.0
 10
6251.204799400913
 20
4910.544957493838
 30
0.0
 10
6251.306718616668
 20
4910.632310635738
 30
0.0
 10
6251.412294197408
 20
4910.681606645949
 30
0.0
 10
6251.484016752078
 20
4910.68899864329
 30
0.0
 10
6251.519968886668
 20
4910.692704006054
 30
0.0
  0
LINE
  5
2A8
330
1F
100
AcDbEntity
  8
0
  6
Continuous
 62
     7
370
    25
100
AcDbLine
 10
6251.5199688867
 20
4910.6927040061
 30
0.0
 11
6251.528859292
 21
4910.6928028059
 31
0.0
  0
LINE
  5
2A9
330
1F
100
AcDbEntity
  8
0
  6
Continuous
 62
     7
370
    25
100
AcDbLine
 10
6251.528859292
 20
4910.6928028059
 30
0.0
 11
6251.9170755193
 21
4910.6928028059
 31
0.0
  0
SPLINE
  5
2AA
330
1F
100
AcDbEntity
  8
0
  6
Continuous
 62
     7
370
    25
100
AcDbSpline
210
0.0
220
0.0
230
1.0
 70
     8
 71
     3
 72
    17
 73
    13
 74
     0
 42
0.000000001
 43
0.00000001
 40
0.0
 40
0.0
 40
0.0
 40
0.0
 40
0.076810904537368
 40
0.182919813377577
 40
0.2897310000323062
 40
0.3973860881780298
 40
0.5047216605422926
 40
0.6111846394322699
 40
0.7176674108294231
 40
0.8250237885519097
 40
0.932671617086247
 40
1.0
 40
1.0
 40
1.0
 40
1.0
 10
6270.657271765912
 20
4888.255224738715
 30
0.0
 10
6270.661055770768
 20
4888.25829323409
 30
0.0
 10
6270.670067114487
 20
4888.26560064187
 30
0.0
 10
6271.121270909465
 20
4888.212939379818
 30
0.0
 10
6271.892174817386
 20
4888.135274978599
 30
0.0
 10
6272.918845535522
 20
4888.066223793389
 30
0.0
 10
6274.06703268775
 20
4888.041141499479
 30
0.0
 10
6275.204850880892
 20
4888.070504090045
 30
0.0
 10
6276.212732634296
 20
4888.141275455735
 30
0.0
 10
6276.963453884477
 20
4888.218234057018
 30
0.0
 10
6277.384332598739
 20
4888.267383032723
 30
0.0
 10
6277.377027433575
 20
4888.257948070983
 30
0.0
 10
6277.37421650886
 20
4888.254317630527
 30
0.0
  0
ARC
  5
2AB
330
1F
100
AcDbEntity
  8
0
  6
Continuous
 62
     7
370
    25
100
AcDbCircle
 10
6274.0187553361
 20
4910.6928028059
 30
0.0
 40
22.89875045556776
100
AcDbArc
 50
88.7265869203
 51
181.0187002674
  0
ARC
  5
2AC
330
1F
100
AcDbEntity
  8
0
  6
Continuous
 62
     7
370
    25
100
AcDbCircle
 10
6274.0187553361
 20
4910.6928028059
 30
0.0
 40
23.00000000000016
100
AcDbArc
 50
180.0
 51
261.6753092539
  0
ARC
  5
2AD
330
1F
100
AcDbEntity
  8
0
  6
Continuous
 62
     7
370
    25
100
AcDbCircle
 10
6274.0187553361
 20
4910.6928028059
 30
0.0
 40
23.00000000000016
100
AcDbArc
 50
278.3246907461
 51
180.0
  0
ARC
  5
2AE
330
1F
100
AcDbEntity
  8
0
  6
Continuous
 62
     7
370
    25
100
AcDbCircle
 10
6275.0187553361
 20
4910.6928028059
 30
0.0
 40
22.89348776553015
100
AcDbArc
 50
114.4022090027
 51
180.0
  0
SPLINE
  5
2AF
330
1F
100
AcDbEntity
  8
0
  6
Continuous
 62
     7
370
    25
100
AcDbSpline
210
0.0
220
0.0
230
1.0
 70
     8
 71
     3
 72
    13
 73
     9
 74
     0
 42
0.000000001
 43
0.00000001
 40
0.0
 40
0.0
 40
0.0
 40
0.0
 40
0.0051748667122353
 40
0.0254160322045643
 40
0.1058118492750896
 40
0.4275140357096376
 40
0.7137539223088654
 40
1.0
 40
1.0
 40
1.0
 40
1.0
 10
6274.509866642574
 20
4933.585663501617
 30
0.0
 10
6274.496259491905
 20
4933.585241025057
 30
0.0
 10
6274.429428827693
 20
4933.583166058021
 30
0.0
 10
6274.099216774322
 20
4933.573301622328
 30
0.0
 10
6272.81805940665
 20
4933.509768269533
 30
0.0
 10
6270.69352746979
 20
4933.230457348114
 30
0.0
 10
6268.013399100411
 20
4932.555180239396
 30
0.0
 10
6266.378172773913
 20
4931.879170995698
 30
0.0
 10
6265.560550768668
 20
4931.541162718531
 30
0.0
  0
ARC
  5
2B0
330
1F
100
AcDbEntity
  8
0
  6
Continuous
 62
     7
370
    25
100
AcDbCircle
 10
6274.0187553361
 20
4910.6928028059
 30
0.0
 40
22.49878601270374
100
AcDbArc
 50
112.0824538191
 51
180.0002516053
  0
ARC
  5
2B1
330
1F
100
AcDbEntity
  8
0
  6
Continuous
 62
     7
370
    25
100
AcDbCircle
 10
6274.0187553361
 20
4674.8913300033
 30
0.0
 40
14.06501472578385
100
AcDbArc
 50
211.4406684242
 51
328.5593315758
  0
LWPOLYLINE
  5
2B2
330
1F
100
AcDbEntity
  8
0
  6
Continuous
 62
     7
370
    25
100
AcDbPolyline
 90
        9
 70
   128
 43
0.0
 10
6262.0187552318
 20
4667.5548024368
 10
6262.1340436533
 20
4667.813471694
 10
6262.475477685
 20
4668.1993968677
 10
6263.0299377859
 20
4668.697781105
 10
6263.776114364
 20
4669.2894466114
 10
6264.6853338599
 20
4669.9516542149
 10
6265.7226549134
 20
4670.6589676332
 10
6266.8482131928
 20
4671.3841922474
 10
6268.0187552839
 20
4672.099477787
  0
ARC
  5
2B3
330
1F
100
AcDbEntity
  8
0
  6
Continuous
 62
     7
370
    25
100
AcDbCircle
 10
6274.0187553361
 20
4675.7663814261
 30
0.0
 40
7.031797986594163
100
AcDbArc
 50
211.4312129735
 51
328.5687870265
  0
LWPOLYLINE
  5
2B4
330
1F
100
AcDbEntity
  8
0
  6
Continuous
 62
     7
370
    25
100
AcDbPolyline
 90
        9
 70
   128
 43
0.0
 10
6286.0187554404
 20
4667.5548024368
 10
6285.9034670189
 20
4667.813471694
 10
6285.5620329872
 20
4668.1993968677
 10
6285.0075728863
 20
4668.697781105
 10
6284.2613963082
 20
4669.2894466114
 10
6283.3521768123
 20
4669.9516542149
 10
6282.3148557588
 20
4670.6589676332
 10
6281.1892974794
 20
4671.3841922474
 10
6280.0187553883
 20
4672.099477787
  0
LINE
  5
2B5
330
1F
100
AcDbEntity
  8
0
  6
Continuous
 62
     7
370
    25
100
AcDbLine
 10
6268.0187552839
 20
4692.8874768209
 30
0.0
 11
6268.0187552839
 21
4672.099477787
 31
0.0
  0
SPLINE
  5
2B6
330
1F
100
AcDbEntity
  8
0
  6
Continuous
 62
     7
370
    25
100
AcDbSpline
210
0.0
220
0.0
230
1.0
 70
     8
 71
     3
 72
    30
 73
    26
 74
     0
 42
0.000000001
 43
0.00000001
 40
0.0
 40
0.0
 40
0.0
 40
0.0
 40
0.1250000000000049
 40
0.1250000000000049
 40
0.1875000000000072
 40
0.1875000000000072
 40
0.2500000000000096
 40
0.2500000000000096
 40
0.3750000000000118
 40
0.3750000000000118
 40
0.5000000000000139
 40
0.5000000000000139
 40
0.625000000000016
 40
0.625000000000016
 40
0.6875000000000175
 40
0.6875000000000175
 40
0.7500000000000191
 40
0.7500000000000191
 40
0.8750000000000162
 40
0.8750000000000162
 40
0.9375000000000118
 40
0.9375000000000118
 40
0.9687500000000059
 40
0.9687500000000059
 40
1.0
 40
1.0
 40
1.0
 40
1.0
 10
6268.0187553361
 20
4672.099478277658
 30
0.0
 10
6267.480336303206
 20
4672.210386250214
 30
0.0
 10
6266.952443959369
 20
4672.318606350512
 30
0.0
 10
6266.176125967263
 20
4672.479849582328
 30
0.0
 10
6265.91995857228
 20
4672.533410212227
 30
0.0
 10
6265.41301294523
 20
4672.640629480278
 30
0.0
 10
6265.161389707742
 20
4672.694478812495
 30
0.0
 10
6264.430397570074
 20
4672.853561525297
 30
0.0
 10
6263.969902968352
 20
4672.957339525979
 30
0.0
 10
6263.102043571896
 20
4673.16426041121
 30
0.0
 10
6262.692665181125
 20
4673.268080264658
 30
0.0
 10
6261.960559864027
 20
4673.470719878096
 30
0.0
 10
6261.633440512713
 20
4673.570467305064
 30
0.0
 10
6261.201913657009
 20
4673.720629086747
 30
0.0
 10
6261.067692337981
 20
4673.770935164263
 30
0.0
 10
6260.824576393601
 20
4673.870225976452
 30
0.0
 10
6260.714962271963
 20
4673.919436600785
 30
0.0
 10
6260.421206532924
 20
4674.066508559907
 30
0.0
 10
6260.271844380188
 20
4674.163796485213
 30
0.0
 10
6260.120069789629
 20
4674.311501628431
 30
0.0
 10
6260.082108347686
 20
4674.360574699942
 30
0.0
 10
6260.044135518804
 20
4674.434037705558
 30
0.0
 10
6260.034629136657
 20
4674.458515665498
 30
0.0
 10
6260.021936918592
 20
4674.507513539505
 30
0.0
 10
6260.0187553361
 20
4674.532327683712
 30
0.0
 10
6260.0187553361
 20
4674.556555768279
 30
0.0
  0
LINE
  5
2B7
330
1F
100
AcDbEntity
  8
0
  6
Continuous
 62
     7
370
    25
100
AcDbLine
 10
6280.0187553883
 20
4692.8874768209
 30
0.0
 11
6280.0187553883
 21
4672.099477787
 31
0.0
  0
SPLINE
  5
2B8
330
1F
100
AcDbEntity
  8
0
  6
Continuous
 62
     7
370
    25
100
AcDbSpline
210
0.0
220
0.0
230
1.0
 70
     8
 71
     3
 72
    30
 73
    26
 74
     0
 42
0.000000001
 43
0.00000001
 40
0.0
 40
0.0
 40
0.0
 40
0.0
 40
0.1249999999999968
 40
0.1249999999999968
 40
0.1874999999999956
 40
0.1874999999999956
 40
0.2499999999999946
 40
0.2499999999999946
 40
0.3749999999999946
 40
0.3749999999999946
 40
0.4999999999999946
 40
0.4999999999999946
 40
0.6249999999999947
 40
0.6249999999999947
 40
0.6874999999999947
 40
0.6874999999999947
 40
0.7499999999999947
 40
0.7499999999999947
 40
0.8749999999999949
 40
0.8749999999999949
 40
0.9374999999999981
 40
0.9374999999999981
 40
0.968749999999999
 40
0.968749999999999
 40
1.0
 40
1.0
 40
1.0
 40
1.0
 10
6280.0187553361
 20
4672.099478277658
 30
0.0
 10
6280.557174368994
 20
4672.210386250214
 30
0.0
 10
6281.085066712832
 20
4672.318606350513
 30
0.0
 10
6281.861384704937
 20
4672.479849582328
 30
0.0
 10
6282.11755209992
 20
4672.533410212227
 30
0.0
 10
6282.624497726971
 20
4672.640629480278
 30
0.0
 10
6282.876120964458
 20
4672.694478812496
 30
0.0
 10
6283.607113102126
 20
4672.853561525298
 30
0.0
 10
6284.067607703849
 20
4672.957339525979
 30
0.0
 10
6284.935467100305
 20
4673.16426041121
 30
0.0
 10
6285.344845491075
 20
4673.268080264658
 30
0.0
 10
6286.076950808173
 20
4673.470719878097
 30
0.0
 10
6286.404070159488
 20
4673.570467305064
 30
0.0
 10
6286.835597015192
 20
4673.720629086747
 30
0.0
 10
6286.969818334219
 20
4673.770935164263
 30
0.0
 10
6287.212934278599
 20
4673.870225976452
 30
0.0
 10
6287.322548400237
 20
4673.919436600785
 30
0.0
 10
6287.616304139277
 20
4674.066508559908
 30
0.0
 10
6287.765666292013
 20
4674.163796485213
 30
0.0
 10
6287.917440882571
 20
4674.311501628433
 30
0.0
 10
6287.955402324515
 20
4674.360574699944
 30
0.0
 10
6287.993375153396
 20
4674.434037705561
 30
0.0
 10
6288.002881535544
 20
4674.458515665501
 30
0.0
 10
6288.015573753608
 20
4674.507513539512
 30
0.0
 10
6288.0187553361
 20
4674.532327684364
 30
0.0
 10
6288.0187553361
 20
4674.556555768279
 30
0.0
  0
SPLINE
  5
2B9
330
1F
100
AcDbEntity
  8
0
  6
Continuous
 62
     7
370
    25
100
AcDbSpline
210
0.0
220
0.0
230
1.0
 70
     8
 71
     3
 72
    16
 73
    12
 74
     0
 42
0.000000001
 43
0.00000001
 40
0.0
 40
0.0
 40
0.0
 40
0.0
 40
0.2499999999999974
 40
0.2499999999999974
 40
0.4999999999999949
 40
0.4999999999999949
 40
0.7499999999999923
 40
0.7499999999999923
 40
0.8749999999999961
 40
0.8749999999999961
 40
1.0
 40
1.0
 40
1.0
 40
1.0
 10
6262.018755336101
 20
4667.554804272634
 30
0.0
 10
6261.688868979065
 20
4668.098425872873
 30
0.0
 10
6261.400095534095
 20
4668.652852963607
 30
0.0
 10
6260.901047378774
 20
4669.789321435459
 30
0.0
 10
6260.690656158964
 20
4670.373220315219
 30
0.0
 10
6260.355881235163
 20
4671.54821880609
 30
0.0
 10
6260.230049547008
 20
4672.141938128082
 30
0.0
 10
6260.103330491655
 20
4673.044330479078
 30
0.0
 10
6260.071618165346
 20
4673.346176254422
 30
0.0
 10
6260.029328450841
 20
4673.950925993445
 30
0.0
 10
6260.0187553361
 20
4674.255481440938
 30
0.0
 10
6260.0187553361
 20
4674.556555768279
 30
0.0
  0
SPLINE
  5
2BA
330
1F
100
AcDbEntity
  8
0
  6
Continuous
 62
     7
370
    25
100
AcDbSpline
210
0.0
220
0.0
230
1.0
 70
     8
 71
     3
 72
    16
 73
    12
 74
     0
 42
0.000000001
 43
0.00000001
 40
0.0
 40
0.0
 40
0.0
 40
0.0
 40
0.2500000000000017
 40
0.2500000000000017
 40
0.5000000000000034
 40
0.5000000000000034
 40
0.7500000000000051
 40
0.7500000000000051
 40
0.8750000000000026
 40
0.8750000000000026
 40
1.0
 40
1.0
 40
1.0
 40
1.0
 10
6286.018755336101
 20
4667.554804272635
 30
0.0
 10
6286.348641693136
 20
4668.098425872873
 30
0.0
 10
6286.637415138105
 20
4668.652852963608
 30
0.0
 10
6287.136463293426
 20
4669.78932143546
 30
0.0
 10
6287.346854513236
 20
4670.373220315219
 30
0.0
 10
6287.681629437037
 20
4671.54821880609
 30
0.0
 10
6287.807461125192
 20
4672.141938128082
 30
0.0
 10
6287.934180180545
 20
4673.044330479078
 30
0.0
 10
6287.965892506854
 20
4673.346176254422
 30
0.0
 10
6288.00818222136
 20
4673.950925993446
 30
0.0
 10
6288.0187553361
 20
4674.255481441022
 30
0.0
 10
6288.0187553361
 20
4674.556555768279
 30
0.0
  0
LINE
  5
2BB
330
1F
100
AcDbEntity
  8
0
  6
Continuous
 62
     7
370
    25
100
AcDbLine
 10
6280.0187553883
 20
4692.8874768209
 30
0.0
 11
6268.0187552839
 21
4692.8874768209
 31
0.0
  0
LINE
  5
2BC
330
1F
100
AcDbEntity
  8
0
  6
Continuous
 62
     7
370
    25
100
AcDbLine
 10
6280.0187553883
 20
4747.3152495813
 30
0.0
 11
6280.0187553883
 21
4692.8874768209
 31
0.0
  0
LINE
  5
2BD
330
1F
100
AcDbEntity
  8
0
  6
Continuous
 62
     7
370
    25
100
AcDbLine
 10
6268.0187552839
 20
4747.3152495813
 30
0.0
 11
6268.0187552839
 21
4692.8874768209
 31
0.0
  0
LINE
  5
2BE
330
1F
100
AcDbEntity
  8
0
  6
Continuous
 62
     7
370
    25
100
AcDbLine
 10
6280.0187553883
 20
4747.3152495813
 30
0.0
 11
6268.0187552839
 21
4747.3152495813
 31
0.0
  0
ARC
  5
2BF
330
1F
100
AcDbEntity
  8
0
  6
Continuous
 62
     7
370
    25
100
AcDbCircle
 10
6274.0187553361
 20
4673.1325650189
 30
0.0
 40
14.00040871133057
100
AcDbArc
 50
180.4375694112
 51
359.5624305888
  0
LINE
  5
2C0
330
1F
100
AcDbEntity
  8
0
  6
Continuous
 62
     7
370
    25
100
AcDbLine
 10
6280.0187553883
 20
4747.3152495813
 30
0.0
 11
6280.0187553883
 21
4887.4549019974
 31
0.0
  0
LINE
  5
2C1
330
1F
100
AcDbEntity
  8
0
  6
Continuous
 62
     7
370
    25
100
AcDbLine
 10
6268.0187552839
 20
4747.3152495813
 30
0.0
 11
6268.0187552839
 21
4887.4549019974
 31
0.0
  0
ARC
  5
2C2
330
1F
100
AcDbEntity
  8
0
  6
Continuous
 62
     7
370
    25
100
AcDbCircle
 10
6274.0187553361
 20
4910.6928028059
 30
0.0
 40
24.00000000000021
100
AcDbArc
 50
277.9755205959
 51
262.0244794041
  0
LINE
  5
2C3
330
1F
100
AcDbEntity
  8
0
  6
Continuous
 62
     8
370
    25
100
AcDbLine
 10
6270.6887553584
 20
4883.7636515391
 30
0.0
 11
6277.3487553138
 21
4883.7636515391
 31
0.0
  0
LINE
  5
2C4
330
1F
100
AcDbEntity
  8
0
  6
Continuous
 62
     8
370
    25
100
AcDbLine
 10
6276.9563628033
 20
4883.2007136089
 30
0.0
 11
6271.0811478689
 21
4883.2007136089
 31
0.0
  0
LWPOLYLINE
  5
2C5
330
1F
100
AcDbEntity
  8
0
  6
Continuous
 62
     8
370
    25
100
AcDbPolyline
 90
       10
 70
   128
 43
0.0
 10
6268.0187552839
 20
4692.8874768209
 10
6266.6295698516
 20
4692.870564003
 10
6265.282593821
 20
4692.8203321886
 10
6264.0187555596
 20
4692.7383161974
 10
6262.8764548942
 20
4692.6269896221
 10
6261.8903994232
 20
4692.4897648287
 10
6261.0905516565
 20
4692.3307843399
 10
6260.5012144566
 20
4692.1548910332
 10
6260.1402934313
 20
4691.9674344254
 10
6260.018754904
 20
4691.7740918589
  0
LWPOLYLINE
  5
2C6
330
1F
100
AcDbEntity
  8
0
  6
Continuous
 62
     8
370
    25
100
AcDbPolyline
 90
       10
 70
   128
 43
0.0
 10
6288.0187557682
 20
4691.7740918589
 10
6287.8972172409
 20
4691.9674344254
 10
6287.5362962156
 20
4692.1548910332
 10
6286.9469590157
 20
4692.3307843399
 10
6286.147111249
 20
4692.4897648287
 10
6285.161055778
 20
4692.6269896221
 10
6284.0187551126
 20
4692.7383161974
 10
6282.7549168512
 20
4692.8203321886
 10
6281.4079408206
 20
4692.870564003
 10
6280.0187553883
 20
4692.8874768209
  0
LWPOLYLINE
  5
2C7
330
1F
100
AcDbEntity
  8
0
  6
Continuous
 62
     8
370
    25
100
AcDbPolyline
 90
       10
 70
   128
 43
0.0
 10
6268.0187552839
 20
4747.3152495813
 10
6266.6295698516
 20
4747.2472853851
 10
6265.282593821
 20
4747.0454640579
 10
6264.0187555596
 20
4746.715909977
 10
6262.8764548942
 20
4746.2686367226
 10
6261.8903994232
 20
4745.7172490549
 10
6261.0905516565
 20
4745.078480978
 10
6260.5012144566
 20
4744.3717487049
 10
6260.1402934313
 20
4743.6185248089
 10
6260.018754904
 20
4742.8417123747
  0
LWPOLYLINE
  5
2C8
330
1F
100
AcDbEntity
  8
0
  6
Continuous
 62
     8
370
    25
100
AcDbPolyline
 90
       10
 70
   128
 43
0.0
 10
6288.0187557682
 20
4742.8417123747
 10
6287.8972172409
 20
4743.6185248089
 10
6287.5362962156
 20
4744.3717487049
 10
6286.9469590157
 20
4745.078480978
 10
6286.147111249
 20
4745.7172490549
 10
6285.161055778
 20
4746.2686367226
 10
6284.0187551126
 20
4746.715909977
 10
6282.7549168512
 20
4747.0454640579
 10
6281.4079408206
 20
4747.2472853851
 10
6280.0187553883
 20
4747.3152495813
  0
ENDSEC
  0
SECTION
  2
OBJECTS
  0
DICTIONARY
  5
C
330
0
100
AcDbDictionary
281
     1
  3
ACAD_GROUP
350
D
  3
ACAD_LAYOUT
350
1A
  3
ACAD_MLINESTYLE
350
17
  3
ACAD_PLOTSETTINGS
350
19
  3
ACAD_PLOTSTYLENAME
350
E
  3
ACAD_SCALELIST
350
47
  0
DICTIONARY
  5
D
102
{ACAD_REACTORS
330
C
102
}
330
C
100
AcDbDictionary
281
     1
  0
DICTIONARY
  5
1A
102
{ACAD_REACTORS
330
C
102
}
330
C
100
AcDbDictionary
281
     1
  3
Layout1
350
1E
  3
Layout2
350
26
  3
Model
350
22
  0
DICTIONARY
  5
17
102
{ACAD_REACTORS
330
C
102
}
330
C
100
AcDbDictionary
281
     1
  3
Standard
350
18
  0
DICTIONARY
  5
19
102
{ACAD_REACTORS
330
C
102
}
330
C
100
AcDbDictionary
281
     1
  0
ACDBDICTIONARYWDFLT
  5
E
102
{ACAD_REACTORS
330
C
102
}
330
C
100
AcDbDictionary
281
     1
  3
Normal
350
F
100
AcDbDictionaryWithDefault
340
F
  0
DICTIONARY
  5
47
102
{ACAD_REACTORS
330
C
102
}
330
C
100
AcDbDictionary
281
     1
  3
A0
350
48
  3
A1
350
49
  3
A2
350
4A
  3
A3
350
4B
  3
A4
350
4C
  3
A5
350
4D
  3
A6
350
4E
  3
A7
350
4F
  3
A8
350
50
  3
A9
350
51
  3
B0
350
52
  3
B1
350
53
  3
B2
350
54
  3
B3
350
55
  3
B4
350
56
  3
B5
350
57
  3
B6
350
58
  3
B7
350
59
  3
B8
350
5A
  3
B9
350
5B
  3
C0
350
5C
  3
C1
350
5D
  3
C2
350
5E
  3
C3
350
5F
  3
C4
350
60
  3
C5
350
61
  3
C6
350
62
  3
C7
350
63
  3
C8
350
64
  3
C9
350
65
  3
D0
350
66
  3
D1
350
67
  3
D2
350
68
  0
LAYOUT
  5
1E
102
{ACAD_REACTORS
330
1A
102
}
330
1A
100
AcDbPlotSettings
  1

  2
none_device
  4

  6

 40
0.0
 41
0.0
 42
0.0
 43
0.0
 44
0.0
 45
0.0
 46
0.0
 47
0.0
 48
0.0
 49
0.0
140
0.0
141
0.0
142
1.0
143
1.0
 70
   688
 72
     1
 73
     0
 74
     5
  7

 75
    16
147
1.0
148
0.0
149
0.0
100
AcDbLayout
  1
Layout1
 70
     1
 71
     1
 10
0.0
 20
0.0
 11
420.0
 21
297.0
 12
0.0
 22
0.0
 32
0.0
 14
1.0000000000E+20
 24
1.0000000000E+20
 34
1.0000000000E+20
 15
-1.0000000000E+20
 25
-1.0000000000E+20
 35
-1.0000000000E+20
146
0.0
 13
0.0
 23
0.0
 33
0.0
 16
1.0
 26
0.0
 36
0.0
 17
0.0
 27
1.0
 37
0.0
 76
     0
330
1B
  0
LAYOUT
  5
26
102
{ACAD_REACTORS
330
1A
102
}
330
1A
100
AcDbPlotSettings
  1

  2
none_device
  4

  6

 40
0.0
 41
0.0
 42
0.0
 43
0.0
 44
0.0
 45
0.0
 46
0.0
 47
0.0
 48
0.0
 49
0.0
140
0.0
141
0.0
142
1.0
143
1.0
 70
   688
 72
     1
 73
     0
 74
     5
  7

 75
    16
147
1.0
148
0.0
149
0.0
100
AcDbLayout
  1
Layout2
 70
     1
 71
     2
 10
0.0
 20
0.0
 11
0.0
 21
0.0
 12
0.0
 22
0.0
 32
0.0
 14
0.0
 24
0.0
 34
0.0
 15
0.0
 25
0.0
 35
0.0
146
0.0
 13
0.0
 23
0.0
 33
0.0
 16
1.0
 26
0.0
 36
0.0
 17
0.0
 27
1.0
 37
0.0
 76
     0
330
23
  0
LAYOUT
  5
22
102
{ACAD_REACTORS
330
1A
102
}
330
1A
100
AcDbPlotSettings
  1

  2
none_device
  4
Letter_(8.50_x_11.00_Inches)
  6

 40
6.35
 41
6.35
 42
6.35000508
 43
6.35000508
 44
215.9
 45
279.4
 46
0.0
 47
0.0
 48
0.0
 49
0.0
140
0.0
141
0.0
142
1.0
143
1.0
 70
  1712
 72
     1
 73
     0
 74
     0
  7

 75
     0
147
1.0
148
0.0
149
0.0
100
AcDbLayout
  1
Model
 70
     1
 71
     0
 10
0.0
 20
0.0
 11
20000.0
 21
10000.0
 12
0.0
 22
0.0
 32
0.0
 14
0.0
 24
0.0
 34
0.0
 15
20000.0
 25
10000.0
 35
0.0
146
0.0
 13
0.0
 23
0.0
 33
0.0
 16
1.0
 26
0.0
 36
0.0
 17
0.0
 27
1.0
 37
0.0
 76
     0
330
1F
331
29
  0
MLINESTYLE
  5
18
102
{ACAD_REACTORS
330
17
102
}
330
17
100
AcDbMlineStyle
  2
Standard
 70
     0
  3

 62
   256
 51
90.0
 52
90.0
 71
     2
 49
0.5
 62
   256
  6
BYLAYER
 49
-0.5
 62
   256
  6
BYLAYER
  0
ACDBPLACEHOLDER
  5
F
102
{ACAD_REACTORS
330
E
102
}
330
E
  0
SCALE
  5
48
102
{ACAD_REACTORS
330
47
102
}
330
47
100
AcDbScale
 70
     0
300
1:1
140
1.0
141
1.0
290
     1
  0
SCALE
  5
49
102
{ACAD_REACTORS
330
47
102
}
330
47
100
AcDbScale
 70
     0
300
1:2
140
1.0
141
2.0
290
     0
  0
SCALE
  5
4A
102
{ACAD_REACTORS
330
47
102
}
330
47
100
AcDbScale
 70
     0
300
1:4
140
1.0
141
4.0
290
     0
  0
SCALE
  5
4B
102
{ACAD_REACTORS
330
47
102
}
330
47
100
AcDbScale
 70
     0
300
1:5
140
1.0
141
5.0
290
     0
  0
SCALE
  5
4C
102
{ACAD_REACTORS
330
47
102
}
330
47
100
AcDbScale
 70
     0
300
1:8
140
1.0
141
8.0
290
     0
  0
SCALE
  5
4D
102
{ACAD_REACTORS
330
47
102
}
330
47
100
AcDbScale
 70
     0
300
1:10
140
1.0
141
10.0
290
     0
  0
SCALE
  5
4E
102
{ACAD_REACTORS
330
47
102
}
330
47
100
AcDbScale
 70
     0
300
1:16
140
1.0
141
16.0
290
     0
  0
SCALE
  5
4F
102
{ACAD_REACTORS
330
47
102
}
330
47
100
AcDbScale
 70
     0
300
1:20
140
1.0
141
20.0
290
     0
  0
SCALE
  5
50
102
{ACAD_REACTORS
330
47
102
}
330
47
100
AcDbScale
 70
     0
300
1:30
140
1.0
141
30.0
290
     0
  0
SCALE
  5
51
102
{ACAD_REACTORS
330
47
102
}
330
47
100
AcDbScale
 70
     0
300
1:40
140
1.0
141
40.0
290
     0
  0
SCALE
  5
52
102
{ACAD_REACTORS
330
47
102
}
330
47
100
AcDbScale
 70
     0
300
1:50
140
1.0
141
50.0
290
     0
  0
SCALE
  5
53
102
{ACAD_REACTORS
330
47
102
}
330
47
100
AcDbScale
 70
     0
300
1:100
140
1.0
141
100.0
290
     0
  0
SCALE
  5
54
102
{ACAD_REACTORS
330
47
102
}
330
47
100
AcDbScale
 70
     0
300
2:1
140
2.0
141
1.0
290
     0
  0
SCALE
  5
55
102
{ACAD_REACTORS
330
47
102
}
330
47
100
AcDbScale
 70
     0
300
4:1
140
4.0
141
1.0
290
     0
  0
SCALE
  5
56
102
{ACAD_REACTORS
330
47
102
}
330
47
100
AcDbScale
 70
     0
300
8:1
140
8.0
141
1.0
290
     0
  0
SCALE
  5
57
102
{ACAD_REACTORS
330
47
102
}
330
47
100
AcDbScale
 70
     0
300
10:1
140
10.0
141
1.0
290
     0
  0
SCALE
  5
58
102
{ACAD_REACTORS
330
47
102
}
330
47
100
AcDbScale
 70
     0
300
100:1
140
100.0
141
1.0
290
     0
  0
SCALE
  5
59
102
{ACAD_REACTORS
330
47
102
}
330
47
100
AcDbScale
 70
     0
300
1/128" = 1'-0"
140
0.0078125
141
12.0
290
     0
  0
SCALE
  5
5A
102
{ACAD_REACTORS
330
47
102
}
330
47
100
AcDbScale
 70
     0
300
1/64" = 1'-0"
140
0.015625
141
12.0
290
     0
  0
SCALE
  5
5B
102
{ACAD_REACTORS
330
47
102
}
330
47
100
AcDbScale
 70
     0
300
1/32" = 1'-0"
140
0.03125
141
12.0
290
     0
  0
SCALE
  5
5C
102
{ACAD_REACTORS
330
47
102
}
330
47
100
AcDbScale
 70
     0
300
1/16" = 1'-0"
140
0.0625
141
12.0
290
     0
  0
SCALE
  5
5D
102
{ACAD_REACTORS
330
47
102
}
330
47
100
AcDbScale
 70
     0
300
3/32" = 1'-0"
140
0.09375
141
12.0
290
     0
  0
SCALE
  5
5E
102
{ACAD_REACTORS
330
47
102
}
330
47
100
AcDbScale
 70
     0
300
1/8" = 1'-0"
140
0.125
141
12.0
290
     0
  0
SCALE
  5
5F
102
{ACAD_REACTORS
330
47
102
}
330
47
100
AcDbScale
 70
     0
300
3/16" = 1'-0"
140
0.1875
141
12.0
290
     0
  0
SCALE
  5
60
102
{ACAD_REACTORS
330
47
102
}
330
47
100
AcDbScale
 70
     0
300
1/4" = 1'-0"
140
0.25
141
12.0
290
     0
  0
SCALE
  5
61
102
{ACAD_REACTORS
330
47
102
}
330
47
100
AcDbScale
 70
     0
300
3/8" = 1'-0"
140
0.375
141
12.0
290
     0
  0
SCALE
  5
62
102
{ACAD_REACTORS
330
47
102
}
330
47
100
AcDbScale
 70
     0
300
1/2" = 1'-0"
140
0.5
141
12.0
290
     0
  0
SCALE
  5
63
102
{ACAD_REACTORS
330
47
102
}
330
47
100
AcDbScale
 70
     0
300
3/4" = 1'-0"
140
0.75
141
12.0
290
     0
  0
SCALE
  5
64
102
{ACAD_REACTORS
330
47
102
}
330
47
100
AcDbScale
 70
     0
300
1" = 1'-0"
140
1.0
141
12.0
290
     0
  0
SCALE
  5
65
102
{ACAD_REACTORS
330
47
102
}
330
47
100
AcDbScale
 70
     0
300
1-1/2" = 1'-0"
140
1.5
141
12.0
290
     0
  0
SCALE
  5
66
102
{ACAD_REACTORS
330
47
102
}
330
47
100
AcDbScale
 70
     0
300
3" = 1'-0"
140
3.0
141
12.0
290
     0
  0
SCALE
  5
67
102
{ACAD_REACTORS
330
47
102
}
330
47
100
AcDbScale
 70
     0
300
6" = 1'-0"
140
6.0
141
12.0
290
     0
  0
SCALE
  5
68
102
{ACAD_REACTORS
330
47
102
}
330
47
100
AcDbScale
 70
     0
300
1'-0" = 1'-0"
140
12.0
141
12.0
290
     0
  0
ENDSEC
  0
EOF
