  0
SECTION
  2
HEADER
  9
$ACADVER
  1
AC1015
  9
$ACADMAINTVER
 70
     6
  9
$DWGCODEPAGE
  3
ANSI_1250
  9
$INSBASE
 10
0.0
 20
0.0
 30
0.0
  9
$EXTMIN
 10
2649.9829031136
 20
3913.4020836343
 30
0.0
  9
$EXTMAX
 10
6518.5240159615
 20
8144.9560880836
 30
0.0
  9
$LIMMIN
 10
0.0
 20
0.0
  9
$LIMMAX
 10
420.0
 20
297.0
  9
$ORTHOMODE
 70
     0
  9
$REGENMODE
 70
     1
  9
$FILLMODE
 70
     1
  9
$QTEXTMODE
 70
     0
  9
$MIRRTEXT
 70
     1
  9
$LTSCALE
 40
1.0
  9
$ATTMODE
 70
     1
  9
$TEXTSIZE
 40
3.5
  9
$TRACEWID
 40
1.0
  9
$TEXTSTYLE
  7
Standard
  9
$CLAYER
  8
0
  9
$CELTYPE
  6
ByLayer
  9
$CECOLOR
 62
   256
  9
$CELTSCALE
 40
1.0
  9
$DISPSILH
 70
     0
  9
$DIMSCALE
 40
1.0
  9
$DIMASZ
 40
3.302
  9
$DIMEXO
 40
0.0
  9
$DIMDLI
 40
3.75
  9
$DIMRND
 40
0.0
  9
$DIMDLE
 40
0.0
  9
$DIMEXE
 40
1.0
  9
$DIMTP
 40
0.0
  9
$DIMTM
 40
0.0
  9
$DIMTXT
 40
3.5
  9
$DIMCEN
 40
2.5
  9
$DIMTSZ
 40
0.0
  9
$DIMTOL
 70
     0
  9
$DIMLIM
 70
     0
  9
$DIMTIH
 70
     1
  9
$DIMTOH
 70
     1
  9
$DIMSE1
 70
     0
  9
$DIMSE2
 70
     0
  9
$DIMTAD
 70
     1
  9
$DIMZIN
 70
     0
  9
$DIMBLK
  1

  9
$DIMASO
 70
     1
  9
$DIMSHO
 70
     1
  9
$DIMPOST
  1

  9
$DIMAPOST
  1

  9
$DIMALT
 70
     0
  9
$DIMALTD
 70
     3
  9
$DIMALTF
 40
0.0393700787
  9
$DIMLFAC
 40
1.0
  9
$DIMTOFL
 70
     1
  9
$DIMTVP
 40
0.0
  9
$DIMTIX
 70
     0
  9
$DIMSOXD
 70
     0
  9
$DIMSAH
 70
     0
  9
$DIMBLK1
  1

  9
$DIMBLK2
  1

  9
$DIMSTYLE
  2
ISO-25
  9
$DIMCLRD
 70
     0
  9
$DIMCLRE
 70
     0
  9
$DIMCLRT
 70
     0
  9
$DIMTFAC
 40
1.0
  9
$DIMGAP
 40
1.524
  9
$DIMJUST
 70
     0
  9
$DIMSD1
 70
     0
  9
$DIMSD2
 70
     0
  9
$DIMTOLJ
 70
     0
  9
$DIMTZIN
 70
     0
  9
$DIMALTZ
 70
     0
  9
$DIMALTTZ
 70
     0
  9
$DIMUPT
 70
     0
  9
$DIMDEC
 70
     2
  9
$DIMTDEC
 70
     2
  9
$DIMALTU
 70
     2
  9
$DIMALTTD
 70
     3
  9
$DIMTXSTY
  7
Standard
  9
$DIMAUNIT
 70
     0
  9
$DIMADEC
 70
     2
  9
$DIMALTRND
 40
0.0
  9
$DIMAZIN
 70
     0
  9
$DIMDSEP
 70
    44
  9
$DIMATFIT
 70
     3
  9
$DIMFRAC
 70
     0
  9
$DIMLDRBLK
  1

  9
$DIMLUNIT
 70
     2
  9
$DIMLWD
 70
    -2
  9
$DIMLWE
 70
    -2
  9
$DIMTMOVE
 70
     0
  9
$LUNITS
 70
     2
  9
$LUPREC
 70
     2
  9
$SKETCHINC
 40
1.0
  9
$FILLETRAD
 40
10.0
  9
$AUNITS
 70
     0
  9
$AUPREC
 70
     2
  9
$MENU
  1
.
  9
$ELEVATION
 40
0.0
  9
$PELEVATION
 40
0.0
  9
$THICKNESS
 40
0.0
  9
$LIMCHECK
 70
     0
  9
$CHAMFERA
 40
0.0
  9
$CHAMFERB
 40
0.0
  9
$CHAMFERC
 40
0.0
  9
$CHAMFERD
 40
0.0
  9
$SKPOLY
 70
     0
  9
$TDCREATE
 40
2459093.530325335
  9
$TDUCREATE
 40
2459093.446992002
  9
$TDUPDATE
 40
2459093.530353136
  9
$TDUUPDATE
 40
2459093.447019803
  9
$TDINDWG
 40
0.0000000116
  9
$TDUSRTIMER
 40
0.0000000116
  9
$USRTIMER
 70
     1
  9
$ANGBASE
 50
0.0
  9
$ANGDIR
 70
     0
  9
$PDMODE
 70
     0
  9
$PDSIZE
 40
-1.0
  9
$PLINEWID
 40
0.0
  9
$SPLFRAME
 70
     0
  9
$SPLINETYPE
 70
     6
  9
$SPLINESEGS
 70
     8
  9
$HANDSEED
  5
256
  9
$SURFTAB1
 70
     6
  9
$SURFTAB2
 70
     6
  9
$SURFTYPE
 70
     6
  9
$SURFU
 70
     6
  9
$SURFV
 70
     6
  9
$UCSBASE
  2

  9
$UCSNAME
  2

  9
$UCSORG
 10
0.0
 20
0.0
 30
0.0
  9
$UCSXDIR
 10
1.0
 20
0.0
 30
0.0
  9
$UCSYDIR
 10
0.0
 20
1.0
 30
0.0
  9
$UCSORTHOREF
  2

  9
$UCSORTHOVIEW
 70
     0
  9
$UCSORGTOP
 10
0.0
 20
0.0
 30
0.0
  9
$UCSORGBOTTOM
 10
0.0
 20
0.0
 30
0.0
  9
$UCSORGLEFT
 10
0.0
 20
0.0
 30
0.0
  9
$UCSORGRIGHT
 10
0.0
 20
0.0
 30
0.0
  9
$UCSORGFRONT
 10
0.0
 20
0.0
 30
0.0
  9
$UCSORGBACK
 10
0.0
 20
0.0
 30
0.0
  9
$PUCSBASE
  2

  9
$PUCSNAME
  2

  9
$PUCSORG
 10
0.0
 20
0.0
 30
0.0
  9
$PUCSXDIR
 10
1.0
 20
0.0
 30
0.0
  9
$PUCSYDIR
 10
0.0
 20
1.0
 30
0.0
  9
$PUCSORTHOREF
  2

  9
$PUCSORTHOVIEW
 70
     0
  9
$PUCSORGTOP
 10
0.0
 20
0.0
 30
0.0
  9
$PUCSORGBOTTOM
 10
0.0
 20
0.0
 30
0.0
  9
$PUCSORGLEFT
 10
0.0
 20
0.0
 30
0.0
  9
$PUCSORGRIGHT
 10
0.0
 20
0.0
 30
0.0
  9
$PUCSORGFRONT
 10
0.0
 20
0.0
 30
0.0
  9
$PUCSORGBACK
 10
0.0
 20
0.0
 30
0.0
  9
$USERI1
 70
     0
  9
$USERI2
 70
     0
  9
$USERI3
 70
     0
  9
$USERI4
 70
     0
  9
$USERI5
 70
     0
  9
$USERR1
 40
0.0
  9
$USERR2
 40
0.0
  9
$USERR3
 40
0.0
  9
$USERR4
 40
0.0
  9
$USERR5
 40
0.0
  9
$WORLDVIEW
 70
     1
  9
$SHADEDGE
 70
     3
  9
$SHADEDIF
 70
    70
  9
$TILEMODE
 70
     1
  9
$MAXACTVP
 70
    64
  9
$PINSBASE
 10
0.0
 20
0.0
 30
0.0
  9
$PLIMCHECK
 70
     0
  9
$PEXTMIN
 10
1.0000000000E+20
 20
1.0000000000E+20
 30
1.0000000000E+20
  9
$PEXTMAX
 10
-1.0000000000E+20
 20
-1.0000000000E+20
 30
-1.0000000000E+20
  9
$PLIMMIN
 10
0.0
 20
0.0
  9
$PLIMMAX
 10
420.0
 20
297.0
  9
$UNITMODE
 70
     0
  9
$VISRETAIN
 70
     1
  9
$PLINEGEN
 70
     0
  9
$PSLTSCALE
 70
     1
  9
$TREEDEPTH
 70
  3020
  9
$CMLSTYLE
  2
Standard
  9
$CMLJUST
 70
     0
  9
$CMLSCALE
 40
20.0
  9
$PROXYGRAPHICS
 70
     1
  9
$MEASUREMENT
 70
     1
  9
$CELWEIGHT
370
    -1
  9
$ENDCAPS
280
     0
  9
$JOINSTYLE
280
     0
  9
$LWDISPLAY
290
     1
  9
$INSUNITS
 70
     4
  9
$HYPERLINKBASE
  1

  9
$STYLESHEET
  1

  9
$XEDIT
290
     1
  9
$CEPSNTYPE
380
     0
  9
$PSTYLEMODE
290
     1
  9
$FINGERPRINTGUID
  2
{bfebae13-ba33-48dd-ab27-a4be0d7a162b}
  9
$VERSIONGUID
  2
{FAEB1C32-E019-11D5-929B-00C0DF256EC4}
  9
$EXTNAMES
290
     1
  9
$PSVPSCALE
 40
0.0
  9
$OLESTARTUP
290
     0
  0
ENDSEC
  0
SECTION
  2
CLASSES
  0
CLASS
  1
ACDBDICTIONARYWDFLT
  2
AcDbDictionaryWithDefault
  3
ObjectDBX Classes
 90
        0
280
     0
281
     0
  0
CLASS
  1
VISUALSTYLE
  2
AcDbVisualStyle
  3
ObjectDBX Classes
 90
     4095
280
     0
281
     0
  0
CLASS
  1
MATERIAL
  2
AcDbMaterial
  3
ObjectDBX Classes
 90
     1153
280
     0
281
     0
  0
CLASS
  1
SCALE
  2
AcDbScale
  3
ObjectDBX Classes
 90
     1153
280
     0
281
     0
  0
CLASS
  1
TABLESTYLE
  2
AcDbTableStyle
  3
ObjectDBX Classes
 90
     4095
280
     0
281
     0
  0
CLASS
  1
MLEADERSTYLE
  2
AcDbMLeaderStyle
  3
ACDB_MLEADERSTYLE_CLASS
 90
     4095
280
     0
281
     0
  0
CLASS
  1
SUN
  2
AcDbSun
  3
SCENEOE
 90
     1153
280
     0
281
     0
  0
CLASS
  1
ACDBPLACEHOLDER
  2
AcDbPlaceHolder
  3
ObjectDBX Classes
 90
        0
280
     0
281
     0
  0
CLASS
  1
LAYOUT
  2
AcDbLayout
  3
ObjectDBX Classes
 90
        0
280
     0
281
     0
  0
ENDSEC
  0
SECTION
  2
TABLES
  0
TABLE
  2
VPORT
  5
8
330
0
100
AcDbSymbolTable
 70
     1
  0
VPORT
  5
29
330
8
100
AcDbSymbolTableRecord
100
AcDbViewportTableRecord
  2
*Active
 70
     0
 10
0.0
 20
0.0
 11
1.0
 21
1.0
 12
4584.2534595375
 22
6029.179085859
 13
0.0
 23
0.0
 14
10.0
 24
10.0
 15
10.0
 25
10.0
 16
0.0
 26
0.0
 36
1.0
 17
0.0
 27
0.0
 37
0.0
 40
4316.1850845383
 41
0.9142128657
 42
50.0
 43
0.0
 44
0.0
 50
0.0
 51
0.0
 71
     0
 72
   100
 73
     1
 74
     3
 75
     0
 76
     0
 77
     0
 78
     0
281
     0
 65
     1
110
0.0
120
0.0
130
0.0
111
1.0
121
0.0
131
0.0
112
0.0
122
1.0
132
0.0
 79
     0
146
0.0
  0
ENDTAB
  0
TABLE
  2
LTYPE
  5
5
330
0
100
AcDbSymbolTable
 70
     6
  0
LTYPE
  5
14
330
5
100
AcDbSymbolTableRecord
100
AcDbLinetypeTableRecord
  2
ByBlock
 70
     0
  3

 72
    65
 73
     0
 40
0.0
  0
LTYPE
  5
15
330
5
100
AcDbSymbolTableRecord
100
AcDbLinetypeTableRecord
  2
ByLayer
 70
     0
  3

 72
    65
 73
     0
 40
0.0
  0
LTYPE
  5
16
330
5
100
AcDbSymbolTableRecord
100
AcDbLinetypeTableRecord
  2
Continuous
 70
     0
  3
Solid line
 72
    65
 73
     0
 40
0.0
  0
LTYPE
  5
6E
330
5
100
AcDbSymbolTableRecord
100
AcDbLinetypeTableRecord
  2
HIDDEN
 70
     0
  3
Hidden __ __ __ __ __ __ __ __ __ __ __ __ __ __
 72
    65
 73
     2
 40
1.905
 49
1.27
 74
     0
 49
-0.635
 74
     0
  0
LTYPE
  5
6F
330
5
100
AcDbSymbolTableRecord
100
AcDbLinetypeTableRecord
  2
PHANTOM
 70
     0
  3
Phantom ______  __  __  ______  __  __  ______
 72
    65
 73
     6
 40
12.7
 49
6.35
 74
     0
 49
-1.27
 74
     0
 49
1.27
 74
     0
 49
-1.27
 74
     0
 49
1.27
 74
     0
 49
-1.27
 74
     0
  0
LTYPE
  5
70
330
5
100
AcDbSymbolTableRecord
100
AcDbLinetypeTableRecord
  2
CENTER
 70
     0
  3
Center ____ _ ____ _ ____ _ ____ _ ____ _ ____
 72
    65
 73
     4
 40
10.16
 49
6.35
 74
     0
 49
-1.27
 74
     0
 49
1.27
 74
     0
 49
-1.27
 74
     0
  0
LTYPE
  5
71
330
5
100
AcDbSymbolTableRecord
100
AcDbLinetypeTableRecord
  2
CENTERX2
 70
     0
  3
Center (2x) ________  __  ________  __  _____
 72
    65
 73
     4
 40
20.32
 49
12.7
 74
     0
 49
-2.54
 74
     0
 49
2.54
 74
     0
 49
-2.54
 74
     0
  0
LTYPE
  5
72
330
5
100
AcDbSymbolTableRecord
100
AcDbLinetypeTableRecord
  2
DOT2
 70
     0
  3
Dot (.5x) ........................................
 72
    65
 73
     2
 40
0.635
 49
0.0
 74
     0
 49
-0.635
 74
     0
  0
ENDTAB
  0
TABLE
  2
LAYER
  5
2
330
0
100
AcDbSymbolTable
 70
     1
  0
LAYER
  5
10
330
2
100
AcDbSymbolTableRecord
100
AcDbLayerTableRecord
  2
0
 70
     0
 62
     7
  6
Continuous
370
    -3
390
F
  0
ENDTAB
  0
TABLE
  2
STYLE
  5
3
330
0
100
AcDbSymbolTable
 70
     1
  0
STYLE
  5
11
330
3
100
AcDbSymbolTableRecord
100
AcDbTextStyleTableRecord
  2
Standard
 70
     0
 40
0.0
 41
1.0
 50
0.0
 71
     0
 42
3.5
  3
txt
  4

  0
ENDTAB
  0
TABLE
  2
VIEW
  5
6
330
0
100
AcDbSymbolTable
 70
     0
  0
ENDTAB
  0
TABLE
  2
UCS
  5
7
330
0
100
AcDbSymbolTable
 70
     0
  0
ENDTAB
  0
TABLE
  2
APPID
  5
9
330
0
100
AcDbSymbolTable
 70
     1
  0
APPID
  5
12
330
9
100
AcDbSymbolTableRecord
100
AcDbRegAppTableRecord
  2
ACAD
 70
     0
  0
ENDTAB
  0
TABLE
  2
DIMSTYLE
  5
A
330
0
100
AcDbSymbolTable
 70
     1
100
AcDbDimStyleTable
  0
DIMSTYLE
105
27
330
A
100
AcDbSymbolTableRecord
100
AcDbDimStyleTableRecord
  2
ISO-25
 70
     0
 41
2.5
 42
0.625
 43
3.75
 44
1.25
 73
     0
 74
     0
 77
     1
 78
     8
140
2.5
141
2.5
143
0.0393700787
147
0.625
171
     3
172
     1
178
     0
271
     2
272
     2
274
     3
278
    44
283
     0
284
     8
340
11
  0
ENDTAB
  0
TABLE
  2
BLOCK_RECORD
  5
1
330
0
100
AcDbSymbolTable
 70
     1
  0
BLOCK_RECORD
  5
1F
330
1
100
AcDbSymbolTableRecord
100
AcDbBlockTableRecord
  2
*Model_Space
340
22
  0
BLOCK_RECORD
  5
1B
330
1
100
AcDbSymbolTableRecord
100
AcDbBlockTableRecord
  2
*Paper_Space
340
1E
  0
BLOCK_RECORD
  5
23
330
1
100
AcDbSymbolTableRecord
100
AcDbBlockTableRecord
  2
*Paper_Space0
340
26
  0
ENDTAB
  0
ENDSEC
  0
SECTION
  2
BLOCKS
  0
BLOCK
  5
20
330
1F
100
AcDbEntity
  8
0
100
AcDbBlockBegin
  2
*Model_Space
 70
     0
 10
0.0
 20
0.0
 30
0.0
  3
*Model_Space
  1

  0
ENDBLK
  5
21
330
1F
100
AcDbEntity
  8
0
100
AcDbBlockEnd
  0
BLOCK
  5
1C
330
1B
100
AcDbEntity
 67
     1
  8
0
100
AcDbBlockBegin
  2
*Paper_Space
 70
     0
 10
0.0
 20
0.0
 30
0.0
  3
*Paper_Space
  1

  0
ENDBLK
  5
1D
330
1B
100
AcDbEntity
 67
     1
  8
0
100
AcDbBlockEnd
  0
BLOCK
  5
24
330
23
100
AcDbEntity
  8
0
100
AcDbBlockBegin
  2
*Paper_Space0
 70
     0
 10
0.0
 20
0.0
 30
0.0
  3
*Paper_Space0
  1

  0
ENDBLK
  5
25
330
23
100
AcDbEntity
  8
0
100
AcDbBlockEnd
  0
ENDSEC
  0
SECTION
  2
ENTITIES
  0
CIRCLE
  5
73
330
1F
100
AcDbEntity
  8
0
  6
Continuous
 62
     7
100
AcDbCircle
 10
2849.9829031136
 20
7462.5342963117
 30
0.0
 40
175.0000000000014
  0
ARC
  5
74
330
1F
100
AcDbEntity
  8
0
  6
Continuous
 62
     7
100
AcDbCircle
 10
2853.3796245365
 20
8028.8207159652
 30
0.0
 40
131.7142408476229
100
AcDbArc
 50
273.2755663795
 51
280.6784991019
  0
ARC
  5
75
330
1F
100
AcDbEntity
  8
0
  6
Continuous
 62
     7
100
AcDbCircle
 10
2868.587962553
 20
7949.5762318512
 30
0.0
 40
55.7434935358304
100
AcDbArc
 50
281.5079852118
 51
292.0167776907
  0
ARC
  5
76
330
1F
100
AcDbEntity
  8
0
  6
Continuous
 62
     7
100
AcDbCircle
 10
2881.7856492702
 20
7921.7509192973
 30
0.0
 40
20.52241972596347
100
AcDbArc
 50
292.0346122937
 51
304.9029336649
  0
ARC
  5
77
330
1F
100
AcDbEntity
  8
0
  6
Continuous
 62
     7
100
AcDbCircle
 10
2892.4348896372
 20
7904.1216757395
 30
0.0
 40
3.768644855653623
100
AcDbArc
 50
343.9475088278
 51
48.6509558693
  0
ARC
  5
78
330
1F
100
AcDbEntity
  8
0
  6
Continuous
 62
     7
100
AcDbCircle
 10
2861.7468570093
 20
7832.2393746527
 30
0.0
 40
83.02318164119069
100
AcDbArc
 50
73.4365900539
 51
81.4863535386
  0
ARC
  5
79
330
1F
100
AcDbEntity
  8
0
  6
Continuous
 62
     7
100
AcDbCircle
 10
2849.9823522013
 20
7740.101923658
 30
0.0
 40
175.9928928318472
100
AcDbArc
 50
88.6862181609
 51
93.5580550127
  0
ARC
  5
7A
330
1F
100
AcDbEntity
  8
0
  6
Continuous
 62
     7
100
AcDbCircle
 10
2831.3778436743
 20
7858.6713767487
 30
0.0
 40
55.74349353592152
100
AcDbArc
 50
101.5079852119
 51
112.0167776907
  0
ARC
  5
7B
330
1F
100
AcDbEntity
  8
0
  6
Continuous
 62
     7
100
AcDbCircle
 10
2807.5309165899
 20
7904.1259328605
 30
0.0
 40
3.768644855660801
100
AcDbArc
 50
163.9475088279
 51
228.6509558693
  0
ARC
  5
7C
330
1F
100
AcDbEntity
  8
0
  6
Continuous
 62
     7
100
AcDbCircle
 10
2823.212499198
 20
7931.7735374518
 30
0.0
 40
31.71928595072828
100
AcDbArc
 50
240.4507349551
 51
254.1531434989
  0
ARC
  5
7D
330
1F
100
AcDbEntity
  8
0
  6
Continuous
 62
     7
100
AcDbCircle
 10
2838.2189492171
 20
7976.0082339469
 30
0.0
 40
83.02318164055777
100
AcDbArc
 50
253.4365900544
 51
261.4863535391
  0
ARC
  5
7E
330
1F
100
AcDbEntity
  8
0
  6
Continuous
 62
     7
100
AcDbCircle
 10
2848.9474328169
 20
8051.8337482706
 30
0.0
 40
154.8341114369564
100
AcDbArc
 50
262.067836201
 51
268.8901211221
  0
ARC
  5
7F
330
1F
100
AcDbEntity
  8
0
  6
Continuous
 62
     7
100
AcDbCircle
 10
2849.9834540259
 20
8068.1456849404
 30
0.0
 40
175.9928928300925
100
AcDbArc
 50
268.6862181609
 51
273.5580550127
  0
ARC
  5
80
330
1F
100
AcDbEntity
  8
0
  6
Continuous
 62
     7
100
AcDbCircle
 10
2867.5574072739
 20
7951.8704382473
 30
0.0
 40
52.66265817768362
100
AcDbArc
 50
281.1996536468
 51
292.3251092571
  0
ARC
  5
81
330
1F
100
AcDbEntity
  8
0
  6
Continuous
 62
     7
100
AcDbCircle
 10
2849.9814090846
 20
8063.965624151
 30
0.0
 40
166.3362285527953
100
AcDbArc
 50
268.54470786
 51
273.6995653136
  0
ARC
  5
82
330
1F
100
AcDbEntity
  8
0
  6
Continuous
 62
     7
100
AcDbCircle
 10
2838.8751649084
 20
7976.8561032433
 30
0.0
 40
78.44623460315366
100
AcDbArc
 50
253.20133657
 51
261.7216070236
  0
ARC
  5
83
330
1F
100
AcDbEntity
  8
0
  6
Continuous
 62
     7
100
AcDbCircle
 10
2810.9478214613
 20
7909.6696256075
 30
0.0
 40
4.859947432285407
100
AcDbArc
 50
201.8649315483
 51
225.9610692739
  0
ARC
  5
84
330
1F
100
AcDbEntity
  8
0
  6
Continuous
 62
     7
100
AcDbCircle
 10
2849.9843971426
 20
7749.1116135794
 30
0.0
 40
166.3362285538931
100
AcDbArc
 50
88.54470786
 51
93.6995653136
  0
ARC
  5
85
330
1F
100
AcDbEntity
  8
0
  6
Continuous
 62
     7
100
AcDbCircle
 10
2861.0906413187
 20
7836.221134488
 30
0.0
 40
78.44623460329953
100
AcDbArc
 50
73.20133657
 51
81.7216070235
  0
ARC
  5
86
330
1F
100
AcDbEntity
  8
0
  6
Continuous
 62
     7
100
AcDbCircle
 10
2832.4083989527
 20
7861.2067994839
 30
0.0
 40
52.66265817781706
100
AcDbArc
 50
101.1996536461
 51
112.3251092564
  0
ARC
  5
87
330
1F
100
AcDbEntity
  8
0
  6
Continuous
 62
     7
100
AcDbCircle
 10
2890.1030102947
 20
7904.1295767857
 30
0.0
 40
3.597464883500903
100
AcDbArc
 50
342.2034635642
 51
50.3950011349
  0
ARC
  5
88
330
1F
100
AcDbEntity
  8
0
  6
Continuous
 62
     7
100
AcDbCircle
 10
2809.8627959325
 20
7904.1180318143
 30
0.0
 40
3.59746488348852
100
AcDbArc
 50
162.2034635643
 51
230.3950011328
  0
ARC
  5
89
330
1F
100
AcDbEntity
  8
0
  6
Continuous
 62
     7
100
AcDbCircle
 10
2867.5574072743
 20
7947.0408091161
 30
0.0
 40
52.6626581778314
100
AcDbArc
 50
281.1996536463
 51
292.3251092565
  0
ARC
  5
8A
330
1F
100
AcDbEntity
  8
0
  6
Continuous
 62
     7
100
AcDbCircle
 10
2838.8751649084
 20
7972.0264741118
 30
0.0
 40
78.44623460310261
100
AcDbArc
 50
253.20133657
 51
261.7216070236
  0
ARC
  5
8B
330
1F
100
AcDbEntity
  8
0
  6
Continuous
 62
     7
100
AcDbCircle
 10
2849.9814090835
 20
8059.1359950205
 30
0.0
 40
166.3362285536926
100
AcDbArc
 50
268.5447078604
 51
273.699565314
  0
CIRCLE
  5
8C
330
1F
100
AcDbEntity
  8
0
  6
Continuous
 62
     7
100
AcDbCircle
 10
2849.9829031136
 20
7944.9560880836
 30
0.0
 40
200.0000000000009
  0
CIRCLE
  5
8D
330
1F
100
AcDbEntity
  8
0
  6
Continuous
 62
     7
100
AcDbCircle
 10
2849.9829031136
 20
7462.5342963117
 30
0.0
 40
199.9999999999995
  0
CIRCLE
  5
8E
330
1F
100
AcDbEntity
  8
0
  6
Continuous
 62
     7
100
AcDbCircle
 10
2849.9829031136
 20
7944.9560880836
 30
0.0
 40
170.0
  0
CIRCLE
  5
8F
330
1F
100
AcDbEntity
  8
0
  6
Continuous
 62
     7
100
AcDbCircle
 10
2849.9829031136
 20
7944.9560880836
 30
0.0
 40
175.0
  0
ARC
  5
90
330
1F
100
AcDbEntity
  8
0
  6
Continuous
 62
     7
100
AcDbCircle
 10
2849.9829031136
 20
7944.9560880836
 30
0.0
 40
66.75000000000023
100
AcDbArc
 50
198.5167924648
 51
341.4832075352
  0
ARC
  5
91
330
1F
100
AcDbEntity
  8
0
  6
Continuous
 62
     7
100
AcDbCircle
 10
2849.9829031136
 20
7944.9560880836
 30
0.0
 40
61.74999999999912
100
AcDbArc
 50
341.240196777
 51
198.759803223
  0
ARC
  5
92
330
1F
100
AcDbEntity
  8
0
  6
Continuous
 62
     7
100
AcDbCircle
 10
2849.9829031136
 20
7944.9560880836
 30
0.0
 40
66.75000000000023
100
AcDbArc
 50
341.4832075352
 51
198.5167924648
  0
ARC
  5
93
330
1F
100
AcDbEntity
  8
0
  6
Continuous
 62
     7
100
AcDbCircle
 10
2853.5026164318
 20
8027.7326202122
 30
0.0
 40
132.9306067295931
100
AcDbArc
 50
273.1924656754
 51
280.5257314509
  0
ARC
  5
94
330
1F
100
AcDbEntity
  8
0
  6
Continuous
 62
     7
100
AcDbCircle
 10
2849.0209446582
 20
8052.9045235761
 30
0.0
 40
158.214446997179
100
AcDbArc
 50
262.2114984932
 51
268.8179051146
  0
ARC
  5
95
330
1F
100
AcDbEntity
  8
0
  6
Continuous
 62
     7
100
AcDbCircle
 10
4959.8260443382
 20
7833.6131061953
 30
0.0
 40
15.00000000000022
100
AcDbArc
 50
334.7428083217
 51
335.9511167513
  0
ARC
  5
96
330
1F
100
AcDbEntity
  8
0
  6
Continuous
 62
     7
100
AcDbCircle
 10
4961.2219875849
 20
7833.6131061948
 30
0.0
 40
14.99999999999956
100
AcDbArc
 50
204.0488832469
 51
205.6157107731
  0
ARC
  5
97
330
1F
100
AcDbEntity
  8
0
  6
Continuous
 62
     7
100
AcDbCircle
 10
4961.2219875856
 20
7871.3876289617
 30
0.0
 40
14.99999999999931
100
AcDbArc
 50
154.4671054027
 51
155.9511167597
  0
ARC
  5
98
330
1F
100
AcDbEntity
  8
0
  6
Continuous
 62
     7
100
AcDbCircle
 10
4959.8260443382
 20
7871.3876289598
 30
0.0
 40
15.00000000000027
100
AcDbArc
 50
24.0488832487
 51
25.3130324942
  0
ARC
  5
99
330
1F
100
AcDbEntity
  8
0
  6
Continuous
 62
     7
100
AcDbCircle
 10
4959.8260443382
 20
8018.5245472075
 30
0.0
 40
14.99999999999944
100
AcDbArc
 50
334.7428083217
 51
335.9511167513
  0
ARC
  5
9A
330
1F
100
AcDbEntity
  8
0
  6
Continuous
 62
     7
100
AcDbCircle
 10
4961.2219875856
 20
8018.5245472056
 30
0.0
 40
15.00000000000071
100
AcDbArc
 50
204.0488832407
 51
205.6157107673
  0
ARC
  5
9B
330
1F
100
AcDbEntity
  8
0
  6
Continuous
 62
     7
100
AcDbCircle
 10
4961.2219875849
 20
8056.2990699725
 30
0.0
 40
15.0000000000003
100
AcDbArc
 50
154.4671053966
 51
155.9511167532
  0
ARC
  5
9C
330
1F
100
AcDbEntity
  8
0
  6
Continuous
 62
     7
100
AcDbCircle
 10
4959.8260443382
 20
8056.299069972
 30
0.0
 40
14.9999999999995
100
AcDbArc
 50
24.0488832487
 51
25.3130324941
  0
ARC
  5
9D
330
1F
100
AcDbEntity
  8
0
  6
Continuous
 62
     7
100
AcDbCircle
 10
5723.5243732003
 20
7811.7286607771
 30
0.0
 40
66.9873491562571
100
AcDbArc
 50
82.9259369654
 51
96.9853120638
  0
ARC
  5
9E
330
1F
100
AcDbEntity
  8
0
  6
Continuous
 62
     7
100
AcDbCircle
 10
2828.2338685584
 20
5472.1000552575
 30
0.0
 40
15.00000000000045
100
AcDbArc
 50
236.2189207421
 51
245.9511167513
  0
ARC
  5
9F
330
1F
100
AcDbEntity
  8
0
  6
Continuous
 62
     7
100
AcDbCircle
 10
2828.2338685586
 20
5470.7041120111
 30
0.0
 40
14.99999999999988
100
AcDbArc
 50
114.0488832491
 51
124.282455058
  0
ARC
  5
A0
330
1F
100
AcDbEntity
  8
0
  6
Continuous
 62
     7
100
AcDbCircle
 10
2871.7319376687
 20
5472.1000552575
 30
0.0
 40
14.99999999999944
100
AcDbArc
 50
294.0488832487
 51
303.7755783099
  0
ARC
  5
A1
330
1F
100
AcDbEntity
  8
0
  6
Continuous
 62
     7
100
AcDbCircle
 10
2871.7319376683
 20
5470.7041120112
 30
0.0
 40
14.99999999999959
100
AcDbArc
 50
55.7729917679
 51
65.9511167496
  0
ARC
  5
A2
330
1F
100
AcDbEntity
  8
0
  6
Continuous
 62
     7
100
AcDbCircle
 10
2833.9574149042
 20
5472.1000552575
 30
0.0
 40
15.00000000000027
100
AcDbArc
 50
236.2189207421
 51
245.9511167513
  0
ARC
  5
A3
330
1F
100
AcDbEntity
  8
0
  6
Continuous
 62
     7
100
AcDbCircle
 10
2833.9574149044
 20
5470.7041120111
 30
0.0
 40
14.99999999999963
100
AcDbArc
 50
114.0488832491
 51
124.2824550579
  0
CIRCLE
  5
A4
330
1F
100
AcDbEntity
  8
0
  6
Continuous
 62
     7
100
AcDbCircle
 10
2850.0011172159
 20
7462.5487181924
 30
0.0
 40
156.2499999999854
  0
ARC
  5
A5
330
1F
100
AcDbEntity
  8
0
  6
Continuous
 62
     7
100
AcDbCircle
 10
2823.9651611084
 20
7571.6029526305
 30
0.0
 40
20.21302030375638
100
AcDbArc
 50
0.4979614033
 51
180.4979614033
  0
ARC
  5
A6
330
1F
100
AcDbEntity
  8
0
  6
Continuous
 62
     7
100
AcDbCircle
 10
2781.7038839568
 20
7454.6552218555
 30
0.0
 40
32.11266107339627
100
AcDbArc
 50
44.5924418378
 51
105.9920895767
  0
ARC
  5
A7
330
1F
100
AcDbEntity
  8
0
  6
Continuous
 62
     7
100
AcDbCircle
 10
2852.4743379208
 20
7418.4506941296
 30
0.0
 40
79.03165848379791
100
AcDbArc
 50
180.4980480152
 51
270.4979812415
  0
ARC
  5
A8
330
1F
100
AcDbEntity
  8
0
  6
Continuous
 62
     7
100
AcDbCircle
 10
2882.2554858107
 20
7396.6220908335
 30
0.0
 40
56.94508283457061
100
AcDbArc
 50
270.497983701
 51
0.4980288639
  0
ARC
  5
A9
330
1F
100
AcDbEntity
  8
0
  6
Continuous
 62
     7
100
AcDbCircle
 10
2921.4274783609
 20
7494.9258610275
 30
0.0
 40
16.92014057763144
100
AcDbArc
 50
0.4983050971
 51
90.4985120029
  0
ARC
  5
AA
330
1F
100
AcDbEntity
  8
0
  6
Continuous
 62
     7
100
AcDbCircle
 10
2915.2497448743
 20
7494.8721691407
 30
0.0
 40
16.92014057760973
100
AcDbArc
 50
90.4980678785
 51
119.2345873795
  0
ARC
  5
AB
330
1F
100
AcDbEntity
  8
0
  6
Continuous
 62
     7
100
AcDbCircle
 10
2890.3568625483
 20
7506.5135148245
 30
0.0
 40
16.92014057759171
100
AcDbArc
 50
10.6384150409
 51
90.4979768154
  0
ARC
  5
AC
330
1F
100
AcDbEntity
  8
0
  6
Continuous
 62
     7
100
AcDbCircle
 10
2883.1156817736
 20
7506.4505577542
 30
0.0
 40
16.92014057761019
100
AcDbArc
 50
90.4981072172
 51
125.242037351
  0
ARC
  5
AD
330
1F
100
AcDbEntity
  8
0
  6
Continuous
 62
     7
100
AcDbCircle
 10
2858.2705331112
 20
7512.5992888848
 30
0.0
 40
16.92014057762552
100
AcDbArc
 50
26.9571871102
 51
90.4980276083
  0
ARC
  5
AE
330
1F
100
AcDbEntity
  8
0
  6
Continuous
 62
     7
100
AcDbCircle
 10
2852.563053408
 20
7512.5496489094
 30
0.0
 40
16.92014057764109
100
AcDbArc
 50
90.4978394293
 51
118.2185023333
  0
ARC
  5
AF
330
1F
100
AcDbEntity
  8
0
  6
Continuous
 62
     7
100
AcDbCircle
 10
2840.4862415053
 20
7475.8574505905
 30
0.0
 40
8.345244828844711
100
AcDbArc
 50
180.4979516869
 51
0.4979516866
  0
ARC
  5
B0
330
1F
100
AcDbEntity
  8
0
  6
Continuous
 62
     7
100
AcDbCircle
 10
2851.5128974145
 20
7512.7175622128
 30
0.0
 40
3.001376453574768
100
AcDbArc
 50
90.4983748276
 51
180.4981411716
  0
ARC
  5
B1
330
1F
100
AcDbEntity
  8
0
  6
Continuous
 62
     7
100
AcDbCircle
 10
2859.3177404777
 20
7512.7854085484
 30
0.0
 40
3.001376453641464
100
AcDbArc
 50
0.4974936174
 51
90.4972445372
  0
ARC
  5
B2
330
1F
100
AcDbEntity
  8
0
  6
Continuous
 62
     7
100
AcDbCircle
 10
2870.9834702322
 20
7476.1225049955
 30
0.0
 40
8.345244828223237
100
AcDbArc
 50
180.4979516866
 51
0.4979516867
  0
ARC
  5
B3
330
1F
100
AcDbEntity
  8
0
  6
Continuous
 62
     7
100
AcDbCircle
 10
2882.0654467019
 20
7506.6184703703
 30
0.0
 40
3.001376453586536
100
AcDbArc
 50
90.4983748276
 51
180.4981411715
  0
ARC
  5
B4
330
1F
100
AcDbEntity
  8
0
  6
Continuous
 62
     7
100
AcDbCircle
 10
2891.4040849104
 20
7506.6996350229
 30
0.0
 40
3.001376453594821
100
AcDbArc
 50
0.4974858946
 51
90.498133446
  0
ARC
  5
B5
330
1F
100
AcDbEntity
  8
0
  6
Continuous
 62
     7
100
AcDbCircle
 10
2903.0144708241
 20
7476.4009238792
 30
0.0
 40
8.345221545976493
100
AcDbArc
 50
180.4979530758
 51
0.4979530761
  0
ARC
  5
B6
330
1F
100
AcDbEntity
  8
0
  6
Continuous
 62
     7
100
AcDbCircle
 10
2914.1959823967
 20
7495.4429250331
 30
0.0
 40
3.001376453604486
100
AcDbArc
 50
90.4974858947
 51
180.4981334455
  0
ARC
  5
B7
330
1F
100
AcDbEntity
  8
0
  6
Continuous
 62
     7
100
AcDbCircle
 10
2922.4710836995
 20
7495.5148702879
 30
0.0
 40
3.001376453614562
100
AcDbArc
 50
0.4988842267
 51
90.4987725317
  0
ARC
  5
B8
330
1F
100
AcDbEntity
  8
0
  6
Continuous
 62
     7
100
AcDbCircle
 10
2882.2554858107
 20
7396.6220908335
 30
0.0
 40
44.0749699819293
100
AcDbArc
 50
270.4979918936
 51
0.4980497181
  0
ARC
  5
B9
330
1F
100
AcDbEntity
  8
0
  6
Continuous
 62
     7
100
AcDbCircle
 10
2852.4743379208
 20
7418.4506941296
 30
0.0
 40
66.16163876012776
100
AcDbArc
 50
180.4980425244
 51
270.4979855198
  0
ARC
  5
BA
330
1F
100
AcDbEntity
  8
0
  6
Continuous
 62
     7
100
AcDbCircle
 10
2781.7038839568
 20
7454.6552218555
 30
0.0
 40
19.24266699987211
100
AcDbArc
 50
0.4980312744
 51
77.6117146999
  0
ARC
  5
BB
330
1F
100
AcDbEntity
  8
0
  6
Continuous
 62
     7
100
AcDbCircle
 10
2809.5030486591
 20
7430.4656730605
 30
0.0
 40
8.345244828834193
100
AcDbArc
 50
180.4979516868
 51
0.4979516869
  0
ARC
  5
BC
330
1F
100
AcDbEntity
  8
0
  6
Continuous
 62
     7
100
AcDbCircle
 10
2823.9651611084
 20
7571.6029526305
 30
0.0
 40
7.34303405890899
100
AcDbArc
 50
0.4979683393
 51
180.4979683393
  0
LINE
  5
BD
330
1F
100
AcDbEntity
  8
0
  6
Continuous
 62
     7
100
AcDbLine
 10
2803.7329031136
 20
7907.410191358
 30
0.0
 11
2803.7329031136
 21
7904.1238043
 31
0.0
  0
LINE
  5
BE
330
1F
100
AcDbEntity
  8
0
  6
Continuous
 62
     7
100
AcDbLine
 10
2896.2329031136
 20
7904.1238043
 30
0.0
 11
2896.2329031136
 21
7907.410191358
 31
0.0
  0
LINE
  5
BF
330
1F
100
AcDbEntity
  8
0
  6
Continuous
 62
     7
100
AcDbLine
 10
2887.4829031136
 20
7908.9534334315
 30
0.0
 11
2887.4829031136
 21
7912.7047242206
 31
0.0
  0
LINE
  5
C0
330
1F
100
AcDbEntity
  8
0
  6
Continuous
 62
     7
100
AcDbLine
 10
2812.4829031136
 20
7909.9562126637
 30
0.0
 11
2812.4829031136
 21
7908.9534334315
 31
0.0
  0
LINE
  5
C1
330
1F
100
AcDbEntity
  8
0
  6
Continuous
 62
     7
100
AcDbLine
 10
2842.0043544413
 20
7878.6846367559
 30
0.0
 11
2842.4829031136
 21
7878.2060880836
 31
0.0
  0
LINE
  5
C2
330
1F
100
AcDbEntity
  8
0
  6
Continuous
 62
     7
100
AcDbLine
 10
2857.4829031136
 20
7878.2060880836
 30
0.0
 11
2857.9614517858
 21
7878.6846367559
 31
0.0
  0
LINE
  5
C3
330
1F
100
AcDbEntity
  8
0
  6
Continuous
 62
     7
100
AcDbLine
 10
2841.7329031136
 20
7878.7178815862
 30
0.0
 11
2841.7329031136
 21
7878.7176811599
 31
0.0
  0
LINE
  5
C4
330
1F
100
AcDbEntity
  8
0
  6
Continuous
 62
     7
100
AcDbLine
 10
2858.2329031136
 20
7878.7051010366
 30
0.0
 11
2858.2329031136
 21
7878.7178815862
 31
0.0
  0
LINE
  5
C5
330
1F
100
AcDbEntity
  8
0
  6
Continuous
 62
     7
100
AcDbLine
 10
2889.4849764289
 20
7902.7275107512
 30
0.0
 11
2889.4849764289
 21
7897.8978816197
 31
0.0
  0
LINE
  5
C6
330
1F
100
AcDbEntity
  8
0
  6
Continuous
 62
     7
100
AcDbLine
 10
2894.9246241122
 20
7909.6840786172
 30
0.0
 11
2894.9246241122
 21
7906.9507933214
 31
0.0
  0
LINE
  5
C7
330
1F
100
AcDbEntity
  8
0
  6
Continuous
 62
     7
100
AcDbLine
 10
2885.4147991253
 20
7913.2917047333
 30
0.0
 11
2885.4147991253
 21
7911.8174947977
 31
0.0
  0
LINE
  5
C8
330
1F
100
AcDbEntity
  8
0
  6
Continuous
 62
     7
100
AcDbLine
 10
2874.038021151
 20
7915.5516728297
 30
0.0
 11
2874.038021151
 21
7914.3476931951
 31
0.0
  0
LINE
  5
C9
330
1F
100
AcDbEntity
  8
0
  6
Continuous
 62
     7
100
AcDbLine
 10
2854.0174837163
 20
7917.1281286032
 30
0.0
 11
2854.0174837163
 21
7916.0485520456
 31
0.0
  0
LINE
  5
CA
330
1F
100
AcDbEntity
  8
0
  6
Continuous
 62
     7
100
AcDbLine
 10
2839.0602562878
 20
7916.8542506982
 30
0.0
 11
2839.0602562878
 21
7915.7555776142
 31
0.0
  0
LINE
  5
CB
330
1F
100
AcDbEntity
  8
0
  6
Continuous
 62
     7
100
AcDbLine
 10
2820.2567657087
 20
7914.5953407551
 30
0.0
 11
2820.2567657087
 21
7913.2942537919
 31
0.0
  0
LINE
  5
CC
330
1F
100
AcDbEntity
  8
0
  6
Continuous
 62
     7
100
AcDbLine
 10
2810.4808297983
 20
7912.0584718252
 30
0.0
 11
2810.4808297983
 21
7910.3497269803
 31
0.0
  0
LINE
  5
CD
330
1F
100
AcDbEntity
  8
0
  6
Continuous
 62
     7
100
AcDbLine
 10
2803.9092158359
 20
7908.9860280845
 30
0.0
 11
2803.9092158359
 21
7905.168030599
 31
0.0
  0
LINE
  5
CE
330
1F
100
AcDbEntity
  8
0
  6
Continuous
 62
     7
100
AcDbLine
 10
2814.5510071019
 20
7901.2597429337
 30
0.0
 11
2814.5510071019
 21
7896.4301138023
 31
0.0
  0
LINE
  5
CF
330
1F
100
AcDbEntity
  8
0
  6
Continuous
 62
     7
100
AcDbLine
 10
2860.9055499393
 20
7897.3216601173
 30
0.0
 11
2860.9055499393
 21
7892.4920309859
 31
0.0
  0
LINE
  5
D0
330
1F
100
AcDbEntity
  8
0
  6
Continuous
 62
     7
100
AcDbLine
 10
2823.09907936
 20
7900.8559846994
 30
0.0
 11
2817.1818012626
 21
7902.4795924061
 31
0.0
  0
LINE
  5
D1
330
1F
100
AcDbEntity
  8
0
  6
Continuous
 62
     7
100
AcDbLine
 10
2817.1818012626
 20
7902.4795924061
 30
0.0
 11
2812.6980887132
 21
7904.3861380305
 31
0.0
  0
LINE
  5
D2
330
1F
100
AcDbEntity
  8
0
  6
Continuous
 62
     7
100
AcDbLine
 10
2812.6980887132
 20
7904.3861380305
 30
0.0
 11
2809.8439014655
 21
7906.4922963803
 31
0.0
  0
LINE
  5
D3
330
1F
100
AcDbEntity
  8
0
  6
Continuous
 62
     7
100
AcDbLine
 10
2809.8439014655
 20
7906.4922963803
 30
0.0
 11
2808.7439811981
 21
7908.706018229
 31
0.0
  0
LINE
  5
D4
330
1F
100
AcDbEntity
  8
0
  6
Continuous
 62
     7
100
AcDbLine
 10
2808.7439811981
 20
7908.706018229
 30
0.0
 11
2809.4463997047
 21
7910.9305533093
 31
0.0
  0
LINE
  5
D5
330
1F
100
AcDbEntity
  8
0
  6
Continuous
 62
     7
100
AcDbLine
 10
2809.4463997047
 20
7910.9305533093
 30
0.0
 11
2810.5400503674
 21
7912.0788688997
 31
0.0
  0
LINE
  5
D6
330
1F
100
AcDbEntity
  8
0
  6
Continuous
 62
     7
100
AcDbLine
 10
2889.4257558598
 20
7912.0788688997
 30
0.0
 11
2890.1219047617
 21
7911.4145704827
 31
0.0
  0
LINE
  5
D7
330
1F
100
AcDbEntity
  8
0
  6
Continuous
 62
     7
100
AcDbLine
 10
2890.1219047617
 20
7911.4145704827
 30
0.0
 11
2891.2218250291
 21
7909.2008486339
 31
0.0
  0
LINE
  5
D8
330
1F
100
AcDbEntity
  8
0
  6
Continuous
 62
     7
100
AcDbLine
 10
2891.2218250291
 20
7909.2008486339
 30
0.0
 11
2890.5194065224
 21
7906.9763135536
 31
0.0
  0
LINE
  5
D9
330
1F
100
AcDbEntity
  8
0
  6
Continuous
 62
     7
100
AcDbLine
 10
2890.5194065224
 20
7906.9763135536
 30
0.0
 11
2888.0453483011
 21
7904.8381880992
 31
0.0
  0
LINE
  5
DA
330
1F
100
AcDbEntity
  8
0
  6
Continuous
 62
     7
100
AcDbLine
 10
2888.0453483011
 20
7904.8381880992
 30
0.0
 11
2885.732080117
 21
7903.6267963572
 31
0.0
  0
LINE
  5
DB
330
1F
100
AcDbEntity
  8
0
  6
Continuous
 62
     7
100
AcDbLine
 10
2824.1781710499
 20
7900.6241302652
 30
0.0
 11
2823.09907936
 21
7900.8559846994
 31
0.0
  0
LINE
  5
DC
330
1F
100
AcDbEntity
  8
0
  6
Continuous
 62
     7
100
AcDbLine
 10
2889.4849764289
 20
7902.7275107512
 30
0.0
 11
2887.5619281456
 21
7903.1551971924
 31
0.0
  0
LINE
  5
DD
330
1F
100
AcDbEntity
  8
0
  6
Continuous
 62
     7
100
AcDbLine
 10
2860.7142105448
 20
7897.9760223623
 30
0.0
 11
2860.9055499393
 21
7897.3216601173
 31
0.0
  0
LINE
  5
DE
330
1F
100
AcDbEntity
  8
0
  6
Continuous
 62
     7
100
AcDbLine
 10
2814.5510071019
 20
7901.2597429337
 30
0.0
 11
2816.2034606183
 21
7901.7574644541
 31
0.0
  0
LINE
  5
DF
330
1F
100
AcDbEntity
  8
0
  6
Continuous
 62
     7
100
AcDbLine
 10
2806.4374774046
 20
7910.0471820098
 30
0.0
 11
2805.6780060881
 21
7910.0323058787
 31
0.0
  0
LINE
  5
E0
330
1F
100
AcDbEntity
  8
0
  6
Continuous
 62
     7
100
AcDbLine
 10
2812.4829031136
 20
7909.3353455674
 30
0.0
 11
2811.112712773
 21
7910.2091960414
 31
0.0
  0
LINE
  5
E1
330
1F
100
AcDbEntity
  8
0
  6
Continuous
 62
     7
100
AcDbLine
 10
2810.4808297983
 20
7910.708136499
 30
0.0
 11
2809.8439014655
 21
7911.3219255117
 31
0.0
  0
LINE
  5
E2
330
1F
100
AcDbEntity
  8
0
  6
Continuous
 62
     7
100
AcDbLine
 10
2809.8439014655
 20
7911.3219255117
 30
0.0
 11
2809.8019221672
 21
7911.3682479972
 31
0.0
  0
LINE
  5
E3
330
1F
100
AcDbEntity
  8
0
  6
Continuous
 62
     7
100
AcDbLine
 10
2890.1638840599
 20
7911.3682479972
 30
0.0
 11
2888.0453483011
 21
7909.6678172307
 31
0.0
  0
LINE
  5
E4
330
1F
100
AcDbEntity
  8
0
  6
Continuous
 62
     7
100
AcDbLine
 10
2888.0453483011
 20
7909.6678172307
 30
0.0
 11
2887.4829031136
 21
7909.3353455674
 31
0.0
  0
LINE
  5
E5
330
1F
100
AcDbEntity
  8
0
  6
Continuous
 62
     7
100
AcDbLine
 10
2854.2088231109
 20
7915.3941898006
 30
0.0
 11
2854.0174837163
 21
7916.0485520456
 31
0.0
  0
LINE
  5
E6
330
1F
100
AcDbEntity
  8
0
  6
Continuous
 62
     7
100
AcDbLine
 10
2839.2515956824
 20
7915.1012153692
 30
0.0
 11
2839.0602562878
 21
7915.7555776142
 31
0.0
  0
LINE
  5
E7
330
1F
100
AcDbEntity
  8
0
  6
Continuous
 62
     7
100
AcDbLine
 10
2825.5430633376
 20
7901.5921164023
 30
0.0
 11
2820.0002757868
 21
7903.1240145619
 31
0.0
  0
LINE
  5
E8
330
1F
100
AcDbEntity
  8
0
  6
Continuous
 62
     7
100
AcDbLine
 10
2820.0002757868
 20
7903.1240145619
 30
0.0
 11
2815.8594425666
 21
7904.928489869
 31
0.0
  0
LINE
  5
E9
330
1F
100
AcDbEntity
  8
0
  6
Continuous
 62
     7
100
AcDbLine
 10
2815.8594425666
 20
7904.928489869
 30
0.0
 11
2813.3141844359
 21
7906.9211670636
 31
0.0
  0
LINE
  5
EA
330
1F
100
AcDbEntity
  8
0
  6
Continuous
 62
     7
100
AcDbLine
 10
2813.3141844359
 20
7906.9211670636
 30
0.0
 11
2812.4835148363
 21
7909.0088707748
 31
0.0
  0
LINE
  5
EB
330
1F
100
AcDbEntity
  8
0
  6
Continuous
 62
     7
100
AcDbLine
 10
2812.4835148363
 20
7909.0088707748
 30
0.0
 11
2812.7275664275
 21
7910.060316536
 31
0.0
  0
LINE
  5
EC
330
1F
100
AcDbEntity
  8
0
  6
Continuous
 62
     7
100
AcDbLine
 10
2885.4147991253
 20
7912.1320721464
 30
0.0
 11
2885.5877096272
 21
7911.999896896
 31
0.0
  0
LINE
  5
ED
330
1F
100
AcDbEntity
  8
0
  6
Continuous
 62
     7
100
AcDbLine
 10
2885.5877096272
 20
7911.999896896
 30
0.0
 11
2887.2856267553
 21
7909.9476762377
 31
0.0
  0
LINE
  5
EE
330
1F
100
AcDbEntity
  8
0
  6
Continuous
 62
     7
100
AcDbLine
 10
2887.2856267553
 20
7909.9476762377
 30
0.0
 11
2887.2393099848
 21
7907.8489658907
 31
0.0
  0
LINE
  5
EF
330
1F
100
AcDbEntity
  8
0
  6
Continuous
 62
     7
100
AcDbLine
 10
2887.2393099848
 20
7907.8489658907
 30
0.0
 11
2885.4509250366
 21
7905.8018992185
 31
0.0
  0
LINE
  5
F0
330
1F
100
AcDbEntity
  8
0
  6
Continuous
 62
     7
100
AcDbLine
 10
2885.4509250366
 20
7905.8018992185
 30
0.0
 11
2882.0040948032
 21
7903.9021947833
 31
0.0
  0
LINE
  5
F1
330
1F
100
AcDbEntity
  8
0
  6
Continuous
 62
     7
100
AcDbLine
 10
2882.0040948032
 20
7903.9021947833
 30
0.0
 11
2877.0599892353
 21
7902.2386806533
 31
0.0
  0
LINE
  5
F2
330
1F
100
AcDbEntity
  8
0
  6
Continuous
 62
     7
100
AcDbLine
 10
2877.0599892353
 20
7902.2386806533
 30
0.0
 11
2870.8497892144
 21
7900.8891409003
 31
0.0
  0
LINE
  5
F3
330
1F
100
AcDbEntity
  8
0
  6
Continuous
 62
     7
100
AcDbLine
 10
2870.8497892144
 20
7900.8891409003
 30
0.0
 11
2863.6638767914
 21
7899.9166785032
 31
0.0
  0
LINE
  5
F4
330
1F
100
AcDbEntity
  8
0
  6
Continuous
 62
     7
100
AcDbLine
 10
2863.6638767914
 20
7899.9166785032
 30
0.0
 11
2855.8382572444
 21
7899.3667647229
 31
0.0
  0
LINE
  5
F5
330
1F
100
AcDbEntity
  8
0
  6
Continuous
 62
     7
100
AcDbLine
 10
2855.8382572444
 20
7899.3667647229
 30
0.0
 11
2847.7388478461
 21
7899.2651129167
 31
0.0
  0
LINE
  5
F6
330
1F
100
AcDbEntity
  8
0
  6
Continuous
 62
     7
100
AcDbLine
 10
2847.7388478461
 20
7899.2651129167
 30
0.0
 11
2839.7443679779
 21
7899.6164762099
 31
0.0
  0
LINE
  5
F7
330
1F
100
AcDbEntity
  8
0
  6
Continuous
 62
     7
100
AcDbLine
 10
2839.7443679779
 20
7899.6164762099
 30
0.0
 11
2832.2286306334
 21
7900.4044252455
 31
0.0
  0
LINE
  5
F8
330
1F
100
AcDbEntity
  8
0
  6
Continuous
 62
     7
100
AcDbLine
 10
2832.2286306334
 20
7900.4044252455
 30
0.0
 11
2825.5430633376
 21
7901.5921164023
 31
0.0
  0
LINE
  5
F9
330
1F
100
AcDbEntity
  8
0
  6
Continuous
 62
     7
100
AcDbLine
 10
2854.2088231109
 20
7917.1239714547
 30
0.0
 11
2854.2088231109
 21
7915.3941898006
 31
0.0
  0
LINE
  5
FA
330
1F
100
AcDbEntity
  8
0
  6
Continuous
 62
     7
100
AcDbLine
 10
2874.038021151
 20
7914.3476931951
 30
0.0
 11
2872.3855676345
 21
7913.8499716747
 31
0.0
  0
LINE
  5
FB
330
1F
100
AcDbEntity
  8
0
  6
Continuous
 62
     7
100
AcDbLine
 10
2885.4147991253
 20
7911.8174947977
 30
0.0
 11
2883.7623456088
 21
7911.3197732774
 31
0.0
  0
LINE
  5
FC
330
1F
100
AcDbEntity
  8
0
  6
Continuous
 62
     7
100
AcDbLine
 10
2872.3855676345
 20
7915.7797442153
 30
0.0
 11
2872.3855676345
 21
7913.8499716747
 31
0.0
  0
LINE
  5
FD
330
1F
100
AcDbEntity
  8
0
  6
Continuous
 62
     7
100
AcDbLine
 10
2820.2567657087
 20
7913.2942537919
 30
0.0
 11
2822.1798139919
 21
7912.8665673507
 31
0.0
  0
LINE
  5
FE
330
1F
100
AcDbEntity
  8
0
  6
Continuous
 62
     7
100
AcDbLine
 10
2810.4808297983
 20
7910.3497269803
 30
0.0
 11
2812.4038780815
 21
7909.9220405391
 31
0.0
  0
LINE
  5
FF
330
1F
100
AcDbEntity
  8
0
  6
Continuous
 62
     7
100
AcDbLine
 10
2822.1798139919
 20
7914.9522477815
 30
0.0
 11
2822.1798139919
 21
7912.8665673507
 31
0.0
  0
LINE
  5
100
330
1F
100
AcDbEntity
  8
0
  6
Continuous
 62
     7
100
AcDbLine
 10
2892.3963625435
 20
7910.9341613832
 30
0.0
 11
2892.3963625435
 21
7906.9012710421
 31
0.0
  0
LINE
  5
101
330
1F
100
AcDbEntity
  8
0
  6
Continuous
 62
     7
100
AcDbLine
 10
2892.3963625435
 20
7906.9012710421
 30
0.0
 11
2894.9246241122
 21
7906.9507933214
 31
0.0
  0
LINE
  5
102
330
1F
100
AcDbEntity
  8
0
  6
Continuous
 62
     7
100
AcDbLine
 10
2893.5283288226
 20
7903.0300557216
 30
0.0
 11
2896.0565903912
 21
7903.079578001
 31
0.0
  0
LINE
  5
103
330
1F
100
AcDbEntity
  8
0
  6
Continuous
 62
     7
100
AcDbLine
 10
2893.5283288226
 20
7905.2175528784
 30
0.0
 11
2893.5283288226
 21
7903.0300557216
 31
0.0
  0
LINE
  5
104
330
1F
100
AcDbEntity
  8
0
  6
Continuous
 62
     7
100
AcDbLine
 10
2806.4374774046
 20
7910.0471820098
 30
0.0
 11
2806.4374774046
 21
7905.2175528784
 31
0.0
  0
LINE
  5
105
330
1F
100
AcDbEntity
  8
0
  6
Continuous
 62
     7
100
AcDbLine
 10
2806.4374774046
 20
7905.2175528784
 30
0.0
 11
2803.9092158359
 21
7905.168030599
 31
0.0
  0
LINE
  5
106
330
1F
100
AcDbEntity
  8
0
  6
Continuous
 62
     7
100
AcDbLine
 10
2807.5694436836
 20
7901.346337558
 30
0.0
 11
2805.0411821149
 21
7901.2968152786
 31
0.0
  0
LINE
  5
107
330
1F
100
AcDbEntity
  8
0
  6
Continuous
 62
     7
100
AcDbLine
 10
2807.5694436836
 20
7906.1759666894
 30
0.0
 11
2807.5694436836
 21
7901.346337558
 31
0.0
  0
LINE
  5
108
330
1F
100
AcDbEntity
  8
0
  6
Continuous
 62
     7
100
AcDbLine
 10
2887.5619281456
 20
7903.1551971924
 30
0.0
 11
2887.5619281456
 21
7898.3255680609
 31
0.0
  0
LINE
  5
109
330
1F
100
AcDbEntity
  8
0
  6
Continuous
 62
     7
100
AcDbLine
 10
2889.4849764289
 20
7897.8978816197
 30
0.0
 11
2887.5619281456
 21
7898.3255680609
 31
0.0
  0
LINE
  5
10A
330
1F
100
AcDbEntity
  8
0
  6
Continuous
 62
     7
100
AcDbLine
 10
2877.7859922353
 20
7900.2106703807
 30
0.0
 11
2877.7859922353
 21
7895.3810412493
 31
0.0
  0
LINE
  5
10B
330
1F
100
AcDbEntity
  8
0
  6
Continuous
 62
     7
100
AcDbLine
 10
2879.7090405185
 20
7894.9533548081
 30
0.0
 11
2877.7859922353
 21
7895.3810412493
 31
0.0
  0
LINE
  5
10C
330
1F
100
AcDbEntity
  8
0
  6
Continuous
 62
     7
100
AcDbLine
 10
2816.2034606183
 20
7901.7574644541
 30
0.0
 11
2816.2034606183
 21
7896.9278353226
 31
0.0
  0
LINE
  5
10D
330
1F
100
AcDbEntity
  8
0
  6
Continuous
 62
     7
100
AcDbLine
 10
2814.5510071019
 20
7896.4301138023
 30
0.0
 11
2816.2034606183
 21
7896.9278353226
 31
0.0
  0
LINE
  5
10E
330
1F
100
AcDbEntity
  8
0
  6
Continuous
 62
     7
100
AcDbLine
 10
2827.5802385926
 20
7899.2272660568
 30
0.0
 11
2827.5802385926
 21
7894.3976369253
 31
0.0
  0
LINE
  5
10F
330
1F
100
AcDbEntity
  8
0
  6
Continuous
 62
     7
100
AcDbLine
 10
2825.9277850762
 20
7893.899915405
 30
0.0
 11
2827.5802385926
 21
7894.3976369253
 31
0.0
  0
LINE
  5
110
330
1F
100
AcDbEntity
  8
0
  6
Continuous
 62
     7
100
AcDbLine
 10
2845.7569831163
 20
7897.6830479309
 30
0.0
 11
2845.7569831163
 21
7892.8534187994
 31
0.0
  0
LINE
  5
111
330
1F
100
AcDbEntity
  8
0
  6
Continuous
 62
     7
100
AcDbLine
 10
2860.7142105448
 20
7897.9760223623
 30
0.0
 11
2860.7142105448
 21
7893.1463932309
 31
0.0
  0
LINE
  5
112
330
1F
100
AcDbEntity
  8
0
  6
Continuous
 62
     7
100
AcDbLine
 10
2845.7569831163
 20
7892.8534187994
 30
0.0
 11
2845.9483225108
 21
7892.1990565545
 31
0.0
  0
LINE
  5
113
330
1F
100
AcDbEntity
  8
0
  6
Continuous
 62
     7
100
AcDbLine
 10
2860.7142105448
 20
7893.1463932309
 30
0.0
 11
2860.9055499393
 21
7892.4920309859
 31
0.0
  0
LINE
  5
114
330
1F
100
AcDbEntity
  8
0
  6
Continuous
 62
     7
100
AcDbLine
 10
2857.4829031136
 20
7878.2060880836
 30
0.0
 11
2842.4829031136
 21
7878.2060880836
 31
0.0
  0
LINE
  5
115
330
1F
100
AcDbEntity
  8
0
  6
Continuous
 62
     7
100
AcDbLine
 10
2791.5133645883
 20
7925.0971967591
 30
0.0
 11
2908.4524416389
 21
7925.0971967591
 31
0.0
  0
LINE
  5
116
330
1F
100
AcDbEntity
  8
0
  6
Continuous
 62
     7
100
AcDbLine
 10
2913.27729684
 20
7923.7574507969
 30
0.0
 11
2908.4524416389
 21
7925.0971967591
 31
0.0
  0
LINE
  5
117
330
1F
100
AcDbEntity
  8
0
  6
Continuous
 62
     7
100
AcDbLine
 10
2791.5133645883
 20
7925.0971967591
 30
0.0
 11
2786.6885093872
 21
7923.7574507969
 31
0.0
  0
LINE
  5
118
330
1F
100
AcDbEntity
  8
0
  6
Continuous
 62
     7
100
AcDbLine
 10
2849.9829031136
 20
7917.1708635028
 30
0.0
 11
2859.3271833039
 21
7916.9399268852
 31
0.0
  0
LINE
  5
119
330
1F
100
AcDbEntity
  8
0
  6
Continuous
 62
     7
100
AcDbLine
 10
2859.3271833039
 20
7916.9399268852
 30
0.0
 11
2868.3337368618
 21
7916.2554636835
 31
0.0
  0
LINE
  5
11A
330
1F
100
AcDbEntity
  8
0
  6
Continuous
 62
     7
100
AcDbLine
 10
2868.3337368618
 20
7916.2554636835
 30
0.0
 11
2876.6770434754
 21
7915.1422121812
 31
0.0
  0
LINE
  5
11B
330
1F
100
AcDbEntity
  8
0
  6
Continuous
 62
     7
100
AcDbLine
 10
2876.6770434754
 20
7915.1422121812
 30
0.0
 11
2884.0555543055
 21
7913.640408188
 31
0.0
  0
LINE
  5
11C
330
1F
100
AcDbEntity
  8
0
  6
Continuous
 62
     7
100
AcDbLine
 10
2884.0555543055
 20
7913.640408188
 30
0.0
 11
2890.2025907461
 21
7911.8043308133
 31
0.0
  0
LINE
  5
11D
330
1F
100
AcDbEntity
  8
0
  6
Continuous
 62
     7
100
AcDbLine
 10
2890.2025907461
 20
7911.8043308133
 30
0.0
 11
2894.8959828842
 21
7909.7003406771
 31
0.0
  0
LINE
  5
11E
330
1F
100
AcDbEntity
  8
0
  6
Continuous
 62
     7
100
AcDbLine
 10
2894.8959828842
 20
7909.7003406771
 30
0.0
 11
2897.9660992996
 21
7907.4044814649
 31
0.0
  0
LINE
  5
11F
330
1F
100
AcDbEntity
  8
0
  6
Continuous
 62
     7
100
AcDbLine
 10
2897.9660992996
 20
7907.4044814649
 30
0.0
 11
2899.3019779857
 21
7904.9997315105
 31
0.0
  0
LINE
  5
120
330
1F
100
AcDbEntity
  8
0
  6
Continuous
 62
     7
100
AcDbLine
 10
2899.3019779857
 20
7904.9997315105
 30
0.0
 11
2898.8553368064
 21
7902.5730047427
 31
0.0
  0
LINE
  5
121
330
1F
100
AcDbEntity
  8
0
  6
Continuous
 62
     7
100
AcDbLine
 10
2898.8553368064
 20
7902.5730047427
 30
0.0
 11
2896.6423185376
 21
7900.2120093896
 31
0.0
  0
LINE
  5
122
330
1F
100
AcDbEntity
  8
0
  6
Continuous
 62
     7
100
AcDbLine
 10
2896.6423185376
 20
7900.2120093896
 30
0.0
 11
2892.7429074254
 21
7898.0020779749
 31
0.0
  0
LINE
  5
123
330
1F
100
AcDbEntity
  8
0
  6
Continuous
 62
     7
100
AcDbLine
 10
2892.7429074254
 20
7898.0020779749
 30
0.0
 11
2887.2980383473
 21
7896.0230831778
 31
0.0
  0
LINE
  5
124
330
1F
100
AcDbEntity
  8
0
  6
Continuous
 62
     7
100
AcDbLine
 10
2887.2980383473
 20
7896.0230831778
 30
0.0
 11
2880.5045030582
 21
7894.3465510264
 31
0.0
  0
LINE
  5
125
330
1F
100
AcDbEntity
  8
0
  6
Continuous
 62
     7
100
AcDbLine
 10
2880.5045030582
 20
7894.3465510264
 30
0.0
 11
2872.6078376239
 21
7893.033075761
 31
0.0
  0
LINE
  5
126
330
1F
100
AcDbEntity
  8
0
  6
Continuous
 62
     7
100
AcDbLine
 10
2872.6078376239
 20
7893.033075761
 30
0.0
 11
2863.8934481076
 21
7892.1301297997
 31
0.0
  0
LINE
  5
127
330
1F
100
AcDbEntity
  8
0
  6
Continuous
 62
     7
100
AcDbLine
 10
2863.8934481076
 20
7892.1301297997
 30
0.0
 11
2854.6762952517
 21
7891.6703479623
 31
0.0
  0
LINE
  5
128
330
1F
100
AcDbEntity
  8
0
  6
Continuous
 62
     7
100
AcDbLine
 10
2854.6762952517
 20
7891.6703479623
 30
0.0
 11
2845.2895109754
 21
7891.6703479623
 31
0.0
  0
LINE
  5
129
330
1F
100
AcDbEntity
  8
0
  6
Continuous
 62
     7
100
AcDbLine
 10
2845.2895109754
 20
7891.6703479623
 30
0.0
 11
2836.0723581195
 21
7892.1301297997
 31
0.0
  0
LINE
  5
12A
330
1F
100
AcDbEntity
  8
0
  6
Continuous
 62
     7
100
AcDbLine
 10
2836.0723581195
 20
7892.1301297997
 30
0.0
 11
2827.3579686033
 21
7893.033075761
 31
0.0
  0
LINE
  5
12B
330
1F
100
AcDbEntity
  8
0
  6
Continuous
 62
     7
100
AcDbLine
 10
2827.3579686033
 20
7893.033075761
 30
0.0
 11
2819.4613031689
 21
7894.3465510264
 31
0.0
  0
LINE
  5
12C
330
1F
100
AcDbEntity
  8
0
  6
Continuous
 62
     7
100
AcDbLine
 10
2819.4613031689
 20
7894.3465510264
 30
0.0
 11
2812.6677678798
 21
7896.0230831778
 31
0.0
  0
LINE
  5
12D
330
1F
100
AcDbEntity
  8
0
  6
Continuous
 62
     7
100
AcDbLine
 10
2812.6677678798
 20
7896.0230831778
 30
0.0
 11
2807.2228988017
 21
7898.0020779749
 31
0.0
  0
LINE
  5
12E
330
1F
100
AcDbEntity
  8
0
  6
Continuous
 62
     7
100
AcDbLine
 10
2807.2228988017
 20
7898.0020779749
 30
0.0
 11
2803.3234876895
 21
7900.2120093896
 31
0.0
  0
LINE
  5
12F
330
1F
100
AcDbEntity
  8
0
  6
Continuous
 62
     7
100
AcDbLine
 10
2803.3234876895
 20
7900.2120093896
 30
0.0
 11
2801.1104694207
 21
7902.5730047427
 31
0.0
  0
LINE
  5
130
330
1F
100
AcDbEntity
  8
0
  6
Continuous
 62
     7
100
AcDbLine
 10
2801.1104694207
 20
7902.5730047427
 30
0.0
 11
2800.6638282414
 21
7904.9997315105
 31
0.0
  0
LINE
  5
131
330
1F
100
AcDbEntity
  8
0
  6
Continuous
 62
     7
100
AcDbLine
 10
2800.6638282414
 20
7904.9997315105
 30
0.0
 11
2801.9997069276
 21
7907.4044814649
 31
0.0
  0
LINE
  5
132
330
1F
100
AcDbEntity
  8
0
  6
Continuous
 62
     7
100
AcDbLine
 10
2801.9997069276
 20
7907.4044814649
 30
0.0
 11
2805.0698233429
 21
7909.7003406771
 31
0.0
  0
LINE
  5
133
330
1F
100
AcDbEntity
  8
0
  6
Continuous
 62
     7
100
AcDbLine
 10
2805.0698233429
 20
7909.7003406771
 30
0.0
 11
2809.7632154811
 21
7911.8043308133
 31
0.0
  0
LINE
  5
134
330
1F
100
AcDbEntity
  8
0
  6
Continuous
 62
     7
100
AcDbLine
 10
2809.7632154811
 20
7911.8043308133
 30
0.0
 11
2815.9102519216
 21
7913.640408188
 31
0.0
  0
LINE
  5
135
330
1F
100
AcDbEntity
  8
0
  6
Continuous
 62
     7
100
AcDbLine
 10
2815.9102519216
 20
7913.640408188
 30
0.0
 11
2823.2887627517
 21
7915.1422121812
 31
0.0
  0
LINE
  5
136
330
1F
100
AcDbEntity
  8
0
  6
Continuous
 62
     7
100
AcDbLine
 10
2823.2887627517
 20
7915.1422121812
 30
0.0
 11
2831.6320693653
 21
7916.2554636835
 31
0.0
  0
LINE
  5
137
330
1F
100
AcDbEntity
  8
0
  6
Continuous
 62
     7
100
AcDbLine
 10
2831.6320693653
 20
7916.2554636835
 30
0.0
 11
2840.6386229233
 21
7916.9399268852
 31
0.0
  0
LINE
  5
138
330
1F
100
AcDbEntity
  8
0
  6
Continuous
 62
     7
100
AcDbLine
 10
2840.6386229233
 20
7916.9399268852
 30
0.0
 11
2849.9829031136
 21
7917.1708635028
 31
0.0
  0
LINE
  5
139
330
1F
100
AcDbEntity
  8
0
  6
Continuous
 62
     7
100
AcDbLine
 10
2896.2329031136
 20
7908.7810433844
 30
0.0
 11
2896.8579031136
 21
7906.8064877166
 31
0.0
  0
LINE
  5
13A
330
1F
100
AcDbEntity
  8
0
  6
Continuous
 62
     7
100
AcDbLine
 10
2896.8579031136
 20
7906.8064877166
 30
0.0
 11
2896.2329031136
 21
7904.8319320488
 31
0.0
  0
LINE
  5
13B
330
1F
100
AcDbEntity
  8
0
  6
Continuous
 62
     7
100
AcDbLine
 10
2894.5545114101
 20
7903.0501560552
 30
0.0
 11
2893.2897562
 21
7902.1637176912
 31
0.0
  0
LINE
  5
13C
330
1F
100
AcDbEntity
  8
0
  6
Continuous
 62
     7
100
AcDbLine
 10
2893.2897562
 20
7902.1637176912
 30
0.0
 11
2889.4849764289
 21
7900.2749501254
 31
0.0
  0
LINE
  5
13D
330
1F
100
AcDbEntity
  8
0
  6
Continuous
 62
     7
100
AcDbLine
 10
2814.5510071019
 20
7898.8634565849
 30
0.0
 11
2811.0077650369
 21
7900.066230348
 31
0.0
  0
LINE
  5
13E
330
1F
100
AcDbEntity
  8
0
  6
Continuous
 62
     7
100
AcDbLine
 10
2811.0077650369
 20
7900.066230348
 30
0.0
 11
2807.5694436836
 21
7901.6407028138
 31
0.0
  0
LINE
  5
13F
330
1F
100
AcDbEntity
  8
0
  6
Continuous
 62
     7
100
AcDbLine
 10
2803.7329031136
 20
7904.8319320488
 30
0.0
 11
2803.1079031136
 21
7906.8064877166
 31
0.0
  0
LINE
  5
140
330
1F
100
AcDbEntity
  8
0
  6
Continuous
 62
     7
100
AcDbLine
 10
2803.1079031136
 20
7906.8064877166
 30
0.0
 11
2803.8360411732
 21
7908.9365662258
 31
0.0
  0
LINE
  5
141
330
1F
100
AcDbEntity
  8
0
  6
Continuous
 62
     7
100
AcDbLine
 10
5673.5240159615
 20
7287.5342963117
 30
0.0
 11
5683.5240159615
 21
7287.5342963117
 31
0.0
  0
LINE
  5
142
330
1F
100
AcDbEntity
  8
0
  6
Continuous
 62
     7
100
AcDbLine
 10
5683.5240159615
 20
7637.5342963117
 30
0.0
 11
5673.5240159615
 21
7637.5342963117
 31
0.0
  0
LINE
  5
143
330
1F
100
AcDbEntity
  8
0
  6
Continuous
 62
     7
100
AcDbLine
 10
5683.5240159615
 20
7287.5342963117
 30
0.0
 11
5688.5240159615
 21
7292.5342963117
 31
0.0
  0
LINE
  5
144
330
1F
100
AcDbEntity
  8
0
  6
Continuous
 62
     7
100
AcDbLine
 10
5688.5240159615
 20
7632.5342963117
 30
0.0
 11
5683.5240159615
 21
7637.5342963117
 31
0.0
  0
LINE
  5
145
330
1F
100
AcDbEntity
  8
0
  6
Continuous
 62
     7
100
AcDbLine
 10
6396.5758803925
 20
7892.4212923149
 30
0.0
 11
6396.6476556347
 21
7892.153423464
 31
0.0
  0
LINE
  5
146
330
1F
100
AcDbEntity
  8
0
  6
Continuous
 62
     7
100
AcDbLine
 10
6485.9957945665
 20
7916.094185136
 30
0.0
 11
6485.9240193242
 21
7916.3620539869
 31
0.0
  0
LINE
  5
147
330
1F
100
AcDbEntity
  8
0
  6
Continuous
 62
     7
100
AcDbLine
 10
5663.5240159615
 20
7777.4560880836
 30
0.0
 11
5673.5240159615
 21
7777.4560880836
 31
0.0
  0
LINE
  5
148
330
1F
100
AcDbEntity
  8
0
  6
Continuous
 62
     7
100
AcDbLine
 10
5673.5240159615
 20
8112.4560880836
 30
0.0
 11
5663.5240159615
 21
8112.4560880836
 31
0.0
  0
LINE
  5
149
330
1F
100
AcDbEntity
  8
0
  6
Continuous
 62
     7
100
AcDbLine
 10
5663.5240159615
 20
7295.0342963117
 30
0.0
 11
5673.5240159615
 21
7295.0342963117
 31
0.0
  0
LINE
  5
14A
330
1F
100
AcDbEntity
  8
0
  6
Continuous
 62
     7
100
AcDbLine
 10
5673.5240159615
 20
7630.0342963117
 30
0.0
 11
5663.5240159615
 21
7630.0342963117
 31
0.0
  0
LINE
  5
14B
330
1F
100
AcDbEntity
  8
0
  6
Continuous
 62
     7
100
AcDbLine
 10
5698.5240159615
 20
7562.5342963117
 30
0.0
 11
5698.5240159615
 21
7362.5342963117
 31
0.0
  0
LINE
  5
14C
330
1F
100
AcDbEntity
  8
0
  6
Continuous
 62
     7
100
AcDbLine
 10
4988.5240159615
 20
7337.5342963117
 30
0.0
 11
5663.5240159615
 21
7337.5342963117
 31
0.0
  0
LINE
  5
14D
330
1F
100
AcDbEntity
  8
0
  6
Continuous
 62
     7
100
AcDbLine
 10
5663.5240159615
 20
7587.5342963117
 30
0.0
 11
4988.5240159615
 21
7587.5342963117
 31
0.0
  0
LINE
  5
14E
330
1F
100
AcDbEntity
  8
0
  6
Continuous
 62
     7
100
AcDbLine
 10
4988.5240159615
 20
7819.9560880836
 30
0.0
 11
5663.5240159615
 21
7819.9560880836
 31
0.0
  0
LINE
  5
14F
330
1F
100
AcDbEntity
  8
0
  6
Continuous
 62
     7
100
AcDbLine
 10
5663.5240159615
 20
8069.9560880836
 30
0.0
 11
4988.5240159615
 21
8069.9560880836
 31
0.0
  0
LINE
  5
150
330
1F
100
AcDbEntity
  8
0
  6
Continuous
 62
     7
100
AcDbLine
 10
4018.5240159615
 20
7867.5003675775
 30
0.0
 11
4013.5240159615
 21
7862.5003675775
 31
0.0
  0
LINE
  5
151
330
1F
100
AcDbEntity
  8
0
  6
Continuous
 62
     7
100
AcDbLine
 10
4013.5240159615
 20
7842.5003675775
 30
0.0
 11
4018.5240159615
 21
7837.5003675775
 31
0.0
  0
LINE
  5
152
330
1F
100
AcDbEntity
  8
0
  6
Continuous
 62
     7
100
AcDbLine
 10
4018.5240159615
 20
7837.5003675775
 30
0.0
 11
4947.5240159615
 21
7837.5003675775
 31
0.0
  0
LINE
  5
153
330
1F
100
AcDbEntity
  8
0
  6
Continuous
 62
     7
100
AcDbLine
 10
4947.5240159615
 20
7867.5003675775
 30
0.0
 11
4018.5240159615
 21
7867.5003675775
 31
0.0
  0
LINE
  5
154
330
1F
100
AcDbEntity
  8
0
  6
Continuous
 62
     7
100
AcDbLine
 10
4018.5240159615
 20
8052.4118085898
 30
0.0
 11
4013.5240159615
 21
8047.4118085898
 31
0.0
  0
LINE
  5
155
330
1F
100
AcDbEntity
  8
0
  6
Continuous
 62
     7
100
AcDbLine
 10
4013.5240159615
 20
8027.4118085898
 30
0.0
 11
4018.5240159615
 21
8022.4118085898
 31
0.0
  0
LINE
  5
156
330
1F
100
AcDbEntity
  8
0
  6
Continuous
 62
     7
100
AcDbLine
 10
4018.5240159615
 20
8022.4118085898
 30
0.0
 11
4947.5240159615
 21
8022.4118085898
 31
0.0
  0
LINE
  5
157
330
1F
100
AcDbEntity
  8
0
  6
Continuous
 62
     7
100
AcDbLine
 10
4947.5240159615
 20
8052.4118085898
 30
0.0
 11
4018.5240159615
 21
8052.4118085898
 31
0.0
  0
LINE
  5
158
330
1F
100
AcDbEntity
  8
0
  6
Continuous
 62
     7
100
AcDbLine
 10
4011.2283345574
 20
7407.5342963117
 30
0.0
 11
4006.2283345574
 21
7402.5342963117
 31
0.0
  0
LINE
  5
159
330
1F
100
AcDbEntity
  8
0
  6
Continuous
 62
     7
100
AcDbLine
 10
4006.2283345574
 20
7392.5342963117
 30
0.0
 11
4011.2283345574
 21
7387.5342963117
 31
0.0
  0
LINE
  5
15A
330
1F
100
AcDbEntity
  8
0
  6
Continuous
 62
     7
100
AcDbLine
 10
4011.2283345574
 20
7387.5342963117
 30
0.0
 11
4957.5240159615
 21
7387.5342963117
 31
0.0
  0
LINE
  5
15B
330
1F
100
AcDbEntity
  8
0
  6
Continuous
 62
     7
100
AcDbLine
 10
4957.5240159615
 20
7407.5342963117
 30
0.0
 11
4011.2283345574
 21
7407.5342963117
 31
0.0
  0
LINE
  5
15C
330
1F
100
AcDbEntity
  8
0
  6
Continuous
 62
     7
100
AcDbLine
 10
4011.2283345574
 20
7536.2842963117
 30
0.0
 11
4006.2283345574
 21
7531.2842963117
 31
0.0
  0
LINE
  5
15D
330
1F
100
AcDbEntity
  8
0
  6
Continuous
 62
     7
100
AcDbLine
 10
4006.2283345574
 20
7521.2842963117
 30
0.0
 11
4011.2283345574
 21
7516.2842963117
 31
0.0
  0
LINE
  5
15E
330
1F
100
AcDbEntity
  8
0
  6
Continuous
 62
     7
100
AcDbLine
 10
4011.2283345574
 20
7516.2842963117
 30
0.0
 11
4957.5240159615
 21
7516.2842963117
 31
0.0
  0
LINE
  5
15F
330
1F
100
AcDbEntity
  8
0
  6
Continuous
 62
     7
100
AcDbLine
 10
4957.5240159615
 20
7536.2842963117
 30
0.0
 11
4011.2283345574
 21
7536.2842963117
 31
0.0
  0
LINE
  5
160
330
1F
100
AcDbEntity
  8
0
  6
Continuous
 62
     7
100
AcDbLine
 10
4973.5240159615
 20
7744.9560880836
 30
0.0
 11
4988.5240159615
 21
7744.9560880836
 31
0.0
  0
LINE
  5
161
330
1F
100
AcDbEntity
  8
0
  6
Continuous
 62
     7
100
AcDbLine
 10
4988.5240159615
 20
8144.9560880836
 30
0.0
 11
4973.5240159615
 21
8144.9560880836
 31
0.0
  0
LINE
  5
162
330
1F
100
AcDbEntity
  8
0
  6
Continuous
 62
     7
100
AcDbLine
 10
4973.5240159615
 20
7262.5342963117
 30
0.0
 11
4988.5240159615
 21
7262.5342963117
 31
0.0
  0
LINE
  5
163
330
1F
100
AcDbEntity
  8
0
  6
Continuous
 62
     7
100
AcDbLine
 10
4988.5240159615
 20
7662.5342963117
 30
0.0
 11
4973.5240159615
 21
7662.5342963117
 31
0.0
  0
LINE
  5
164
330
1F
100
AcDbEntity
  8
0
  6
Continuous
 62
     7
100
AcDbLine
 10
5688.5240159615
 20
7362.5342963117
 30
0.0
 11
5698.5240159615
 21
7362.5342963117
 31
0.0
  0
LINE
  5
165
330
1F
100
AcDbEntity
  8
0
  6
Continuous
 62
     7
100
AcDbLine
 10
5698.5240159615
 20
7562.5342963117
 30
0.0
 11
5688.5240159615
 21
7562.5342963117
 31
0.0
  0
LINE
  5
166
330
1F
100
AcDbEntity
  8
0
  6
Continuous
 62
     7
100
AcDbLine
 10
5683.5240159615
 20
8119.9560880836
 30
0.0
 11
5673.5240159615
 21
8119.9560880836
 31
0.0
  0
LINE
  5
167
330
1F
100
AcDbEntity
  8
0
  6
Continuous
 62
     7
100
AcDbLine
 10
5673.5240159615
 20
7769.9560880836
 30
0.0
 11
5683.5240159615
 21
7769.9560880836
 31
0.0
  0
LINE
  5
168
330
1F
100
AcDbEntity
  8
0
  6
Continuous
 62
     7
100
AcDbLine
 10
5683.5240159615
 20
7769.9560880836
 30
0.0
 11
5688.5240159615
 21
7774.9560880836
 31
0.0
  0
LINE
  5
169
330
1F
100
AcDbEntity
  8
0
  6
Continuous
 62
     7
100
AcDbLine
 10
5688.5240159615
 20
8114.9560880836
 30
0.0
 11
5683.5240159615
 21
8119.9560880836
 31
0.0
  0
LINE
  5
16A
330
1F
100
AcDbEntity
  8
0
  6
Continuous
 62
     7
100
AcDbLine
 10
5731.7740159615
 20
7878.2060880836
 30
0.0
 11
6343.5240159615
 21
7878.2060880836
 31
0.0
  0
LINE
  5
16B
330
1F
100
AcDbEntity
  8
0
  6
Continuous
 62
     7
100
AcDbLine
 10
5688.5240159615
 20
7878.2060880836
 30
0.0
 11
5715.3777136074
 21
7878.2060880836
 31
0.0
  0
LINE
  5
16C
330
1F
100
AcDbEntity
  8
0
  6
Continuous
 62
     7
100
AcDbLine
 10
6513.5240159615
 20
8011.7060880836
 30
0.0
 11
5688.5240159615
 21
8011.7060880836
 31
0.0
  0
LINE
  5
16D
330
1F
100
AcDbEntity
  8
0
  6
Continuous
 62
     7
100
AcDbLine
 10
6518.5240159615
 20
8006.7060880836
 30
0.0
 11
6513.5240159615
 21
8011.7060880836
 31
0.0
  0
LINE
  5
16E
330
1F
100
AcDbEntity
  8
0
  6
Continuous
 62
     7
100
AcDbLine
 10
5683.5240159615
 20
7287.5342963117
 30
0.0
 11
5683.5240159615
 21
7637.5342963117
 31
0.0
  0
LINE
  5
16F
330
1F
100
AcDbEntity
  8
0
  6
Continuous
 62
     7
100
AcDbLine
 10
5673.5240159615
 20
7637.5342963117
 30
0.0
 11
5673.5240159615
 21
7287.5342963117
 31
0.0
  0
LINE
  5
170
330
1F
100
AcDbEntity
  8
0
  6
Continuous
 62
     7
100
AcDbLine
 10
5688.5240159615
 20
7632.5342963117
 30
0.0
 11
5688.5240159615
 21
7292.5342963117
 31
0.0
  0
LINE
  5
171
330
1F
100
AcDbEntity
  8
0
  6
Continuous
 62
     7
100
AcDbLine
 10
6451.8004165187
 20
7907.2186621723
 30
0.0
 11
6451.872191761
 21
7906.9507933214
 31
0.0
  0
LINE
  5
172
330
1F
100
AcDbEntity
  8
0
  6
Continuous
 62
     7
100
AcDbLine
 10
6479.4060226655
 20
7914.6155620459
 30
0.0
 11
6479.4777979078
 21
7914.3476931951
 31
0.0
  0
LINE
  5
173
330
1F
100
AcDbEntity
  8
0
  6
Continuous
 62
     7
100
AcDbLine
 10
6484.7320940911
 20
7915.7555776142
 30
0.0
 11
6485.9957945665
 21
7916.094185136
 31
0.0
  0
LINE
  5
174
330
1F
100
AcDbEntity
  8
0
  6
Continuous
 62
     7
100
AcDbLine
 10
6484.6603188488
 20
7916.023446465
 30
0.0
 11
6484.7320940911
 21
7915.7555776142
 31
0.0
  0
LINE
  5
175
330
1F
100
AcDbEntity
  8
0
  6
Continuous
 62
     7
100
AcDbLine
 10
6475.4745332904
 20
7913.5621226428
 30
0.0
 11
6475.5463085327
 21
7913.2942537919
 31
0.0
  0
LINE
  5
176
330
1F
100
AcDbEntity
  8
0
  6
Continuous
 62
     7
100
AcDbLine
 10
6464.5571848674
 20
7910.3497269803
 30
0.0
 11
6475.5463085327
 21
7913.2942537919
 31
0.0
  0
LINE
  5
177
330
1F
100
AcDbEntity
  8
0
  6
Continuous
 62
     7
100
AcDbLine
 10
6464.4854096251
 20
7910.6175958312
 30
0.0
 11
6464.5571848674
 21
7910.3497269803
 31
0.0
  0
LINE
  5
178
330
1F
100
AcDbEntity
  8
0
  6
Continuous
 62
     7
100
AcDbLine
 10
6445.1470554608
 20
7905.4358994499
 30
0.0
 11
6445.218830703
 21
7905.168030599
 31
0.0
  0
LINE
  5
179
330
1F
100
AcDbEntity
  8
0
  6
Continuous
 62
     7
100
AcDbLine
 10
6430.7712584402
 20
7901.2968152786
 30
0.0
 11
6445.218830703
 21
7905.168030599
 31
0.0
  0
LINE
  5
17A
330
1F
100
AcDbEntity
  8
0
  6
Continuous
 62
     7
100
AcDbLine
 10
6430.6994831979
 20
7901.5646841295
 30
0.0
 11
6430.7712584402
 21
7901.2968152786
 31
0.0
  0
LINE
  5
17B
330
1F
100
AcDbEntity
  8
0
  6
Continuous
 62
     7
100
AcDbLine
 10
6412.5367060231
 20
7896.6979826532
 30
0.0
 11
6412.6084812654
 21
7896.4301138023
 31
0.0
  0
LINE
  5
17C
330
1F
100
AcDbEntity
  8
0
  6
Continuous
 62
     7
100
AcDbLine
 10
6403.1656522934
 20
7893.899915405
 30
0.0
 11
6412.6084812654
 21
7896.4301138023
 31
0.0
  0
LINE
  5
17D
330
1F
100
AcDbEntity
  8
0
  6
Continuous
 62
     7
100
AcDbLine
 10
6403.0938770511
 20
7894.1677842559
 30
0.0
 11
6403.1656522934
 21
7893.899915405
 31
0.0
  0
LINE
  5
17E
330
1F
100
AcDbEntity
  8
0
  6
Continuous
 62
     7
100
AcDbLine
 10
6396.7461854045
 20
7892.4669254053
 30
0.0
 11
6396.8179606467
 21
7892.1990565545
 31
0.0
  0
LINE
  5
17F
330
1F
100
AcDbEntity
  8
0
  6
Continuous
 62
     7
100
AcDbLine
 10
6396.6476556347
 20
7892.153423464
 30
0.0
 11
6396.8179606467
 21
7892.1990565545
 31
0.0
  0
LINE
  5
180
330
1F
100
AcDbEntity
  8
0
  6
Continuous
 62
     7
100
AcDbLine
 10
6445.3318751235
 20
7905.4854217293
 30
0.0
 11
6445.4036503658
 21
7905.2175528784
 31
0.0
  0
LINE
  5
181
330
1F
100
AcDbEntity
  8
0
  6
Continuous
 62
     7
100
AcDbLine
 10
6445.4036503658
 20
7905.2175528784
 30
0.0
 11
6445.218830703
 21
7905.168030599
 31
0.0
  0
LINE
  5
182
330
1F
100
AcDbEntity
  8
0
  6
Continuous
 62
     7
100
AcDbLine
 10
6462.8892620968
 20
7910.18990939
 30
0.0
 11
6462.9610373391
 21
7909.9220405391
 31
0.0
  0
LINE
  5
183
330
1F
100
AcDbEntity
  8
0
  6
Continuous
 62
     7
100
AcDbLine
 10
6464.5571848674
 20
7910.3497269803
 30
0.0
 11
6462.9610373391
 21
7909.9220405391
 31
0.0
  0
LINE
  5
184
330
1F
100
AcDbEntity
  8
0
  6
Continuous
 62
     7
100
AcDbLine
 10
6414.3942280251
 20
7897.1957041735
 30
0.0
 11
6414.4660032673
 21
7896.9278353226
 31
0.0
  0
LINE
  5
185
330
1F
100
AcDbEntity
  8
0
  6
Continuous
 62
     7
100
AcDbLine
 10
6412.6084812654
 20
7896.4301138023
 30
0.0
 11
6414.4660032673
 21
7896.9278353226
 31
0.0
  0
LINE
  5
186
330
1F
100
AcDbEntity
  8
0
  6
Continuous
 62
     7
100
AcDbLine
 10
6482.218205704
 20
7915.36908422
 30
0.0
 11
6482.2899809463
 21
7915.1012153692
 31
0.0
  0
LINE
  5
187
330
1F
100
AcDbEntity
  8
0
  6
Continuous
 62
     7
100
AcDbLine
 10
6482.2899809463
 20
7915.1012153692
 30
0.0
 11
6484.7320940911
 21
7915.7555776142
 31
0.0
  0
LINE
  5
188
330
1F
100
AcDbEntity
  8
0
  6
Continuous
 62
     7
100
AcDbLine
 10
6399.1882985493
 20
7893.1212876503
 30
0.0
 11
6399.2600737915
 21
7892.8534187994
 31
0.0
  0
LINE
  5
189
330
1F
100
AcDbEntity
  8
0
  6
Continuous
 62
     7
100
AcDbLine
 10
6399.2600737915
 20
7892.8534187994
 30
0.0
 11
6396.8179606467
 21
7892.1990565545
 31
0.0
  0
LINE
  5
18A
330
1F
100
AcDbEntity
  8
0
  6
Continuous
 62
     7
100
AcDbLine
 10
6400.2816940127
 20
7893.4142620817
 30
0.0
 11
6400.3534692549
 21
7893.1463932309
 31
0.0
  0
LINE
  5
18B
330
1F
100
AcDbEntity
  8
0
  6
Continuous
 62
     7
100
AcDbLine
 10
6400.3534692549
 20
7893.1463932309
 30
0.0
 11
6399.2600737915
 21
7892.8534187994
 31
0.0
  0
LINE
  5
18C
330
1F
100
AcDbEntity
  8
0
  6
Continuous
 62
     7
100
AcDbLine
 10
6477.5485006636
 20
7914.1178405256
 30
0.0
 11
6477.6202759058
 21
7913.8499716747
 31
0.0
  0
LINE
  5
18D
330
1F
100
AcDbEntity
  8
0
  6
Continuous
 62
     7
100
AcDbLine
 10
6479.4777979078
 20
7914.3476931951
 30
0.0
 11
6477.6202759058
 21
7913.8499716747
 31
0.0
  0
LINE
  5
18E
330
1F
100
AcDbEntity
  8
0
  6
Continuous
 62
     7
100
AcDbLine
 10
6477.6202759058
 20
7913.8499716747
 30
0.0
 11
6475.5463085327
 21
7913.2942537919
 31
0.0
  0
LINE
  5
18F
330
1F
100
AcDbEntity
  8
0
  6
Continuous
 62
     7
100
AcDbLine
 10
6419.6106376198
 20
7898.5934369118
 30
0.0
 11
6419.6824128621
 21
7898.3255680609
 31
0.0
  0
LINE
  5
190
330
1F
100
AcDbEntity
  8
0
  6
Continuous
 62
     7
100
AcDbLine
 10
6419.6824128621
 20
7898.3255680609
 30
0.0
 11
6414.4660032673
 21
7896.9278353226
 31
0.0
  0
LINE
  5
191
330
1F
100
AcDbEntity
  8
0
  6
Continuous
 62
     7
100
AcDbLine
 10
6451.615596856
 20
7907.1691398929
 30
0.0
 11
6451.6873720982
 21
7906.9012710421
 31
0.0
  0
LINE
  5
192
330
1F
100
AcDbEntity
  8
0
  6
Continuous
 62
     7
100
AcDbLine
 10
6451.6873720982
 20
7906.9012710421
 30
0.0
 11
6445.218830703
 21
7905.168030599
 31
0.0
  0
LINE
  5
193
330
1F
100
AcDbEntity
  8
0
  6
Continuous
 62
     7
100
AcDbLine
 10
6451.6873720982
 20
7906.9012710421
 30
0.0
 11
6451.872191761
 21
7906.9507933214
 31
0.0
  0
LINE
  5
194
330
1F
100
AcDbEntity
  8
0
  6
Continuous
 62
     7
100
AcDbLine
 10
5663.5240159615
 20
8112.4560880836
 30
0.0
 11
5663.5240159615
 21
7777.4560880836
 31
0.0
  0
LINE
  5
195
330
1F
100
AcDbEntity
  8
0
  6
Continuous
 62
     7
100
AcDbLine
 10
5663.5240159615
 20
7630.0342963117
 30
0.0
 11
5663.5240159615
 21
7295.0342963117
 31
0.0
  0
LINE
  5
196
330
1F
100
AcDbEntity
  8
0
  6
Continuous
 62
     7
100
AcDbLine
 10
4972.0240159615
 20
7543.7842963117
 30
0.0
 11
4959.0240159615
 21
7543.7842963117
 31
0.0
  0
LINE
  5
197
330
1F
100
AcDbEntity
  8
0
  6
Continuous
 62
     7
100
AcDbLine
 10
4972.0240159615
 20
7526.2842963117
 30
0.0
 11
4959.0240159615
 21
7526.2842963117
 31
0.0
  0
LINE
  5
198
330
1F
100
AcDbEntity
  8
0
  6
Continuous
 62
     7
100
AcDbLine
 10
4957.5240159615
 20
7535.0342963117
 30
0.0
 11
4957.5240159615
 21
7517.5342963117
 31
0.0
  0
LINE
  5
199
330
1F
100
AcDbEntity
  8
0
  6
Continuous
 62
     7
100
AcDbLine
 10
4972.0240159615
 20
7508.7842963117
 30
0.0
 11
4959.0240159615
 21
7508.7842963117
 31
0.0
  0
LINE
  5
19A
330
1F
100
AcDbEntity
  8
0
  6
Continuous
 62
     7
100
AcDbLine
 10
4957.5240159615
 20
7517.5342963117
 30
0.0
 11
4957.5240159615
 21
7508.7842963117
 31
0.0
  0
LINE
  5
19B
330
1F
100
AcDbEntity
  8
0
  6
Continuous
 62
     7
100
AcDbLine
 10
4957.5240159615
 20
7543.7842963117
 30
0.0
 11
4957.5240159615
 21
7535.0342963117
 31
0.0
  0
LINE
  5
19C
330
1F
100
AcDbEntity
  8
0
  6
Continuous
 62
     7
100
AcDbLine
 10
4972.0240159615
 20
7415.0342963117
 30
0.0
 11
4959.0240159615
 21
7415.0342963117
 31
0.0
  0
LINE
  5
19D
330
1F
100
AcDbEntity
  8
0
  6
Continuous
 62
     7
100
AcDbLine
 10
4972.0240159615
 20
7397.5342963117
 30
0.0
 11
4959.0240159615
 21
7397.5342963117
 31
0.0
  0
LINE
  5
19E
330
1F
100
AcDbEntity
  8
0
  6
Continuous
 62
     7
100
AcDbLine
 10
4957.5240159615
 20
7406.2842963117
 30
0.0
 11
4957.5240159615
 21
7388.7842963117
 31
0.0
  0
LINE
  5
19F
330
1F
100
AcDbEntity
  8
0
  6
Continuous
 62
     7
100
AcDbLine
 10
4972.0240159615
 20
7380.0342963117
 30
0.0
 11
4959.0240159615
 21
7380.0342963117
 31
0.0
  0
LINE
  5
1A0
330
1F
100
AcDbEntity
  8
0
  6
Continuous
 62
     7
100
AcDbLine
 10
4957.5240159615
 20
7388.7842963117
 30
0.0
 11
4957.5240159615
 21
7380.0342963117
 31
0.0
  0
LINE
  5
1A1
330
1F
100
AcDbEntity
  8
0
  6
Continuous
 62
     7
100
AcDbLine
 10
4957.5240159615
 20
7415.0342963117
 30
0.0
 11
4957.5240159615
 21
7406.2842963117
 31
0.0
  0
LINE
  5
1A2
330
1F
100
AcDbEntity
  8
0
  6
Continuous
 62
     7
100
AcDbLine
 10
4950.0240159615
 20
7848.9850157909
 30
0.0
 11
4971.0240159615
 21
7848.9850157909
 31
0.0
  0
LINE
  5
1A3
330
1F
100
AcDbEntity
  8
0
  6
Continuous
 62
     7
100
AcDbLine
 10
4950.0240159615
 20
7875.5566338612
 30
0.0
 11
4971.0240159615
 21
7875.5566338612
 31
0.0
  0
LINE
  5
1A4
330
1F
100
AcDbEntity
  8
0
  6
Continuous
 62
     7
100
AcDbLine
 10
4947.5240159615
 20
7837.4568826491
 30
0.0
 11
4947.5240159615
 21
7862.270824826
 31
0.0
  0
LINE
  5
1A5
330
1F
100
AcDbEntity
  8
0
  6
Continuous
 62
     7
100
AcDbLine
 10
4950.0240159615
 20
7825.9287495072
 30
0.0
 11
4971.0240159615
 21
7825.9287495072
 31
0.0
  0
LINE
  5
1A6
330
1F
100
AcDbEntity
  8
0
  6
Continuous
 62
     7
100
AcDbLine
 10
4947.5240159615
 20
7877.3143097545
 30
0.0
 11
4947.5240159615
 21
7862.270824826
 31
0.0
  0
LINE
  5
1A7
330
1F
100
AcDbEntity
  8
0
  6
Continuous
 62
     7
100
AcDbLine
 10
4947.5240159615
 20
7827.5003675775
 30
0.0
 11
4947.5240159615
 21
7837.4568826491
 31
0.0
  0
LINE
  5
1A8
330
1F
100
AcDbEntity
  8
0
  6
Continuous
 62
     7
100
AcDbLine
 10
4947.5240159615
 20
7877.3143097545
 30
0.0
 11
4947.9798508979
 21
7877.687012899
 31
0.0
  0
LINE
  5
1A9
330
1F
100
AcDbEntity
  8
0
  6
Continuous
 62
     7
100
AcDbLine
 10
4950.0240159615
 20
7879.0719856478
 30
0.0
 11
4971.0240159615
 21
7879.0719856478
 31
0.0
  0
LINE
  5
1AA
330
1F
100
AcDbEntity
  8
0
  6
Continuous
 62
     7
100
AcDbLine
 10
4971.0240159615
 20
7879.0719856478
 30
0.0
 11
4972.5069200816
 21
7878.5233934975
 31
0.0
  0
LINE
  5
1AB
330
1F
100
AcDbEntity
  8
0
  6
Continuous
 62
     7
100
AcDbLine
 10
4947.5240159615
 20
7877.3143097545
 30
0.0
 11
4947.5240159615
 21
7877.5003675775
 31
0.0
  0
LINE
  5
1AC
330
1F
100
AcDbEntity
  8
0
  6
Continuous
 62
     7
100
AcDbLine
 10
4950.0240159615
 20
8033.8964568031
 30
0.0
 11
4971.0240159615
 21
8033.8964568031
 31
0.0
  0
LINE
  5
1AD
330
1F
100
AcDbEntity
  8
0
  6
Continuous
 62
     7
100
AcDbLine
 10
4950.0240159615
 20
8060.4680748734
 30
0.0
 11
4971.0240159615
 21
8060.4680748734
 31
0.0
  0
LINE
  5
1AE
330
1F
100
AcDbEntity
  8
0
  6
Continuous
 62
     7
100
AcDbLine
 10
4947.5240159615
 20
8022.3683236613
 30
0.0
 11
4947.5240159615
 21
8047.1822658383
 31
0.0
  0
LINE
  5
1AF
330
1F
100
AcDbEntity
  8
0
  6
Continuous
 62
     7
100
AcDbLine
 10
4950.0240159615
 20
8010.8401905195
 30
0.0
 11
4971.0240159615
 21
8010.8401905195
 31
0.0
  0
LINE
  5
1B0
330
1F
100
AcDbEntity
  8
0
  6
Continuous
 62
     7
100
AcDbLine
 10
4947.5240159615
 20
8062.2257507668
 30
0.0
 11
4947.5240159615
 21
8047.1822658383
 31
0.0
  0
LINE
  5
1B1
330
1F
100
AcDbEntity
  8
0
  6
Continuous
 62
     7
100
AcDbLine
 10
4947.5240159615
 20
8012.4118085898
 30
0.0
 11
4947.5240159615
 21
8022.3683236613
 31
0.0
  0
LINE
  5
1B2
330
1F
100
AcDbEntity
  8
0
  6
Continuous
 62
     7
100
AcDbLine
 10
4947.5240159615
 20
8062.2257507668
 30
0.0
 11
4947.9798508979
 21
8062.5984539113
 31
0.0
  0
LINE
  5
1B3
330
1F
100
AcDbEntity
  8
0
  6
Continuous
 62
     7
100
AcDbLine
 10
4950.0240159615
 20
8063.9834266601
 30
0.0
 11
4971.0240159615
 21
8063.9834266601
 31
0.0
  0
LINE
  5
1B4
330
1F
100
AcDbEntity
  8
0
  6
Continuous
 62
     7
100
AcDbLine
 10
4971.0240159615
 20
8063.9834266601
 30
0.0
 11
4972.5069200816
 21
8063.4348345098
 31
0.0
  0
LINE
  5
1B5
330
1F
100
AcDbEntity
  8
0
  6
Continuous
 62
     7
100
AcDbLine
 10
4947.5240159615
 20
8062.2257507668
 30
0.0
 11
4947.5240159615
 21
8062.4118085898
 31
0.0
  0
LINE
  5
1B6
330
1F
100
AcDbEntity
  8
0
  6
Continuous
 62
     7
100
AcDbLine
 10
4018.5240159615
 20
7867.5003675775
 30
0.0
 11
4018.5240159615
 21
7837.5003675775
 31
0.0
  0
LINE
  5
1B7
330
1F
100
AcDbEntity
  8
0
  6
Continuous
 62
     7
100
AcDbLine
 10
4013.5240159615
 20
7842.5003675775
 30
0.0
 11
4013.5240159615
 21
7862.5003675775
 31
0.0
  0
LINE
  5
1B8
330
1F
100
AcDbEntity
  8
0
  6
Continuous
 62
     7
100
AcDbLine
 10
4018.5240159615
 20
8022.5592936718
 30
0.0
 11
4018.5240159615
 21
8022.4118085898
 31
0.0
  0
LINE
  5
1B9
330
1F
100
AcDbEntity
  8
0
  6
Continuous
 62
     7
100
AcDbLine
 10
4018.5240159615
 20
8052.4118085898
 30
0.0
 11
4018.5240159615
 21
8022.5592936718
 31
0.0
  0
LINE
  5
1BA
330
1F
100
AcDbEntity
  8
0
  6
Continuous
 62
     7
100
AcDbLine
 10
4013.5240159615
 20
8027.4118085898
 30
0.0
 11
4013.5240159615
 21
8047.4118085898
 31
0.0
  0
LINE
  5
1BB
330
1F
100
AcDbEntity
  8
0
  6
Continuous
 62
     7
100
AcDbLine
 10
4011.2283345574
 20
7407.5342963117
 30
0.0
 11
4011.2283345574
 21
7387.5342963117
 31
0.0
  0
LINE
  5
1BC
330
1F
100
AcDbEntity
  8
0
  6
Continuous
 62
     7
100
AcDbLine
 10
4006.2283345574
 20
7392.5342963117
 30
0.0
 11
4006.2283345574
 21
7402.5342963117
 31
0.0
  0
LINE
  5
1BD
330
1F
100
AcDbEntity
  8
0
  6
Continuous
 62
     7
100
AcDbLine
 10
4011.2283345574
 20
7536.2842963117
 30
0.0
 11
4011.2283345574
 21
7516.2842963117
 31
0.0
  0
LINE
  5
1BE
330
1F
100
AcDbEntity
  8
0
  6
Continuous
 62
     7
100
AcDbLine
 10
4006.2283345574
 20
7521.2842963117
 30
0.0
 11
4006.2283345574
 21
7531.2842963117
 31
0.0
  0
LINE
  5
1BF
330
1F
100
AcDbEntity
  8
0
  6
Continuous
 62
     7
100
AcDbLine
 10
4973.5240159615
 20
8064.6850611281
 30
0.0
 11
4973.5240159615
 21
7744.9560880836
 31
0.0
  0
LINE
  5
1C0
330
1F
100
AcDbEntity
  8
0
  6
Continuous
 62
     7
100
AcDbLine
 10
4973.5240159615
 20
8144.9560880836
 30
0.0
 11
4973.5240159615
 21
8064.6850611281
 31
0.0
  0
LINE
  5
1C1
330
1F
100
AcDbEntity
  8
0
  6
Continuous
 62
     7
100
AcDbLine
 10
4988.5240159615
 20
8064.6850611281
 30
0.0
 11
4988.5240159615
 21
7744.9560880836
 31
0.0
  0
LINE
  5
1C2
330
1F
100
AcDbEntity
  8
0
  6
Continuous
 62
     7
100
AcDbLine
 10
4988.5240159615
 20
8144.9560880836
 30
0.0
 11
4988.5240159615
 21
8064.6850611281
 31
0.0
  0
LINE
  5
1C3
330
1F
100
AcDbEntity
  8
0
  6
Continuous
 62
     7
100
AcDbLine
 10
4988.5240159615
 20
7662.5342963117
 30
0.0
 11
4988.5240159615
 21
7262.5342963117
 31
0.0
  0
LINE
  5
1C4
330
1F
100
AcDbEntity
  8
0
  6
Continuous
 62
     7
100
AcDbLine
 10
4973.5240159615
 20
7662.5342963117
 30
0.0
 11
4973.5240159615
 21
7262.5342963117
 31
0.0
  0
LINE
  5
1C5
330
1F
100
AcDbEntity
  8
0
  6
Continuous
 62
     7
100
AcDbLine
 10
5717.9668772701
 20
7878.2060880836
 30
0.0
 11
5716.0240159615
 21
7878.2060880836
 31
0.0
  0
LINE
  5
1C6
330
1F
100
AcDbEntity
  8
0
  6
Continuous
 62
     7
100
AcDbLine
 10
5731.0240159615
 20
7878.2060880836
 30
0.0
 11
5717.9668772701
 21
7878.2060880836
 31
0.0
  0
LINE
  5
1C7
330
1F
100
AcDbEntity
  8
0
  6
Continuous
 62
     7
100
AcDbLine
 10
5683.5240159615
 20
7769.9560880836
 30
0.0
 11
5683.5240159615
 21
8119.9560880836
 31
0.0
  0
LINE
  5
1C8
330
1F
100
AcDbEntity
  8
0
  6
Continuous
 62
     7
100
AcDbLine
 10
5673.5240159615
 20
8119.9560880836
 30
0.0
 11
5673.5240159615
 21
7769.9560880836
 31
0.0
  0
LINE
  5
1C9
330
1F
100
AcDbEntity
  8
0
  6
Continuous
 62
     7
100
AcDbLine
 10
5688.5240159615
 20
8114.9560880836
 30
0.0
 11
5688.5240159615
 21
7774.9560880836
 31
0.0
  0
LINE
  5
1CA
330
1F
100
AcDbEntity
  8
0
  6
Continuous
 62
     7
100
AcDbLine
 10
6513.5240159615
 20
7923.7574507969
 30
0.0
 11
6513.5240159615
 21
8011.7060880836
 31
0.0
  0
LINE
  5
1CB
330
1F
100
AcDbEntity
  8
0
  6
Continuous
 62
     7
100
AcDbLine
 10
6343.5240159615
 20
7878.2060880836
 30
0.0
 11
6513.5240159615
 21
7923.7574507969
 31
0.0
  0
LINE
  5
1CC
330
1F
100
AcDbEntity
  8
0
  6
Continuous
 62
     7
100
AcDbLine
 10
6518.5240159615
 20
8006.7060880836
 30
0.0
 11
6518.5240159615
 21
7925.0971967591
 31
0.0
  0
LINE
  5
1CD
330
1F
100
AcDbEntity
  8
0
  6
Continuous
 62
     7
100
AcDbLine
 10
6518.5240159615
 20
7925.0971967591
 30
0.0
 11
6513.5240159615
 21
7923.7574507969
 31
0.0
  0
LINE
  5
1CE
330
1F
100
AcDbEntity
  8
0
  6
Continuous
 62
     7
100
AcDbLine
 10
2682.4829031136
 20
4768.4020836343
 30
0.0
 11
2682.4829031136
 21
4758.4020836343
 31
0.0
  0
LINE
  5
1CF
330
1F
100
AcDbEntity
  8
0
  6
Continuous
 62
     7
100
AcDbLine
 10
3017.4829031136
 20
4758.4020836343
 30
0.0
 11
3017.4829031136
 21
4768.4020836343
 31
0.0
  0
LINE
  5
1D0
330
1F
100
AcDbEntity
  8
0
  6
Continuous
 62
     7
100
AcDbLine
 10
2724.9829031136
 20
5443.4020836343
 30
0.0
 11
2724.9829031136
 21
4768.4020836343
 31
0.0
  0
LINE
  5
1D1
330
1F
100
AcDbEntity
  8
0
  6
Continuous
 62
     7
100
AcDbLine
 10
2974.9829031136
 20
4768.4020836343
 30
0.0
 11
2974.9829031136
 21
5443.4020836343
 31
0.0
  0
LINE
  5
1D2
330
1F
100
AcDbEntity
  8
0
  6
Continuous
 62
     7
100
AcDbLine
 10
2837.1211299407
 20
6418.4020836343
 30
0.0
 11
2832.1211299407
 21
6413.4020836343
 31
0.0
  0
LINE
  5
1D3
330
1F
100
AcDbEntity
  8
0
  6
Continuous
 62
     7
100
AcDbLine
 10
2832.1211299407
 20
6413.4020836343
 30
0.0
 11
2832.1211299407
 21
5484.4020836343
 31
0.0
  0
LINE
  5
1D4
330
1F
100
AcDbEntity
  8
0
  6
Continuous
 62
     7
100
AcDbLine
 10
2867.8446762865
 20
6413.4020836343
 30
0.0
 11
2862.8446762865
 21
6418.4020836343
 31
0.0
  0
LINE
  5
1D5
330
1F
100
AcDbEntity
  8
0
  6
Continuous
 62
     7
100
AcDbLine
 10
2842.8446762865
 20
6418.4020836343
 30
0.0
 11
2837.8446762865
 21
6413.4020836343
 31
0.0
  0
LINE
  5
1D6
330
1F
100
AcDbEntity
  8
0
  6
Continuous
 62
     7
100
AcDbLine
 10
2837.8446762865
 20
6413.4020836343
 30
0.0
 11
2837.8446762865
 21
5484.4020836343
 31
0.0
  0
LINE
  5
1D7
330
1F
100
AcDbEntity
  8
0
  6
Continuous
 62
     7
100
AcDbLine
 10
2867.8446762865
 20
5484.4020836343
 30
0.0
 11
2867.8446762865
 21
6413.4020836343
 31
0.0
  0
LINE
  5
1D8
330
1F
100
AcDbEntity
  8
0
  6
Continuous
 62
     7
100
AcDbLine
 10
2859.9829031136
 20
6420.6977650383
 30
0.0
 11
2854.9829031136
 21
6425.6977650383
 31
0.0
  0
LINE
  5
1D9
330
1F
100
AcDbEntity
  8
0
  6
Continuous
 62
     7
100
AcDbLine
 10
2844.9829031136
 20
6425.6977650383
 30
0.0
 11
2839.9829031136
 21
6420.6977650383
 31
0.0
  0
LINE
  5
1DA
330
1F
100
AcDbEntity
  8
0
  6
Continuous
 62
     7
100
AcDbLine
 10
2839.9829031136
 20
6420.6977650383
 30
0.0
 11
2839.9829031136
 21
6418.4020836343
 31
0.0
  0
LINE
  5
1DB
330
1F
100
AcDbEntity
  8
0
  6
Continuous
 62
     7
100
AcDbLine
 10
2859.9829031136
 20
6418.4020836343
 30
0.0
 11
2859.9829031136
 21
6420.6977650383
 31
0.0
  0
LINE
  5
1DC
330
1F
100
AcDbEntity
  8
0
  6
Continuous
 62
     7
100
AcDbLine
 10
2649.9829031136
 20
5458.4020836343
 30
0.0
 11
2649.9829031136
 21
5443.4020836343
 31
0.0
  0
LINE
  5
1DD
330
1F
100
AcDbEntity
  8
0
  6
Continuous
 62
     7
100
AcDbLine
 10
3049.9829031136
 20
5443.4020836343
 30
0.0
 11
3049.9829031136
 21
5458.4020836343
 31
0.0
  0
LINE
  5
1DE
330
1F
100
AcDbEntity
  8
0
  6
Continuous
 62
     7
100
AcDbLine
 10
3024.9829031136
 20
4748.4020836343
 30
0.0
 11
3024.9829031136
 21
4758.4020836343
 31
0.0
  0
LINE
  5
1DF
330
1F
100
AcDbEntity
  8
0
  6
Continuous
 62
     7
100
AcDbLine
 10
2674.9829031136
 20
4758.4020836343
 30
0.0
 11
2674.9829031136
 21
4748.4020836343
 31
0.0
  0
LINE
  5
1E0
330
1F
100
AcDbEntity
  8
0
  6
Continuous
 62
     7
100
AcDbLine
 10
2674.9829031136
 20
4748.4020836343
 30
0.0
 11
2679.9829031136
 21
4743.4020836343
 31
0.0
  0
LINE
  5
1E1
330
1F
100
AcDbEntity
  8
0
  6
Continuous
 62
     7
100
AcDbLine
 10
3019.9829031136
 20
4743.4020836343
 30
0.0
 11
3024.9829031136
 21
4748.4020836343
 31
0.0
  0
LINE
  5
1E2
330
1F
100
AcDbEntity
  8
0
  6
Continuous
 62
     7
100
AcDbLine
 10
2783.2329031136
 20
4743.4020836343
 30
0.0
 11
2783.2329031136
 21
3918.4020836343
 31
0.0
  0
LINE
  5
1E3
330
1F
100
AcDbEntity
  8
0
  6
Continuous
 62
     7
100
AcDbLine
 10
2916.7329031136
 20
3918.4020836343
 30
0.0
 11
2916.7329031136
 21
4743.4020836343
 31
0.0
  0
LINE
  5
1E4
330
1F
100
AcDbEntity
  8
0
  6
Continuous
 62
     7
100
AcDbLine
 10
2783.2329031136
 20
3918.4020836343
 30
0.0
 11
2788.2329031136
 21
3913.4020836343
 31
0.0
  0
LINE
  5
1E5
330
1F
100
AcDbEntity
  8
0
  6
Continuous
 62
     7
100
AcDbLine
 10
2911.7329031136
 20
3913.4020836343
 30
0.0
 11
2916.7329031136
 21
3918.4020836343
 31
0.0
  0
LINE
  5
1E6
330
1F
100
AcDbEntity
  8
0
  6
Continuous
 62
     7
100
AcDbLine
 10
3017.4829031136
 20
4768.4020836343
 30
0.0
 11
2682.4829031136
 21
4768.4020836343
 31
0.0
  0
LINE
  5
1E7
330
1F
100
AcDbEntity
  8
0
  6
Continuous
 62
     7
100
AcDbLine
 10
2826.1995497085
 20
5458.6687731906
 30
0.0
 11
2824.1094336721
 21
5458.4020836343
 31
0.0
  0
LINE
  5
1E8
330
1F
100
AcDbEntity
  8
0
  6
Continuous
 62
     7
100
AcDbLine
 10
2824.1094336721
 20
5484.4020836342
 30
0.0
 11
2826.9806089327
 21
5483.7439204598
 31
0.0
  0
LINE
  5
1E9
330
1F
100
AcDbEntity
  8
0
  6
Continuous
 62
     7
100
AcDbLine
 10
2827.8446762865
 20
5484.4020836343
 30
0.0
 11
2824.1094336721
 21
5484.4020836342
 31
0.0
  0
LINE
  5
1EA
330
1F
100
AcDbEntity
  8
0
  6
Continuous
 62
     7
100
AcDbLine
 10
2819.9560665766
 20
5459.72793846
 30
0.0
 11
2818.4684575496
 21
5460.9020836342
 31
0.0
  0
LINE
  5
1EB
330
1F
100
AcDbEntity
  8
0
  6
Continuous
 62
     7
100
AcDbLine
 10
2818.4684575496
 20
5481.9020836342
 30
0.0
 11
2818.4684575496
 21
5460.9020836342
 31
0.0
  0
LINE
  5
1EC
330
1F
100
AcDbEntity
  8
0
  6
Continuous
 62
     7
100
AcDbLine
 10
2822.1211299407
 20
5484.4020836343
 30
0.0
 11
2824.1094336721
 21
5484.4020836342
 31
0.0
  0
LINE
  5
1ED
330
1F
100
AcDbEntity
  8
0
  6
Continuous
 62
     7
100
AcDbLine
 10
2864.1266285315
 20
5481.9020836343
 30
0.0
 11
2864.1266285315
 21
5460.9020836342
 31
0.0
  0
LINE
  5
1EE
330
1F
100
AcDbEntity
  8
0
  6
Continuous
 62
     7
100
AcDbLine
 10
2881.4973486775
 20
5481.9020836343
 30
0.0
 11
2881.4973486775
 21
5460.9020836343
 31
0.0
  0
LINE
  5
1EF
330
1F
100
AcDbEntity
  8
0
  6
Continuous
 62
     7
100
AcDbLine
 10
2849.800292336
 20
5484.4020836343
 30
0.0
 11
2872.8119886045
 21
5484.4020836343
 31
0.0
  0
LINE
  5
1F0
330
1F
100
AcDbEntity
  8
0
  6
Continuous
 62
     7
100
AcDbLine
 10
2835.4739561405
 20
5481.9020836343
 30
0.0
 11
2835.4739561405
 21
5460.9020836343
 31
0.0
  0
LINE
  5
1F1
330
1F
100
AcDbEntity
  8
0
  6
Continuous
 62
     7
100
AcDbLine
 10
2849.800292336
 20
5484.4020836343
 30
0.0
 11
2829.832980018
 21
5484.4020836342
 31
0.0
  0
LINE
  5
1F2
330
1F
100
AcDbEntity
  8
0
  6
Continuous
 62
     7
100
AcDbLine
 10
2825.6796129225
 20
5459.72793846
 30
0.0
 11
2824.1920038954
 21
5460.9020836342
 31
0.0
  0
LINE
  5
1F3
330
1F
100
AcDbEntity
  8
0
  6
Continuous
 62
     7
100
AcDbLine
 10
2824.1920038954
 20
5481.9020836342
 30
0.0
 11
2824.1920038954
 21
5460.9020836342
 31
0.0
  0
LINE
  5
1F4
330
1F
100
AcDbEntity
  8
0
  6
Continuous
 62
     7
100
AcDbLine
 10
2880.0076316893
 20
5459.7262746812
 30
0.0
 11
2881.4973486775
 21
5460.9020836343
 31
0.0
  0
LINE
  5
1F5
330
1F
100
AcDbEntity
  8
0
  6
Continuous
 62
     7
100
AcDbLine
 10
2881.4973486775
 20
5481.9020836343
 30
0.0
 11
2880.0045751641
 21
5482.8409622712
 31
0.0
  0
LINE
  5
1F6
330
1F
100
AcDbEntity
  8
0
  6
Continuous
 62
     7
100
AcDbLine
 10
2872.8119886045
 20
5484.4020836343
 30
0.0
 11
2877.8446762865
 21
5484.4020836343
 31
0.0
  0
LINE
  5
1F7
330
1F
100
AcDbEntity
  8
0
  6
Continuous
 62
     7
100
AcDbLine
 10
2827.8446762865
 20
5484.4020836343
 30
0.0
 11
2829.832980018
 21
5484.4020836342
 31
0.0
  0
LINE
  5
1F8
330
1F
100
AcDbEntity
  8
0
  6
Continuous
 62
     7
100
AcDbLine
 10
2837.8446762865
 20
6413.4020836343
 30
0.0
 11
2832.1211299407
 21
6413.4020836343
 31
0.0
  0
LINE
  5
1F9
330
1F
100
AcDbEntity
  8
0
  6
Continuous
 62
     7
100
AcDbLine
 10
2837.1211299407
 20
6418.4020836343
 30
0.0
 11
2842.8446762865
 21
6418.4020836343
 31
0.0
  0
LINE
  5
1FA
330
1F
100
AcDbEntity
  8
0
  6
Continuous
 62
     7
100
AcDbLine
 10
2867.8446762865
 20
6413.4020836343
 30
0.0
 11
2837.8446762865
 21
6413.4020836343
 31
0.0
  0
LINE
  5
1FB
330
1F
100
AcDbEntity
  8
0
  6
Continuous
 62
     7
100
AcDbLine
 10
2842.8446762865
 20
6418.4020836343
 30
0.0
 11
2862.8446762865
 21
6418.4020836343
 31
0.0
  0
LINE
  5
1FC
330
1F
100
AcDbEntity
  8
0
  6
Continuous
 62
     7
100
AcDbLine
 10
2859.9829031136
 20
6420.6977650383
 30
0.0
 11
2839.9829031136
 21
6420.6977650383
 31
0.0
  0
LINE
  5
1FD
330
1F
100
AcDbEntity
  8
0
  6
Continuous
 62
     7
100
AcDbLine
 10
2844.9829031136
 20
6425.6977650383
 30
0.0
 11
2854.9829031136
 21
6425.6977650383
 31
0.0
  0
LINE
  5
1FE
330
1F
100
AcDbEntity
  8
0
  6
Continuous
 62
     7
100
AcDbLine
 10
2689.7799911122
 20
5458.4020836343
 30
0.0
 11
2649.9829031136
 21
5458.4020836343
 31
0.0
  0
LINE
  5
1FF
330
1F
100
AcDbEntity
  8
0
  6
Continuous
 62
     7
100
AcDbLine
 10
3049.9829031136
 20
5458.4020836343
 30
0.0
 11
2689.7799911122
 21
5458.4020836343
 31
0.0
  0
LINE
  5
200
330
1F
100
AcDbEntity
  8
0
  6
Continuous
 62
     7
100
AcDbLine
 10
2689.7799911122
 20
5443.4020836343
 30
0.0
 11
2649.9829031136
 21
5443.4020836343
 31
0.0
  0
LINE
  5
201
330
1F
100
AcDbEntity
  8
0
  6
Continuous
 62
     7
100
AcDbLine
 10
3049.9829031136
 20
5443.4020836343
 30
0.0
 11
2689.7799911122
 21
5443.4020836343
 31
0.0
  0
LINE
  5
202
330
1F
100
AcDbEntity
  8
0
  6
Continuous
 62
     7
100
AcDbLine
 10
2940.8179183885
 20
4733.4020836343
 30
0.0
 11
2916.7329031136
 21
4733.4020836343
 31
0.0
  0
LINE
  5
203
330
1F
100
AcDbEntity
  8
0
  6
Continuous
 62
     7
100
AcDbLine
 10
2783.2329031136
 20
4733.4020836343
 30
0.0
 11
2759.1478878386
 21
4733.4020836343
 31
0.0
  0
LINE
  5
204
330
1F
100
AcDbEntity
  8
0
  6
Continuous
 62
     7
100
AcDbLine
 10
2674.9829031136
 20
4748.4020836343
 30
0.0
 11
3024.9829031136
 21
4748.4020836343
 31
0.0
  0
LINE
  5
205
330
1F
100
AcDbEntity
  8
0
  6
Continuous
 62
     7
100
AcDbLine
 10
3024.9829031136
 20
4758.4020836343
 30
0.0
 11
2674.9829031136
 21
4758.4020836343
 31
0.0
  0
LINE
  5
206
330
1F
100
AcDbEntity
  8
0
  6
Continuous
 62
     7
100
AcDbLine
 10
3019.9829031136
 20
4743.4020836343
 30
0.0
 11
2679.9829031136
 21
4743.4020836343
 31
0.0
  0
LINE
  5
207
330
1F
100
AcDbEntity
  8
0
  6
Continuous
 62
     7
100
AcDbLine
 10
2783.2329031136
 20
3918.4020836343
 30
0.0
 11
2916.7329031136
 21
3918.4020836343
 31
0.0
  0
LINE
  5
208
330
1F
100
AcDbEntity
  8
0
  6
Continuous
 62
     7
100
AcDbLine
 10
2911.7329031136
 20
3913.4020836343
 30
0.0
 11
2788.2329031136
 21
3913.4020836343
 31
0.0
  0
LINE
  5
209
330
1F
100
AcDbEntity
  8
0
  6
Continuous
 62
     7
100
AcDbLine
 10
2844.562613043
 20
7527.458844432
 30
0.0
 11
2844.1774180255
 21
7571.7786231132
 31
0.0
  0
LINE
  5
20A
330
1F
100
AcDbEntity
  8
0
  6
Continuous
 62
     7
100
AcDbLine
 10
2803.7529041914
 20
7571.4272821478
 30
0.0
 11
2804.5719092639
 21
7477.2002084329
 31
0.0
  0
LINE
  5
20B
330
1F
100
AcDbEntity
  8
0
  6
Continuous
 62
     7
100
AcDbLine
 10
2772.8566968739
 20
7485.5251146628
 30
0.0
 11
2773.4456652701
 21
7417.7637139491
 31
0.0
  0
LINE
  5
20C
330
1F
100
AcDbEntity
  8
0
  6
Continuous
 62
     7
100
AcDbLine
 10
2853.1612259996
 20
7339.4220206783
 30
0.0
 11
2882.7504152158
 21
7339.6791588408
 31
0.0
  0
LINE
  5
20D
330
1F
100
AcDbEntity
  8
0
  6
Continuous
 62
     7
100
AcDbLine
 10
2939.1984174132
 20
7397.1170651234
 30
0.0
 11
2938.3469790319
 21
7495.0730147285
 31
0.0
  0
LINE
  5
20E
330
1F
100
AcDbEntity
  8
0
  6
Continuous
 62
     7
100
AcDbLine
 10
2921.2802635605
 20
7511.845361167
 30
0.0
 11
2915.1026612243
 21
7511.7916704207
 31
0.0
  0
LINE
  5
20F
330
1F
100
AcDbEntity
  8
0
  6
Continuous
 62
     7
100
AcDbLine
 10
2890.2098057892
 20
7523.4330163383
 30
0.0
 11
2882.9685865068
 21
7523.3700589332
 31
0.0
  0
LINE
  5
210
330
1F
100
AcDbEntity
  8
0
  6
Continuous
 62
     7
100
AcDbLine
 10
2858.123461353
 20
7529.5187902683
 30
0.0
 11
2852.4160372193
 21
7529.4691507758
 31
0.0
  0
LINE
  5
211
330
1F
100
AcDbEntity
  8
0
  6
Continuous
 62
     7
100
AcDbLine
 10
2848.511634396
 20
7512.6914679637
 30
0.0
 11
2848.8311711709
 21
7475.9299773362
 31
0.0
  0
LINE
  5
212
330
1F
100
AcDbEntity
  8
0
  6
Continuous
 62
     7
100
AcDbLine
 10
2859.2916931959
 20
7515.7866719749
 30
0.0
 11
2851.4867909259
 21
7515.7188251249
 31
0.0
  0
LINE
  5
213
330
1F
100
AcDbEntity
  8
0
  6
Continuous
 62
     7
100
AcDbLine
 10
2862.6385405672
 20
7476.0499782499
 30
0.0
 11
2862.3190037909
 21
7512.8114688774
 31
0.0
  0
LINE
  5
214
330
1F
100
AcDbEntity
  8
0
  6
Continuous
 62
     7
100
AcDbLine
 10
2879.0641836834
 20
7506.5923761212
 30
0.0
 11
2879.3283998972
 21
7476.1950317412
 31
0.0
  0
LINE
  5
215
330
1F
100
AcDbEntity
  8
0
  6
Continuous
 62
     7
100
AcDbLine
 10
2891.3779910659
 20
7509.7008980449
 30
0.0
 11
2882.0393402134
 21
7509.6197332824
 31
0.0
  0
LINE
  5
216
330
1F
100
AcDbEntity
  8
0
  6
Continuous
 62
     7
100
AcDbLine
 10
2894.6695644422
 20
7476.3283971337
 30
0.0
 11
2894.4053482272
 21
7506.7256949474
 31
0.0
  0
LINE
  5
217
330
1F
100
AcDbEntity
  8
0
  6
Continuous
 62
     7
100
AcDbLine
 10
2911.1947193747
 20
7495.4168311887
 30
0.0
 11
2911.3593772059
 21
7476.4734506249
 31
0.0
  0
LINE
  5
218
330
1F
100
AcDbEntity
  8
0
  6
Continuous
 62
     7
100
AcDbLine
 10
2922.4449563784
 20
7498.5161330187
 30
0.0
 11
2914.1699224722
 21
7498.4441883499
 31
0.0
  0
LINE
  5
219
330
1F
100
AcDbEntity
  8
0
  6
Continuous
 62
     7
100
AcDbLine
 10
2926.3287906193
 20
7397.0052124197
 30
0.0
 11
2925.4723463793
 21
7495.5410034597
 31
0.0
  0
LINE
  5
21A
330
1F
100
AcDbEntity
  8
0
  6
Continuous
 62
     7
100
AcDbLine
 10
2853.0493737006
 20
7352.2915543432
 30
0.0
 11
2882.6385629168
 21
7352.5487856382
 31
0.0
  0
LINE
  5
21B
330
1F
100
AcDbEntity
  8
0
  6
Continuous
 62
     7
100
AcDbLine
 10
2785.8321216865
 20
7473.4498457282
 30
0.0
 11
2786.3151987066
 21
7417.8755925269
 31
0.0
  0
LINE
  5
21C
330
1F
100
AcDbEntity
  8
0
  6
Continuous
 62
     7
100
AcDbLine
 10
2801.1581189934
 20
7430.3931463149
 30
0.0
 11
2800.9458240134
 21
7454.8224825049
 31
0.0
  0
LINE
  5
21D
330
1F
100
AcDbEntity
  8
0
  6
Continuous
 62
     7
100
AcDbLine
 10
2816.6224043822
 20
7571.5391337512
 30
0.0
 11
2817.8479783247
 21
7430.5381998062
 31
0.0
  0
LINE
  5
21E
330
1F
100
AcDbEntity
  8
0
  6
Continuous
 62
     7
100
AcDbLine
 10
2832.1413118397
 20
7475.7849238449
 30
0.0
 11
2831.3079178347
 21
7571.6667715099
 31
0.0
  0
LWPOLYLINE
  5
21F
330
1F
100
AcDbEntity
  8
0
  6
Continuous
 62
     7
100
AcDbPolyline
 90
        3
 70
   128
 43
0.0
 10
4957.5233459473
 20
7535.0342963117
 10
4957.9636119099
 20
7540.0061143326
 10
4959.0240159615
 20
7543.7842963117
  0
LWPOLYLINE
  5
220
330
1F
100
AcDbEntity
  8
0
  6
Continuous
 62
     7
100
AcDbPolyline
 90
        3
 70
   128
 43
0.0
 10
4959.0225219727
 20
7526.2842963117
 10
4957.8508128096
 20
7531.1574258224
 10
4957.5240159615
 20
7535.0342963117
  0
LWPOLYLINE
  5
221
330
1F
100
AcDbEntity
  8
0
  6
Continuous
 62
     7
100
AcDbPolyline
 90
        3
 70
   128
 43
0.0
 10
4957.5233459473
 20
7517.5342963117
 10
4957.96361191
 20
7522.5061143326
 10
4959.0240159615
 20
7526.2842963117
  0
LWPOLYLINE
  5
222
330
1F
100
AcDbEntity
  8
0
  6
Continuous
 62
     7
100
AcDbPolyline
 90
        3
 70
   128
 43
0.0
 10
4959.0225219727
 20
7508.7842963117
 10
4957.8508128096
 20
7513.6574258224
 10
4957.5240159615
 20
7517.5342963117
  0
LINE
  5
223
330
1F
100
AcDbEntity
  8
0
  6
Continuous
 62
     7
100
AcDbLine
 10
4957.5233459473
 20
7508.7842963117
 30
0.0
 11
4959.0240159615
 21
7508.7842963117
 31
0.0
  0
LINE
  5
224
330
1F
100
AcDbEntity
  8
0
  6
Continuous
 62
     7
100
AcDbLine
 10
4959.0225219727
 20
7543.7842963117
 30
0.0
 11
4957.5240159615
 21
7543.7842963117
 31
0.0
  0
LWPOLYLINE
  5
225
330
1F
100
AcDbEntity
  8
0
  6
Continuous
 62
     7
100
AcDbPolyline
 90
        3
 70
   128
 43
0.0
 10
4957.5233459473
 20
7406.2842963117
 10
4957.9636119099
 20
7411.2561143326
 10
4959.0240159615
 20
7415.0342963117
  0
LWPOLYLINE
  5
226
330
1F
100
AcDbEntity
  8
0
  6
Continuous
 62
     7
100
AcDbPolyline
 90
        3
 70
   128
 43
0.0
 10
4959.0225219727
 20
7397.5342963117
 10
4957.8508128096
 20
7402.4074258224
 10
4957.5240159615
 20
7406.2842963117
  0
LWPOLYLINE
  5
227
330
1F
100
AcDbEntity
  8
0
  6
Continuous
 62
     7
100
AcDbPolyline
 90
        3
 70
   128
 43
0.0
 10
4957.5233459473
 20
7388.7842963117
 10
4957.96361191
 20
7393.7561143326
 10
4959.0240159615
 20
7397.5342963117
  0
LWPOLYLINE
  5
228
330
1F
100
AcDbEntity
  8
0
  6
Continuous
 62
     7
100
AcDbPolyline
 90
        3
 70
   128
 43
0.0
 10
4959.0225219727
 20
7380.0342963117
 10
4957.8508128096
 20
7384.9074258224
 10
4957.5240159615
 20
7388.7842963117
  0
LINE
  5
229
330
1F
100
AcDbEntity
  8
0
  6
Continuous
 62
     7
100
AcDbLine
 10
4957.5233459473
 20
7380.0342963117
 30
0.0
 11
4959.0240159615
 21
7380.0342963117
 31
0.0
  0
LINE
  5
22A
330
1F
100
AcDbEntity
  8
0
  6
Continuous
 62
     7
100
AcDbLine
 10
4959.0225219727
 20
7415.0342963117
 30
0.0
 11
4957.5240159615
 21
7415.0342963117
 31
0.0
  0
LWPOLYLINE
  5
22B
330
1F
100
AcDbEntity
  8
0
  6
Continuous
 62
     7
100
AcDbPolyline
 90
        3
 70
   128
 43
0.0
 10
4973.5221862793
 20
7862.270824826
 10
4972.8665457604
 20
7854.6962917289
 10
4971.0240159615
 20
7848.9850157909
  0
LWPOLYLINE
  5
22C
330
1F
100
AcDbEntity
  8
0
  6
Continuous
 62
     7
100
AcDbPolyline
 90
        3
 70
   128
 43
0.0
 10
4950.023651123
 20
7848.9850157909
 10
4947.9463859201
 20
7856.3337164798
 10
4947.5240159615
 20
7862.270824826
  0
LWPOLYLINE
  5
22D
330
1F
100
AcDbEntity
  8
0
  6
Continuous
 62
     7
100
AcDbPolyline
 90
        3
 70
   128
 43
0.0
 10
4947.5212097168
 20
7862.270824826
 10
4948.1814861625
 20
7869.8453579232
 10
4950.0240159615
 20
7875.5566338612
  0
LWPOLYLINE
  5
22E
330
1F
100
AcDbEntity
  8
0
  6
Continuous
 62
     7
100
AcDbPolyline
 90
        3
 70
   128
 43
0.0
 10
4971.0235595703
 20
7875.5566338612
 10
4973.1016460028
 20
7868.2079331723
 10
4973.5240159615
 20
7862.270824826
  0
LWPOLYLINE
  5
22F
330
1F
100
AcDbEntity
  8
0
  6
Continuous
 62
     7
100
AcDbPolyline
 90
        3
 70
   128
 43
0.0
 10
4947.5212097168
 20
7837.4568826491
 10
4948.1814861625
 20
7844.0293259079
 10
4950.0240159615
 20
7848.9850157909
  0
LWPOLYLINE
  5
230
330
1F
100
AcDbEntity
  8
0
  6
Continuous
 62
     7
100
AcDbPolyline
 90
        3
 70
   128
 43
0.0
 10
4971.0235595703
 20
7848.9850157909
 10
4973.1016460028
 20
7842.6085279355
 10
4973.5240159615
 20
7837.4568826491
  0
LWPOLYLINE
  5
231
330
1F
100
AcDbEntity
  8
0
  6
Continuous
 62
     7
100
AcDbPolyline
 90
        3
 70
   128
 43
0.0
 10
4973.5221862793
 20
7837.4568826491
 10
4972.8665457604
 20
7830.8844393903
 10
4971.0240159615
 20
7825.9287495072
  0
LWPOLYLINE
  5
232
330
1F
100
AcDbEntity
  8
0
  6
Continuous
 62
     7
100
AcDbPolyline
 90
        3
 70
   128
 43
0.0
 10
4950.023651123
 20
7825.9287495072
 10
4947.9463859201
 20
7832.3052373626
 10
4947.5240159615
 20
7837.4568826491
  0
LWPOLYLINE
  5
233
330
1F
100
AcDbEntity
  8
0
  6
Continuous
 62
     7
100
AcDbPolyline
 90
        3
 70
   128
 43
0.0
 10
4973.5221862793
 20
7877.3143097545
 10
4972.8296768698
 20
7876.3065584615
 10
4971.0240159615
 20
7875.5566338612
  0
LWPOLYLINE
  5
234
330
1F
100
AcDbEntity
  8
0
  6
Continuous
 62
     7
100
AcDbPolyline
 90
        3
 70
   128
 43
0.0
 10
4950.023651123
 20
7875.5566338612
 10
4947.9163853524
 20
7876.5225616949
 10
4947.5240159615
 20
7877.3143097545
  0
LWPOLYLINE
  5
235
330
1F
100
AcDbEntity
  8
0
  6
Continuous
 62
     7
100
AcDbPolyline
 90
        3
 70
   128
 43
0.0
 10
4971.0235595703
 20
7825.9287495072
 10
4972.8313056902
 20
7826.6886995948
 10
4973.2097540175
 20
7827.312843111
  0
LWPOLYLINE
  5
236
330
1F
100
AcDbEntity
  8
0
  6
Continuous
 62
     7
100
AcDbPolyline
 90
        3
 70
   128
 43
0.0
 10
4947.9789733887
 20
7827.3143552503
 10
4948.5551069706
 20
7826.5195006856
 10
4950.0240159615
 20
7825.9287495072
  0
LWPOLYLINE
  5
237
330
1F
100
AcDbEntity
  8
0
  6
Continuous
 62
     7
100
AcDbPolyline
 90
        3
 70
   128
 43
0.0
 10
4949.333190918
 20
7878.7947290603
 10
4949.5920337267
 20
7878.9542687477
 10
4950.0240159615
 20
7879.0719856478
  0
LWPOLYLINE
  5
238
330
1F
100
AcDbEntity
  8
0
  6
Continuous
 62
     7
100
AcDbPolyline
 90
        3
 70
   128
 43
0.0
 10
4973.5221862793
 20
8047.1822658383
 10
4972.8665457604
 20
8039.6077327412
 10
4971.0240159615
 20
8033.8964568031
  0
LWPOLYLINE
  5
239
330
1F
100
AcDbEntity
  8
0
  6
Continuous
 62
     7
100
AcDbPolyline
 90
        3
 70
   128
 43
0.0
 10
4950.023651123
 20
8033.8964568031
 10
4947.9463859201
 20
8041.2451574921
 10
4947.5240159615
 20
8047.1822658383
  0
LWPOLYLINE
  5
23A
330
1F
100
AcDbEntity
  8
0
  6
Continuous
 62
     7
100
AcDbPolyline
 90
        3
 70
   128
 43
0.0
 10
4947.5212097168
 20
8047.1822658383
 10
4948.1814861625
 20
8054.7567989354
 10
4950.0240159615
 20
8060.4680748734
  0
LWPOLYLINE
  5
23B
330
1F
100
AcDbEntity
  8
0
  6
Continuous
 62
     7
100
AcDbPolyline
 90
        3
 70
   128
 43
0.0
 10
4971.0235595703
 20
8060.4680748734
 10
4973.1016460028
 20
8053.1193741845
 10
4973.5240159615
 20
8047.1822658383
  0
LWPOLYLINE
  5
23C
330
1F
100
AcDbEntity
  8
0
  6
Continuous
 62
     7
100
AcDbPolyline
 90
        3
 70
   128
 43
0.0
 10
4947.5212097168
 20
8022.3683236613
 10
4948.1814861625
 20
8028.9407669201
 10
4950.0240159615
 20
8033.8964568031
  0
LWPOLYLINE
  5
23D
330
1F
100
AcDbEntity
  8
0
  6
Continuous
 62
     7
100
AcDbPolyline
 90
        3
 70
   128
 43
0.0
 10
4971.0235595703
 20
8033.8964568031
 10
4973.1016460028
 20
8027.5199689478
 10
4973.5240159615
 20
8022.3683236613
  0
LWPOLYLINE
  5
23E
330
1F
100
AcDbEntity
  8
0
  6
Continuous
 62
     7
100
AcDbPolyline
 90
        3
 70
   128
 43
0.0
 10
4973.5221862793
 20
8022.3683236613
 10
4972.8665457604
 20
8015.7958804025
 10
4971.0240159615
 20
8010.8401905195
  0
LWPOLYLINE
  5
23F
330
1F
100
AcDbEntity
  8
0
  6
Continuous
 62
     7
100
AcDbPolyline
 90
        3
 70
   128
 43
0.0
 10
4950.023651123
 20
8010.8401905195
 10
4947.9463859201
 20
8017.2166783748
 10
4947.5240159615
 20
8022.3683236613
  0
LWPOLYLINE
  5
240
330
1F
100
AcDbEntity
  8
0
  6
Continuous
 62
     7
100
AcDbPolyline
 90
        3
 70
   128
 43
0.0
 10
4973.5221862793
 20
8062.2257507668
 10
4972.8296768698
 20
8061.2179994738
 10
4971.0240159615
 20
8060.4680748734
  0
LWPOLYLINE
  5
241
330
1F
100
AcDbEntity
  8
0
  6
Continuous
 62
     7
100
AcDbPolyline
 90
        3
 70
   128
 43
0.0
 10
4950.023651123
 20
8060.4680748734
 10
4947.9163853524
 20
8061.4340027071
 10
4947.5240159615
 20
8062.2257507668
  0
LWPOLYLINE
  5
242
330
1F
100
AcDbEntity
  8
0
  6
Continuous
 62
     7
100
AcDbPolyline
 90
        3
 70
   128
 43
0.0
 10
4971.0235595703
 20
8010.8401905195
 10
4972.8313056902
 20
8011.600140607
 10
4973.2097540175
 20
8012.2242841232
  0
LWPOLYLINE
  5
243
330
1F
100
AcDbEntity
  8
0
  6
Continuous
 62
     7
100
AcDbPolyline
 90
        3
 70
   128
 43
0.0
 10
4947.9789733887
 20
8012.2257962626
 10
4948.5551069706
 20
8011.4309416978
 10
4950.0240159615
 20
8010.8401905195
  0
LWPOLYLINE
  5
244
330
1F
100
AcDbEntity
  8
0
  6
Continuous
 62
     7
100
AcDbPolyline
 90
        3
 70
   128
 43
0.0
 10
4949.333190918
 20
8063.7061700725
 10
4949.5920337267
 20
8063.86570976
 10
4950.0240159615
 20
8063.9834266601
  0
LWPOLYLINE
  5
245
330
1F
100
AcDbEntity
  8
0
  6
Continuous
 62
     7
100
AcDbPolyline
 90
        3
 70
   128
 43
0.0
 10
2818.4680938721
 20
5481.9020836342
 10
2821.5886171882
 20
5483.9797136756
 10
2824.1094336721
 20
5484.4020836342
  0
LWPOLYLINE
  5
246
330
1F
100
AcDbEntity
  8
0
  6
Continuous
 62
     7
100
AcDbPolyline
 90
        3
 70
   128
 43
0.0
 10
2872.8103637695
 20
5458.4020836343
 10
2867.860273044
 20
5459.0595538353
 10
2864.1266285315
 20
5460.9020836342
  0
LWPOLYLINE
  5
247
330
1F
100
AcDbEntity
  8
0
  6
Continuous
 62
     7
100
AcDbPolyline
 90
        3
 70
   128
 43
0.0
 10
2864.1262054443
 20
5481.9020836343
 10
2868.9307101936
 20
5483.9797136756
 10
2872.8119886045
 20
5484.4020836343
  0
LWPOLYLINE
  5
248
330
1F
100
AcDbEntity
  8
0
  6
Continuous
 62
     7
100
AcDbPolyline
 90
        3
 70
   128
 43
0.0
 10
2872.8103637695
 20
5484.4020836343
 10
2877.7637041651
 20
5483.7446134332
 10
2881.4973486775
 20
5481.9020836343
  0
LWPOLYLINE
  5
249
330
1F
100
AcDbEntity
  8
0
  6
Continuous
 62
     7
100
AcDbPolyline
 90
        3
 70
   128
 43
0.0
 10
2881.4964294434
 20
5460.9020836343
 10
2876.6932670154
 20
5458.8244535929
 10
2872.8119886045
 20
5458.4020836343
  0
LWPOLYLINE
  5
24A
330
1F
100
AcDbEntity
  8
0
  6
Continuous
 62
     7
100
AcDbPolyline
 90
        3
 70
   128
 43
0.0
 10
2849.8001098633
 20
5484.4020836343
 10
2858.0141979139
 20
5483.7077445426
 10
2864.1266285315
 20
5481.9020836343
  0
LWPOLYLINE
  5
24B
330
1F
100
AcDbEntity
  8
0
  6
Continuous
 62
     7
100
AcDbPolyline
 90
        3
 70
   128
 43
0.0
 10
2864.1262054443
 20
5460.9020836342
 10
2856.2536145485
 20
5458.7944530252
 10
2849.800292336
 20
5458.4020836343
  0
LWPOLYLINE
  5
24C
330
1F
100
AcDbEntity
  8
0
  6
Continuous
 62
     7
100
AcDbPolyline
 90
        3
 70
   128
 43
0.0
 10
2835.4721069336
 20
5481.9020836343
 10
2843.3469701235
 20
5484.0097142433
 10
2849.800292336
 20
5484.4020836343
  0
LWPOLYLINE
  5
24D
330
1F
100
AcDbEntity
  8
0
  6
Continuous
 62
     7
100
AcDbPolyline
 90
        3
 70
   128
 43
0.0
 10
2849.8001098633
 20
5458.4020836343
 10
2841.5863867581
 20
5459.0964227259
 10
2835.4739561405
 20
5460.9020836343
  0
LWPOLYLINE
  5
24E
330
1F
100
AcDbEntity
  8
0
  6
Continuous
 62
     7
100
AcDbPolyline
 90
        3
 70
   128
 43
0.0
 10
2835.4721069336
 20
5460.9020836343
 10
2832.3537965019
 20
5458.8244535929
 10
2829.8329800179
 20
5458.4020836342
  0
LWPOLYLINE
  5
24F
330
1F
100
AcDbEntity
  8
0
  6
Continuous
 62
     7
100
AcDbPolyline
 90
        3
 70
   128
 43
0.0
 10
2829.8320770264
 20
5484.4020836342
 10
2833.0490250648
 20
5483.7446134332
 10
2835.4739561405
 20
5481.9020836343
  0
LWPOLYLINE
  5
250
330
1F
100
AcDbEntity
  8
0
  6
Continuous
 62
     7
100
AcDbPolyline
 90
        3
 70
   128
 43
0.0
 10
2824.1901397705
 20
5481.9020836342
 10
2827.312163534
 20
5483.9797136756
 10
2829.832980018
 20
5484.4020836342
  0
LWPOLYLINE
  5
251
330
1F
100
AcDbEntity
  8
0
  6
Continuous
 62
     7
100
AcDbPolyline
 90
       10
 70
   128
 43
0.0
 10
2949.7661590576
 20
4743.0775410162
 10
2949.8105235591
 20
4743.1283133339
 10
2949.8138097021
 20
4743.1322124795
 10
2949.8146991264
 20
4743.1332648248
 10
2949.8147045365
 20
4743.1332710348
 10
2949.8147004267
 20
4743.1332654919
 10
2949.8143708759
 20
4743.132871205
 10
2949.8075382575
 20
4743.1247404938
 10
2949.4110329732
 20
4742.6543248456
 10
2940.8179183885
 20
4733.4020836343
  0
LWPOLYLINE
  5
252
330
1F
100
AcDbEntity
  8
0
  6
Continuous
 62
     7
100
AcDbPolyline
 90
       12
 70
   128
 43
0.0
 10
2759.147644043
 20
4733.4020836343
 10
2750.5430604367
 20
4742.6681733438
 10
2750.1522129933
 20
4743.1321279271
 10
2750.1463933169
 20
4743.1390479184
 10
2750.1460700583
 20
4743.1394308535
 10
2750.1460567283
 20
4743.139446412
 10
2750.1460543177
 20
4743.1394491269
 10
2750.1460547276
 20
4743.1394484847
 10
2750.1461581038
 20
4743.1393241963
 10
2750.1464350906
 20
4743.1389932521
 10
2750.1513996985
 20
4743.1330762602
 10
2750.1980324351
 20
4743.0775410162
  0
LWPOLYLINE
  5
253
330
1F
100
AcDbEntity
  8
0
  6
Continuous
 62
     7
100
AcDbPolyline
 90
        3
 70
   128
 43
0.0
 10
2940.8168792725
 20
4733.4020836343
 10
2928.0124671992
 20
4722.3272971727
 10
2916.7329031136
 20
4715.3629423807
  0
LWPOLYLINE
  5
254
330
1F
100
AcDbEntity
  8
0
  6
Continuous
 62
     7
100
AcDbPolyline
 90
        3
 70
   128
 43
0.0
 10
2783.2317352295
 20
4715.1498976711
 10
2769.1283588707
 20
4724.4378484722
 10
2759.1478878386
 20
4733.4020836343
  0
ENDSEC
  0
SECTION
  2
OBJECTS
  0
DICTIONARY
  5
C
330
0
100
AcDbDictionary
281
     1
  3
ACAD_GROUP
350
D
  3
ACAD_LAYOUT
350
1A
  3
ACAD_MLINESTYLE
350
17
  3
ACAD_PLOTSETTINGS
350
19
  3
ACAD_PLOTSTYLENAME
350
E
  3
ACAD_SCALELIST
350
47
  3
DWGPROPS
350
255
  0
DICTIONARY
  5
D
102
{ACAD_REACTORS
330
C
102
}
330
C
100
AcDbDictionary
281
     1
  0
DICTIONARY
  5
1A
102
{ACAD_REACTORS
330
C
102
}
330
C
100
AcDbDictionary
281
     1
  3
Layout1
350
1E
  3
Layout2
350
26
  3
Model
350
22
  0
DICTIONARY
  5
17
102
{ACAD_REACTORS
330
C
102
}
330
C
100
AcDbDictionary
281
     1
  3
Standard
350
18
  0
DICTIONARY
  5
19
102
{ACAD_REACTORS
330
C
102
}
330
C
100
AcDbDictionary
281
     1
  0
ACDBDICTIONARYWDFLT
  5
E
102
{ACAD_REACTORS
330
C
102
}
330
C
100
AcDbDictionary
281
     1
  3
Normal
350
F
100
AcDbDictionaryWithDefault
340
F
  0
DICTIONARY
  5
47
102
{ACAD_REACTORS
330
C
102
}
330
C
100
AcDbDictionary
281
     1
  3
A0
350
48
  3
A1
350
49
  3
A2
350
4A
  3
A3
350
4B
  3
A4
350
4C
  3
A5
350
4D
  3
A6
350
4E
  3
A7
350
4F
  3
A8
350
50
  3
A9
350
51
  3
B0
350
52
  3
B1
350
53
  3
B2
350
54
  3
B3
350
55
  3
B4
350
56
  3
B5
350
57
  3
B6
350
58
  3
B7
350
59
  3
B8
350
5A
  3
B9
350
5B
  3
C0
350
5C
  3
C1
350
5D
  3
C2
350
5E
  3
C3
350
5F
  3
C4
350
60
  3
C5
350
61
  3
C6
350
62
  3
C7
350
63
  3
C8
350
64
  3
C9
350
65
  3
D0
350
66
  3
D1
350
67
  3
D2
350
68
  0
XRECORD
  5
255
102
{ACAD_REACTORS
330
C
102
}
330
C
100
AcDbXrecord
280
     1
  1
DWGPROPS COOKIE
  2

  3

  4

  6

  7

  8
radek.stransky
  9

300
=
301
=
302
=
303
=
304
=
305
=
306
=
307
=
308
=
309
=
 40
0.0
 41
2459093.446992002
 42
2459093.447019803
  1

 90
        0
  0
LAYOUT
  5
1E
102
{ACAD_REACTORS
330
1A
102
}
330
1A
100
AcDbPlotSettings
  1

  2
none_device
  4

  6

 40
0.0
 41
0.0
 42
0.0
 43
0.0
 44
0.0
 45
0.0
 46
0.0
 47
0.0
 48
0.0
 49
0.0
140
0.0
141
0.0
142
1.0
143
1.0
 70
   688
 72
     1
 73
     0
 74
     5
  7

 75
    16
147
1.0
148
0.0
149
0.0
100
AcDbLayout
  1
Layout1
 70
     1
 71
     1
 10
0.0
 20
0.0
 11
420.0
 21
297.0
 12
0.0
 22
0.0
 32
0.0
 14
1.0000000000E+20
 24
1.0000000000E+20
 34
1.0000000000E+20
 15
-1.0000000000E+20
 25
-1.0000000000E+20
 35
-1.0000000000E+20
146
0.0
 13
0.0
 23
0.0
 33
0.0
 16
1.0
 26
0.0
 36
0.0
 17
0.0
 27
1.0
 37
0.0
 76
     0
330
1B
  0
LAYOUT
  5
26
102
{ACAD_REACTORS
330
1A
102
}
330
1A
100
AcDbPlotSettings
  1

  2
none_device
  4

  6

 40
0.0
 41
0.0
 42
0.0
 43
0.0
 44
0.0
 45
0.0
 46
0.0
 47
0.0
 48
0.0
 49
0.0
140
0.0
141
0.0
142
1.0
143
1.0
 70
   688
 72
     1
 73
     0
 74
     5
  7

 75
    16
147
1.0
148
0.0
149
0.0
100
AcDbLayout
  1
Layout2
 70
     1
 71
     2
 10
0.0
 20
0.0
 11
0.0
 21
0.0
 12
0.0
 22
0.0
 32
0.0
 14
0.0
 24
0.0
 34
0.0
 15
0.0
 25
0.0
 35
0.0
146
0.0
 13
0.0
 23
0.0
 33
0.0
 16
1.0
 26
0.0
 36
0.0
 17
0.0
 27
1.0
 37
0.0
 76
     0
330
23
  0
LAYOUT
  5
22
102
{ACAD_REACTORS
330
1A
102
}
330
1A
100
AcDbPlotSettings
  1

  2
none_device
  4
ANSI_A_(11.00_x_8.50_Inches)
  6

 40
6.35
 41
19.05
 42
6.35000508
 43
19.05000254
 44
279.4
 45
215.9
 46
-98.2062860389
 47
-215.6412562405
 48
0.0
 49
0.0
140
0.0
141
0.0
142
0.0019886311
143
1.0
 70
  1696
 72
     0
 73
     0
 74
     0
  7

 75
     0
147
0.0179189148
148
-1300.4909072572
149
0.0
100
AcDbLayout
  1
Model
 70
     1
 71
     0
 10
0.0
 20
0.0
 11
420.0
 21
297.0
 12
0.0
 22
0.0
 32
0.0
 14
2649.9829031136
 24
3913.4020836343
 34
0.0
 15
6518.5240159615
 25
8144.9560880836
 35
0.0
146
0.0
 13
0.0
 23
0.0
 33
0.0
 16
1.0
 26
0.0
 36
0.0
 17
0.0
 27
1.0
 37
0.0
 76
     0
330
1F
331
29
  0
MLINESTYLE
  5
18
102
{ACAD_REACTORS
330
17
102
}
330
17
100
AcDbMlineStyle
  2
Standard
 70
     0
  3

 62
   256
 51
90.0
 52
90.0
 71
     2
 49
0.5
 62
   256
  6
BYLAYER
 49
-0.5
 62
   256
  6
BYLAYER
  0
ACDBPLACEHOLDER
  5
F
102
{ACAD_REACTORS
330
E
102
}
330
E
  0
SCALE
  5
48
102
{ACAD_REACTORS
330
47
102
}
330
47
100
AcDbScale
 70
     0
300
1:1
140
1.0
141
1.0
290
     1
  0
SCALE
  5
49
102
{ACAD_REACTORS
330
47
102
}
330
47
100
AcDbScale
 70
     0
300
1:2
140
1.0
141
2.0
290
     0
  0
SCALE
  5
4A
102
{ACAD_REACTORS
330
47
102
}
330
47
100
AcDbScale
 70
     0
300
1:4
140
1.0
141
4.0
290
     0
  0
SCALE
  5
4B
102
{ACAD_REACTORS
330
47
102
}
330
47
100
AcDbScale
 70
     0
300
1:5
140
1.0
141
5.0
290
     0
  0
SCALE
  5
4C
102
{ACAD_REACTORS
330
47
102
}
330
47
100
AcDbScale
 70
     0
300
1:8
140
1.0
141
8.0
290
     0
  0
SCALE
  5
4D
102
{ACAD_REACTORS
330
47
102
}
330
47
100
AcDbScale
 70
     0
300
1:10
140
1.0
141
10.0
290
     0
  0
SCALE
  5
4E
102
{ACAD_REACTORS
330
47
102
}
330
47
100
AcDbScale
 70
     0
300
1:16
140
1.0
141
16.0
290
     0
  0
SCALE
  5
4F
102
{ACAD_REACTORS
330
47
102
}
330
47
100
AcDbScale
 70
     0
300
1:20
140
1.0
141
20.0
290
     0
  0
SCALE
  5
50
102
{ACAD_REACTORS
330
47
102
}
330
47
100
AcDbScale
 70
     0
300
1:30
140
1.0
141
30.0
290
     0
  0
SCALE
  5
51
102
{ACAD_REACTORS
330
47
102
}
330
47
100
AcDbScale
 70
     0
300
1:40
140
1.0
141
40.0
290
     0
  0
SCALE
  5
52
102
{ACAD_REACTORS
330
47
102
}
330
47
100
AcDbScale
 70
     0
300
1:50
140
1.0
141
50.0
290
     0
  0
SCALE
  5
53
102
{ACAD_REACTORS
330
47
102
}
330
47
100
AcDbScale
 70
     0
300
1:100
140
1.0
141
100.0
290
     0
  0
SCALE
  5
54
102
{ACAD_REACTORS
330
47
102
}
330
47
100
AcDbScale
 70
     0
300
2:1
140
2.0
141
1.0
290
     0
  0
SCALE
  5
55
102
{ACAD_REACTORS
330
47
102
}
330
47
100
AcDbScale
 70
     0
300
4:1
140
4.0
141
1.0
290
     0
  0
SCALE
  5
56
102
{ACAD_REACTORS
330
47
102
}
330
47
100
AcDbScale
 70
     0
300
8:1
140
8.0
141
1.0
290
     0
  0
SCALE
  5
57
102
{ACAD_REACTORS
330
47
102
}
330
47
100
AcDbScale
 70
     0
300
10:1
140
10.0
141
1.0
290
     0
  0
SCALE
  5
58
102
{ACAD_REACTORS
330
47
102
}
330
47
100
AcDbScale
 70
     0
300
100:1
140
100.0
141
1.0
290
     0
  0
SCALE
  5
59
102
{ACAD_REACTORS
330
47
102
}
330
47
100
AcDbScale
 70
     0
300
1/128" = 1'-0"
140
0.0078125
141
12.0
290
     0
  0
SCALE
  5
5A
102
{ACAD_REACTORS
330
47
102
}
330
47
100
AcDbScale
 70
     0
300
1/64" = 1'-0"
140
0.015625
141
12.0
290
     0
  0
SCALE
  5
5B
102
{ACAD_REACTORS
330
47
102
}
330
47
100
AcDbScale
 70
     0
300
1/32" = 1'-0"
140
0.03125
141
12.0
290
     0
  0
SCALE
  5
5C
102
{ACAD_REACTORS
330
47
102
}
330
47
100
AcDbScale
 70
     0
300
1/16" = 1'-0"
140
0.0625
141
12.0
290
     0
  0
SCALE
  5
5D
102
{ACAD_REACTORS
330
47
102
}
330
47
100
AcDbScale
 70
     0
300
3/32" = 1'-0"
140
0.09375
141
12.0
290
     0
  0
SCALE
  5
5E
102
{ACAD_REACTORS
330
47
102
}
330
47
100
AcDbScale
 70
     0
300
1/8" = 1'-0"
140
0.125
141
12.0
290
     0
  0
SCALE
  5
5F
102
{ACAD_REACTORS
330
47
102
}
330
47
100
AcDbScale
 70
     0
300
3/16" = 1'-0"
140
0.1875
141
12.0
290
     0
  0
SCALE
  5
60
102
{ACAD_REACTORS
330
47
102
}
330
47
100
AcDbScale
 70
     0
300
1/4" = 1'-0"
140
0.25
141
12.0
290
     0
  0
SCALE
  5
61
102
{ACAD_REACTORS
330
47
102
}
330
47
100
AcDbScale
 70
     0
300
3/8" = 1'-0"
140
0.375
141
12.0
290
     0
  0
SCALE
  5
62
102
{ACAD_REACTORS
330
47
102
}
330
47
100
AcDbScale
 70
     0
300
1/2" = 1'-0"
140
0.5
141
12.0
290
     0
  0
SCALE
  5
63
102
{ACAD_REACTORS
330
47
102
}
330
47
100
AcDbScale
 70
     0
300
3/4" = 1'-0"
140
0.75
141
12.0
290
     0
  0
SCALE
  5
64
102
{ACAD_REACTORS
330
47
102
}
330
47
100
AcDbScale
 70
     0
300
1" = 1'-0"
140
1.0
141
12.0
290
     0
  0
SCALE
  5
65
102
{ACAD_REACTORS
330
47
102
}
330
47
100
AcDbScale
 70
     0
300
1-1/2" = 1'-0"
140
1.5
141
12.0
290
     0
  0
SCALE
  5
66
102
{ACAD_REACTORS
330
47
102
}
330
47
100
AcDbScale
 70
     0
300
3" = 1'-0"
140
3.0
141
12.0
290
     0
  0
SCALE
  5
67
102
{ACAD_REACTORS
330
47
102
}
330
47
100
AcDbScale
 70
     0
300
6" = 1'-0"
140
6.0
141
12.0
290
     0
  0
SCALE
  5
68
102
{ACAD_REACTORS
330
47
102
}
330
47
100
AcDbScale
 70
     0
300
1'-0" = 1'-0"
140
12.0
141
12.0
290
     0
  0
ENDSEC
  0
EOF
