  0
SECTION
  2
HEADER
  9
$ACADVER
  1
AC1015
  9
$ACADMAINTVER
 70
     6
  9
$DWGCODEPAGE
  3
ANSI_1250
  9
$INSBASE
 10
0.0
 20
0.0
 30
0.0
  9
$EXTMIN
 10
0.0
 20
0.0
 30
0.0
  9
$EXTMAX
 10
20000.0
 20
10000.0
 30
0.0
  9
$LIMMIN
 10
0.0
 20
0.0
  9
$LIMMAX
 10
20000.0
 20
10000.0
  9
$ORTHOMODE
 70
     0
  9
$REGENMODE
 70
     1
  9
$FILLMODE
 70
     1
  9
$QTEXTMODE
 70
     0
  9
$MIRRTEXT
 70
     1
  9
$LTSCALE
 40
1.0
  9
$ATTMODE
 70
     1
  9
$TEXTSIZE
 40
2.0
  9
$TRACEWID
 40
1.0
  9
$TEXTSTYLE
  7
Standard
  9
$CLAYER
  8
0
  9
$CELTYPE
  6
ByLayer
  9
$CECOLOR
 62
   256
  9
$CELTSCALE
 40
1.0
  9
$DISPSILH
 70
     0
  9
$DIMSCALE
 40
1.0
  9
$DIMASZ
 40
2.0
  9
$DIMEXO
 40
1.0
  9
$DIMDLI
 40
3.75
  9
$DIMRND
 40
0.0
  9
$DIMDLE
 40
0.0
  9
$DIMEXE
 40
1.0
  9
$DIMTP
 40
0.0
  9
$DIMTM
 40
0.0
  9
$DIMTXT
 40
2.0
  9
$DIMCEN
 40
2.5
  9
$DIMTSZ
 40
0.0
  9
$DIMTOL
 70
     0
  9
$DIMLIM
 70
     0
  9
$DIMTIH
 70
     1
  9
$DIMTOH
 70
     1
  9
$DIMSE1
 70
     0
  9
$DIMSE2
 70
     0
  9
$DIMTAD
 70
     1
  9
$DIMZIN
 70
     0
  9
$DIMBLK
  1

  9
$DIMASO
 70
     1
  9
$DIMSHO
 70
     1
  9
$DIMPOST
  1

  9
$DIMAPOST
  1

  9
$DIMALT
 70
     0
  9
$DIMALTD
 70
     3
  9
$DIMALTF
 40
0.0393700787
  9
$DIMLFAC
 40
1.0
  9
$DIMTOFL
 70
     1
  9
$DIMTVP
 40
0.0
  9
$DIMTIX
 70
     0
  9
$DIMSOXD
 70
     0
  9
$DIMSAH
 70
     0
  9
$DIMBLK1
  1

  9
$DIMBLK2
  1

  9
$DIMSTYLE
  2
ISO-25
  9
$DIMCLRD
 70
     0
  9
$DIMCLRE
 70
     0
  9
$DIMCLRT
 70
     0
  9
$DIMTFAC
 40
1.0
  9
$DIMGAP
 40
1.524
  9
$DIMJUST
 70
     0
  9
$DIMSD1
 70
     0
  9
$DIMSD2
 70
     0
  9
$DIMTOLJ
 70
     0
  9
$DIMTZIN
 70
     0
  9
$DIMALTZ
 70
     0
  9
$DIMALTTZ
 70
     0
  9
$DIMUPT
 70
     0
  9
$DIMDEC
 70
     2
  9
$DIMTDEC
 70
     0
  9
$DIMALTU
 70
     2
  9
$DIMALTTD
 70
     3
  9
$DIMTXSTY
  7
Standard
  9
$DIMAUNIT
 70
     0
  9
$DIMADEC
 70
     2
  9
$DIMALTRND
 40
0.0
  9
$DIMAZIN
 70
     0
  9
$DIMDSEP
 70
    44
  9
$DIMATFIT
 70
     3
  9
$DIMFRAC
 70
     0
  9
$DIMLDRBLK
  1

  9
$DIMLUNIT
 70
     2
  9
$DIMLWD
 70
    -2
  9
$DIMLWE
 70
    -2
  9
$DIMTMOVE
 70
     0
  9
$LUNITS
 70
     2
  9
$LUPREC
 70
     3
  9
$SKETCHINC
 40
1.0
  9
$FILLETRAD
 40
10.0
  9
$AUNITS
 70
     0
  9
$AUPREC
 70
     2
  9
$MENU
  1
.
  9
$ELEVATION
 40
0.0
  9
$PELEVATION
 40
0.0
  9
$THICKNESS
 40
0.0
  9
$LIMCHECK
 70
     0
  9
$CHAMFERA
 40
0.0
  9
$CHAMFERB
 40
0.0
  9
$CHAMFERC
 40
0.0
  9
$CHAMFERD
 40
0.0
  9
$SKPOLY
 70
     0
  9
$TDCREATE
 40
2458673.528754201
  9
$TDUCREATE
 40
2458673.445420868
  9
$TDUPDATE
 40
2458673.52875529
  9
$TDUUPDATE
 40
2458673.445421956
  9
$TDINDWG
 40
0.0000000116
  9
$TDUSRTIMER
 40
0.0000000116
  9
$USRTIMER
 70
     1
  9
$ANGBASE
 50
0.0
  9
$ANGDIR
 70
     0
  9
$PDMODE
 70
     0
  9
$PDSIZE
 40
-1.0
  9
$PLINEWID
 40
0.0
  9
$SPLFRAME
 70
     0
  9
$SPLINETYPE
 70
     6
  9
$SPLINESEGS
 70
     8
  9
$HANDSEED
  5
2A6
  9
$SURFTAB1
 70
     6
  9
$SURFTAB2
 70
     6
  9
$SURFTYPE
 70
     6
  9
$SURFU
 70
     6
  9
$SURFV
 70
     6
  9
$UCSBASE
  2

  9
$UCSNAME
  2

  9
$UCSORG
 10
0.0
 20
0.0
 30
0.0
  9
$UCSXDIR
 10
1.0
 20
0.0
 30
0.0
  9
$UCSYDIR
 10
0.0
 20
1.0
 30
0.0
  9
$UCSORTHOREF
  2

  9
$UCSORTHOVIEW
 70
     0
  9
$UCSORGTOP
 10
0.0
 20
0.0
 30
0.0
  9
$UCSORGBOTTOM
 10
0.0
 20
0.0
 30
0.0
  9
$UCSORGLEFT
 10
0.0
 20
0.0
 30
0.0
  9
$UCSORGRIGHT
 10
0.0
 20
0.0
 30
0.0
  9
$UCSORGFRONT
 10
0.0
 20
0.0
 30
0.0
  9
$UCSORGBACK
 10
0.0
 20
0.0
 30
0.0
  9
$PUCSBASE
  2

  9
$PUCSNAME
  2

  9
$PUCSORG
 10
0.0
 20
0.0
 30
0.0
  9
$PUCSXDIR
 10
1.0
 20
0.0
 30
0.0
  9
$PUCSYDIR
 10
0.0
 20
1.0
 30
0.0
  9
$PUCSORTHOREF
  2

  9
$PUCSORTHOVIEW
 70
     0
  9
$PUCSORGTOP
 10
0.0
 20
0.0
 30
0.0
  9
$PUCSORGBOTTOM
 10
0.0
 20
0.0
 30
0.0
  9
$PUCSORGLEFT
 10
0.0
 20
0.0
 30
0.0
  9
$PUCSORGRIGHT
 10
0.0
 20
0.0
 30
0.0
  9
$PUCSORGFRONT
 10
0.0
 20
0.0
 30
0.0
  9
$PUCSORGBACK
 10
0.0
 20
0.0
 30
0.0
  9
$USERI1
 70
     0
  9
$USERI2
 70
     0
  9
$USERI3
 70
     0
  9
$USERI4
 70
     0
  9
$USERI5
 70
     0
  9
$USERR1
 40
0.0
  9
$USERR2
 40
0.0
  9
$USERR3
 40
0.0
  9
$USERR4
 40
0.0
  9
$USERR5
 40
0.0
  9
$WORLDVIEW
 70
     1
  9
$SHADEDGE
 70
     3
  9
$SHADEDIF
 70
    70
  9
$TILEMODE
 70
     1
  9
$MAXACTVP
 70
    64
  9
$PINSBASE
 10
0.0
 20
0.0
 30
0.0
  9
$PLIMCHECK
 70
     0
  9
$PEXTMIN
 10
1.0000000000E+20
 20
1.0000000000E+20
 30
1.0000000000E+20
  9
$PEXTMAX
 10
-1.0000000000E+20
 20
-1.0000000000E+20
 30
-1.0000000000E+20
  9
$PLIMMIN
 10
0.0
 20
0.0
  9
$PLIMMAX
 10
420.0
 20
297.0
  9
$UNITMODE
 70
     0
  9
$VISRETAIN
 70
     1
  9
$PLINEGEN
 70
     0
  9
$PSLTSCALE
 70
     1
  9
$TREEDEPTH
 70
  3020
  9
$CMLSTYLE
  2
Standard
  9
$CMLJUST
 70
     0
  9
$CMLSCALE
 40
20.0
  9
$PROXYGRAPHICS
 70
     1
  9
$MEASUREMENT
 70
     1
  9
$CELWEIGHT
370
    -1
  9
$ENDCAPS
280
     0
  9
$JOINSTYLE
280
     0
  9
$LWDISPLAY
290
     1
  9
$INSUNITS
 70
     4
  9
$HYPERLINKBASE
  1

  9
$STYLESHEET
  1

  9
$XEDIT
290
     1
  9
$CEPSNTYPE
380
     0
  9
$PSTYLEMODE
290
     1
  9
$FINGERPRINTGUID
  2
{84C5A203-4492-4F52-9FE9-648047D72542}
  9
$VERSIONGUID
  2
{FAEB1C32-E019-11D5-929B-00C0DF256EC4}
  9
$EXTNAMES
290
     1
  9
$PSVPSCALE
 40
0.0
  9
$OLESTARTUP
290
     0
  0
ENDSEC
  0
SECTION
  2
CLASSES
  0
CLASS
  1
ACDBDICTIONARYWDFLT
  2
AcDbDictionaryWithDefault
  3
ObjectDBX Classes
 90
        0
280
     0
281
     0
  0
CLASS
  1
VISUALSTYLE
  2
AcDbVisualStyle
  3
ObjectDBX Classes
 90
     4095
280
     0
281
     0
  0
CLASS
  1
MATERIAL
  2
AcDbMaterial
  3
ObjectDBX Classes
 90
     1153
280
     0
281
     0
  0
CLASS
  1
SCALE
  2
AcDbScale
  3
ObjectDBX Classes
 90
     1153
280
     0
281
     0
  0
CLASS
  1
TABLESTYLE
  2
AcDbTableStyle
  3
ObjectDBX Classes
 90
     4095
280
     0
281
     0
  0
CLASS
  1
MLEADERSTYLE
  2
AcDbMLeaderStyle
  3
ACDB_MLEADERSTYLE_CLASS
 90
     4095
280
     0
281
     0
  0
CLASS
  1
SUN
  2
AcDbSun
  3
SCENEOE
 90
     1153
280
     0
281
     0
  0
CLASS
  1
ACDBPLACEHOLDER
  2
AcDbPlaceHolder
  3
ObjectDBX Classes
 90
        0
280
     0
281
     0
  0
CLASS
  1
LAYOUT
  2
AcDbLayout
  3
ObjectDBX Classes
 90
        0
280
     0
281
     0
  0
ENDSEC
  0
SECTION
  2
TABLES
  0
TABLE
  2
VPORT
  5
8
330
0
100
AcDbSymbolTable
 70
     1
  0
VPORT
  5
29
330
8
100
AcDbSymbolTableRecord
100
AcDbViewportTableRecord
  2
*Active
 70
     0
 10
0.0
 20
0.0
 11
1.0
 21
1.0
 12
10000.0
 22
5000.0
 13
0.0
 23
0.0
 14
10.0
 24
10.0
 15
10.0
 25
10.0
 16
0.0
 26
0.0
 36
1.0
 17
0.0
 27
0.0
 37
0.0
 40
10000.0
 41
2.0
 42
50.0
 43
0.0
 44
0.0
 50
0.0
 51
0.0
 71
     0
 72
  2000
 73
     1
 74
     3
 75
     0
 76
     0
 77
     0
 78
     0
281
     0
 65
     1
110
0.0
120
0.0
130
0.0
111
1.0
121
0.0
131
0.0
112
0.0
122
1.0
132
0.0
 79
     0
146
0.0
  0
ENDTAB
  0
TABLE
  2
LTYPE
  5
5
330
0
100
AcDbSymbolTable
 70
     6
  0
LTYPE
  5
14
330
5
100
AcDbSymbolTableRecord
100
AcDbLinetypeTableRecord
  2
ByBlock
 70
     0
  3

 72
    65
 73
     0
 40
0.0
  0
LTYPE
  5
15
330
5
100
AcDbSymbolTableRecord
100
AcDbLinetypeTableRecord
  2
ByLayer
 70
     0
  3

 72
    65
 73
     0
 40
0.0
  0
LTYPE
  5
16
330
5
100
AcDbSymbolTableRecord
100
AcDbLinetypeTableRecord
  2
Continuous
 70
     0
  3
Solid line
 72
    65
 73
     0
 40
0.0
  0
LTYPE
  5
6E
330
5
100
AcDbSymbolTableRecord
100
AcDbLinetypeTableRecord
  2
HIDDEN
 70
     0
  3
Hidden __ __ __ __ __ __ __ __ __ __ __ __ __ __
 72
    65
 73
     2
 40
1.905
 49
1.27
 74
     0
 49
-0.635
 74
     0
  0
LTYPE
  5
6F
330
5
100
AcDbSymbolTableRecord
100
AcDbLinetypeTableRecord
  2
PHANTOM
 70
     0
  3
Phantom ______  __  __  ______  __  __  ______
 72
    65
 73
     6
 40
12.7
 49
6.35
 74
     0
 49
-1.27
 74
     0
 49
1.27
 74
     0
 49
-1.27
 74
     0
 49
1.27
 74
     0
 49
-1.27
 74
     0
  0
LTYPE
  5
70
330
5
100
AcDbSymbolTableRecord
100
AcDbLinetypeTableRecord
  2
CENTER
 70
     0
  3
Center ____ _ ____ _ ____ _ ____ _ ____ _ ____
 72
    65
 73
     4
 40
10.16
 49
6.35
 74
     0
 49
-1.27
 74
     0
 49
1.27
 74
     0
 49
-1.27
 74
     0
  0
LTYPE
  5
71
330
5
100
AcDbSymbolTableRecord
100
AcDbLinetypeTableRecord
  2
CENTERX2
 70
     0
  3
Center (2x) ________  __  ________  __  _____
 72
    65
 73
     4
 40
20.32
 49
12.7
 74
     0
 49
-2.54
 74
     0
 49
2.54
 74
     0
 49
-2.54
 74
     0
  0
LTYPE
  5
72
330
5
100
AcDbSymbolTableRecord
100
AcDbLinetypeTableRecord
  2
DOT2
 70
     0
  3
Dot (.5x) ........................................
 72
    65
 73
     2
 40
0.635
 49
0.0
 74
     0
 49
-0.635
 74
     0
  0
ENDTAB
  0
TABLE
  2
LAYER
  5
2
330
0
100
AcDbSymbolTable
 70
    13
  0
LAYER
  5
10
330
2
100
AcDbSymbolTableRecord
100
AcDbLayerTableRecord
  2
0
 70
     0
 62
     7
  6
Continuous
370
    -3
390
F
  0
LAYER
  5
73
330
2
100
AcDbSymbolTableRecord
100
AcDbLayerTableRecord
  2
FORMAT
 70
     0
 62
     7
  6
Continuous
370
    -3
390
F
  0
LAYER
  5
74
330
2
100
AcDbSymbolTableRecord
100
AcDbLayerTableRecord
  2
OSA
 70
     0
 62
     7
  6
CENTER
370
    -3
390
F
  0
LAYER
  5
75
330
2
100
AcDbSymbolTableRecord
100
AcDbLayerTableRecord
  2
0_35
 70
     0
 62
     7
  6
Continuous
370
    35
390
F
  0
LAYER
  5
76
330
2
100
AcDbSymbolTableRecord
100
AcDbLayerTableRecord
  2
0_5
 70
     0
 62
     7
  6
Continuous
370
    50
390
F
  0
LAYER
  5
77
330
2
100
AcDbSymbolTableRecord
100
AcDbLayerTableRecord
  2
0_25
 70
     0
 62
     7
  6
Continuous
370
    25
390
F
  0
LAYER
  5
78
330
2
100
AcDbSymbolTableRecord
100
AcDbLayerTableRecord
  2
0_18
 70
     0
 62
     7
  6
Continuous
370
    -3
390
F
  0
LAYER
  5
79
330
2
100
AcDbSymbolTableRecord
100
AcDbLayerTableRecord
  2
SLD-0
 70
     0
 62
   179
  6
Continuous
370
    -3
390
F
  0
LAYER
  5
7A
330
2
100
AcDbSymbolTableRecord
100
AcDbLayerTableRecord
  2
KOTY
 70
     0
 62
     7
  6
Continuous
370
    -3
390
F
  0
LAYER
  5
7B
330
2
100
AcDbSymbolTableRecord
100
AcDbLayerTableRecord
  2
SILNA
 70
     0
 62
   179
  6
Continuous
370
    -3
390
F
  0
LAYER
  5
7C
330
2
100
AcDbSymbolTableRecord
100
AcDbLayerTableRecord
  2
0_18_1
 70
     0
 62
   179
  6
Continuous
370
    -3
390
F
  0
LAYER
  5
7D
330
2
100
AcDbSymbolTableRecord
100
AcDbLayerTableRecord
  2
0_35_1
 70
     0
 62
   179
  6
Continuous
370
    35
390
F
  0
LAYER
  5
7E
330
2
100
AcDbSymbolTableRecord
100
AcDbLayerTableRecord
  2
0_5_1
 70
     0
 62
   179
  6
Continuous
370
    50
390
F
  0
ENDTAB
  0
TABLE
  2
STYLE
  5
3
330
0
100
AcDbSymbolTable
 70
     1
  0
STYLE
  5
11
330
3
100
AcDbSymbolTableRecord
100
AcDbTextStyleTableRecord
  2
Standard
 70
     0
 40
0.0
 41
1.0
 50
0.0
 71
     0
 42
2.0
  3
txt
  4

  0
ENDTAB
  0
TABLE
  2
VIEW
  5
6
330
0
100
AcDbSymbolTable
 70
     0
  0
ENDTAB
  0
TABLE
  2
UCS
  5
7
330
0
100
AcDbSymbolTable
 70
     0
  0
ENDTAB
  0
TABLE
  2
APPID
  5
9
330
0
100
AcDbSymbolTable
 70
     1
  0
APPID
  5
12
330
9
100
AcDbSymbolTableRecord
100
AcDbRegAppTableRecord
  2
ACAD
 70
     0
  0
ENDTAB
  0
TABLE
  2
DIMSTYLE
  5
A
330
0
100
AcDbSymbolTable
 70
     1
100
AcDbDimStyleTable
  0
DIMSTYLE
105
27
330
A
100
AcDbSymbolTableRecord
100
AcDbDimStyleTableRecord
  2
ISO-25
 70
     0
 41
2.5
 42
0.625
 43
3.75
 44
1.25
 73
     0
 74
     0
 77
     1
 78
     8
140
2.5
141
2.5
143
0.0393700787
147
0.625
171
     3
172
     1
178
     0
271
     2
272
     2
274
     3
278
    44
283
     0
284
     8
340
11
  0
ENDTAB
  0
TABLE
  2
BLOCK_RECORD
  5
1
330
0
100
AcDbSymbolTable
 70
     1
  0
BLOCK_RECORD
  5
1F
330
1
100
AcDbSymbolTableRecord
100
AcDbBlockTableRecord
  2
*Model_Space
340
22
  0
BLOCK_RECORD
  5
1B
330
1
100
AcDbSymbolTableRecord
100
AcDbBlockTableRecord
  2
*Paper_Space
340
1E
  0
BLOCK_RECORD
  5
23
330
1
100
AcDbSymbolTableRecord
100
AcDbBlockTableRecord
  2
*Paper_Space0
340
26
  0
ENDTAB
  0
ENDSEC
  0
SECTION
  2
BLOCKS
  0
BLOCK
  5
20
330
1F
100
AcDbEntity
  8
0
100
AcDbBlockBegin
  2
*Model_Space
 70
     0
 10
0.0
 20
0.0
 30
0.0
  3
*Model_Space
  1

  0
ENDBLK
  5
21
330
1F
100
AcDbEntity
  8
0
100
AcDbBlockEnd
  0
BLOCK
  5
1C
330
1B
100
AcDbEntity
 67
     1
  8
0
100
AcDbBlockBegin
  2
*Paper_Space
 70
     0
 10
0.0
 20
0.0
 30
0.0
  3
*Paper_Space
  1

  0
ENDBLK
  5
1D
330
1B
100
AcDbEntity
 67
     1
  8
0
100
AcDbBlockEnd
  0
BLOCK
  5
24
330
23
100
AcDbEntity
  8
0
100
AcDbBlockBegin
  2
*Paper_Space0
 70
     0
 10
0.0
 20
0.0
 30
0.0
  3
*Paper_Space0
  1

  0
ENDBLK
  5
25
330
23
100
AcDbEntity
  8
0
100
AcDbBlockEnd
  0
ENDSEC
  0
SECTION
  2
ENTITIES
  0
SPLINE
  5
7F
330
1F
100
AcDbEntity
  8
0
  6
Continuous
 62
     7
370
    25
100
AcDbSpline
210
0.0
220
0.0
230
1.0
 70
     8
 71
     3
 72
    62
 73
    58
 74
     0
 42
0.000000001
 43
0.00000001
 40
0.0
 40
0.0
 40
0.0
 40
0.0
 40
0.0319961729368437
 40
0.0610493828070834
 40
0.0871559648194959
 40
0.1103153181470704
 40
0.1305288101068433
 40
0.1478527914532008
 40
0.1627437013184596
 40
0.1753029960211937
 40
0.1859598652058769
 40
0.196004779825526
 40
0.2080694794987176
 40
0.2221696641754653
 40
0.2381066649856466
 40
0.2548048168601159
 40
0.2785404221980449
 40
0.3033959056263975
 40
0.3293984889827088
 40
0.3561774230115767
 40
0.3817829049269174
 40
0.402030724397799
 40
0.4212387121065464
 40
0.4394450867321852
 40
0.4524710372155542
 40
0.4651290792394926
 40
0.4775531825357444
 40
0.4897528243548552
 40
0.5016925816768758
 40
0.5133218944877499
 40
0.5252640232281163
 40
0.5380620333681241
 40
0.551722728739882
 40
0.5662426882314786
 40
0.5816326886094624
 40
0.5979063867151578
 40
0.6241622240677068
 40
0.6487689307293126
 40
0.6717298238072329
 40
0.69305756481166
 40
0.7132291052801767
 40
0.73388597445857
 40
0.7551706471193089
 40
0.777066468157606
 40
0.7977374495682734
 40
0.8159253009329739
 40
0.8227713798063856
 40
0.8292482086378342
 40
0.8370341693230579
 40
0.8468845856161182
 40
0.8587994456482692
 40
0.8727781945596442
 40
0.8922768303044338
 40
0.914747745105818
 40
0.9401916614056208
 40
0.9686093168244932
 40
0.9999999999999999
 40
0.9999999999999999
 40
0.9999999999999999
 40
0.9999999999999999
 10
6300.374879225456
 20
5290.623052350265
 30
0.0
 10
6300.334336060449
 20
5291.026503607514
 30
0.0
 10
6300.256978833831
 20
5291.796297241784
 30
0.0
 10
6299.953044199238
 20
5292.89291862252
 30
0.0
 10
6299.561121315528
 20
5293.874979465205
 30
0.0
 10
6299.106171865042
 20
5294.742589519445
 30
0.0
 10
6298.625699260272
 20
5295.496936384831
 30
0.0
 10
6298.145443518929
 20
5296.14638484237
 30
0.0
 10
6297.687880447206
 20
5296.696349991315
 30
0.0
 10
6297.263336683808
 20
5297.160200126484
 30
0.0
 10
6296.864782040285
 20
5297.563050640859
 30
0.0
 10
6296.452850041745
 20
5297.952452171085
 30
0.0
 10
6295.97897897016
 20
5298.37120506926
 30
0.0
 10
6295.39362865279
 20
5298.850089786185
 30
0.0
 10
6294.696803372333
 20
5299.373570664467
 30
0.0
 10
6293.78598214579
 20
5299.997832691803
 30
0.0
 10
6292.622040754149
 20
5300.709463772773
 30
0.0
 10
6291.123526208331
 20
5301.506168104815
 30
0.0
 10
6289.36300343013
 20
5302.316773708258
 30
0.0
 10
6287.325469056043
 20
5303.111832425339
 30
0.0
 10
6285.142430643403
 20
5303.821991072498
 30
0.0
 10
6282.923988793738
 20
5304.429631946939
 30
0.0
 10
6280.684173817991
 20
5304.935124716202
 30
0.0
 10
6278.459257350139
 20
5305.339183771002
 30
0.0
 10
6276.297192038863
 20
5305.651656236394
 30
0.0
 10
6274.226903649347
 20
5305.88442699786
 30
0.0
 10
6272.006436535267
 20
5306.061674704628
 30
0.0
 10
6269.657728987547
 20
5306.169885078633
 30
0.0
 10
6267.26219508536
 20
5306.196133252642
 30
0.0
 10
6264.900641531789
 20
5306.139863488572
 30
0.0
 10
6262.601701034341
 20
5306.006306010119
 30
0.0
 10
6260.36225196725
 20
5305.800507854058
 30
0.0
 10
6258.198196984477
 20
5305.52722718167
 30
0.0
 10
6256.129210000309
 20
5305.194129936402
 30
0.0
 10
6254.15633009161
 20
5304.806608163169
 30
0.0
 10
6251.935558318104
 20
5304.28727523284
 30
0.0
 10
6249.68614240927
 20
5303.648348119367
 30
0.0
 10
6247.539961252087
 20
5302.913756138542
 30
0.0
 10
6245.778380683836
 20
5302.208754264882
 30
0.0
 10
6244.304995921319
 20
5301.535357186632
 30
0.0
 10
6243.016185234568
 20
5300.874215947524
 30
0.0
 10
6241.842647747568
 20
5300.19863771911
 30
0.0
 10
6240.749824114745
 20
5299.490476631873
 30
0.0
 10
6239.762385139991
 20
5298.767763251827
 30
0.0
 10
6238.916090410932
 20
5298.069497271776
 30
0.0
 10
6238.340929834592
 20
5297.536630530275
 30
0.0
 10
6237.969807955201
 20
5297.164971697622
 30
0.0
 10
6237.729928124822
 20
5296.914166302328
 30
0.0
 10
6237.466475573092
 20
5296.625422603106
 30
0.0
 10
6237.160609627407
 20
5296.269353075947
 30
0.0
 10
6236.815912972891
 20
5295.83601802156
 30
0.0
 10
6236.415706811777
 20
5295.282464859698
 30
0.0
 10
6235.982036401271
 20
5294.595715229692
 30
0.0
 10
6235.547547480327
 20
5293.763212214271
 30
0.0
 10
6235.169937277975
 20
5292.815880869381
 30
0.0
 10
6234.875028487802
 20
5291.754368316909
 30
0.0
 10
6234.798973529652
 20
5291.009167602334
 30
0.0
 10
6234.759055733049
 20
5290.618045560104
 30
0.0
  0
SPLINE
  5
80
330
1F
100
AcDbEntity
  8
0
  6
Continuous
 62
     7
370
    25
100
AcDbSpline
210
0.0
220
0.0
230
1.0
 70
     8
 71
     3
 72
    13
 73
     9
 74
     0
 42
0.000000001
 43
0.00000001
 40
0.0
 40
0.0
 40
0.0
 40
0.0
 40
0.3088464903209152
 40
0.511279083473862
 40
0.6928914129901159
 40
0.7983459426221079
 40
0.949666029840891
 40
1.0
 40
1.0
 40
1.0
 40
1.0
 10
6277.820834264458
 20
5284.232167831642
 30
0.0
 10
6278.171644899338
 20
5284.143043067435
 30
0.0
 10
6278.752393411935
 20
5283.995501718618
 30
0.0
 10
6279.242334791941
 20
5283.788478365128
 30
0.0
 10
6279.493191972691
 20
5283.652202545285
 30
0.0
 10
6279.627699770173
 20
5283.550719022272
 30
0.0
 10
6279.652342250884
 20
5283.527251477703
 30
0.0
 10
6279.655573394482
 20
5283.534944522552
 30
0.0
 10
6279.656379905829
 20
5283.536864749176
 30
0.0
  0
SPLINE
  5
81
330
1F
100
AcDbEntity
  8
0
  6
Continuous
 62
     7
370
    25
100
AcDbSpline
210
0.0
220
0.0
230
1.0
 70
     8
 71
     3
 72
    11
 73
     7
 74
     0
 42
0.000000001
 43
0.00000001
 40
0.0
 40
0.0
 40
0.0
 40
0.0
 40
0.1881377464525285
 40
0.4992880788818667
 40
0.7347583235804515
 40
1.0
 40
1.0
 40
1.0
 40
1.0
 10
6255.479751809799
 20
5283.540679446442
 30
0.0
 10
6255.478935641831
 20
5283.533828498522
 30
0.0
 10
6255.476769660024
 20
5283.515647156977
 30
0.0
 10
6255.595350217198
 20
5283.625460477449
 30
0.0
 10
6255.826502851444
 20
5283.757411063583
 30
0.0
 10
6256.059674814357
 20
5283.853149834865
 30
0.0
 10
6256.183192788922
 20
5283.903865448219
 30
0.0
  0
SPLINE
  5
82
330
1F
100
AcDbEntity
  8
0
  6
Continuous
 62
     7
370
    25
100
AcDbSpline
210
0.0
220
0.0
230
1.0
 70
     8
 71
     3
 72
     9
 73
     5
 74
     0
 42
0.000000001
 43
0.00000001
 40
0.0
 40
0.0
 40
0.0
 40
0.0
 40
0.4411221617358306
 40
1.0
 40
1.0
 40
1.0
 40
1.0
 10
6300.395692422354
 20
5278.970850936157
 30
0.0
 10
6300.395954530947
 20
5280.6203421837
 30
0.0
 10
6300.396548716906
 20
5284.359649320417
 30
0.0
 10
6300.399926929056
 20
5288.124039377768
 30
0.0
 10
6300.401814936959
 20
5290.227873555405
 30
0.0
  0
SPLINE
  5
83
330
1F
100
AcDbEntity
  8
0
  6
Continuous
 62
     7
370
    25
100
AcDbSpline
210
0.0
220
0.0
230
1.0
 70
     8
 71
     3
 72
     9
 73
     5
 74
     0
 42
0.000000001
 43
0.00000001
 40
0.0
 40
0.0
 40
0.0
 40
0.0
 40
0.5039858925570481
 40
1.0
 40
1.0
 40
1.0
 40
1.0
 10
6234.731902092063
 20
5290.221406451446
 30
0.0
 10
6234.733623748069
 20
5288.323878506893
 30
0.0
 10
6234.737039827828
 20
5284.558836721843
 30
0.0
 10
6234.737691870887
 20
5280.823587329552
 30
0.0
 10
6234.738015293443
 20
5278.970850936157
 30
0.0
  0
SPLINE
  5
84
330
1F
100
AcDbEntity
  8
0
  6
Continuous
 62
     7
370
    25
100
AcDbSpline
210
0.0
220
0.0
230
1.0
 70
     8
 71
     3
 72
    18
 73
    14
 74
     0
 42
0.000000001
 43
0.00000001
 40
0.0
 40
0.0
 40
0.0
 40
0.0
 40
0.1308369011912639
 40
0.2437563985193756
 40
0.3387537704931096
 40
0.4158258500206805
 40
0.477496709557915
 40
0.5386794859918685
 40
0.6146837989515945
 40
0.6935087477022711
 40
0.7810367785267286
 40
0.885188843257403
 40
1.0
 40
1.0
 40
1.0
 40
1.0
 10
6234.782148807609
 20
5272.318823567612
 30
0.0
 10
6234.805075681872
 20
5272.072789284362
 30
0.0
 10
6234.847789719341
 20
5271.614413778284
 30
0.0
 10
6234.968819407658
 20
5270.976194572997
 30
0.0
 10
6235.103915670325
 20
5270.437903987383
 30
0.0
 10
6235.240740581361
 20
5269.994720010945
 30
0.0
 10
6235.376430970788
 20
5269.612562933995
 30
0.0
 10
6235.529024789275
 20
5269.228396821818
 30
0.0
 10
6235.716458086052
 20
5268.807374200629
 30
0.0
 10
6235.95514224602
 20
5268.330302386278
 30
0.0
 10
6236.256345555181
 20
5267.796358878352
 30
0.0
 10
6236.635476444936
 20
5267.194625005504
 30
0.0
 10
6236.954570621597
 20
5266.767946070027
 30
0.0
 10
6237.121884434783
 20
5266.544221273643
 30
0.0
  0
SPLINE
  5
85
330
1F
100
AcDbEntity
  8
0
  6
Continuous
 62
     7
370
    25
100
AcDbSpline
210
0.0
220
0.0
230
1.0
 70
     8
 71
     3
 72
    19
 73
    15
 74
     0
 42
0.000000001
 43
0.00000001
 40
0.0
 40
0.0
 40
0.0
 40
0.0
 40
0.1148110791545698
 40
0.2189630520959218
 40
0.3064910116602078
 40
0.3853158962362503
 40
0.4613202627808988
 40
0.513882508138772
 40
0.5654457537144881
 40
0.6260198796799368
 40
0.6997643225338214
 40
0.786677359704654
 40
0.8867570440759538
 40
1.0
 40
1.0
 40
1.0
 40
1.0
 10
6298.011823281014
 20
5266.544221273643
 30
0.0
 10
6298.179138938388
 20
5266.767946066286
 30
0.0
 10
6298.498236601017
 20
5267.194624952916
 30
0.0
 10
6298.877363177805
 20
5267.796358806687
 30
0.0
 10
6299.178567863195
 20
5268.330302686507
 30
0.0
 10
6299.417250349348
 20
5268.807373428452
 30
0.0
 10
6299.597208817131
 20
5269.211598466222
 30
0.0
 10
6299.736553207041
 20
5269.559766014253
 30
0.0
 10
6299.851598770308
 20
5269.875392794032
 30
0.0
 10
6299.966943644797
 20
5270.228658997111
 30
0.0
 10
6300.085101861111
 20
5270.6473339308
 30
0.0
 10
6300.197701910958
 20
5271.139303490385
 30
0.0
 10
6300.296156464088
 20
5271.70474422497
 30
0.0
 10
6300.332347035878
 20
5272.105879642294
 30
0.0
 10
6300.351558908188
 20
5272.318823567612
 30
0.0
  0
SPLINE
  5
86
330
1F
100
AcDbEntity
  8
0
  6
Continuous
 62
     7
370
    25
100
AcDbSpline
210
0.0
220
0.0
230
1.0
 70
     8
 71
     3
 72
    12
 73
     8
 74
     0
 42
0.000000001
 43
0.00000001
 40
0.0
 40
0.0
 40
0.0
 40
0.0
 40
0.2014347919079142
 40
0.4351844146583509
 40
0.6091881577378685
 40
0.7975287493093173
 40
1.0
 40
1.0
 40
1.0
 40
1.0
 10
6237.123955696188
 20
5266.539423099739
 30
0.0
 10
6237.177640256831
 20
5266.453891043796
 30
0.0
 10
6237.293621631638
 20
5266.269105598604
 30
0.0
 10
6237.549696612803
 20
5265.606286718245
 30
0.0
 10
6237.817310429858
 20
5264.712993939522
 30
0.0
 10
6238.082434488216
 20
5263.666966368533
 30
0.0
 10
6238.259622767864
 20
5262.764990301819
 30
0.0
 10
6238.351420223081
 20
5262.297695807201
 30
0.0
  0
SPLINE
  5
87
330
1F
100
AcDbEntity
  8
0
  6
Continuous
 62
     7
370
    25
100
AcDbSpline
210
0.0
220
0.0
230
1.0
 70
     8
 71
     3
 72
    12
 73
     8
 74
     0
 42
0.000000001
 43
0.00000001
 40
0.0
 40
0.0
 40
0.0
 40
0.0
 40
0.2025561382761288
 40
0.390875158693148
 40
0.56483916286916
 40
0.798593298435889
 40
1.0
 40
1.0
 40
1.0
 40
1.0
 10
6296.782207398975
 20
5262.300094894154
 30
0.0
 10
6296.874268171947
 20
5262.76726049664
 30
0.0
 10
6297.051919017541
 20
5263.66875590706
 30
0.0
 10
6297.316811962753
 20
5264.714332027462
 30
0.0
 10
6297.58416778886
 20
5265.606985466344
 30
0.0
 10
6297.840324050331
 20
5266.269422126054
 30
0.0
 10
6297.95621336548
 20
5266.454077669738
 30
0.0
 10
6298.009850739801
 20
5266.539542309029
 30
0.0
  0
SPLINE
  5
88
330
1F
100
AcDbEntity
  8
0
  6
Continuous
 62
     7
370
    25
100
AcDbSpline
210
0.0
220
0.0
230
1.0
 70
     8
 71
     3
 72
    15
 73
    11
 74
     0
 42
0.000000001
 43
0.00000001
 40
0.0
 40
0.0
 40
0.0
 40
0.0
 40
0.1392437664816865
 40
0.2743630936510663
 40
0.4052677137276273
 40
0.5320986279122323
 40
0.6550485148790552
 40
0.7739776052571599
 40
0.8888809510353612
 40
0.9999999999999999
 40
0.9999999999999999
 40
0.9999999999999999
 40
0.9999999999999999
 10
6238.350768297279
 20
5262.301234832985
 30
0.0
 10
6238.429158487987
 20
5261.856470661154
 30
0.0
 10
6238.583616930026
 20
5260.980116356674
 30
0.0
 10
6238.78611051396
 20
5259.514199632956
 30
0.0
 10
6238.95778110372
 20
5257.98889341227
 30
0.0
 10
6239.094280162946
 20
5256.412059143966
 30
0.0
 10
6239.194269098234
 20
5254.808192559321
 30
0.0
 10
6239.257544585173
 20
5253.198687722491
 30
0.0
 10
6239.28824533474
 20
5251.604173219499
 30
0.0
 10
6239.279626392311
 20
5250.546373348565
 30
0.0
 10
6239.275389074647
 20
5250.026328793747
 30
0.0
  0
SPLINE
  5
89
330
1F
100
AcDbEntity
  8
0
  6
Continuous
 62
     7
370
    25
100
AcDbSpline
210
0.0
220
0.0
230
1.0
 70
     8
 71
     3
 72
    13
 73
     9
 74
     0
 42
0.000000001
 43
0.00000001
 40
0.0
 40
0.0
 40
0.0
 40
0.0
 40
0.1248364104212027
 40
0.2495715361754058
 40
0.3744609213338029
 40
0.4994384581389039
 40
0.7493044168722375
 40
1.0
 40
1.0
 40
1.0
 40
1.0
 10
6295.858402460181
 20
5250.026328793747
 30
0.0
 10
6295.854095763455
 20
5250.610311339486
 30
0.0
 10
6295.845485864195
 20
5251.777802623061
 30
0.0
 10
6295.88488076227
 20
5253.502429162385
 30
0.0
 10
6295.958806732096
 20
5255.180422342664
 30
0.0
 10
6296.105579493745
 20
5257.326013644848
 30
0.0
 10
6296.366820856993
 20
5259.839410746322
 30
0.0
 10
6296.644274905254
 20
5261.482262321771
 30
0.0
 10
6296.783231853807
 20
5262.30504953025
 30
0.0
  0
SPLINE
  5
8A
330
1F
100
AcDbEntity
  8
0
  6
Continuous
 62
     7
370
    25
100
AcDbSpline
210
0.0
220
0.0
230
1.0
 70
     8
 71
     3
 72
     9
 73
     5
 74
     0
 42
0.000000001
 43
0.00000001
 40
0.0
 40
0.0
 40
0.0
 40
0.0
 40
0.4491196333446052
 40
1.0
 40
1.0
 40
1.0
 40
1.0
 10
6239.274632840716
 20
5250.02637349723
 30
0.0
 10
6239.140702382314
 20
5241.615244161421
 30
0.0
 10
6238.842495738787
 20
5222.887206660208
 30
0.0
 10
6238.558510927141
 20
5204.158947833907
 30
0.0
 10
6238.402069269979
 20
5193.841917744858
 30
0.0
  0
SPLINE
  5
8B
330
1F
100
AcDbEntity
  8
0
  6
Continuous
 62
     7
370
    25
100
AcDbSpline
210
0.0
220
0.0
230
1.0
 70
     8
 71
     3
 72
     9
 73
     5
 74
     0
 42
0.000000001
 43
0.00000001
 40
0.0
 40
0.0
 40
0.0
 40
0.0
 40
0.4552641569782015
 40
0.9999999999999999
 40
0.9999999999999999
 40
0.9999999999999999
 40
0.9999999999999999
 10
6296.731666385495
 20
5193.841921470148
 30
0.0
 10
6296.605733722599
 20
5202.368277497653
 30
0.0
 10
6296.329119231945
 20
5221.096648481432
 30
0.0
 10
6296.02487719699
 20
5239.824591609369
 30
0.0
 10
6295.859145655596
 20
5250.02637349723
 30
0.0
  0
SPLINE
  5
8C
330
1F
100
AcDbEntity
  8
0
  6
Continuous
 62
     7
370
    25
100
AcDbSpline
210
0.0
220
0.0
230
1.0
 70
     8
 71
     3
 72
     9
 73
     5
 74
     0
 42
0.000000001
 43
0.00000001
 40
0.0
 40
0.0
 40
0.0
 40
0.0
 40
0.4873134163553433
 40
1.0
 40
1.0
 40
1.0
 40
1.0
 10
6238.40208789643
 20
5193.841917744858
 30
0.0
 10
6238.289194058863
 20
5182.544130240069
 30
0.0
 10
6238.057528289406
 20
5159.360308236386
 30
0.0
 10
6238.186903706227
 20
5136.175666139832
 30
0.0
 10
6238.253232746684
 20
5124.289211190326
 30
0.0
  0
SPLINE
  5
8D
330
1F
100
AcDbEntity
  8
0
  6
Continuous
 62
     7
370
    25
100
AcDbSpline
210
0.0
220
0.0
230
1.0
 70
     8
 71
     3
 72
     9
 73
     5
 74
     0
 42
0.000000001
 43
0.00000001
 40
0.0
 40
0.0
 40
0.0
 40
0.0
 40
0.4812473961858216
 40
1.0
 40
1.0
 40
1.0
 40
1.0
 10
6296.880607216918
 20
5124.289172074778
 30
0.0
 10
6296.944499029963
 20
5135.446702277108
 30
0.0
 10
6297.077261957205
 20
5158.631306060443
 30
0.0
 10
6296.84967904675
 20
5181.815208162726
 30
0.0
 10
6296.731619819367
 20
5193.841917744858
 30
0.0
  0
ARC
  5
8E
330
1F
100
AcDbEntity
  8
0
  6
Continuous
 62
     7
370
    25
100
AcDbCircle
 10
6298.6068526076
 20
5141.7892473906
 30
0.0
 40
13.62499999999012
100
AcDbArc
 50
342.1254618759
 51
356.1644792933
  0
ARC
  5
8F
330
1F
100
AcDbEntity
  8
0
  6
Continuous
 62
     7
370
    25
100
AcDbCircle
 10
6298.6068526076
 20
5141.7892473906
 30
0.0
 40
13.62499999999058
100
AcDbArc
 50
4.1039437898
 51
17.8846536404
  0
ARC
  5
90
330
1F
100
AcDbEntity
  8
0
  6
Continuous
 62
     7
370
    25
100
AcDbCircle
 10
6310.2024415408
 20
5136.1892473906
 30
0.0
 40
0.8000000000001819
100
AcDbArc
 50
270.0
 51
0.0
  0
LINE
  5
91
330
1F
100
AcDbEntity
  8
0
  6
Continuous
 62
     7
370
    25
100
AcDbLine
 10
6296.916494801
 20
5135.3892472824
 30
0.0
 11
6310.2024427646
 21
5135.3892472824
 31
0.0
  0
LINE
  5
92
330
1F
100
AcDbEntity
  8
0
  6
Continuous
 62
     7
370
    25
100
AcDbLine
 10
6303.2024416172
 20
5148.1892469591
 30
0.0
 11
6296.9578790509
 21
5148.1892469591
 31
0.0
  0
ARC
  5
93
330
1F
100
AcDbEntity
  8
0
  6
Continuous
 62
     7
370
    25
100
AcDbCircle
 10
6311.0024415408
 20
5137.7892473906
 30
0.0
 40
0.6000000000003638
100
AcDbArc
 50
270.0
 51
342.1109932019
  0
ARC
  5
94
330
1F
100
AcDbEntity
  8
0
  6
Continuous
 62
     7
370
    25
100
AcDbCircle
 10
6311.0024415408
 20
5145.7892473906
 30
0.0
 40
0.599999999999821
100
AcDbArc
 50
17.9667270479
 51
89.9999999999
  0
ARC
  5
95
330
1F
100
AcDbEntity
  8
0
  6
Continuous
 62
     7
370
    25
100
AcDbCircle
 10
6303.2024415408
 20
5148.9892473906
 30
0.0
 40
0.8000000000001819
100
AcDbArc
 50
270.0
 51
0.0
  0
LINE
  5
96
330
1F
100
AcDbEntity
  8
0
  6
Continuous
 62
     7
370
    25
100
AcDbLine
 10
6311.9639462822
 20
5140.7893987624
 30
0.0
 11
6312.0656429821
 21
5140.7893987624
 31
0.0
  0
LINE
  5
97
330
1F
100
AcDbEntity
  8
0
  6
Continuous
 62
     7
370
    25
100
AcDbLine
 10
6312.0657994443
 20
5142.7893988574
 30
0.0
 11
6311.9638084465
 21
5142.7893988574
 31
0.0
  0
LINE
  5
98
330
1F
100
AcDbEntity
  8
0
  6
Continuous
 62
     7
370
    25
100
AcDbLine
 10
6278.783089205
 20
5283.4388151085
 30
0.0
 11
6278.7428543235
 21
5283.3924724972
 31
0.0
  0
LINE
  5
99
330
1F
100
AcDbEntity
  8
0
  6
Continuous
 62
     7
370
    25
100
AcDbLine
 10
6278.772369915
 20
5283.4390535271
 30
0.0
 11
6279.0157198471
 21
5283.5708393967
 31
0.0
  0
LINE
  5
9A
330
1F
100
AcDbEntity
  8
0
  6
Continuous
 62
     7
370
    25
100
AcDbLine
 10
6256.5102621013
 20
5283.2537426865
 30
0.0
 11
6256.854750871
 21
5283.067239753
 31
0.0
  0
LINE
  5
9B
330
1F
100
AcDbEntity
  8
0
  6
Continuous
 62
     7
370
    25
100
AcDbLine
 10
6278.2789591731
 20
5283.067239753
 30
0.0
 11
6278.3505663539
 21
5283.1060125744
 31
0.0
  0
SPLINE
  5
9C
330
1F
100
AcDbEntity
  8
0
  6
Continuous
 62
     7
370
    25
100
AcDbSpline
210
0.0
220
0.0
230
1.0
 70
     8
 71
     3
 72
    10
 73
     6
 74
     0
 42
0.000000001
 43
0.00000001
 40
0.0
 40
0.0
 40
0.0
 40
0.0
 40
0.4272374782015517
 40
0.9036417816804427
 40
1.0
 40
1.0
 40
1.0
 40
1.0
 10
6258.150919064247
 20
5282.834215394241
 30
0.0
 10
6258.17270750028
 20
5282.450620965108
 30
0.0
 10
6258.218791802714
 20
5281.639287758007
 30
0.0
 10
6258.389151983615
 20
5280.746954446385
 30
0.0
 10
6258.571011555903
 20
5280.264660627835
 30
0.0
 10
6258.6016065472
 20
5280.183522335274
 30
0.0
  0
SPLINE
  5
9D
330
1F
100
AcDbEntity
  8
0
  6
Continuous
 62
     7
370
    25
100
AcDbSpline
210
0.0
220
0.0
230
1.0
 70
     8
 71
     3
 72
    10
 73
     6
 74
     0
 42
0.000000001
 43
0.00000001
 40
0.0
 40
0.0
 40
0.0
 40
0.0
 40
0.2031682488391969
 40
0.6546403224399111
 40
1.0
 40
1.0
 40
1.0
 40
1.0
 10
6276.526434361768
 20
5280.180557004196
 30
0.0
 10
6276.585922449973
 20
5280.353933147954
 30
0.0
 10
6276.777602505621
 20
5280.912578582473
 30
0.0
 10
6276.938827680833
 20
5281.807007754045
 30
0.0
 10
6276.963585317774
 20
5282.525400527753
 30
0.0
 10
6276.974315675217
 20
5282.836763492805
 30
0.0
  0
LINE
  5
9E
330
1F
100
AcDbEntity
  8
0
  6
Continuous
 62
     7
370
    25
100
AcDbLine
 10
6276.5668545764
 20
5280.2864297545
 30
0.0
 11
6276.5668545764
 21
5280.2880837834
 31
0.0
  0
LINE
  5
9F
330
1F
100
AcDbEntity
  8
0
  6
Continuous
 62
     7
370
    25
100
AcDbLine
 10
6258.5668551767
 20
5280.2880837834
 30
0.0
 11
6258.5668551767
 21
5280.2864297545
 31
0.0
  0
LINE
  5
A0
330
1F
100
AcDbEntity
  8
0
  6
Continuous
 62
     7
370
    25
100
AcDbLine
 10
6276.9897323453
 20
5282.8468962824
 30
0.0
 11
6276.9897323453
 21
5283.6642845785
 31
0.0
  0
LINE
  5
A1
330
1F
100
AcDbEntity
  8
0
  6
Continuous
 62
     7
370
    25
100
AcDbLine
 10
6258.1439769858
 20
5283.6642845785
 30
0.0
 11
6258.1439769858
 21
5282.8468962824
 31
0.0
  0
SPLINE
  5
A2
330
1F
100
AcDbEntity
  8
0
  6
Continuous
 62
     7
370
    25
100
AcDbSpline
210
0.0
220
0.0
230
1.0
 70
     8
 71
     3
 72
    10
 73
     6
 74
     0
 42
0.000000001
 43
0.00000001
 40
0.0
 40
0.0
 40
0.0
 40
0.0
 40
0.2906080831117439
 40
0.9212849126847454
 40
0.9999999999999999
 40
0.9999999999999999
 40
0.9999999999999999
 40
0.9999999999999999
 10
6275.089763527104
 20
5278.562901846153
 30
0.0
 10
6275.182335313948
 20
5278.711700640795
 30
0.0
 10
6275.475806127449
 20
5279.183422153365
 30
0.0
 10
6275.727949327786
 20
5279.738662207914
 30
0.0
 10
6275.84544746095
 20
5280.150155896576
 30
0.0
 10
6275.858485212849
 20
5280.195815793259
 30
0.0
  0
SPLINE
  5
A3
330
1F
100
AcDbEntity
  8
0
  6
Continuous
 62
     7
370
    25
100
AcDbSpline
210
0.0
220
0.0
230
1.0
 70
     8
 71
     3
 72
    10
 73
     6
 74
     0
 42
0.000000001
 43
0.00000001
 40
0.0
 40
0.0
 40
0.0
 40
0.0
 40
0.2233780501331285
 40
0.7592946113205213
 40
1.0
 40
1.0
 40
1.0
 40
1.0
 10
6259.27642612096
 20
5280.203296176178
 30
0.0
 10
6259.31817364135
 20
5280.074654834545
 30
0.0
 10
6259.460079559362
 20
5279.637384129404
 30
0.0
 10
6259.71301010298
 20
5279.082790552464
 30
0.0
 10
6259.963608353109
 20
5278.684784276819
 30
0.0
 10
6260.041278510654
 20
5278.561426631195
 30
0.0
  0
LINE
  5
A4
330
1F
100
AcDbEntity
  8
0
  6
Continuous
 62
     7
370
    25
100
AcDbLine
 10
6259.9869507396
 20
5278.6281987345
 30
0.0
 11
6260.4601892674
 21
5277.5000169194
 31
0.0
  0
LINE
  5
A5
330
1F
100
AcDbEntity
  8
0
  6
Continuous
 62
     7
370
    25
100
AcDbLine
 10
6274.6735191469
 20
5277.5000169194
 30
0.0
 11
6275.1467589553
 21
5278.6281987345
 31
0.0
  0
LINE
  5
A6
330
1F
100
AcDbEntity
  8
0
  6
Continuous
 62
     7
370
    25
100
AcDbLine
 10
6262.1076737561
 20
5278.1428232109
 30
0.0
 11
6262.1590939381
 21
5277.6027455246
 31
0.0
  0
LINE
  5
A7
330
1F
100
AcDbEntity
  8
0
  6
Continuous
 62
     7
370
    25
100
AcDbLine
 10
6272.9746151746
 20
5277.6027455246
 30
0.0
 11
6273.0261042745
 21
5278.1435384667
 31
0.0
  0
LINE
  5
A8
330
1F
100
AcDbEntity
  8
0
  6
Continuous
 62
     7
370
    25
100
AcDbLine
 10
6263.6736675197
 20
5278.1070008194
 30
0.0
 11
6263.7550902584
 21
5277.5940134442
 31
0.0
  0
LINE
  5
A9
330
1F
100
AcDbEntity
  8
0
  6
Continuous
 62
     7
370
    25
100
AcDbLine
 10
6271.3786188544
 20
5277.5940134442
 30
0.0
 11
6271.4667447874
 21
5278.1492307103
 31
0.0
  0
LINE
  5
AA
330
1F
100
AcDbEntity
  8
0
  6
Continuous
 62
     7
370
    25
100
AcDbLine
 10
6265.2121267312
 20
5278.1005039131
 30
0.0
 11
6265.2586705082
 21
5277.611656419
 31
0.0
  0
LINE
  5
AB
330
1F
100
AcDbEntity
  8
0
  6
Continuous
 62
     7
370
    25
100
AcDbLine
 10
6269.8750390702
 20
5277.611656419
 30
0.0
 11
6269.9215819159
 21
5278.1005039131
 31
0.0
  0
LINE
  5
AC
330
1F
100
AcDbEntity
  8
0
  6
Continuous
 62
     7
370
    25
100
AcDbLine
 10
6262.0287581378
 20
5278.1446262514
 30
0.0
 11
6262.1627531045
 21
5278.1415566122
 31
0.0
  0
LINE
  5
AD
330
1F
100
AcDbEntity
  8
0
  6
Continuous
 62
     7
370
    25
100
AcDbLine
 10
6272.9703962834
 20
5278.142271868
 30
0.0
 11
6273.1024880924
 21
5278.1452968037
 31
0.0
  0
LINE
  5
AE
330
1F
100
AcDbEntity
  8
0
  6
Continuous
 62
     7
370
    25
100
AcDbLine
 10
6263.199808731
 20
5278.1178488648
 30
0.0
 11
6263.71796029
 21
5278.1059875405
 31
0.0
  0
SPLINE
  5
AF
330
1F
100
AcDbEntity
  8
0
  6
Continuous
 62
     7
370
    25
100
AcDbSpline
210
0.0
220
0.0
230
1.0
 70
     8
 71
     3
 72
     9
 73
     5
 74
     0
 42
0.000000001
 43
0.00000001
 40
0.0
 40
0.0
 40
0.0
 40
0.0
 40
0.4875104585860344
 40
1.0
 40
1.0
 40
1.0
 40
1.0
 10
6267.552308461927
 20
5277.956111661179
 30
0.0
 10
6267.579581893942
 20
5277.955996079431
 30
0.0
 10
6267.635526195309
 20
5277.955758993752
 30
0.0
 10
6267.688778904362
 20
5277.958987194871
 30
0.0
 10
6267.716070360803
 20
5277.960641614181
 30
0.0
  0
LINE
  5
B0
330
1F
100
AcDbEntity
  8
0
  6
Continuous
 62
     7
370
    25
100
AcDbLine
 10
6257.6939768189
 20
5283.7858780539
 30
0.0
 11
6257.6939768189
 21
5283.6642845785
 31
0.0
  0
LINE
  5
B1
330
1F
100
AcDbEntity
  8
0
  6
Continuous
 62
     7
370
    25
100
AcDbLine
 10
6277.4397323521
 20
5283.6642845785
 30
0.0
 11
6277.4397323521
 21
5283.7858780539
 31
0.0
  0
LINE
  5
B2
330
1F
100
AcDbEntity
  8
0
  6
Continuous
 62
     7
370
    25
100
AcDbLine
 10
6267.3872520247
 20
5277.6978447354
 30
0.0
 11
6267.5831277886
 21
5277.9562904751
 31
0.0
  0
LINE
  5
B3
330
1F
100
AcDbEntity
  8
0
  6
Continuous
 62
     7
370
    25
100
AcDbLine
 10
6271.4318802611
 20
5277.9295875943
 30
0.0
 11
6272.3831447804
 21
5277.9078318989
 31
0.0
  0
LINE
  5
B4
330
1F
100
AcDbEntity
  8
0
  6
Continuous
 62
     7
370
    25
100
AcDbLine
 10
6261.3015870595
 20
5277.8754218733
 30
0.0
 11
6262.1313265556
 21
5277.8943910515
 31
0.0
  0
LINE
  5
B5
330
1F
100
AcDbEntity
  8
0
  6
Continuous
 62
     7
370
    25
100
AcDbLine
 10
6273.0023136393
 20
5277.8936608946
 30
0.0
 11
6273.8335062315
 21
5277.8746619141
 31
0.0
  0
LINE
  5
B6
330
1F
100
AcDbEntity
  8
0
  6
Continuous
 62
     7
370
    25
100
AcDbLine
 10
6264.2523112738
 20
5277.7791156685
 30
0.0
 11
6265.2359881469
 21
5277.8498961842
 31
0.0
  0
LINE
  5
B7
330
1F
100
AcDbEntity
  8
0
  6
Continuous
 62
     7
370
    25
100
AcDbLine
 10
6269.8841897802
 20
5277.7077689087
 30
0.0
 11
6270.4030496099
 21
5277.6386126196
 31
0.0
  0
LINE
  5
B8
330
1F
100
AcDbEntity
  8
0
  6
Continuous
 62
     7
370
    25
100
AcDbLine
 10
6262.774060204
 20
5277.6727511799
 30
0.0
 11
6263.7316572511
 21
5277.7416541493
 31
0.0
  0
LINE
  5
B9
330
1F
100
AcDbEntity
  8
0
  6
Continuous
 62
     7
370
    25
100
AcDbLine
 10
6272.977123692
 20
5277.6291056788
 30
0.0
 11
6273.7471002185
 21
5277.5737031615
 31
0.0
  0
LINE
  5
BA
330
1F
100
AcDbEntity
  8
0
  6
Continuous
 62
     7
370
    25
100
AcDbLine
 10
6261.3882186854
 20
5277.5730326092
 30
0.0
 11
6262.1566585296
 21
5277.6283308184
 31
0.0
  0
LINE
  5
BB
330
1F
100
AcDbEntity
  8
0
  6
Continuous
 62
     7
370
    25
100
AcDbLine
 10
6256.8684524887
 20
5283.4556236183
 30
0.0
 11
6257.7923617357
 21
5283.4556236183
 31
0.0
  0
LINE
  5
BC
330
1F
100
AcDbEntity
  8
0
  6
Continuous
 62
     7
370
    25
100
AcDbLine
 10
6277.3413468824
 20
5283.4556236183
 30
0.0
 11
6278.2652694297
 21
5283.4556236183
 31
0.0
  0
LINE
  5
BD
330
1F
100
AcDbEntity
  8
0
  6
Continuous
 62
     7
370
    25
100
AcDbLine
 10
6271.3378683695
 20
5277.5140091097
 30
0.0
 11
6271.6724576459
 21
5277.4694099343
 31
0.0
  0
ARC
  5
BE
330
1F
100
AcDbEntity
  8
0
  6
Continuous
 62
     7
370
    25
100
AcDbCircle
 10
6289.8168546024
 20
5124.2892474228
 30
0.0
 40
1.25
100
AcDbArc
 50
270.0
 51
359.9616354676
  0
ARC
  5
BF
330
1F
100
AcDbEntity
  8
0
  6
Continuous
 62
     7
370
    25
100
AcDbCircle
 10
6245.3168546024
 20
5124.2892474228
 30
0.0
 40
1.25
100
AcDbArc
 50
179.9616354674
 51
270.0
  0
LINE
  5
C0
330
1F
100
AcDbEntity
  8
0
  6
Continuous
 62
     7
370
    25
100
AcDbLine
 10
6245.3168562644
 20
5123.0392477727
 30
0.0
 11
6289.8168542453
 21
5123.0392477727
 31
0.0
  0
LINE
  5
C1
330
1F
100
AcDbEntity
  8
0
  6
Continuous
 62
     7
370
    25
100
AcDbLine
 10
6300.3955191964
 20
5272.9162856257
 30
0.0
 11
6300.3956998729
 21
5279.0036781943
 31
0.0
  0
SPLINE
  5
C2
330
1F
100
AcDbEntity
  8
0
  6
Continuous
 62
     7
370
    25
100
AcDbSpline
210
0.0
220
0.0
230
1.0
 70
     8
 71
     3
 72
    89
 73
    85
 74
     0
 42
0.000000001
 43
0.00000001
 40
0.0
 40
0.0
 40
0.0
 40
0.0
 40
0.026063789413883
 40
0.0551476261694209
 40
0.0872167637083852
 40
0.122127239184187
 40
0.1549727215108852
 40
0.1894827440202272
 40
0.2208839619889178
 40
0.234906783197855
 40
0.2364861140199997
 40
0.238066304436837
 40
0.2396473604749403
 40
0.2412291393441567
 40
0.2428116395699442
 40
0.2443948044983212
 40
0.2459785784804857
 40
0.2774288425931978
 40
0.306608904695077
 40
0.3334002473624684
 40
0.3418752522110897
 40
0.3458405076028025
 40
0.3487041110671134
 40
0.3521588793574658
 40
0.3561845792270234
 40
0.3607569978872029
 40
0.3658480814682364
 40
0.3816009796706838
 40
0.4000161624083078
 40
0.4201764361094343
 40
0.4279846957765168
 40
0.4350085834104983
 40
0.4402770945092437
 40
0.4448674221659135
 40
0.4522163228324635
 40
0.4573896279506309
 40
0.4616212399864366
 40
0.4671041988323493
 40
0.472375600795693
 40
0.4774575688201174
 40
0.4823734408642187
 40
0.4867359065392318
 40
0.4889044664010042
 40
0.4913659790441365
 40
0.4941130639426495
 40
0.4963542058275585
 40
0.497878044830719
 40
0.4990951791844418
 40
0.5000092616425338
 40
0.5050113484672843
 40
0.5112247883643121
 40
0.5188008625180155
 40
0.522524175121101
 40
0.5265679240526165
 40
0.5309626013676665
 40
0.5357431817358624
 40
0.54094950976533
 40
0.546625835986849
 40
0.5528209906026247
 40
0.5586438519811902
 40
0.5661767639802745
 40
0.5756542716108475
 40
0.5822663672220789
 40
0.5897234549215429
 40
0.5981007599496204
 40
0.6020314965410285
 40
0.6074996744142367
 40
0.6130111451684236
 40
0.6185586624648085
 40
0.6241352454423494
 40
0.6297334752761136
 40
0.646092048180015
 40
0.664126218156911
 40
0.6839068445790104
 40
0.7054796116789875
 40
0.7288597462289871
 40
0.7540264934780471
 40
0.7966545461909453
 40
0.837715610583902
 40
0.8764205115643098
 40
0.9122355314045271
 40
0.9448456772168908
 40
0.9741071625571716
 40
1.0
 40
1.0
 40
1.0
 40
1.0
 10
6234.738138228023
 20
5272.916285625679
 30
0.0
 10
6234.761604990143
 20
5273.204677723172
 30
0.0
 10
6234.811257640577
 20
5273.814878309517
 30
0.0
 10
6235.052342148265
 20
5274.778969963533
 30
0.0
 10
6235.469145992164
 20
5275.83929248585
 30
0.0
 10
6236.09496012316
 20
5276.938421784193
 30
0.0
 10
6236.942006399378
 20
5278.060205521066
 30
0.0
 10
6237.9718455434
 20
5279.138047527743
 30
0.0
 10
6238.988017069385
 20
5280.004499873049
 30
0.0
 10
6239.667247909242
 20
5280.510686079492
 30
0.0
 10
6239.926346745795
 20
5280.695287205698
 30
0.0
 10
6239.998443695715
 20
5280.746187960363
 30
0.0
 10
6240.071182678615
 20
5280.797094673151
 30
0.0
 10
6240.144577921371
 20
5280.8479705333
 30
0.0
 10
6240.218629603134
 20
5280.898882893341
 30
0.0
 10
6240.293329287734
 20
5280.949766906055
 30
0.0
 10
6240.842407928942
 20
5281.320407082096
 30
0.0
 10
6241.915592423186
 20
5281.982895470341
 30
0.0
 10
6243.679141184462
 20
5282.900137023789
 30
0.0
 10
6245.182568217019
 20
5283.56370199312
 30
0.0
 10
6246.190127182121
 20
5283.960803423755
 30
0.0
 10
6246.596735401584
 20
5284.114626545464
 30
0.0
 10
6246.875110815722
 20
5284.217654954721
 30
0.0
 10
6247.160019152273
 20
5284.320862321706
 30
0.0
 10
6247.498928917748
 20
5284.440567150627
 30
0.0
 10
6247.893210107493
 20
5284.575759941637
 30
0.0
 10
6248.645475716949
 20
5284.824961293531
 30
0.0
 10
6249.877876223971
 20
5285.203593739197
 30
0.0
 10
6251.766040657471
 20
5285.709035687844
 30
0.0
 10
6253.589435361763
 20
5286.116161821034
 30
0.0
 10
6255.106434250154
 20
5286.402796187776
 30
0.0
 10
6256.025109089153
 20
5286.560045451321
 30
0.0
 10
6256.831978029564
 20
5286.686053345754
 30
0.0
 10
6257.684638857574
 20
5286.808917072695
 30
0.0
 10
6258.57085632309
 20
5286.923599502238
 30
0.0
 10
6259.479532035995
 20
5287.026652352608
 30
0.0
 10
6260.315059695286
 20
5287.11164792825
 30
0.0
 10
6261.185635029464
 20
5287.189545442179
 30
0.0
 10
6262.139663365179
 20
5287.260884712307
 30
0.0
 10
6263.089702159364
 20
5287.318308087863
 30
0.0
 10
6264.008176718124
 20
5287.361023664248
 30
0.0
 10
6264.756221455607
 20
5287.385548809057
 30
0.0
 10
6265.350749001446
 20
5287.400113048267
 30
0.0
 10
6265.842001284425
 20
5287.409424078492
 30
0.0
 10
6266.341273022102
 20
5287.415499213069
 30
0.0
 10
6266.77953257291
 20
5287.417830880256
 30
0.0
 10
6267.115473095661
 20
5287.418197693661
 30
0.0
 10
6267.36213778226
 20
5287.417865042152
 30
0.0
 10
6267.843643479379
 20
5287.417419227422
 30
0.0
 10
6268.66278765527
 20
5287.414423562331
 30
0.0
 10
6269.921395191845
 20
5287.391878393401
 30
0.0
 10
6271.069594691203
 20
5287.351452124381
 30
0.0
 10
6272.047502856932
 20
5287.302496331127
 30
0.0
 10
6272.806432006074
 20
5287.256800214142
 30
0.0
 10
6273.610370165923
 20
5287.199494434368
 30
0.0
 10
6274.459066101984
 20
5287.128883204759
 30
0.0
 10
6275.351820331277
 20
5287.043150843975
 30
0.0
 10
6276.287741618942
 20
5286.940325652011
 30
0.0
 10
6277.215972174506
 20
5286.824556218665
 30
0.0
 10
6278.197007020496
 20
5286.687902534198
 30
0.0
 10
6279.287750860191
 20
5286.518295781339
 30
0.0
 10
6280.348753782959
 20
5286.331556238417
 30
0.0
 10
6281.348483515308
 20
5286.136839947377
 30
0.0
 10
6282.256684577072
 20
5285.944945505174
 30
0.0
 10
6283.015360220854
 20
5285.770648177215
 30
0.0
 10
6283.671277515703
 20
5285.610720998768
 30
0.0
 10
6284.205277202636
 20
5285.474633401274
 30
0.0
 10
6284.777252912346
 20
5285.321531302633
 30
0.0
 10
6285.333888492315
 20
5285.165317301332
 30
0.0
 10
6285.875053161251
 20
5285.006404555804
 30
0.0
 10
6286.737222605308
 20
5284.741812549452
 30
0.0
 10
6287.911342867929
 20
5284.349949494093
 30
0.0
 10
6289.356734173668
 20
5283.806661969975
 30
0.0
 10
6290.78829597509
 20
5283.199335288053
 30
0.0
 10
6292.188693154404
 20
5282.526459522744
 30
0.0
 10
6293.539351072377
 20
5281.787543989048
 30
0.0
 10
6295.087971688249
 20
5280.815824634486
 30
0.0
 10
6296.627627612095
 20
5279.641441980588
 30
0.0
 10
6297.989578308941
 20
5278.308059779205
 30
0.0
 10
6298.977437548956
 20
5277.040812274608
 30
0.0
 10
6299.655200014143
 20
5275.861382152338
 30
0.0
 10
6300.080533756256
 20
5274.783180858784
 30
0.0
 10
6300.322725582959
 20
5273.813059594862
 30
0.0
 10
6300.372263190922
 20
5273.202785763898
 30
0.0
 10
6300.395519196355
 20
5272.916285625679
 30
0.0
  0
LINE
  5
C3
330
1F
100
AcDbEntity
  8
0
  6
Continuous
 62
     7
370
    25
100
AcDbLine
 10
6234.7381903821
 20
5272.9162856257
 30
0.0
 11
6234.7380078429
 21
5279.0033056652
 31
0.0
  0
SPLINE
  5
C4
330
1F
100
AcDbEntity
  8
0
  6
Continuous
 62
     7
370
    25
100
AcDbSpline
210
0.0
220
0.0
230
1.0
 70
     8
 71
     3
 72
    43
 73
    39
 74
     0
 42
0.000000001
 43
0.00000001
 40
0.0
 40
0.0
 40
0.0
 40
0.0
 40
0.0491513827444261
 40
0.0983137346975391
 40
0.1474981945489043
 40
0.1967192811417034
 40
0.2460036360947636
 40
0.2768539216767375
 40
0.3077580033255644
 40
0.3387608100200106
 40
0.3698620632847813
 40
0.3907425370743616
 40
0.4117602661728121
 40
0.4329940901596128
 40
0.4491801077303673
 40
0.4656885154329199
 40
0.4741079403752967
 40
0.4826467666514829
 40
0.4912925847785757
 40
0.4999984864190115
 40
0.5087033912855468
 40
0.5173487116906326
 40
0.5258887388889264
 40
0.5343088617361114
 40
0.5508159002962034
 40
0.5669995805577346
 40
0.5882440267915712
 40
0.6092584331165936
 40
0.6301242976516032
 40
0.6612447399795561
 40
0.6922380197879884
 40
0.7231434689852143
 40
0.753995165920438
 40
0.8032798471177852
 40
0.8525013112888735
 40
0.9016851583069168
 40
0.9508482445241435
 40
1.0
 40
1.0
 40
1.0
 40
1.0
 10
6300.396035149061
 20
5290.37347280143
 30
0.0
 10
6300.334439566248
 20
5290.924751448497
 30
0.0
 10
6300.211234654216
 20
5292.027431772547
 30
0.0
 10
6299.528847068991
 20
5293.670934467658
 30
0.0
 10
6298.453987292709
 20
5295.300327251238
 30
0.0
 10
6296.921344483352
 20
5296.910256175113
 30
0.0
 10
6295.128712118439
 20
5298.298163501993
 30
0.0
 10
6293.218925004046
 20
5299.464746862912
 30
0.0
 10
6291.343045109666
 20
5300.418173653491
 30
0.0
 10
6289.149081462012
 20
5301.348723959681
 30
0.0
 10
6286.812469011127
 20
5302.145227792219
 30
0.0
 10
6284.443723030324
 20
5302.811135961657
 30
0.0
 10
6282.105513988454
 20
5303.351827474973
 30
0.0
 10
6279.597790561724
 20
5303.80396989862
 30
0.0
 10
6276.964499028008
 20
5304.166107876168
 30
0.0
 10
6274.6880064331
 20
5304.390069294501
 30
0.0
 10
6272.667980618034
 20
5304.527081913097
 30
0.0
 10
6271.042174339244
 20
5304.605269209689
 30
0.0
 10
6269.33065811938
 20
5304.652891148056
 30
0.0
 10
6267.570448478849
 20
5304.66727879096
 30
0.0
 10
6265.810242391888
 20
5304.646425063012
 30
0.0
 10
6264.098746837668
 20
5304.592277023366
 30
0.0
 10
6262.472901798192
 20
5304.507490857127
 30
0.0
 10
6260.452977145184
 20
5304.361736089944
 30
0.0
 10
6258.177039141369
 20
5304.126904035024
 30
0.0
 10
6255.538985517714
 20
5303.75159240942
 30
0.0
 10
6253.039964480879
 20
5303.284347118632
 30
0.0
 10
6250.700698184204
 20
5302.731343259485
 30
0.0
 10
6248.322295792851
 20
5302.054133484209
 30
0.0
 10
6245.995696196114
 20
5301.246425690426
 30
0.0
 10
6243.797529508718
 20
5300.310195898198
 30
0.0
 10
6241.919768638572
 20
5299.354328151143
 30
0.0
 10
6240.008184954761
 20
5298.189644369194
 30
0.0
 10
6238.21677701763
 20
5296.810927080128
 30
0.0
 10
6236.681563752877
 20
5295.217185162252
 30
0.0
 10
6235.60536676234
 20
5293.60941179831
 30
0.0
 10
6234.922638385866
 20
5291.991942307416
 30
0.0
 10
6234.799305717079
 20
5290.908559943805
 30
0.0
 10
6234.737646489702
 20
5290.366931191666
 30
0.0
  0
LINE
  5
C5
330
1F
100
AcDbEntity
  8
0
  6
Continuous
 62
     7
370
    25
100
AcDbLine
 10
6300.3578024947
 20
5290.6204744494
 30
0.0
 11
6300.3960351491
 21
5290.3734728014
 31
0.0
  0
LWPOLYLINE
  5
C6
330
1F
100
AcDbEntity
  8
0
  6
Continuous
 62
     7
370
    25
100
AcDbPolyline
 90
        3
 70
   128
 43
0.0
 10
6234.7376464897
 20
5290.3669311917
 10
6234.7558631593
 20
5290.5988379633
 10
6234.7590073043
 20
5290.617762438
  0
SPLINE
  5
C7
330
1F
100
AcDbEntity
  8
0
  6
Continuous
 62
     7
370
    25
100
AcDbSpline
210
0.0
220
0.0
230
1.0
 70
     8
 71
     3
 72
    13
 73
     9
 74
     0
 42
0.000000001
 43
0.00000001
 40
0.0
 40
0.0
 40
0.0
 40
0.0
 40
0.2394028430660733
 40
0.3682808530308565
 40
0.4999037065786802
 40
0.6315408579280769
 40
0.7604551337991226
 40
1.0
 40
1.0
 40
1.0
 40
1.0
 10
6298.895497530067
 20
5271.438060632927
 30
0.0
 10
6299.084014282843
 20
5271.457785040765
 30
0.0
 10
6299.374015477624
 20
5271.488127711935
 30
0.0
 10
6299.723006659102
 20
5271.672288203727
 30
0.0
 10
6299.963236139284
 20
5271.862948296686
 30
0.0
 10
6300.156876927669
 20
5272.099690869105
 30
0.0
 10
6300.34415724594
 20
5272.443874254483
 30
0.0
 10
6300.375281066359
 20
5272.730162315363
 30
0.0
 10
6300.395515471065
 20
5272.916285625679
 30
0.0
  0
SPLINE
  5
C8
330
1F
100
AcDbEntity
  8
0
  6
Continuous
 62
     7
370
    25
100
AcDbSpline
210
0.0
220
0.0
230
1.0
 70
     8
 71
     3
 72
    57
 73
    53
 74
     0
 42
0.000000001
 43
0.00000001
 40
0.0
 40
0.0
 40
0.0
 40
0.0
 40
0.0358423995980697
 40
0.0715398337174584
 40
0.1073237884348672
 40
0.1431446438356146
 40
0.178748193487822
 40
0.2150096633503167
 40
0.2500264313466294
 40
0.2661480473134691
 40
0.2819328567026141
 40
0.2973888432403916
 40
0.3125243595604178
 40
0.3285185187472787
 40
0.3437899410125452
 40
0.3596970469180809
 40
0.3750299931434492
 40
0.3867760971608736
 40
0.397964202351566
 40
0.4086119703212086
 40
0.4187397404769708
 40
0.4283711869173043
 40
0.437534050731792
 40
0.4481510073820494
 40
0.4585343361938446
 40
0.4687783249785837
 40
0.4767777533409239
 40
0.4843922773994023
 40
0.4923133377824354
 40
0.5000097341821799
 40
0.5077008080755583
 40
0.5156239393625383
 40
0.5232415344860882
 40
0.5312411245712501
 40
0.5414646861847396
 40
0.5519226953244626
 40
0.5624823734465578
 40
0.5781035747563396
 40
0.5937266364685776
 40
0.608707286746141
 40
0.6249820091968286
 40
0.6497969118586108
 40
0.6746499622334864
 40
0.6995276174756632
 40
0.724294393145188
 40
0.7499824411252392
 40
0.7909707827655048
 40
0.8330888185532479
 40
0.8749856965135107
 40
0.9156332136658334
 40
0.9572890671128061
 40
1.0
 40
1.0
 40
1.0
 40
1.0
 10
6298.895495667422
 20
5271.438060632927
 30
0.0
 10
6298.859092526312
 20
5271.82802601777
 30
0.0
 10
6298.786433477501
 20
5272.606379562736
 30
0.0
 10
6298.424556274652
 20
5273.772869071584
 30
0.0
 10
6297.871710743777
 20
5274.936950852151
 30
0.0
 10
6297.102305126564
 20
5276.096737118202
 30
0.0
 10
6296.099729021062
 20
5277.25693301092
 30
0.0
 10
6294.860399104661
 20
5278.402034785755
 30
0.0
 10
6293.626369564854
 20
5279.33125966964
 30
0.0
 10
6292.539722358638
 20
5280.037073418782
 30
0.0
 10
6291.704629420242
 20
5280.533696517711
 30
0.0
 10
6290.819636556554
 20
5281.016758498974
 30
0.0
 10
6289.861344379567
 20
5281.498396748608
 30
0.0
 10
6288.830038191838
 20
5281.973806492292
 30
0.0
 10
6287.689784016349
 20
5282.451462524212
 30
0.0
 10
6286.463824684151
 20
5282.915480766983
 30
0.0
 10
6285.226980797604
 20
5283.336497395909
 30
0.0
 10
6284.038966111441
 20
5283.703930077608
 30
0.0
 10
6282.923643488292
 20
5284.019712375765
 30
0.0
 10
6281.78729398765
 20
5284.312771386301
 30
0.0
 10
6280.629829323154
 20
5284.583075803862
 30
0.0
 10
6279.451263506912
 20
5284.830705151821
 30
0.0
 10
6278.168582326827
 20
5285.070944407358
 30
0.0
 10
6276.755051259956
 20
5285.302366897394
 30
0.0
 10
6275.166545142201
 20
5285.519693762397
 30
0.0
 10
6273.589237548901
 20
5285.692171474455
 30
0.0
 10
6272.066057796002
 20
5285.819917443804
 30
0.0
 10
6270.60519259319
 20
5285.908232662298
 30
0.0
 10
6269.105298295237
 20
5285.963630882568
 30
0.0
 10
6267.567010745643
 20
5285.982947283447
 30
0.0
 10
6266.028590552055
 20
5285.963635146591
 30
0.0
 10
6264.528726188441
 20
5285.908228830373
 30
0.0
 10
6263.067478145037
 20
5285.819900334594
 30
0.0
 10
6261.544966362768
 20
5285.69235700582
 30
0.0
 10
6259.965443902483
 20
5285.519359468365
 30
0.0
 10
6258.376905370305
 20
5285.302100376991
 30
0.0
 10
6256.659144479251
 20
5285.021137710344
 30
0.0
 10
6254.883673230416
 20
5284.672247139961
 30
0.0
 10
6253.114119729249
 20
5284.262183084575
 30
0.0
 10
6251.499012331372
 20
5283.826891094855
 30
0.0
 10
6249.74168910468
 20
5283.289871991048
 30
0.0
 10
6247.896085067107
 20
5282.639589912458
 30
0.0
 10
6246.078480376385
 20
5281.885553084953
 30
0.0
 10
6244.485649592211
 20
5281.118502437399
 30
0.0
 10
6243.061080185678
 20
5280.333054232069
 30
0.0
 10
6241.543060303977
 20
5279.369930229454
 30
0.0
 10
6240.036818322482
 20
5278.212037017254
 30
0.0
 10
6238.658745604454
 20
5276.870694312855
 30
0.0
 10
6237.607650553141
 20
5275.525036475927
 30
0.0
 10
6236.866858633231
 20
5274.178948468179
 30
0.0
 10
6236.385367663508
 20
5272.820672804097
 30
0.0
 10
6236.287648920736
 20
5271.902757796313
 30
0.0
 10
6236.238178520763
 20
5271.438060632927
 30
0.0
  0
SPLINE
  5
C9
330
1F
100
AcDbEntity
  8
0
  6
Continuous
 62
     7
370
    25
100
AcDbSpline
210
0.0
220
0.0
230
1.0
 70
     8
 71
     3
 72
    13
 73
     9
 74
     0
 42
0.000000001
 43
0.00000001
 40
0.0
 40
0.0
 40
0.0
 40
0.0
 40
0.2394059881782765
 40
0.3682830787099817
 40
0.499905407674093
 40
0.6315429977739574
 40
0.7604583077808248
 40
1.0
 40
1.0
 40
1.0
 40
1.0
 10
6236.238178520763
 20
5271.438060632927
 30
0.0
 10
6236.049663052274
 20
5271.457791053796
 30
0.0
 10
6235.75966589035
 20
5271.488142759687
 30
0.0
 10
6235.410680061236
 20
5271.672302920843
 30
0.0
 10
6235.170458259311
 20
5271.862964171396
 30
0.0
 10
6234.976822567601
 20
5272.099706304814
 30
0.0
 10
6234.789553210771
 20
5272.443885922673
 30
0.0
 10
6234.758428766843
 20
5272.730167751914
 30
0.0
 10
6234.738194107377
 20
5272.916285625679
 30
0.0
  0
SPLINE
  5
CA
330
1F
100
AcDbEntity
  8
0
  6
Continuous
 62
     7
370
    25
100
AcDbSpline
210
0.0
220
0.0
230
1.0
 70
     8
 71
     3
 72
    19
 73
    15
 74
     0
 42
0.000000001
 43
0.00000001
 40
0.0
 40
0.0
 40
0.0
 40
0.0
 40
0.0807996991884253
 40
0.1773209954708078
 40
0.2738424047288081
 40
0.32115118134569
 40
0.3684795181957139
 40
0.4592225402020447
 40
0.5448373222373821
 40
0.6304520870292502
 40
0.7211950923938978
 40
0.8157108603868823
 40
0.9122322797250585
 40
1.0
 40
1.0
 40
1.0
 40
1.0
 10
6256.021189227068
 20
5283.877088061554
 30
0.0
 10
6256.329753156761
 20
5283.985621418687
 30
0.0
 10
6257.006919826058
 20
5284.223806005039
 30
0.0
 10
6258.601816074076
 20
5284.53770593635
 30
0.0
 10
6260.278029964893
 20
5284.764213262627
 30
0.0
 10
6261.761008363035
 20
5284.906922548011
 30
0.0
 10
6263.275294355475
 20
5285.020783968863
 30
0.0
 10
6265.215564943998
 20
5285.112841098189
 30
0.0
 10
6267.566892937314
 20
5285.148450246953
 30
0.0
 10
6269.917986375539
 20
5285.11277708752
 30
0.0
 10
6272.268320154202
 20
5285.001642977341
 30
0.0
 10
6274.518430898829
 20
5284.807675058504
 30
0.0
 10
6276.50201480813
 20
5284.549274030879
 30
0.0
 10
6277.492744254257
 20
5284.330007313438
 30
0.0
 10
6277.964579247237
 20
5284.225581518394
 30
0.0
  0
SPLINE
  5
CB
330
1F
100
AcDbEntity
  8
0
  6
Continuous
 62
     7
370
    25
100
AcDbSpline
210
0.0
220
0.0
230
1.0
 70
     8
 71
     3
 72
    11
 73
     7
 74
     0
 42
0.000000001
 43
0.00000001
 40
0.0
 40
0.0
 40
0.0
 40
0.0
 40
0.2457112121033384
 40
0.497515935566993
 40
0.7483197068870352
 40
1.0
 40
1.0
 40
1.0
 40
1.0
 10
6238.311753331983
 20
5265.976039997322
 30
0.0
 10
6238.009983199767
 20
5266.3978454393
 30
0.0
 10
6237.398959191664
 20
5267.251916880715
 30
0.0
 10
6236.795674196041
 20
5268.541805664735
 30
0.0
 10
6236.384658309822
 20
5269.843996492414
 30
0.0
 10
6236.294738950141
 20
5270.712456047871
 30
0.0
 10
6236.249700843656
 20
5271.147443286163
 30
0.0
  0
LINE
  5
CC
330
1F
100
AcDbEntity
  8
0
  6
Continuous
 62
     7
370
    25
100
AcDbLine
 10
6236.2497008437
 20
5271.1474432862
 30
0.0
 11
6236.2381785208
 21
5271.4380606329
 31
0.0
  0
LINE
  5
CD
330
1F
100
AcDbEntity
  8
0
  6
Continuous
 62
     7
370
    25
100
AcDbLine
 10
6298.8840087348
 20
5271.1474432862
 30
0.0
 11
6298.8954956674
 21
5271.4380606329
 31
0.0
  0
SPLINE
  5
CE
330
1F
100
AcDbEntity
  8
0
  6
Continuous
 62
     7
370
    25
100
AcDbSpline
210
0.0
220
0.0
230
1.0
 70
     8
 71
     3
 72
    11
 73
     7
 74
     0
 42
0.000000001
 43
0.00000001
 40
0.0
 40
0.0
 40
0.0
 40
0.0
 40
0.2459999973343075
 40
0.4981971698682964
 40
0.7479946143139892
 40
1.0
 40
1.0
 40
1.0
 40
1.0
 10
6296.821954383814
 20
5265.976039997322
 30
0.0
 10
6297.124030172087
 20
5266.398340601697
 30
0.0
 10
6297.735791572226
 20
5267.253580309879
 30
0.0
 10
6298.338306267528
 20
5268.542930282737
 30
0.0
 10
6298.749084136276
 20
5269.844610577291
 30
0.0
 10
6298.838902135026
 20
5270.711893696235
 30
0.0
 10
6298.884008734786
 20
5271.147443286163
 30
0.0
  0
SPLINE
  5
CF
330
1F
100
AcDbEntity
  8
0
  6
Continuous
 62
     7
370
    25
100
AcDbSpline
210
0.0
220
0.0
230
1.0
 70
     8
 71
     3
 72
    19
 73
    15
 74
     0
 42
0.000000001
 43
0.00000001
 40
0.0
 40
0.0
 40
0.0
 40
0.0
 40
0.0830779518144677
 40
0.1665827428688055
 40
0.2500692960339262
 40
0.3335493126317263
 40
0.417005033013473
 40
0.499999081827149
 40
0.5829840229053648
 40
0.6664327339889913
 40
0.7499129765883613
 40
0.8333894904580198
 40
0.9169022182534028
 40
1.0
 40
1.0
 40
1.0
 40
1.0
 10
6238.311753331983
 20
5265.976039997322
 30
0.0
 10
6239.792243031642
 20
5266.115182791009
 30
0.0
 10
6242.760828914804
 20
5266.394183268472
 30
0.0
 10
6247.48720454515
 20
5266.725758894946
 30
0.0
 10
6252.366526259897
 20
5266.991599355744
 30
0.0
 10
6257.373042601111
 20
5267.183417364161
 30
0.0
 10
6262.452829830423
 20
5267.30036871574
 30
0.0
 10
6267.566663895789
 20
5267.340013255079
 30
0.0
 10
6272.680356928116
 20
5267.30041280846
 30
0.0
 10
6277.759861026802
 20
5267.183504639873
 30
0.0
 10
6282.76607652764
 20
5266.991718327141
 30
0.0
 10
6287.64536095637
 20
5266.725862614609
 30
0.0
 10
6292.372073826983
 20
5266.39429896028
 30
0.0
 10
6295.341125688052
 20
5266.115227974774
 30
0.0
 10
6296.821954383814
 20
5265.976039997322
 30
0.0
  0
LINE
  5
D0
330
1F
100
AcDbEntity
  8
0
  6
Continuous
 62
     7
370
    25
100
AcDbLine
 10
6300.400827735
 20
5290.1103480971
 30
0.0
 11
6300.3960351491
 21
5290.3734728014
 31
0.0
  0
LINE
  5
D1
330
1F
100
AcDbEntity
  8
0
  6
Continuous
 62
     7
370
    25
100
AcDbLine
 10
6300.395521059
 20
5272.9162856257
 30
0.0
 11
6300.3839409941
 21
5272.6257129824
 31
0.0
  0
LINE
  5
D2
330
1F
100
AcDbEntity
  8
0
  6
Continuous
 62
     7
370
    25
100
AcDbLine
 10
6234.7497685843
 20
5272.6257129824
 30
0.0
 11
6234.7381903821
 21
5272.9162856257
 31
0.0
  0
LINE
  5
D3
330
1F
100
AcDbEntity
  8
0
  6
Continuous
 62
     7
370
    25
100
AcDbLine
 10
6234.7376725667
 20
5290.3669311917
 30
0.0
 11
6234.7328781181
 21
5290.1086195624
 31
0.0
  0
LWPOLYLINE
  5
D4
330
1F
100
AcDbEntity
  8
0
  6
Continuous
 62
     7
370
    25
100
AcDbPolyline
 90
        3
 70
   128
 43
0.0
 10
6234.7821935111
 20
5272.3186149514
 10
6234.7783825391
 20
5272.3369582808
 10
6234.7497685843
 20
5272.6257129824
  0
LWPOLYLINE
  5
D5
330
1F
100
AcDbEntity
  8
0
  6
Continuous
 62
     7
370
    25
100
AcDbPolyline
 90
        3
 70
   128
 43
0.0
 10
6300.3839409941
 20
5272.6257129824
 10
6300.3553251767
 20
5272.3369582808
 10
6300.3515402817
 20
5272.3187341606
  0
SPLINE
  5
D6
330
1F
100
AcDbEntity
  8
0
  6
Continuous
 62
     7
370
    25
100
AcDbSpline
210
0.0
220
0.0
230
1.0
 70
     8
 71
     3
 72
    14
 73
    10
 74
     0
 42
0.000000001
 43
0.00000001
 40
0.0
 40
0.0
 40
0.0
 40
0.0
 40
0.0511563837285377
 40
0.1234519667979009
 40
0.2169002291289499
 40
0.3314997388631762
 40
0.5170906309047556
 40
0.7399865830291404
 40
0.9999999999999999
 40
0.9999999999999999
 40
0.9999999999999999
 40
0.9999999999999999
 10
6239.296921252571
 20
5261.518812111599
 30
0.0
 10
6239.281589616995
 20
5261.636100616949
 30
0.0
 10
6239.244590899958
 20
5261.91914440568
 30
0.0
 10
6239.177400131451
 20
5262.391696371816
 30
0.0
 10
6239.08796467482
 20
5262.968080663434
 30
0.0
 10
6238.958438978528
 20
5263.711731025467
 30
0.0
 10
6238.781647440983
 20
5264.565770048734
 30
0.0
 10
6238.553029044455
 20
5265.439564578312
 30
0.0
 10
6238.39619672719
 20
5265.78828050275
 30
0.0
 10
6238.311753331983
 20
5265.976039997322
 30
0.0
  0
SPLINE
  5
D7
330
1F
100
AcDbEntity
  8
0
  6
Continuous
 62
     7
370
    25
100
AcDbSpline
210
0.0
220
0.0
230
1.0
 70
     8
 71
     3
 72
    11
 73
     7
 74
     0
 42
0.000000001
 43
0.00000001
 40
0.0
 40
0.0
 40
0.0
 40
0.0
 40
0.2502232649454458
 40
0.5004083002037941
 40
0.7503739853225991
 40
1.0
 40
1.0
 40
1.0
 40
1.0
 10
6295.837758763992
 20
5261.520615152103
 30
0.0
 10
6295.914591058093
 20
5262.073337246743
 30
0.0
 10
6296.068243907679
 20
5263.178696989869
 30
0.0
 10
6296.322509592942
 20
5264.450631050703
 30
0.0
 10
6296.578743134416
 20
5265.439399654912
 30
0.0
 10
6296.740925690164
 20
5265.797240981491
 30
0.0
 10
6296.821961834395
 20
5265.976039997322
 30
0.0
  0
SPLINE
  5
D8
330
1F
100
AcDbEntity
  8
0
  6
Continuous
 62
     7
370
    25
100
AcDbSpline
210
0.0
220
0.0
230
1.0
 70
     8
 71
     3
 72
    11
 73
     7
 74
     0
 42
0.000000001
 43
0.00000001
 40
0.0
 40
0.0
 40
0.0
 40
0.0
 40
0.2352866811968619
 40
0.4834410293613348
 40
0.7401298287858395
 40
1.0
 40
1.0
 40
1.0
 40
1.0
 10
6292.237882226073
 20
5250.596707991344
 30
0.0
 10
6292.340950939316
 20
5251.554209011511
 30
0.0
 10
6292.552725122928
 20
5253.521576124897
 30
0.0
 10
6293.309985242404
 20
5256.417926713328
 30
0.0
 10
6294.382461582226
 20
5259.201355597446
 30
0.0
 10
6295.35067203913
 20
5260.744360958294
 30
0.0
 10
6295.837758763992
 20
5261.520615152103
 30
0.0
  0
SPLINE
  5
D9
330
1F
100
AcDbEntity
  8
0
  6
Continuous
 62
     7
370
    25
100
AcDbSpline
210
0.0
220
0.0
230
1.0
 70
     8
 71
     3
 72
    19
 73
    15
 74
     0
 42
0.000000001
 43
0.00000001
 40
0.0
 40
0.0
 40
0.0
 40
0.0
 40
0.083529508062938
 40
0.1669627652094167
 40
0.2503320083677659
 40
0.3336315429306434
 40
0.4168494615426575
 40
0.4999999964233343
 40
0.5831505275520816
 40
0.6663684635843299
 40
0.7496679894656351
 40
0.8330372485362005
 40
0.9164704670422409
 40
0.9999999999999999
 40
0.9999999999999999
 40
0.9999999999999999
 40
0.9999999999999999
 10
6242.895797550046
 20
5250.596700540764
 30
0.0
 10
6244.102516583061
 20
5250.788333527898
 30
0.0
 10
6246.514564148708
 20
5251.171378683788
 30
0.0
 10
6250.452532698554
 20
5251.628635835129
 30
0.0
 10
6254.559672746743
 20
5251.995201724571
 30
0.0
 10
6258.815652137513
 20
5252.259867662024
 30
0.0
 10
6263.16634824429
 20
5252.42162404075
 30
0.0
 10
6267.566836106548
 20
5252.47659056179
 30
0.0
 10
6271.967324216325
 20
5252.421620856986
 30
0.0
 10
6276.318021772825
 20
5252.259880368525
 30
0.0
 10
6280.574001572943
 20
5251.995198902417
 30
0.0
 10
6284.681142782745
 20
5251.628634288837
 30
0.0
 10
6288.619113974879
 20
5251.171388183167
 30
0.0
 10
6291.031162336067
 20
5250.788341710258
 30
0.0
 10
6292.237882226073
 20
5250.596707991344
 30
0.0
  0
SPLINE
  5
DA
330
1F
100
AcDbEntity
  8
0
  6
Continuous
 62
     7
370
    25
100
AcDbSpline
210
0.0
220
0.0
230
1.0
 70
     8
 71
     3
 72
    11
 73
     7
 74
     0
 42
0.000000001
 43
0.00000001
 40
0.0
 40
0.0
 40
0.0
 40
0.0
 40
0.2598721611808013
 40
0.5165597725718137
 40
0.7647124576403422
 40
1.0
 40
1.0
 40
1.0
 40
1.0
 10
6239.296921252572
 20
5261.518812111599
 30
0.0
 10
6239.783868262597
 20
5260.742603284953
 30
0.0
 10
6240.751795090965
 20
5259.199697522602
 30
0.0
 10
6241.82394053108
 20
5256.416723049462
 30
0.0
 10
6242.580989935977
 20
5253.520947650178
 30
0.0
 10
6242.792740018468
 20
5251.554001683907
 30
0.0
 10
6242.895797550045
 20
5250.596700540764
 30
0.0
  0
SPLINE
  5
DB
330
1F
100
AcDbEntity
  8
0
  6
Continuous
 62
     7
370
    25
100
AcDbSpline
210
0.0
220
0.0
230
1.0
 70
    11
 71
     3
 72
    45
 73
    41
 74
     0
 42
0.000000001
 43
0.00000001
 40
0.0
 40
0.0
 40
0.0
 40
0.0
 40
0.0269304653878427
 40
0.0538644667471931
 40
0.0807799354673638
 40
0.1076946124144111
 40
0.1348416997242115
 40
0.1619844105805471
 40
0.1885342357118897
 40
0.2150832251417482
 40
0.2410047298871547
 40
0.2669296100953111
 40
0.2931701443344981
 40
0.3194129583408509
 40
0.3464149235098968
 40
0.3734144825463312
 40
0.4004594458232318
 40
0.427500698226599
 40
0.4538174092846897
 40
0.480134773935492
 40
0.5060886754686431
 40
0.5320460040237533
 40
0.5585064124227326
 40
0.5849681018713436
 40
0.6120785820095003
 40
0.6391855673066755
 40
0.6660827016232199
 40
0.6929767527120632
 40
0.7190799141275833
 40
0.7451852246744097
 40
0.7711719975625316
 40
0.7971621753855416
 40
0.8238626819289004
 40
0.8505628727690092
 40
0.8777174826526132
 40
0.9048680980364446
 40
0.9315198957527154
 40
0.9581702795365142
 40
0.9790846058920306
 40
1.0
 40
1.0
 40
1.0
 40
1.0
 10
6271.216283741706
 20
5167.720878801329
 30
0.0
 10
6271.794273429695
 20
5167.485593803024
 30
0.0
 10
6272.950328695748
 20
5167.014992913482
 30
0.0
 10
6274.499805863189
 20
5165.959180739722
 30
0.0
 10
6275.854787003632
 20
5164.676503675913
 30
0.0
 10
6276.981323124322
 20
5163.178339831157
 30
0.0
 10
6277.838731309035
 20
5161.501599333224
 30
0.0
 10
6278.404530209084
 20
5159.708121379618
 30
0.0
 10
6278.652002095964
 20
5157.854028727851
 30
0.0
 10
6278.594566177399
 20
5156.011724022331
 30
0.0
 10
6278.231345799952
 20
5154.222619013406
 30
0.0
 10
6277.592229793051
 20
5152.525187677938
 30
0.0
 10
6276.678702211064
 20
5150.955355550323
 30
0.0
 10
6275.511363981973
 20
5149.535687854802
 30
0.0
 10
6274.107428855386
 20
5148.321736336242
 30
0.0
 10
6272.503930976215
 20
5147.344614794168
 30
0.0
 10
6270.750139699706
 20
5146.656005590557
 30
0.0
 10
6268.917171875972
 20
5146.269890601883
 30
0.0
 10
6267.060136433786
 20
5146.203878400398
 30
0.0
 10
6265.242891798051
 20
5146.435773689925
 30
0.0
 10
6263.502114807273
 20
5146.965009137979
 30
0.0
 10
6261.869243432663
 20
5147.763856267525
 30
0.0
 10
6260.386123195999
 20
5148.828143070469
 30
0.0
 10
6259.077020785021
 20
5150.13572939686
 30
0.0
 10
6257.999388570593
 20
5151.66071658851
 30
0.0
 10
6257.18295359901
 20
5153.356316422658
 30
0.0
 10
6256.671120055499
 20
5155.167858896663
 30
0.0
 10
6256.467392645802
 20
5157.019745484491
 30
0.0
 10
6256.580646511213
 20
5158.860848208941
 30
0.0
 10
6256.982486543327
 20
5160.636624345551
 30
0.0
 10
6257.671430851417
 20
5162.313558708933
 30
0.0
 10
6258.623219286219
 20
5163.867134729778
 30
0.0
 10
6259.830718510189
 20
5165.250289178744
 30
0.0
 10
6261.268661802382
 20
5166.435374086192
 30
0.0
 10
6262.900859015032
 20
5167.364158073644
 30
0.0
 10
6264.668475839573
 20
5168.009900305168
 30
0.0
 10
6266.514159513926
 20
5168.341564115632
 30
0.0
 10
6268.244115025997
 20
5168.3598012312
 30
0.0
 10
6269.825607568232
 20
5168.148007340832
 30
0.0
 10
6270.752717128697
 20
5167.863257404021
 30
0.0
 10
6271.216283741706
 20
5167.720878801329
 30
0.0
  0
LINE
  5
DC
330
1F
100
AcDbEntity
  8
0
  6
Continuous
 62
     7
370
    25
100
AcDbLine
 10
6295.3514277035
 20
5250.0185876405
 30
0.0
 11
6292.2378822261
 21
5250.5967079913
 31
0.0
  0
SPLINE
  5
DD
330
1F
100
AcDbEntity
  8
0
  6
Continuous
 62
     7
370
    25
100
AcDbSpline
210
0.0
220
0.0
230
1.0
 70
     8
 71
     3
 72
    10
 73
     6
 74
     0
 42
0.000000001
 43
0.00000001
 40
0.0
 40
0.0
 40
0.0
 40
0.0
 40
0.5000592275619804
 40
0.6565810235007212
 40
1.0
 40
1.0
 40
1.0
 40
1.0
 10
6296.230013205969
 20
5193.835290453417
 30
0.0
 10
6296.093607870213
 20
5203.200445140338
 30
0.0
 10
6295.914506775734
 20
5215.49695425499
 30
0.0
 10
6295.590043795077
 20
5234.224206850392
 30
0.0
 10
6295.448553242618
 20
5243.587061720263
 30
0.0
 10
6295.351360648238
 20
5250.018587640507
 30
0.0
  0
SPLINE
  5
DE
330
1F
100
AcDbEntity
  8
0
  6
Continuous
 62
     7
370
    25
100
AcDbSpline
210
0.0
220
0.0
230
1.0
 70
     8
 71
     3
 72
    31
 73
    27
 74
     0
 42
0.000000001
 43
0.00000001
 40
0.0
 40
0.0
 40
0.0
 40
0.0
 40
0.0675551628273851
 40
0.1250333211684952
 40
0.1724344913458622
 40
0.2097586677090519
 40
0.2175576958102801
 40
0.2247196946852945
 40
0.2312446634774099
 40
0.2371326025186689
 40
0.2423835119131976
 40
0.246997393093988
 40
0.2532633933124134
 40
0.3199215252513061
 40
0.3711346877742502
 40
0.4197560541237521
 40
0.4657856489429515
 40
0.5100060685892859
 40
0.5588499450554802
 40
0.6030946685130399
 40
0.6505589644138252
 40
0.7012428183965871
 40
0.7551463204516712
 40
0.803409705041024
 40
0.8378129034811117
 40
1.0
 40
1.0
 40
1.0
 40
1.0
 10
6296.380356609189
 20
5124.289246580583
 30
0.0
 10
6296.391705472915
 20
5125.855301395809
 30
0.0
 10
6296.412710323823
 20
5128.753807246204
 30
0.0
 10
6296.436173042984
 20
5132.751197418482
 30
0.0
 10
6296.452761337528
 20
5136.047784856416
 30
0.0
 10
6296.461896776827
 20
5138.192709428366
 30
0.0
 10
6296.466568282699
 20
5139.404800745944
 30
0.0
 10
6296.468418126181
 20
5139.902895832474
 30
0.0
 10
6296.470043972229
 20
5140.356687670363
 30
0.0
 10
6296.471463678306
 20
5140.766176180493
 30
0.0
 10
6296.472689967757
 20
5141.131361355785
 30
0.0
 10
6296.473905720132
 20
5141.505311009028
 30
0.0
 10
6296.479532137806
 20
5143.302825145128
 30
0.0
 10
6296.486499510753
 20
5146.180627313011
 30
0.0
 10
6296.491307643754
 20
5150.040336777502
 30
0.0
 10
6296.492060020648
 20
5153.421828647296
 30
0.0
 10
6296.489571095609
 20
5156.641210507421
 30
0.0
 10
6296.483914464382
 20
5159.865746695089
 30
0.0
 10
6296.475005656725
 20
5163.048897724723
 30
0.0
 10
6296.462606098766
 20
5166.307238449011
 30
0.0
 10
6296.446815548657
 20
5169.608220264281
 30
0.0
 10
6296.426294846207
 20
5173.133094464867
 30
0.0
 10
6296.401804213287
 20
5176.676468794201
 30
0.0
 10
6296.376420981089
 20
5179.842399520625
 30
0.0
 10
6296.326638078754
 20
5185.5184962168
 30
0.0
 10
6296.273692958208
 20
5190.075642433162
 30
0.0
 10
6296.230013205969
 20
5193.835290453417
 30
0.0
  0
SPLINE
  5
DF
330
1F
100
AcDbEntity
  8
0
  6
Continuous
 62
     7
370
    25
100
AcDbSpline
210
0.0
220
0.0
230
1.0
 70
    24
 71
     3
 72
    20
 73
    16
 74
     0
 42
0.000000001
 43
0.00000001
 40
0.0
 40
0.0
 40
0.0
 40
0.0
 40
0.0773996230453262
 40
0.1550460793581709
 40
0.2324457105470479
 40
0.3098453407165246
 40
0.3874917858388102
 40
0.4648914128214459
 40
0.5422910250998467
 40
0.619937457832194
 40
0.6973370777870339
 40
0.7747366693208158
 40
0.8523831033694128
 40
0.9297826797868147
 40
1.0
 40
1.0
 40
1.0
 40
1.0
 10
6296.380356609189
 20
5124.289246580583
 30
0.0
 10
6295.128399068894
 20
5124.289246580583
 30
0.0
 10
6292.620491400766
 20
5124.289246580583
 30
0.0
 10
6288.448879532083
 20
5124.289246580583
 30
0.0
 10
6284.042502929664
 20
5124.289246580583
 30
0.0
 10
6279.415828747604
 20
5124.289246580583
 30
0.0
 10
6274.64420271884
 20
5124.289246580583
 30
0.0
 10
6269.782669408236
 20
5124.289246580583
 30
0.0
 10
6264.89264395692
 20
5124.289246580583
 30
0.0
 10
6260.03689478963
 20
5124.289246580583
 30
0.0
 10
6255.274558980172
 20
5124.289246580583
 30
0.0
 10
6250.669515862153
 20
5124.289246580583
 30
0.0
 10
6246.282773307174
 20
5124.289246580583
 30
0.0
 10
6242.264965401047
 20
5124.289246580583
 30
0.0
 10
6239.885296417626
 20
5124.289246580583
 30
0.0
 10
6238.753352969253
 20
5124.289246580583
 30
0.0
  0
SPLINE
  5
E0
330
1F
100
AcDbEntity
  8
0
  6
Continuous
 62
     7
370
    25
100
AcDbSpline
210
0.0
220
0.0
230
1.0
 70
     8
 71
     3
 72
    22
 73
    18
 74
     0
 42
0.000000001
 43
0.00000001
 40
0.0
 40
0.0
 40
0.0
 40
0.0
 40
0.1258342930959908
 40
0.2432991443923722
 40
0.3523942085369028
 40
0.4531193247917382
 40
0.5454743431994227
 40
0.6294592642843584
 40
0.7050738878405561
 40
0.7643703719973705
 40
0.8172581498751792
 40
0.8637372135137061
 40
0.9038075373966445
 40
0.9374689862006389
 40
0.9647215390360814
 40
0.9855652406573995
 40
1.0
 40
1.0
 40
1.0
 40
1.0
 10
6238.753352969253
 20
5124.289246580583
 30
0.0
 10
6238.732967772527
 20
5127.206326779963
 30
0.0
 10
6238.69355323139
 20
5132.846467469525
 30
0.0
 10
6238.658599676343
 20
5141.015771834511
 30
0.0
 10
6238.641471527108
 20
5148.603034319992
 30
0.0
 10
6238.640869427803
 20
5155.608209301578
 30
0.0
 10
6238.653655775171
 20
5162.031255002929
 30
0.0
 10
6238.676626872854
 20
5167.872143578257
 30
0.0
 10
6238.705277350943
 20
5172.946616487588
 30
0.0
 10
6238.736078948345
 20
5177.300151326688
 30
0.0
 10
6238.766416828819
 20
5180.978235249464
 30
0.0
 10
6238.796404752523
 20
5184.21059496904
 30
0.0
 10
6238.824722789772
 20
5186.997235875494
 30
0.0
 10
6238.850248537894
 20
5189.338163335642
 30
0.0
 10
6238.872092220041
 20
5191.23338334456
 30
0.0
 10
6238.889440656882
 20
5192.682903180876
 30
0.0
 10
6238.899558396472
 20
5193.500682619805
 30
0.0
 10
6238.903698235118
 20
5193.835290453417
 30
0.0
  0
LINE
  5
E1
330
1F
100
AcDbEntity
  8
0
  6
Continuous
 62
     7
370
    25
100
AcDbLine
 10
6238.9036982351
 20
5193.8352904534
 30
0.0
 11
6239.7823489302
 21
5250.0185876405
 31
0.0
  0
LINE
  5
E2
330
1F
100
AcDbEntity
  8
0
  6
Continuous
 62
     7
370
    25
100
AcDbLine
 10
6239.782281875
 20
5250.0185876405
 30
0.0
 11
6242.89579755
 21
5250.5967005408
 31
0.0
  0
SPLINE
  5
E3
330
1F
100
AcDbEntity
  8
0
  6
Continuous
 62
     7
370
    25
100
AcDbSpline
210
0.0
220
0.0
230
1.0
 70
     8
 71
     3
 72
    17
 73
    13
 74
     0
 42
0.000000001
 43
0.00000001
 40
0.0
 40
0.0
 40
0.0
 40
0.0
 40
0.1070658116445493
 40
0.2173346756252074
 40
0.324385955282776
 40
0.4343651232307936
 40
0.5446078230124506
 40
0.6579821848505074
 40
0.7691576399145607
 40
0.8837264554739309
 40
0.9918336531196159
 40
1.0
 40
1.0
 40
1.0
 40
1.0
 10
6266.914182997608
 20
5168.32144588886
 30
0.0
 10
6266.317844880328
 20
5168.257853453838
 30
0.0
 10
6265.107328196327
 20
5168.128766110032
 30
0.0
 10
6263.3752481988
 20
5167.5650556074
 30
0.0
 10
6261.748055692497
 20
5166.743546363016
 30
0.0
 10
6260.280021576385
 20
5165.664543060213
 30
0.0
 10
6258.985410739103
 20
5164.335353180831
 30
0.0
 10
6257.929105303252
 20
5162.80053714981
 30
0.0
 10
6257.124968544462
 20
5161.083029181539
 30
0.0
 10
6256.66534694019
 20
5159.278380231743
 30
0.0
 10
6256.473757441087
 20
5157.98472149561
 30
0.0
 10
6256.524047075056
 20
5157.336921376035
 30
0.0
 10
6256.527579113209
 20
5157.291423833949
 30
0.0
  0
SPLINE
  5
E4
330
1F
100
AcDbEntity
  8
0
  6
Continuous
 62
     7
370
    25
100
AcDbSpline
210
0.0
220
0.0
230
1.0
 70
     8
 71
     3
 72
    13
 73
     9
 74
     0
 42
0.000000001
 43
0.00000001
 40
0.0
 40
0.0
 40
0.0
 40
0.0
 40
0.2517393419518824
 40
0.5023195753406194
 40
0.6273195087273216
 40
0.7519352049819892
 40
0.8760937155428183
 40
1.0
 40
1.0
 40
1.0
 40
1.0
 10
6295.837760626638
 20
5261.520615152103
 30
0.0
 10
6295.747060200503
 20
5260.744838502033
 30
0.0
 10
6295.566076969255
 20
5259.196857187705
 30
0.0
 10
6295.415774774731
 20
5256.838917945835
 30
0.0
 10
6295.34365943796
 20
5254.829290041574
 30
0.0
 10
6295.317101454651
 20
5253.261413919116
 30
0.0
 10
6295.315900485811
 20
5251.652336327286
 30
0.0
 10
6295.339548609037
 20
5250.562801265398
 30
0.0
 10
6295.351360648238
 20
5250.018587640507
 30
0.0
  0
SPLINE
  5
E5
330
1F
100
AcDbEntity
  8
0
  6
Continuous
 62
     7
370
    25
100
AcDbSpline
210
0.0
220
0.0
230
1.0
 70
     8
 71
     3
 72
    13
 73
     9
 74
     0
 42
0.000000001
 43
0.00000001
 40
0.0
 40
0.0
 40
0.0
 40
0.0
 40
0.1238843118209236
 40
0.2480342359496543
 40
0.3726440648142721
 40
0.4976244722524331
 40
0.7481435576275167
 40
1.0
 40
1.0
 40
1.0
 40
1.0
 10
6239.782348930203
 20
5250.018587640507
 30
0.0
 10
6239.794183199462
 20
5250.562600465039
 30
0.0
 10
6239.81787711107
 20
5251.651792496673
 30
0.0
 10
6239.816743124048
 20
5253.260386066424
 30
0.0
 10
6239.79028136629
 20
5254.82780972481
 30
0.0
 10
6239.718355710553
 20
5256.836792892982
 30
0.0
 10
6239.568321076252
 20
5259.194679183292
 30
0.0
 10
6239.387545788876
 20
5260.742722503756
 30
0.0
 10
6239.296917527282
 20
5261.518804661018
 30
0.0
  0
LINE
  5
E6
330
1F
100
AcDbEntity
  8
0
  6
Continuous
 62
     7
370
    25
100
AcDbLine
 10
6238.4087114626
 20
5193.8419251954
 30
0.0
 11
6239.3007843786
 21
5250.0261946833
 31
0.0
  0
SPLINE
  5
E7
330
1F
100
AcDbEntity
  8
0
  6
Continuous
 62
     7
370
    25
100
AcDbSpline
210
0.0
220
0.0
230
1.0
 70
     8
 71
     3
 72
    11
 73
     7
 74
     0
 42
0.000000001
 43
0.00000001
 40
0.0
 40
0.0
 40
0.0
 40
0.0
 40
0.2463966257304077
 40
0.4999629475596541
 40
0.7535482848514035
 40
1.0
 40
1.0
 40
1.0
 40
1.0
 10
6296.724996253216
 20
5193.841925195438
 30
0.0
 10
6296.729721426916
 20
5193.841940809023
 30
0.0
 10
6296.739309268323
 20
5193.841972490517
 30
0.0
 10
6296.64509175976
 20
5193.840666167402
 30
0.0
 10
6296.479808355878
 20
5193.838495219858
 30
0.0
 10
6296.312482555548
 20
5193.836348500397
 30
0.0
 10
6296.230013205969
 20
5193.835290453417
 30
0.0
  0
LINE
  5
E8
330
1F
100
AcDbEntity
  8
0
  6
Continuous
 62
     7
370
    25
100
AcDbLine
 10
6295.8329233372
 20
5250.0261946833
 30
0.0
 11
6296.7249962532
 21
5193.8419251954
 31
0.0
  0
SPLINE
  5
E9
330
1F
100
AcDbEntity
  8
0
  6
Continuous
 62
     7
370
    25
100
AcDbSpline
210
0.0
220
0.0
230
1.0
 70
    24
 71
     3
 72
    10
 73
     6
 74
     0
 42
0.000000001
 43
0.00000001
 40
0.0
 40
0.0
 40
0.0
 40
0.0
 40
0.1265936266119162
 40
0.5549224278628879
 40
1.0
 40
1.0
 40
1.0
 40
1.0
 10
6238.262683808171
 20
5124.289246580583
 30
0.0
 10
6238.262862578211
 20
5124.289246580583
 30
0.0
 10
6238.26364621564
 20
5124.289246580583
 30
0.0
 10
6238.405021166243
 20
5124.289246580583
 30
0.0
 10
6238.635767409181
 20
5124.289246580583
 30
0.0
 10
6238.753352969253
 20
5124.289246580583
 30
0.0
  0
SPLINE
  5
EA
330
1F
100
AcDbEntity
  8
0
  6
Continuous
 62
     7
370
    25
100
AcDbSpline
210
0.0
220
0.0
230
1.0
 70
    24
 71
     3
 72
    10
 73
     6
 74
     0
 42
0.000000001
 43
0.00000001
 40
0.0
 40
0.0
 40
0.0
 40
0.0
 40
0.321269944944276
 40
0.7493340046359587
 40
1.0
 40
1.0
 40
1.0
 40
1.0
 10
6296.380356609189
 20
5124.289246580583
 30
0.0
 10
6296.467561392672
 20
5124.289246580583
 30
0.0
 10
6296.670958911359
 20
5124.289246580583
 30
0.0
 10
6296.850129015878
 20
5124.289246580583
 30
0.0
 10
6296.857245778232
 20
5124.289246580583
 30
0.0
 10
6296.859874113762
 20
5124.289246580583
 30
0.0
  0
LWPOLYLINE
  5
EB
330
1F
100
AcDbEntity
  8
0
  6
Continuous
 62
     7
370
    25
100
AcDbPolyline
 90
       12
 70
   128
 43
0.0
 10
6311.9639462822
 20
5140.8019262734
 10
6311.9203976386
 20
5140.8166844766
 10
6311.8613033586
 20
5140.9519057041
 10
6311.8141188317
 20
5141.1847723201
 10
6311.7845884555
 20
5141.4850087157
 10
6311.7756589347
 20
5141.8154845732
 10
6311.7875910395
 20
5142.1396302311
 10
6311.8186934882
 20
5142.4247483509
 10
6311.8657848829
 20
5142.6420072811
 10
6311.9241639071
 20
5142.7667137021
 10
6311.9638196224
 20
5142.7893988574
 10
6311.9638196224
 20
5142.7893988574
  0
SPLINE
  5
EC
330
1F
100
AcDbEntity
  8
0
  6
Continuous
 62
     7
370
    25
100
AcDbSpline
210
0.0
220
0.0
230
1.0
 70
     8
 71
     3
 72
    25
 73
    21
 74
     0
 42
0.000000001
 43
0.00000001
 40
0.0
 40
0.0
 40
0.0
 40
0.0
 40
0.0000020404417086
 40
0.0000078956222636
 40
0.0000310679428843
 40
0.0001232071932543
 40
0.0004906996781308
 40
0.0019584897308002
 40
0.0441238152333238
 40
0.0836378372171524
 40
0.125116856430585
 40
0.1670937891195124
 40
0.2034726301755214
 40
0.2502743858912477
 40
0.3919118111306503
 40
0.500161437973251
 40
0.6226968243817868
 40
0.7500881044201171
 40
0.8810970547679517
 40
1.0
 40
1.0
 40
1.0
 40
1.0
 10
6311.573446451986
 20
5145.973508550805
 30
0.0
 10
6311.573446451986
 20
5145.973508550805
 30
0.0
 10
6311.573446451985
 20
5145.973508550804
 30
0.0
 10
6311.573446451985
 20
5145.973508550858
 30
0.0
 10
6311.573446451987
 20
5145.973508548781
 30
0.0
 10
6311.573446451892
 20
5145.973508627835
 30
0.0
 10
6311.573446455576
 20
5145.973505610055
 30
0.0
 10
6311.573445650361
 20
5145.973329697301
 30
0.0
 10
6311.573539872141
 20
5145.966468291954
 30
0.0
 10
6311.57380835087
 20
5145.938712220379
 30
0.0
 10
6311.574124025465
 20
5145.893884781738
 30
0.0
 10
6311.574376614538
 20
5145.833564228791
 30
0.0
 10
6311.574581207375
 20
5145.754453376148
 30
0.0
 10
6311.574736314668
 20
5145.582654589702
 30
0.0
 10
6311.574305720368
 20
5145.267583202532
 30
0.0
 10
6311.573114549636
 20
5144.743031960094
 30
0.0
 10
6311.573987946322
 20
5144.132681374673
 30
0.0
 10
6311.574959883827
 20
5143.392699282362
 30
0.0
 10
6311.574092277127
 20
5142.597172663459
 30
0.0
 10
6311.573654660829
 20
5142.049887957552
 30
0.0
 10
6311.573446451986
 20
5141.789501138983
 30
0.0
  0
SPLINE
  5
ED
330
1F
100
AcDbEntity
  8
0
  6
Continuous
 62
     7
370
    25
100
AcDbSpline
210
0.0
220
0.0
230
1.0
 70
    24
 71
     3
 72
    15
 73
    11
 74
     0
 42
0.000000001
 43
0.00000001
 40
0.0
 40
0.0
 40
0.0
 40
0.0
 40
0.1280201155465232
 40
0.2531225310127398
 40
0.3718309350885998
 40
0.4947851638361758
 40
0.6230232896967387
 40
0.7526535161993355
 40
0.8795288846843977
 40
1.0
 40
1.0
 40
1.0
 40
1.0
 10
6311.002441405618
 20
5136.190841046182
 30
0.0
 10
6311.002441405618
 20
5136.224824602661
 30
0.0
 10
6311.002441405618
 20
5136.292017198077
 30
0.0
 10
6311.002441405618
 20
5136.821240099877
 30
0.0
 10
6311.002441405617
 20
5137.605517768277
 30
0.0
 10
6311.002441405618
 20
5138.646106277531
 30
0.0
 10
6311.002441405618
 20
5139.91255174558
 30
0.0
 10
6311.002441405617
 20
5141.311001494886
 30
0.0
 10
6311.002441405618
 20
5142.719913105557
 30
0.0
 10
6311.002441405618
 20
5143.583270658495
 30
0.0
 10
6311.002441405618
 20
5144.003772481365
 30
0.0
  0
LWPOLYLINE
  5
EE
330
1F
100
AcDbEntity
  8
0
  6
Continuous
 62
     7
370
    25
100
AcDbPolyline
 90
        9
 70
   128
 43
0.0
 10
6311.0024414056
 20
5144.0037724814
 10
6310.9870708578
 20
5144.0654912284
 10
6310.9415440851
 20
5144.1248383625
 10
6310.8676156991
 20
5144.1795330746
 10
6310.7681280964
 20
5144.2274729042
 10
6310.6468959742
 20
5144.2668166263
 10
6310.5085871213
 20
5144.2960513076
 10
6310.3585138017
 20
5144.3140542386
 10
6310.2024427646
 20
5144.3201329811
  0
SPLINE
  5
EF
330
1F
100
AcDbEntity
  8
0
  6
Continuous
 62
     7
370
    25
100
AcDbSpline
210
0.0
220
0.0
230
1.0
 70
     8
 71
     3
 72
    10
 73
     6
 74
     0
 42
0.000000001
 43
0.00000001
 40
0.0
 40
0.0
 40
0.0
 40
0.0
 40
0.4999914927264188
 40
0.7501306201384513
 40
1.0
 40
1.0
 40
1.0
 40
1.0
 10
6304.802440761888
 20
5144.320132981074
 30
0.0
 10
6304.440862576935
 20
5144.883833965886
 30
0.0
 10
6303.898391610823
 20
5145.729547093931
 30
0.0
 10
6303.316322138478
 20
5146.699345959491
 30
0.0
 10
6303.24038813586
 20
5147.103519206576
 30
0.0
 10
6303.202441617214
 20
5147.30549680723
 30
0.0
  0
LINE
  5
F0
330
1F
100
AcDbEntity
  8
0
  6
Continuous
 62
     7
370
    25
100
AcDbLine
 10
6310.2024427646
 20
5144.3201329811
 30
0.0
 11
6304.8024407619
 21
5144.3201329811
 31
0.0
  0
SPLINE
  5
F1
330
1F
100
AcDbEntity
  8
0
  6
Continuous
 62
     7
370
    25
100
AcDbSpline
210
0.0
220
0.0
230
1.0
 70
    24
 71
     3
 72
    10
 73
     6
 74
     0
 42
0.000000001
 43
0.00000001
 40
0.0
 40
0.0
 40
0.0
 40
0.0
 40
0.333268131387622
 40
0.666749874564942
 40
1.0
 40
1.0
 40
1.0
 40
1.0
 10
6304.002442120874
 20
5161.321863836629
 30
0.0
 10
6304.002442120874
 20
5159.818050573977
 30
0.0
 10
6304.002442120873
 20
5156.809460163403
 30
0.0
 10
6304.002442120874
 20
5152.335622632614
 30
0.0
 10
6304.002442120874
 20
5149.441557763956
 30
0.0
 10
6304.002442120874
 20
5147.99502801804
 30
0.0
  0
LWPOLYLINE
  5
F2
330
1F
100
AcDbEntity
  8
0
  6
Continuous
 62
     7
370
    25
100
AcDbPolyline
 90
        9
 70
   128
 43
0.0
 10
6304.0024421209
 20
5161.3218638366
 10
6304.0178126686
 20
5161.3218750125
 10
6304.0633375787
 20
5161.3218824631
 10
6304.1372659647
 20
5161.3218917763
 10
6304.2367554301
 20
5161.3218992269
 10
6304.3579856896
 20
5161.3219048148
 10
6304.4962945425
 20
5161.3219104028
 10
6304.6463697248
 20
5161.3219122654
 10
6304.8024407619
 20
5161.321914128
  0
LINE
  5
F3
330
1F
100
AcDbEntity
  8
0
  6
Continuous
 62
     7
370
    25
100
AcDbLine
 10
6304.8024407619
 20
5144.3201329811
 30
0.0
 11
6304.8024407619
 21
5161.321914128
 31
0.0
  0
SPLINE
  5
F4
330
1F
100
AcDbEntity
  8
0
  6
Continuous
 62
     7
370
    25
100
AcDbSpline
210
0.0
220
0.0
230
1.0
 70
     8
 71
     3
 72
    12
 73
     8
 74
     0
 42
0.000000001
 43
0.00000001
 40
0.0
 40
0.0
 40
0.0
 40
0.0
 40
0.1854277871931881
 40
0.3401611186641608
 40
0.5002732244634567
 40
0.7501303858012868
 40
1.0
 40
1.0
 40
1.0
 40
1.0
 10
6304.802440761888
 20
5144.320132981074
 30
0.0
 10
6304.736462641111
 20
5144.560912884373
 30
0.0
 10
6304.615427969281
 20
5145.002615622122
 30
0.0
 10
6304.442928351317
 20
5145.637923341292
 30
0.0
 10
6304.262639978804
 20
5146.341839827269
 30
0.0
 10
6304.069525835232
 20
5147.148133965674
 30
0.0
 10
6304.024803730475
 20
5147.712725310837
 30
0.0
 10
6304.002442120874
 20
5147.99502801804
 30
0.0
  0
LINE
  5
F5
330
1F
100
AcDbEntity
  8
0
  6
Continuous
 62
     7
370
    25
100
AcDbLine
 10
6304.8024407619
 20
5161.321914128
 30
0.0
 11
6310.2024427646
 21
5161.321914128
 31
0.0
  0
LINE
  5
F6
330
1F
100
AcDbEntity
  8
0
  6
Continuous
 62
     7
370
    25
100
AcDbLine
 10
6310.2024427646
 20
5161.321914128
 30
0.0
 11
6310.2024427646
 21
5144.3201329811
 31
0.0
  0
ARC
  5
F7
330
1F
100
AcDbEntity
  8
0
  6
Continuous
 62
     7
370
    25
100
AcDbCircle
 10
6303.2538612085
 20
5148.0546889269
 30
0.0
 40
0.7509545968182787
100
AcDbArc
 50
266.0737538919
 51
355.4432338602
  0
SPLINE
  5
F8
330
1F
100
AcDbEntity
  8
0
  6
Continuous
 62
     7
370
    25
100
AcDbSpline
210
0.0
220
0.0
230
1.0
 70
    24
 71
     3
 72
    11
 73
     7
 74
     0
 42
0.000000001
 43
0.00000001
 40
0.0
 40
0.0
 40
0.0
 40
0.0
 40
0.2500077363230223
 40
0.5000001193057438
 40
0.7500077559781932
 40
1.0
 40
1.0
 40
1.0
 40
1.0
 10
6311.002441405618
 20
5144.003772481365
 30
0.0
 10
6311.002441405617
 20
5145.383720354016
 30
0.0
 10
6311.002441405618
 20
5148.143531354704
 30
0.0
 10
6311.002441405618
 20
5152.467865152217
 30
0.0
 10
6311.002441405617
 20
5156.870121888784
 30
0.0
 10
6311.002441405618
 20
5159.837980309493
 30
0.0
 10
6311.002441405618
 20
5161.321863836629
 30
0.0
  0
LWPOLYLINE
  5
F9
330
1F
100
AcDbEntity
  8
0
  6
Continuous
 62
     7
370
    25
100
AcDbPolyline
 90
        9
 70
   128
 43
0.0
 10
6311.0024414056
 20
5161.3218638366
 10
6310.9870708578
 20
5161.3218750125
 10
6310.9415440851
 20
5161.3218824631
 10
6310.8676156991
 20
5161.3218917763
 10
6310.7681280964
 20
5161.3218992269
 10
6310.6468959742
 20
5161.3219048148
 10
6310.5085871213
 20
5161.3219104028
 10
6310.3585138017
 20
5161.3219122654
 10
6310.2024427646
 20
5161.321914128
  0
SPLINE
  5
FA
330
1F
100
AcDbEntity
  8
0
  6
Continuous
 62
     7
370
    25
100
AcDbSpline
210
0.0
220
0.0
230
1.0
 70
    11
 71
     3
 72
    26
 73
    22
 74
     0
 42
0.000000001
 43
0.00000001
 40
0.0
 40
0.0
 40
0.0
 40
0.0
 40
0.0548543664626993
 40
0.1097229287627992
 40
0.1641628775576567
 40
0.2177101653429862
 40
0.2704339957845107
 40
0.3227761306558138
 40
0.3753321246154098
 40
0.4285928747914799
 40
0.4827462182675077
 40
0.5375946299105987
 40
0.5926279675425654
 40
0.6472474319891441
 40
0.7010473246056997
 40
0.7539989170980683
 40
0.806439937351187
 40
0.8589065246051136
 40
0.9119115441869196
 40
0.9657509172997946
 40
0.9999999999999999
 40
0.9999999999999999
 40
0.9999999999999999
 40
0.9999999999999999
 10
6312.065810620153
 20
5142.789398857412
 30
0.0
 10
6312.044649702892
 20
5142.778070830472
 30
0.0
 10
6312.002322392107
 20
5142.755411844996
 30
0.0
 10
6311.945773790948
 20
5142.578394988715
 30
0.0
 10
6311.903151431085
 20
5142.318536552286
 30
0.0
 10
6311.879506242074
 20
5141.998115724656
 30
0.0
 10
6311.877110775594
 20
5141.658498865836
 30
0.0
 10
6311.895598262036
 20
5141.335909707782
 30
0.0
 10
6311.932686872649
 20
5141.063311364478
 30
0.0
 10
6311.984548905652
 20
5140.868968976489
 30
0.0
 10
6312.045833712215
 20
5140.775747071009
 30
0.0
 10
6312.109740893968
 20
5140.797557772516
 30
0.0
 10
6312.168656787969
 20
5140.934675993872
 30
0.0
 10
6312.215395142107
 20
5141.171108989027
 30
0.0
 10
6312.244569498966
 20
5141.476859407629
 30
0.0
 10
6312.253415852937
 20
5141.814584959272
 30
0.0
 10
6312.241597430259
 20
5142.146323188425
 30
0.0
 10
6312.210701832791
 20
5142.43826765288
 30
0.0
 10
6312.16381490806
 20
5142.658398026016
 30
0.0
 10
6312.112740132919
 20
5142.77334985917
 30
0.0
 10
6312.078948801477
 20
5142.784905849994
 30
0.0
 10
6312.065810620153
 20
5142.789398857412
 30
0.0
  0
LINE
  5
FB
330
1F
100
AcDbEntity
  8
0
  6
Continuous
 62
     7
370
    25
100
AcDbLine
 10
6310.2024427646
 20
5169.6762985802
 30
0.0
 11
6310.2024427646
 21
5161.321914128
 31
0.0
  0
LWPOLYLINE
  5
FC
330
1F
100
AcDbEntity
  8
0
  6
Continuous
 62
     7
370
    25
100
AcDbPolyline
 90
        9
 70
   128
 43
0.0
 10
6311.0024414056
 20
5169.6762501514
 10
6310.9870708578
 20
5169.6762594646
 10
6310.9415440851
 20
5169.6762687778
 10
6310.8676156991
 20
5169.6762762284
 10
6310.7681280964
 20
5169.676283679
 10
6310.6468959742
 20
5169.6762911296
 10
6310.5085871213
 20
5169.6762948549
 10
6310.3585138017
 20
5169.6762967175
 10
6310.2024427646
 20
5169.6762985802
  0
LINE
  5
FD
330
1F
100
AcDbEntity
  8
0
  6
Continuous
 62
     7
370
    25
100
AcDbLine
 10
6311.0024414056
 20
5169.6762501514
 30
0.0
 11
6311.0024414056
 21
5161.3218638366
 31
0.0
  0
LWPOLYLINE
  5
FE
330
1F
100
AcDbEntity
  8
0
  6
Continuous
 62
     7
370
    25
100
AcDbPolyline
 90
        9
 70
   128
 43
0.0
 10
6304.8024407619
 20
5169.6762985802
 10
6304.6463697248
 20
5169.6762967175
 10
6304.4962945425
 20
5169.6762948549
 10
6304.3579856896
 20
5169.6762911296
 10
6304.2367554301
 20
5169.676283679
 10
6304.1372659647
 20
5169.6762762284
 10
6304.0633375787
 20
5169.6762687778
 10
6304.0178126686
 20
5169.6762594646
 10
6304.0024421209
 20
5169.6762501514
  0
LINE
  5
FF
330
1F
100
AcDbEntity
  8
0
  6
Continuous
 62
     7
370
    25
100
AcDbLine
 10
6304.8024407619
 20
5161.321914128
 30
0.0
 11
6304.8024407619
 21
5169.6762985802
 31
0.0
  0
LINE
  5
100
330
1F
100
AcDbEntity
  8
0
  6
Continuous
 62
     7
370
    25
100
AcDbLine
 10
6304.0024421209
 20
5161.3218638366
 30
0.0
 11
6304.0024421209
 21
5169.6762501514
 31
0.0
  0
LINE
  5
101
330
1F
100
AcDbEntity
  8
0
  6
Continuous
 62
     7
370
    25
100
AcDbLine
 10
6304.8024407619
 20
5169.6762985802
 30
0.0
 11
6310.2024427646
 21
5169.6762985802
 31
0.0
  0
LINE
  5
102
330
1F
100
AcDbEntity
  8
0
  6
Continuous
 62
     7
370
    25
100
AcDbLine
 10
6304.8024407619
 20
5170.476250655
 30
0.0
 11
6304.8024407619
 21
5169.6762985802
 31
0.0
  0
LINE
  5
103
330
1F
100
AcDbEntity
  8
0
  6
Continuous
 62
     7
370
    25
100
AcDbLine
 10
6310.2024427646
 20
5170.476250655
 30
0.0
 11
6304.8024407619
 21
5170.476250655
 31
0.0
  0
LINE
  5
104
330
1F
100
AcDbEntity
  8
0
  6
Continuous
 62
     7
370
    25
100
AcDbLine
 10
6310.2024427646
 20
5169.6762985802
 30
0.0
 11
6310.2024427646
 21
5170.476250655
 31
0.0
  0
ARC
  5
105
330
1F
100
AcDbEntity
  8
0
  6
Continuous
 62
     7
370
    25
100
AcDbCircle
 10
6304.8024415408
 20
5169.6762499474
 30
0.0
 40
0.8000000000001819
100
AcDbArc
 50
90.0
 51
180.0
  0
ARC
  5
106
330
1F
100
AcDbEntity
  8
0
  6
Continuous
 62
     7
370
    25
100
AcDbCircle
 10
6310.2024415408
 20
5169.6762499474
 30
0.0
 40
0.8000000000001819
100
AcDbArc
 50
0.0
 51
90.0
  0
SPLINE
  5
107
330
1F
100
AcDbEntity
  8
0
  6
Continuous
 62
     7
370
    25
100
AcDbSpline
210
0.0
220
0.0
230
1.0
 70
     8
 71
     3
 72
     9
 73
     5
 74
     0
 42
0.000000001
 43
0.00000001
 40
0.0
 40
0.0
 40
0.0
 40
0.0
 40
0.0837889248500644
 40
1.0
 40
1.0
 40
1.0
 40
1.0
 10
6278.34728623584
 20
5283.112241259796
 30
0.0
 10
6278.370014002367
 20
5283.121901928121
 30
0.0
 10
6278.641264248949
 20
5283.237199604298
 30
0.0
 10
6278.734555085725
 20
5283.363217094515
 30
0.0
 10
6278.82002918359
 20
5283.478675714714
 30
0.0
  0
SPLINE
  5
108
330
1F
100
AcDbEntity
  8
0
  6
Continuous
 62
     7
370
    25
100
AcDbSpline
210
0.0
220
0.0
230
1.0
 70
     8
 71
     3
 72
    10
 73
     6
 74
     0
 42
0.000000001
 43
0.00000001
 40
0.0
 40
0.0
 40
0.0
 40
0.0
 40
0.218087107754686
 40
0.8148827440015868
 40
1.0
 40
1.0
 40
1.0
 40
1.0
 10
6279.470143330583
 20
5286.225242844803
 30
0.0
 10
6279.47934594582
 20
5286.265371798827
 30
0.0
 10
6279.513731528872
 20
5286.415313684462
 30
0.0
 10
6279.346050631562
 20
5286.600077315128
 30
0.0
 10
6279.05581037905
 20
5286.734411167876
 30
0.0
 10
6278.987096229867
 20
5286.766214600784
 30
0.0
  0
SPLINE
  5
109
330
1F
100
AcDbEntity
  8
0
  6
Continuous
 62
     7
370
    25
100
AcDbSpline
210
0.0
220
0.0
230
1.0
 70
     8
 71
     3
 72
    10
 73
     6
 74
     0
 42
0.000000001
 43
0.00000001
 40
0.0
 40
0.0
 40
0.0
 40
0.0
 40
0.0487806785480439
 40
0.728674672006013
 40
1.0
 40
1.0
 40
1.0
 40
1.0
 10
6255.921146556103
 20
5283.791406384689
 30
0.0
 10
6255.920757341102
 20
5283.782754453881
 30
0.0
 10
6255.914943336024
 20
5283.653513880944
 30
0.0
 10
6256.10367579284
 20
5283.475528244991
 30
0.0
 10
6256.427235023558
 20
5283.316355797684
 30
0.0
 10
6256.519526898229
 20
5283.270953527672
 30
0.0
  0
SPLINE
  5
10A
330
1F
100
AcDbEntity
  8
0
  6
Continuous
 62
     7
370
    25
100
AcDbSpline
210
0.0
220
0.0
230
1.0
 70
     8
 71
     3
 72
     9
 73
     5
 74
     0
 42
0.000000001
 43
0.00000001
 40
0.0
 40
0.0
 40
0.0
 40
0.0
 40
0.5058480549142627
 40
1.0
 40
1.0
 40
1.0
 40
1.0
 10
6279.271316438281
 20
5283.765388957245
 30
0.0
 10
6279.247929529512
 20
5283.731759009394
 30
0.0
 10
6279.201696459047
 20
5283.665276698109
 30
0.0
 10
6279.053894349237
 20
5283.603488245585
 30
0.0
 10
6278.980857649186
 20
5283.572955361587
 30
0.0
  0
SPLINE
  5
10B
330
1F
100
AcDbEntity
  8
0
  6
Continuous
 62
     7
370
    25
100
AcDbSpline
210
0.0
220
0.0
230
1.0
 70
     8
 71
     3
 72
    10
 73
     6
 74
     0
 42
0.000000001
 43
0.00000001
 40
0.0
 40
0.0
 40
0.0
 40
0.0
 40
0.0913845160311497
 40
0.9701049884945361
 40
0.9999999999999999
 40
0.9999999999999999
 40
0.9999999999999999
 40
0.9999999999999999
 10
6278.957780174279
 20
5283.807901970131
 30
0.0
 10
6278.960601738646
 20
5283.799636547677
 30
0.0
 10
6278.990554446037
 20
5283.711893810705
 30
0.0
 10
6278.949240482872
 20
5283.619801580373
 30
0.0
 10
6278.841171131629
 20
5283.53998266697
 30
0.0
 10
6278.837615464182
 20
5283.537356487495
 30
0.0
  0
SPLINE
  5
10C
330
1F
100
AcDbEntity
  8
0
  6
Continuous
 62
     7
370
    25
100
AcDbSpline
210
0.0
220
0.0
230
1.0
 70
     8
 71
     3
 72
     9
 73
     5
 74
     0
 42
0.000000001
 43
0.00000001
 40
0.0
 40
0.0
 40
0.0
 40
0.0
 40
0.5587842582411214
 40
1.0
 40
1.0
 40
1.0
 40
1.0
 10
6278.82002918359
 20
5283.478675714714
 30
0.0
 10
6278.863947499263
 20
5283.56680660753
 30
0.0
 10
6278.942543692741
 20
5283.724525604649
 30
0.0
 10
6278.853520093031
 20
5283.884053687781
 30
0.0
 10
6278.81424147945
 20
5283.954439989311
 30
0.0
  0
LWPOLYLINE
  5
10D
330
1F
100
AcDbEntity
  8
0
  6
Continuous
 62
     7
370
    25
100
AcDbPolyline
 90
        8
 70
   128
 43
0.0
 10
6258.1315643185
 20
5282.6000138438
 10
6257.824069544
 20
5282.6871707356
 10
6257.1732091748
 20
5282.9164400017
 10
6256.7001885765
 20
5283.1584944641
 10
6256.4130990797
 20
5283.4092065012
 10
6256.3168543422
 20
5283.6642845785
 10
6256.4130990797
 20
5283.9193626559
 10
6256.548686608
 20
5284.0589716351
  0
LWPOLYLINE
  5
10E
330
1F
100
AcDbEntity
  8
0
  6
Continuous
 62
     7
370
    25
100
AcDbPolyline
 90
        8
 70
   128
 43
0.0
 10
6278.6074109174
 20
5284.0396150267
 10
6278.7206093346
 20
5283.9193626559
 10
6278.8168546542
 20
5283.6642845785
 10
6278.7206093346
 20
5283.4092065012
 10
6278.433520187
 20
5283.1584944641
 10
6277.9604993559
 20
5282.9164400017
 10
6277.3096403836
 20
5282.6871707356
 10
6277.0269527029
 20
5282.6066746628
  0
LINE
  5
10F
330
1F
100
AcDbEntity
  8
0
  6
Continuous
 62
     7
370
    25
100
AcDbLine
 10
6277.4148856262
 20
5283.5426911032
 30
0.0
 11
6278.3190927732
 21
5283.5426911032
 31
0.0
  0
ARC
  5
110
330
1F
100
AcDbEntity
  8
0
  6
Continuous
 62
     7
370
    25
100
AcDbCircle
 10
6278.0038526177
 20
5283.6642845785
 30
0.0
 40
0.3378776833024012
100
AcDbArc
 50
338.9075269706
 51
21.0924730294
  0
LINE
  5
111
330
1F
100
AcDbEntity
  8
0
  6
Continuous
 62
     7
370
    25
100
AcDbLine
 10
6278.3190927732
 20
5283.7858780539
 30
0.0
 11
6277.4148856262
 21
5283.7858780539
 31
0.0
  0
ARC
  5
112
330
1F
100
AcDbEntity
  8
0
  6
Continuous
 62
     7
370
    25
100
AcDbCircle
 10
6277.1277906458
 20
5283.6642845785
 30
0.0
 40
0.311782778619616
100
AcDbArc
 50
337.045861487
 51
22.954138513
  0
LINE
  5
113
330
1F
100
AcDbEntity
  8
0
  6
Continuous
 62
     7
370
    25
100
AcDbLine
 10
6257.7188245052
 20
5283.7858780539
 30
0.0
 11
6256.814616456
 21
5283.7858780539
 31
0.0
  0
ARC
  5
114
330
1F
100
AcDbEntity
  8
0
  6
Continuous
 62
     7
370
    25
100
AcDbCircle
 10
6257.1367724764
 20
5283.6626453561
 30
0.0
 40
0.3449214393013268
100
AcDbArc
 50
159.0669031507
 51
179.7277035492
  0
ARC
  5
115
330
1F
100
AcDbEntity
  8
0
  6
Continuous
 62
     7
370
    25
100
AcDbCircle
 10
6258.0134237233
 20
5283.6623410031
 30
0.0
 40
0.3194528169324155
100
AcDbArc
 50
157.2497773674
 51
179.651405938
  0
ARC
  5
116
330
1F
100
AcDbEntity
  8
0
  6
Continuous
 62
     7
370
    25
100
AcDbCircle
 10
6276.4773110407
 20
5285.2342322443
 30
0.0
 40
2.522908814128425
100
AcDbArc
 50
282.9105601383
 51
315.3176282501
  0
LINE
  5
117
330
1F
100
AcDbEntity
  8
0
  6
Continuous
 62
     7
370
    25
100
AcDbLine
 10
6278.2711392067
 20
5283.4601833737
 30
0.0
 11
6277.3445378554
 21
5283.4601833737
 31
0.0
  0
ARC
  5
118
330
1F
100
AcDbEntity
  8
0
  6
Continuous
 62
     7
370
    25
100
AcDbCircle
 10
6276.4692356456
 20
5284.1584398624
 30
0.0
 40
1.119694638122702
100
AcDbArc
 50
297.7008989117
 51
321.4195190725
  0
ARC
  5
119
330
1F
100
AcDbEntity
  8
0
  6
Continuous
 62
     7
370
    25
100
AcDbCircle
 10
6258.0040508767
 20
5282.9428853078
 30
0.0
 40
1.469533646865786
100
AcDbArc
 50
112.9161980898
 51
140.9652246144
  0
LINE
  5
11A
330
1F
100
AcDbEntity
  8
0
  6
Continuous
 62
     7
370
    25
100
AcDbLine
 10
6256.8625702554
 20
5283.8683857834
 30
0.0
 11
6257.7891710245
 21
5283.8683857834
 31
0.0
  0
ARC
  5
11B
330
1F
100
AcDbEntity
  8
0
  6
Continuous
 62
     7
370
    25
100
AcDbCircle
 10
6260.0526370185
 20
5281.1786979513
 30
0.0
 40
3.51535189421623
100
AcDbArc
 50
98.2025110559
 51
130.0817794783
  0
LWPOLYLINE
  5
11C
330
1F
100
AcDbEntity
  8
0
  6
Continuous
 62
     7
370
    25
100
AcDbPolyline
 90
        7
 70
   128
 43
0.0
 10
6276.9897323453
 20
5283.6642845785
 10
6276.8938210358
 20
5283.8972344315
 10
6276.6080395815
 20
5284.125430814
 10
6276.138205678
 20
5284.3442543661
 10
6275.4938838336
 20
5284.5492198384
 10
6274.6881905043
 20
5284.7361847079
 10
6274.0745830381
 20
5284.8480477249
  0
LWPOLYLINE
  5
11D
330
1F
100
AcDbEntity
  8
0
  6
Continuous
 62
     7
370
    25
100
AcDbPolyline
 90
        7
 70
   128
 43
0.0
 10
6260.9853676551
 20
5284.8356797612
 10
6260.4455190742
 20
5284.7361847079
 10
6259.6398263269
 20
5284.5492198384
 10
6258.9955038422
 20
5284.3442543661
 10
6258.5256702298
 20
5284.125430814
 10
6258.2398883098
 20
5283.8972344315
 10
6258.1439769858
 20
5283.6642845785
  0
ARC
  5
11E
330
1F
100
AcDbEntity
  8
0
  6
Continuous
 62
     7
370
    25
100
AcDbCircle
 10
6258.643757071
 20
5285.2179916192
 30
0.0
 40
2.502502008016401
100
AcDbArc
 50
224.6215100929
 51
256.8218434453
  0
ARC
  5
11F
330
1F
100
AcDbEntity
  8
0
  6
Continuous
 62
     7
370
    25
100
AcDbCircle
 10
6258.6644891919
 20
5284.1584599802
 30
0.0
 40
1.119719658359895
100
AcDbArc
 50
218.580776452
 51
242.2988771018
  0
LINE
  5
120
330
1F
100
AcDbEntity
  8
0
  6
Continuous
 62
     7
370
    25
100
AcDbLine
 10
6257.7891710245
 20
5283.4601833737
 30
0.0
 11
6256.8625702554
 21
5283.4601833737
 31
0.0
  0
ARC
  5
121
330
1F
100
AcDbEntity
  8
0
  6
Continuous
 62
     7
370
    25
100
AcDbCircle
 10
6277.1467580045
 20
5282.9609177581
 30
0.0
 40
1.444898371796336
100
AcDbArc
 50
38.9063809206
 51
66.3477897931
  0
ARC
  5
122
330
1F
100
AcDbEntity
  8
0
  6
Continuous
 62
     7
370
    25
100
AcDbCircle
 10
6275.0799211856
 20
5281.1769296638
 30
0.0
 40
3.517445764343222
100
AcDbArc
 50
49.9224255876
 51
81.8121124951
  0
LINE
  5
123
330
1F
100
AcDbEntity
  8
0
  6
Continuous
 62
     7
370
    25
100
AcDbLine
 10
6277.3445378554
 20
5283.8683857834
 30
0.0
 11
6278.2711392067
 21
5283.8683857834
 31
0.0
  0
LWPOLYLINE
  5
124
330
1F
100
AcDbEntity
  8
0
  6
Continuous
 62
     7
370
    25
100
AcDbPolyline
 90
       24
 70
   128
 43
0.0
 10
6258.5668551767
 20
5280.2880837834
 10
6258.572858482
 20
5280.3451701319
 10
6258.7165634179
 20
5280.5720403111
 10
6259.0488965654
 20
5280.7928606188
 10
6259.5627761477
 20
5281.0029222882
 10
6260.247246086
 20
5281.1977400696
 10
6261.0877237314
 20
5281.3731714403
 10
6262.0662913689
 20
5281.5254762089
 10
6263.1620938921
 20
5281.6514208233
 10
6264.3517765247
 20
5281.7482932722
 10
6265.6099830785
 20
5281.8140520966
 10
6266.9098970511
 20
5281.8472816861
 10
6268.2238125273
 20
5281.8472816861
 10
6269.5237260343
 20
5281.8140520966
 10
6270.781932588
 20
5281.7482932722
 10
6271.9716152207
 20
5281.6514208233
 10
6273.0674182096
 20
5281.5254762089
 10
6274.0459858471
 20
5281.3731714403
 10
6274.8864623283
 20
5281.1977400696
 10
6275.5709338964
 20
5281.0029222882
 10
6276.0848125474
 20
5280.7928606188
 10
6276.4171456949
 20
5280.5720403111
 10
6276.5608502234
 20
5280.3451701319
 10
6276.5668545764
 20
5280.2880837834
  0
LWPOLYLINE
  5
125
330
1F
100
AcDbEntity
  8
0
  6
Continuous
 62
     7
370
    25
100
AcDbPolyline
 90
       25
 70
   128
 43
0.0
 10
6258.1440459036
 20
5282.8406377947
 10
6258.1439769858
 20
5282.8468962824
 10
6258.2398883098
 20
5283.0798461354
 10
6258.5256702298
 20
5283.308057419
 10
6258.9955038422
 20
5283.52686607
 10
6259.6398263269
 20
5283.7318464434
 10
6260.4455190742
 20
5283.9187964117
 10
6261.3961814934
 20
5284.0839310801
 10
6262.4724625641
 20
5284.2238976872
 10
6263.6524501288
 20
5284.3358203089
 10
6264.9121235156
 20
5284.4174339688
 10
6266.2258396887
 20
5284.4670697367
 10
6267.5668547892
 20
5284.4837292349
 10
6268.9078698897
 20
5284.4670697367
 10
6270.2215860629
 20
5284.4174339688
 10
6271.4812594497
 20
5284.3358203089
 10
6272.6612470144
 20
5284.2238976872
 10
6273.7375271538
 20
5284.0839310801
 10
6274.6881905043
 20
5283.9187964117
 10
6275.4938838336
 20
5283.7318464434
 10
6276.138205678
 20
5283.52686607
 10
6276.6080395815
 20
5283.308057419
 10
6276.8938210358
 20
5283.0798461354
 10
6276.9897323453
 20
5282.8468962824
 10
6276.9896610991
 20
5282.8405334866
  0
LWPOLYLINE
  5
126
330
1F
100
AcDbEntity
  8
0
  6
Continuous
 62
     7
370
    25
100
AcDbPolyline
 90
       30
 70
   128
 43
0.0
 10
6259.4687777602
 20
5279.6042843973
 10
6259.2837388658
 20
5279.6749904072
 10
6258.859500944
 20
5279.8909976399
 10
6258.6208458089
 20
5280.1154389298
 10
6258.572858482
 20
5280.3435310042
 10
6258.7165634179
 20
5280.5704011833
 10
6259.0488965654
 20
5280.7912065899
 10
6259.5627761477
 20
5281.0012682593
 10
6260.247246086
 20
5281.1960860407
 10
6261.0877237314
 20
5281.3715323126
 10
6262.0662913689
 20
5281.5238370812
 10
6263.1620938921
 20
5281.6497667944
 10
6264.3517765247
 20
5281.7466392433
 10
6265.6099830785
 20
5281.8123980677
 10
6266.9098970511
 20
5281.8456276572
 10
6268.2238125273
 20
5281.8456276572
 10
6269.5237260343
 20
5281.8123980677
 10
6270.781932588
 20
5281.7466392433
 10
6271.9716152207
 20
5281.6497667944
 10
6273.0674182096
 20
5281.5238370812
 10
6274.0459858471
 20
5281.3715323126
 10
6274.8864623283
 20
5281.1960860407
 10
6275.5709338964
 20
5281.0012682593
 10
6276.0848125474
 20
5280.7912065899
 10
6276.4171456949
 20
5280.5704011833
 10
6276.5608502234
 20
5280.3435310042
 10
6276.512863362
 20
5280.1154389298
 10
6276.2742078778
 20
5279.8909976399
 10
6275.849970247
 20
5279.6749904072
 10
6275.6454243356
 20
5279.5973404562
  0
SPLINE
  5
127
330
1F
100
AcDbEntity
  8
0
  6
Continuous
 62
     7
370
    25
100
AcDbSpline
210
0.0
220
0.0
230
1.0
 70
     8
 71
     3
 72
    28
 73
    24
 74
     0
 42
0.000000001
 43
0.00000001
 40
0.0
 40
0.0
 40
0.0
 40
0.0
 40
0.0012932379889315
 40
0.0530240619925176
 40
0.1047549250638548
 40
0.1564856808667451
 40
0.2082165140861404
 40
0.2599469919603456
 40
0.3116779549798956
 40
0.3634086917243274
 40
0.4151394688538416
 40
0.4668701822887208
 40
0.5186009544859436
 40
0.5703317499924752
 40
0.6220625356440634
 40
0.6737931843761352
 40
0.7255241366833853
 40
0.7772547642104467
 40
0.8289856427065033
 40
0.8612943152288998
 40
0.9130252321395153
 40
0.9647559984368593
 40
1.0
 40
1.0
 40
1.0
 40
1.0
 10
6259.268191366756
 20
5280.200509659035
 30
0.0
 10
6259.266537079683
 20
5280.202521019612
 30
0.0
 10
6259.198709641103
 20
5280.284988832067
 30
0.0
 10
6259.283796730839
 20
5280.450864185868
 30
0.0
 10
6259.535702605471
 20
5280.690346566068
 30
0.0
 10
6260.048261756541
 20
5280.918616500333
 30
0.0
 10
6260.762354404454
 20
5281.129154088148
 30
0.0
 10
6261.675606074776
 20
5281.315346107507
 30
0.0
 10
6262.752089057265
 20
5281.472894559784
 30
0.0
 10
6263.968225187794
 20
5281.596082536234
 30
0.0
 10
6265.28436363074
 20
5281.682854099514
 30
0.0
 10
6266.666644683293
 20
5281.729173199147
 30
0.0
 10
6268.07394761116
 20
5281.735359921709
 30
0.0
 10
6269.466563049518
 20
5281.699609621425
 30
0.0
 10
6270.806352966598
 20
5281.624529684258
 30
0.0
 10
6272.052320387063
 20
5281.510704154376
 30
0.0
 10
6273.173488372254
 20
5281.362843210984
 30
0.0
 10
6274.132522261521
 20
5281.183791399717
 30
0.0
 10
6274.810909395077
 20
5281.005251452161
 30
0.0
 10
6275.340945587142
 20
5280.812777192788
 30
0.0
 10
6275.706788432679
 20
5280.608845502906
 30
0.0
 10
6275.907547918545
 20
5280.392279102472
 30
0.0
 10
6275.861013019281
 20
5280.255852277
 30
0.0
 10
6275.842156101317
 20
5280.200569263679
 30
0.0
  0
LWPOLYLINE
  5
128
330
1F
100
AcDbEntity
  8
0
  6
Continuous
 62
     7
370
    25
100
AcDbPolyline
 90
       12
 70
   128
 43
0.0
 10
6267.5668547892
 20
5280.0443156874
 10
6268.7557569736
 20
5280.0280585205
 10
6269.9153839641
 20
5279.9797042525
 10
6271.0171823421
 20
5279.9004300749
 10
6272.0340226808
 20
5279.79218804
 10
6272.9408659072
 20
5279.6576454556
 10
6273.7153837954
 20
5279.5001103794
 10
6274.338504256
 20
5279.3234869158
 10
6274.7948842154
 20
5279.1320964014
 10
6275.0732861025
 20
5278.9306625044
 10
6275.1668545681
 20
5278.7241324103
 10
6275.1467589553
 20
5278.6281987345
  0
LWPOLYLINE
  5
129
330
1F
100
AcDbEntity
  8
0
  6
Continuous
 62
     7
370
    25
100
AcDbPolyline
 90
       12
 70
   128
 43
0.0
 10
6259.9869507396
 20
5278.6281987345
 10
6259.9668546611
 20
5278.7241324103
 10
6260.0604227775
 20
5278.9306625044
 10
6260.3388248974
 20
5279.1320964014
 10
6260.7952046239
 20
5279.3234869158
 10
6261.4183246189
 20
5279.5001103794
 10
6262.1928432056
 20
5279.6576454556
 10
6263.0996868977
 20
5279.79218804
 10
6264.1165272364
 20
5279.9004300749
 10
6265.2183256143
 20
5279.9797042525
 10
6266.3779526049
 20
5280.0280585205
 10
6267.5668547892
 20
5280.0443156874
  0
LWPOLYLINE
  5
12A
330
1F
100
AcDbEntity
  8
0
  6
Continuous
 62
     7
370
    25
100
AcDbPolyline
 90
       12
 70
   128
 43
0.0
 10
6267.5668547892
 20
5278.8277252829
 10
6268.739673964
 20
5278.8108422673
 10
6269.8805026741
 20
5278.7606551564
 10
6270.9582203099
 20
5278.678534857
 10
6271.9434306056
 20
5278.5667314446
 10
6272.8092593172
 20
5278.4282698548
 10
6273.5320890353
 20
5278.2669498837
 10
6274.092202497
 20
5278.0871673739
 10
6274.4743215882
 20
5277.8938099062
 10
6274.6680229468
 20
5277.6921822941
 10
6274.6680229468
 20
5277.4877532637
 10
6274.6065959365
 20
5277.3984953081
  0
LWPOLYLINE
  5
12B
330
1F
100
AcDbEntity
  8
0
  6
Continuous
 62
     7
370
    25
100
AcDbPolyline
 90
       11
 70
   128
 43
0.0
 10
6260.4601892674
 20
5277.5000169194
 10
6260.4656859332
 20
5277.6921822941
 10
6260.6593879902
 20
5277.8938099062
 10
6261.0415059173
 20
5278.0871673739
 10
6261.6016200775
 20
5278.2669498837
 10
6262.3244502613
 20
5278.4282698548
 10
6263.1902785071
 20
5278.5667314446
 10
6264.1754892686
 20
5278.678534857
 10
6265.2532064387
 20
5278.7606551564
 10
6266.3940346831
 20
5278.8108422673
 10
6267.5668547892
 20
5278.8277252829
  0
SPLINE
  5
12C
330
1F
100
AcDbEntity
  8
0
  6
Continuous
 62
     7
370
    25
100
AcDbSpline
210
0.0
220
0.0
230
1.0
 70
     8
 71
     3
 72
    23
 73
    19
 74
     0
 42
0.000000001
 43
0.00000001
 40
0.0
 40
0.0
 40
0.0
 40
0.0
 40
0.0582581247375602
 40
0.1200057700779986
 40
0.1843205047039427
 40
0.2500001046127278
 40
0.3156798106533015
 40
0.3799941339486428
 40
0.4417418086602624
 40
0.5000000302283643
 40
0.5582582851397252
 40
0.6200056397984678
 40
0.6843206639280994
 40
0.750000170773534
 40
0.8156793941650445
 40
0.8799941489554313
 40
0.941742071617376
 40
1.0
 40
1.0
 40
1.0
 40
1.0
 10
6264.875424749517
 20
5278.657703033668
 30
0.0
 10
6265.280460381396
 20
5278.682553046714
 30
0.0
 10
6266.11479229873
 20
5278.733741528415
 30
0.0
 10
6267.475543004228
 20
5278.758079679397
 30
0.0
 10
6268.888339887766
 20
5278.737730806475
 30
0.0
 10
6270.277553503186
 20
5278.665714319552
 30
0.0
 10
6271.551954785553
 20
5278.545963031439
 30
0.0
 10
6272.637607169595
 20
5278.387102995281
 30
0.0
 10
6273.487362388479
 20
5278.201776794779
 30
0.0
 10
6274.100893352222
 20
5277.999141579342
 30
0.0
 10
6274.491957098743
 20
5277.780485089484
 30
0.0
 10
6274.645413675627
 20
5277.545066221011
 30
0.0
 10
6274.524536442777
 20
5277.299385569664
 30
0.0
 10
6274.110739508241
 20
5277.058179779528
 30
0.0
 10
6273.421678271933
 20
5276.836615154381
 30
0.0
 10
6272.505479246014
 20
5276.648675061936
 30
0.0
 10
6271.444222441754
 20
5276.49876512318
 30
0.0
 10
6270.645857743929
 20
5276.432476658332
 30
0.0
 10
6270.258284363264
 20
5276.40029632209
 30
0.0
  0
SPLINE
  5
12D
330
1F
100
AcDbEntity
  8
0
  6
Continuous
 62
     7
370
    25
100
AcDbSpline
210
0.0
220
0.0
230
1.0
 70
     8
 71
     3
 72
    23
 73
    19
 74
     0
 42
0.000000001
 43
0.00000001
 40
0.0
 40
0.0
 40
0.0
 40
0.0
 40
0.0582579519358769
 40
0.1200056480236871
 40
0.1843204295719484
 40
0.2500000477067612
 40
0.3156796843068898
 40
0.3799945166676906
 40
0.4417422026185948
 40
0.4999998398175359
 40
0.5582581053908819
 40
0.6200053481179244
 40
0.6843204958156056
 40
0.7500000076208074
 40
0.8156798210793427
 40
0.8799944977867407
 40
0.9417420672180469
 40
1.0
 40
1.0
 40
1.0
 40
1.0
 10
6270.258284363263
 20
5276.40029632209
 30
0.0
 10
6269.853247980529
 20
5276.37544770789
 30
0.0
 10
6269.018912890329
 20
5276.324262007905
 30
0.0
 10
6267.658167818914
 20
5276.299900976309
 30
0.0
 10
6266.24536809959
 20
5276.320248075194
 30
0.0
 10
6264.856157712486
 20
5276.392296861993
 30
0.0
 10
6263.581747716123
 20
5276.512010031171
 30
0.0
 10
6262.496107409746
 20
5276.67090245816
 30
0.0
 10
6261.646350922878
 20
5276.856220012381
 30
0.0
 10
6261.032812634072
 20
5277.058858019557
 30
0.0
 10
6260.64175252378
 20
5277.277519993475
 30
0.0
 10
6260.488295014539
 20
5277.512907920684
 30
0.0
 10
6260.609172229617
 20
5277.758620931603
 30
0.0
 10
6261.02297350493
 20
5277.99981717609
 30
0.0
 10
6261.712026107774
 20
5278.221390467789
 30
0.0
 10
6262.628227787077
 20
5278.409298139371
 30
0.0
 10
6263.689490545857
 20
5278.55924059557
 30
0.0
 10
6264.487851857059
 20
5278.625524712295
 30
0.0
 10
6264.875424749517
 20
5278.657703033668
 30
0.0
  0
LWPOLYLINE
  5
12E
330
1F
100
AcDbEntity
  8
0
  6
Continuous
 62
     7
370
    25
100
AcDbPolyline
 90
       38
 70
   128
 43
0.0
 10
6267.5668547892
 20
5276.3868703759
 10
6266.4556742677
 20
5276.4032914555
 10
6265.3764604622
 20
5276.4521076596
 10
6264.3602599421
 20
5276.5319033778
 10
6263.4363078543
 20
5276.6403838312
 10
6262.6311841452
 20
5276.7744197762
 10
6261.9680508071
 20
5276.930166713
 10
6261.4659841203
 20
5277.1031542933
 10
6261.1394288981
 20
5277.2883757269
 10
6260.9977784598
 20
5277.4805262005
 10
6261.0451101356
 20
5277.6740624821
 10
6261.2800586068
 20
5277.8634413397
 10
6261.695867128
 20
5278.0431940472
 10
6262.2805737921
 20
5278.2081499016
 10
6263.0173561194
 20
5278.3535703337
 10
6263.8850200021
 20
5278.4752681172
 10
6264.8586041325
 20
5278.5697414791
 10
6265.9100989842
 20
5278.6342784083
 10
6267.0092552
 20
5278.6670162594
 10
6268.1244534471
 20
5278.6670162594
 10
6269.2236105942
 20
5278.6342784083
 10
6270.2751054459
 20
5278.5697414791
 10
6271.248688645
 20
5278.4752681172
 10
6272.1163525277
 20
5278.3535703337
 10
6272.8531357863
 20
5278.2081499016
 10
6273.4378422176
 20
5278.0431940472
 10
6273.8536509716
 20
5277.8634413397
 10
6274.0885999085
 20
5277.6740624821
 10
6274.1359304202
 20
5277.4805262005
 10
6273.9942802147
 20
5277.2883757269
 10
6273.6677249924
 20
5277.1031542933
 10
6273.1656587714
 20
5276.930166713
 10
6272.5025249676
 20
5276.7744197762
 10
6271.6974012585
 20
5276.6403838312
 10
6270.773448705
 20
5276.5319033778
 10
6269.7572486506
 20
5276.4521076596
 10
6268.6780353108
 20
5276.4032914555
 10
6267.5668547892
 20
5276.3868703759
  0
LWPOLYLINE
  5
12F
330
1F
100
AcDbEntity
  8
0
  6
Continuous
 62
     7
370
    25
100
AcDbPolyline
 90
       10
 70
   128
 43
0.0
 10
6267.5668547892
 20
5276.4918192541
 10
6268.6780353108
 20
5276.5082403338
 10
6269.7572486506
 20
5276.5570565378
 10
6270.773448705
 20
5276.636852256
 10
6271.6974012585
 20
5276.7453327095
 10
6272.5025249676
 20
5276.8793686545
 10
6273.1656587714
 20
5277.0351155913
 10
6273.6677249924
 20
5277.2080882704
 10
6273.9942802147
 20
5277.3933246052
 10
6274.1349117861
 20
5277.5814666664
  0
LWPOLYLINE
  5
130
330
1F
100
AcDbEntity
  8
0
  6
Continuous
 62
     7
370
    25
100
AcDbPolyline
 90
       10
 70
   128
 43
0.0
 10
6260.9987973266
 20
5277.5814666664
 10
6261.1394288981
 20
5277.3933246052
 10
6261.4659841203
 20
5277.2080882704
 10
6261.9680508071
 20
5277.0351155913
 10
6262.6311841452
 20
5276.8793686545
 10
6263.4363078543
 20
5276.7453327095
 10
6264.3602599421
 20
5276.636852256
 10
6265.3764604622
 20
5276.5570565378
 10
6266.4556742677
 20
5276.5082403338
 10
6267.5668547892
 20
5276.4918192541
  0
ARC
  5
131
330
1F
100
AcDbEntity
  8
0
  6
Continuous
 62
     7
370
    25
100
AcDbCircle
 10
6263.6432173483
 20
5282.8832093266
 30
0.0
 40
5.796146780784206
100
AcDbArc
 50
243.543205979
 51
263.1458833866
  0
ARC
  5
132
330
1F
100
AcDbEntity
  8
0
  6
Continuous
 62
     7
370
    25
100
AcDbCircle
 10
6271.6304175864
 20
5282.4154924576
 30
0.0
 40
5.315723283725136
100
AcDbArc
 50
275.9583004291
 51
297.3526063302
  0
LINE
  5
133
330
1F
100
AcDbEntity
  8
0
  6
Continuous
 62
     7
370
    25
100
AcDbLine
 10
6261.2739137405
 20
5277.8747811234
 30
0.0
 11
6261.3285767877
 21
5277.8497024691
 31
0.0
  0
ELLIPSE
  5
134
330
1F
100
AcDbEntity
  8
0
  6
Continuous
 62
     7
370
    25
100
AcDbEllipse
 10
6267.5668546024
 20
5277.1547750144
 30
0.0
 11
-2.545268852997651
 21
59.13997036370257
 31
0.0
210
0.0
220
0.0
230
1.0
 40
0.1047973095
 41
1.554535428284002
 42
1.557386409680849
  0
SPLINE
  5
135
330
1F
100
AcDbEntity
  8
0
  6
Continuous
 62
     7
370
    25
100
AcDbSpline
210
0.0
220
0.0
230
1.0
 70
     8
 71
     3
 72
    12
 73
     8
 74
     0
 42
0.000000001
 43
0.00000001
 40
0.0
 40
0.0
 40
0.0
 40
0.0
 40
0.2313016586504452
 40
0.4626760210599909
 40
0.694091784791651
 40
0.9254035968784484
 40
1.0
 40
1.0
 40
1.0
 40
1.0
 10
6261.335571020209
 20
5277.681095830185
 30
0.0
 10
6261.336441412149
 20
5277.66983820052
 30
0.0
 10
6261.338182469613
 20
5277.647319402641
 30
0.0
 10
6261.345760067735
 20
5277.616619718568
 30
0.0
 10
6261.356109996815
 20
5277.592786062656
 30
0.0
 10
6261.365768614599
 20
5277.581296041159
 30
0.0
 10
6261.371395833832
 20
5277.578438253952
 30
0.0
 10
6261.37276804384
 20
5277.577741376144
 30
0.0
  0
ARC
  5
136
330
1F
100
AcDbEntity
  8
0
  6
Continuous
 62
     7
370
    25
100
AcDbCircle
 10
6261.7552321819
 20
5278.4777025764
 30
0.0
 40
0.9778593860319051
100
AcDbArc
 50
246.9755526293
 51
247.4967995905
  0
LINE
  5
137
330
1F
100
AcDbEntity
  8
0
  6
Continuous
 62
     7
370
    25
100
AcDbLine
 10
6261.3809711331
 20
5277.5742992079
 30
0.0
 11
6261.3881292784
 21
5277.5744333184
 31
0.0
  0
LWPOLYLINE
  5
138
330
1F
100
AcDbEntity
  8
0
  6
Continuous
 62
     7
370
    25
100
AcDbPolyline
 90
        3
 70
   128
 43
0.0
 10
6262.0291073838
 20
5277.6191517031
 10
6262.070752404
 20
5277.6086463845
 10
6262.1806708195
 20
5277.5820627129
  0
LINE
  5
139
330
1F
100
AcDbEntity
  8
0
  6
Continuous
 62
     7
370
    25
100
AcDbLine
 10
6262.1806708195
 20
5277.5820627129
 30
0.0
 11
6262.1873120808
 21
5277.4194165385
 31
0.0
  0
SPLINE
  5
13A
330
1F
100
AcDbEntity
  8
0
  6
Continuous
 62
     7
370
    25
100
AcDbSpline
210
0.0
220
0.0
230
1.0
 70
     8
 71
     3
 72
    12
 73
     8
 74
     0
 42
0.000000001
 43
0.00000001
 40
0.0
 40
0.0
 40
0.0
 40
0.0
 40
0.2243351453755419
 40
0.4487804252976125
 40
0.6732031160095147
 40
0.8976658307836878
 40
1.0
 40
1.0
 40
1.0
 40
1.0
 10
6262.187312080823
 20
5277.41941653846
 30
0.0
 10
6262.188425743487
 20
5277.408188092409
 30
0.0
 10
6262.190653615552
 20
5277.385725687842
 30
0.0
 10
6262.202145183724
 20
5277.354766422157
 30
0.0
 10
6262.218274764024
 20
5277.330476525605
 30
0.0
 10
6262.234375859975
 20
5277.317734136559
 30
0.0
 10
6262.244279323562
 20
5277.314735964596
 30
0.0
 10
6262.247380524242
 20
5277.313797107918
 30
0.0
  0
ARC
  5
13B
330
1F
100
AcDbEntity
  8
0
  6
Continuous
 62
     7
370
    25
100
AcDbCircle
 10
6263.1212040771
 20
5281.14951741
 30
0.0
 40
3.933995149645785
100
AcDbArc
 50
257.1663506565
 51
257.2861007661
  0
LINE
  5
13C
330
1F
100
AcDbEntity
  8
0
  6
Continuous
 62
     7
370
    25
100
AcDbLine
 10
6262.2553992116
 20
5277.3119791663
 30
0.0
 11
6262.2685383105
 21
5277.3126348173
 31
0.0
  0
SPLINE
  5
13D
330
1F
100
AcDbEntity
  8
0
  6
Continuous
 62
     7
370
    25
100
AcDbSpline
210
0.0
220
0.0
230
1.0
 70
     8
 71
     3
 72
     9
 73
     5
 74
     0
 42
0.000000001
 43
0.00000001
 40
0.0
 40
0.0
 40
0.0
 40
0.0
 40
0.5037031496632507
 40
1.0
 40
1.0
 40
1.0
 40
1.0
 10
6272.862717232966
 20
5277.312008968574
 30
0.0
 10
6272.86485846995
 20
5277.311303501816
 30
0.0
 10
6272.869109459815
 20
5277.309902941269
 30
0.0
 10
6272.873573692167
 20
5277.310912086518
 30
0.0
 10
6272.875789276623
 20
5277.311412922127
 30
0.0
  0
ARC
  5
13E
330
1F
100
AcDbEntity
  8
0
  6
Continuous
 62
     7
370
    25
100
AcDbCircle
 10
6272.9213406747
 20
5277.1411238225
 30
0.0
 40
0.1762762244503386
100
AcDbArc
 50
100.6241828071
 51
104.9756906082
  0
SPLINE
  5
13F
330
1F
100
AcDbEntity
  8
0
  6
Continuous
 62
     7
370
    25
100
AcDbSpline
210
0.0
220
0.0
230
1.0
 70
     8
 71
     3
 72
    12
 73
     8
 74
     0
 42
0.000000001
 43
0.00000001
 40
0.0
 40
0.0
 40
0.0
 40
0.0
 40
0.231320200987407
 40
0.4627144340476003
 40
0.6940682511904932
 40
0.9254452889530446
 40
1.0
 40
1.0
 40
1.0
 40
1.0
 10
6272.888841296845
 20
5277.314378253204
 30
0.0
 10
6272.895658141644
 20
5277.3170169706
 30
0.0
 10
6272.909294012916
 20
5277.322295249891
 30
0.0
 10
6272.92729611166
 20
5277.34342721111
 30
0.0
 10
6272.940862677679
 20
5277.371575906671
 30
0.0
 10
6272.947016075993
 20
5277.397212240896
 30
0.0
 10
6272.948303550934
 20
5277.411938570158
 30
0.0
 10
6272.948617304975
 20
5277.415527335388
 30
0.0
  0
ELLIPSE
  5
140
330
1F
100
AcDbEntity
  8
0
  6
Continuous
 62
     7
370
    25
100
AcDbEllipse
 10
6267.5668546024
 20
5277.1547750288
 30
0.0
 11
4.047802303013668
 21
58.99010005710988
 31
0.0
210
0.0
220
0.0
230
1.0
 40
0.0905073082
 41
4.723019443966537
 42
4.725870425356126
  0
LWPOLYLINE
  5
141
330
1F
100
AcDbEntity
  8
0
  6
Continuous
 62
     7
370
    25
100
AcDbPolyline
 90
        3
 70
   128
 43
0.0
 10
6272.9599733868
 20
5277.5837018406
 10
6273.0696249784
 20
5277.6103153145
 10
6273.1069775329
 20
5277.6197626507
  0
SPLINE
  5
142
330
1F
100
AcDbEntity
  8
0
  6
Continuous
 62
     7
370
    25
100
AcDbSpline
210
0.0
220
0.0
230
1.0
 70
     8
 71
     3
 72
     9
 73
     5
 74
     0
 42
0.000000001
 43
0.00000001
 40
0.0
 40
0.0
 40
0.0
 40
0.0
 40
0.1852630926735043
 40
1.0
 40
1.0
 40
1.0
 40
1.0
 10
6273.747164712587
 20
5277.574224702103
 30
0.0
 10
6273.747592080792
 20
5277.574009367792
 30
0.0
 10
6273.749898898619
 20
5277.572847051504
 30
0.0
 10
6273.752337336616
 20
5277.574008546312
 30
0.0
 10
6273.754324022048
 20
5277.574954859001
 30
0.0
  0
ARC
  5
143
330
1F
100
AcDbEntity
  8
0
  6
Continuous
 62
     7
370
    25
100
AcDbCircle
 10
6273.3588722206
 20
5278.5240870032
 30
0.0
 40
1.028218826084015
100
AcDbArc
 50
292.6188400517
 51
292.9234733258
  0
SPLINE
  5
144
330
1F
100
AcDbEntity
  8
0
  6
Continuous
 62
     7
370
    25
100
AcDbSpline
210
0.0
220
0.0
230
1.0
 70
     8
 71
     3
 72
    12
 73
     8
 74
     0
 42
0.000000001
 43
0.00000001
 40
0.0
 40
0.0
 40
0.0
 40
0.0
 40
0.2243672128675207
 40
0.4487411219231475
 40
0.6731652737601166
 40
0.8975963462210617
 40
1.0
 40
1.0
 40
1.0
 40
1.0
 10
6273.759364805483
 20
5277.577070823891
 30
0.0
 10
6273.763641184609
 20
5277.579962038771
 30
0.0
 10
6273.772194070489
 20
5277.585744554818
 30
0.0
 10
6273.783413905577
 20
5277.607556268588
 30
0.0
 10
6273.791817019684
 20
5277.636190586943
 30
0.0
 10
6273.795866934024
 20
5277.663558019412
 30
0.0
 10
6273.796552766726
 20
5277.679827793181
 30
0.0
 10
6273.796767651402
 20
5277.684925428612
 30
0.0
  0
LINE
  5
145
330
1F
100
AcDbEntity
  8
0
  6
Continuous
 62
     7
370
    25
100
AcDbLine
 10
6273.7967676514
 20
5277.6849254286
 30
0.0
 11
6273.8008636081
 21
5277.8478100216
 31
0.0
  0
LINE
  5
146
330
1F
100
AcDbEntity
  8
0
  6
Continuous
 62
     7
370
    25
100
AcDbLine
 10
6273.8008636081
 20
5277.8478100216
 30
0.0
 11
6273.8583401808
 21
5277.87409567
 31
0.0
  0
LWPOLYLINE
  5
147
330
1F
100
AcDbEntity
  8
0
  6
Continuous
 62
     7
370
    25
100
AcDbPolyline
 90
       10
 70
   128
 43
0.0
 10
6267.5668547892
 20
5278.5577907479
 10
6268.5904202082
 20
5278.5408034241
 10
6269.5769911663
 20
5278.4904822028
 10
6270.4909105816
 20
5278.4086450255
 10
6271.2991467708
 20
5278.298227421
 10
6271.9724888013
 20
5278.1632527029
 10
6272.4865993516
 20
5278.0085637486
 10
6272.822897605
 20
5277.8397782957
 10
6272.9692284049
 20
5277.6629909193
 10
6272.9574336701
 20
5277.5418742812
  0
LWPOLYLINE
  5
148
330
1F
100
AcDbEntity
  8
0
  6
Continuous
 62
     7
370
    25
100
AcDbPolyline
 90
       11
 70
   128
 43
0.0
 10
6262.3411386305
 20
5277.3760988629
 10
6262.2134049454
 20
5277.4845793164
 10
6262.1644807079
 20
5277.6629909193
 10
6262.3108119735
 20
5277.8397782957
 10
6262.6471097612
 20
5278.0085637486
 10
6263.1612203115
 20
5278.1632527029
 10
6263.8345618763
 20
5278.298227421
 10
6264.6427989968
 20
5278.4086450255
 10
6265.5567179465
 20
5278.4904822028
 10
6266.5432893702
 20
5278.5408034241
 10
6267.5668547892
 20
5278.5577907479
  0
SPLINE
  5
149
330
1F
100
AcDbEntity
  8
0
  6
Continuous
 62
     7
370
    25
100
AcDbSpline
210
0.0
220
0.0
230
1.0
 70
     8
 71
     3
 72
    23
 73
    19
 74
     0
 42
0.000000001
 43
0.00000001
 40
0.0
 40
0.0
 40
0.0
 40
0.0
 40
0.0582579094017822
 40
0.1200055477457097
 40
0.1843203401972863
 40
0.2499997783272766
 40
0.3156792929881934
 40
0.3799943819202768
 40
0.4417417312763172
 40
0.499999591356224
 40
0.5582580571665129
 40
0.6200059506782766
 40
0.684320029838417
 40
0.7499996603524224
 40
0.8156792440074685
 40
0.8799943489325909
 40
0.9417418014698377
 40
1.0
 40
1.0
 40
1.0
 40
1.0
 10
6265.535212776923
 20
5278.38100337146
 30
0.0
 10
6265.840956663046
 20
5278.399764798196
 30
0.0
 10
6266.470758914809
 20
5278.438411486947
 30
0.0
 10
6267.497927060666
 20
5278.456770860706
 30
0.0
 10
6268.564384609059
 20
5278.44143512781
 30
0.0
 10
6269.613041113837
 20
5278.387039353393
 30
0.0
 10
6270.575039946727
 20
5278.296678212279
 30
0.0
 10
6271.394534141224
 20
5278.176727931203
 30
0.0
 10
6272.03598614503
 20
5278.036852295048
 30
0.0
 10
6272.499115253346
 20
5277.883872881778
 30
0.0
 10
6272.794309918828
 20
5277.718839783869
 30
0.0
 10
6272.910147796772
 20
5277.541135475007
 30
0.0
 10
6272.818900657203
 20
5277.355666905508
 30
0.0
 10
6272.506545042361
 20
5277.173590736047
 30
0.0
 10
6271.98640256363
 20
5277.006349448535
 30
0.0
 10
6271.294811798092
 20
5276.86448694977
 30
0.0
 10
6270.493702194863
 20
5276.751316875446
 30
0.0
 10
6269.891057820752
 20
5276.701284707116
 30
0.0
 10
6269.598496801519
 20
5276.676995984299
 30
0.0
  0
SPLINE
  5
14A
330
1F
100
AcDbEntity
  8
0
  6
Continuous
 62
     7
370
    25
100
AcDbSpline
210
0.0
220
0.0
230
1.0
 70
     8
 71
     3
 72
    23
 73
    19
 74
     0
 42
0.000000001
 43
0.00000001
 40
0.0
 40
0.0
 40
0.0
 40
0.0
 40
0.0582579665129434
 40
0.1200056262663831
 40
0.1843203803171024
 40
0.2499998226174499
 40
0.3156797853688964
 40
0.3799942891945077
 40
0.4417416598956519
 40
0.5000001530575333
 40
0.5582579377127307
 40
0.6200058319994594
 40
0.684320793314714
 40
0.7500002790227359
 40
0.8156792284483865
 40
0.8799943194395559
 40
0.9417417977706967
 40
1.0
 40
1.0
 40
1.0
 40
1.0
 10
6269.598496801519
 20
5276.676995984299
 30
0.0
 10
6269.292752591441
 20
5276.658236487704
 30
0.0
 10
6268.662949877684
 20
5276.619593787453
 30
0.0
 10
6267.635781773969
 20
5276.601202783399
 30
0.0
 10
6266.569325519305
 20
5276.616571366563
 30
0.0
 10
6265.520663296707
 20
5276.670958377323
 30
0.0
 10
6264.558678521593
 20
5276.7613211156
 30
0.0
 10
6263.73917089918
 20
5276.881269825286
 30
0.0
 10
6263.097719257903
 20
5277.021155637926
 30
0.0
 10
6262.634600358072
 20
5277.174098307856
 30
0.0
 10
6262.339396165587
 20
5277.339168651384
 30
0.0
 10
6262.223562735664
 20
5277.516861534933
 30
0.0
 10
6262.314807307717
 20
5277.702337967531
 30
0.0
 10
6262.627162127052
 20
5277.884381961538
 30
0.0
 10
6263.147310920583
 20
5278.051657662556
 30
0.0
 10
6263.838896920945
 20
5278.193510610276
 30
0.0
 10
6264.640007447189
 20
5278.306682879305
 30
0.0
 10
6265.242651814376
 20
5278.356714782016
 30
0.0
 10
6265.535212776923
 20
5278.38100337146
 30
0.0
  0
SPLINE
  5
14B
330
1F
100
AcDbEntity
  8
0
  6
Continuous
 62
     7
370
    25
100
AcDbSpline
210
0.0
220
0.0
230
1.0
 70
     8
 71
     3
 72
     9
 73
     5
 74
     0
 42
0.000000001
 43
0.00000001
 40
0.0
 40
0.0
 40
0.0
 40
0.0
 40
0.3945611570166491
 40
1.0
 40
1.0
 40
1.0
 40
1.0
 10
6262.162785700822
 20
5278.14248048423
 30
0.0
 10
6262.163123919207
 20
5278.142146696462
 30
0.0
 10
6262.163981120634
 20
5278.141300724267
 30
0.0
 10
6262.164733764534
 20
5278.142388279919
 30
0.0
 10
6262.165189444387
 20
5278.143046728355
 30
0.0
  0
ARC
  5
14C
330
1F
100
AcDbEntity
  8
0
  6
Continuous
 62
     7
370
    25
100
AcDbCircle
 10
6262.4199896343
 20
5277.9529918419
 30
0.0
 40
0.317874183733758
100
AcDbArc
 50
142.4452638264
 51
143.280825698
  0
ARC
  5
14D
330
1F
100
AcDbEntity
  8
0
  6
Continuous
 62
     7
370
    25
100
AcDbCircle
 10
6272.6958126249
 20
5277.9389544614
 30
0.0
 40
0.3406240334423576
100
AcDbArc
 50
36.9610163315
 51
37.4393282531
  0
SPLINE
  5
14E
330
1F
100
AcDbEntity
  8
0
  6
Continuous
 62
     7
370
    25
100
AcDbSpline
210
0.0
220
0.0
230
1.0
 70
     8
 71
     3
 72
     9
 73
     5
 74
     0
 42
0.000000001
 43
0.00000001
 40
0.0
 40
0.0
 40
0.0
 40
0.0
 40
0.1422612140889498
 40
1.0
 40
1.0
 40
1.0
 40
1.0
 10
6272.970380450898
 20
5278.142659298164
 30
0.0
 10
6272.970257912463
 20
5278.142520487826
 30
0.0
 10
6272.969396550247
 20
5278.141544745148
 30
0.0
 10
6272.96863752856
 20
5278.142738260061
 30
0.0
 10
6272.96798648622
 20
5278.143761984093
 30
0.0
  0
SPLINE
  5
14F
330
1F
100
AcDbEntity
  8
0
  6
Continuous
 62
     7
370
    25
100
AcDbSpline
210
0.0
220
0.0
230
1.0
 70
     8
 71
     3
 72
    17
 73
    13
 74
     0
 42
0.000000001
 43
0.00000001
 40
0.0
 40
0.0
 40
0.0
 40
0.0
 40
0.0167788222975741
 40
0.1193858281575082
 40
0.2219903984456109
 40
0.3307424567827527
 40
0.4440158361465831
 40
0.5596925734658816
 40
0.6753695194249203
 40
0.7886425766733498
 40
0.8973943604724094
 40
0.9999999999999999
 40
0.9999999999999999
 40
0.9999999999999999
 40
0.9999999999999999
 10
6272.768546550834
 20
5277.693329683525
 30
0.0
 10
6272.763227915714
 20
5277.702457400192
 30
0.0
 10
6272.725384398029
 20
5277.767403556372
 30
0.0
 10
6272.479980327925
 20
5277.883043813406
 30
0.0
 10
6272.031550536767
 20
5278.036055003176
 30
0.0
 10
6271.387208252812
 20
5278.175632873709
 30
0.0
 10
6270.570222397852
 20
5278.295385481409
 30
0.0
 10
6269.609528076217
 20
5278.385605652394
 30
0.0
 10
6268.562725076817
 20
5278.439879970113
 30
0.0
 10
6267.498037905593
 20
5278.455218857528
 30
0.0
 10
6266.472605255218
 20
5278.436875075546
 30
0.0
 10
6265.84386232775
 20
5278.398299682243
 30
0.0
 10
6265.538632593417
 20
5278.379572859985
 30
0.0
  0
SPLINE
  5
150
330
1F
100
AcDbEntity
  8
0
  6
Continuous
 62
     7
370
    25
100
AcDbSpline
210
0.0
220
0.0
230
1.0
 70
     8
 71
     3
 72
    23
 73
    19
 74
     0
 42
0.000000001
 43
0.00000001
 40
0.0
 40
0.0
 40
0.0
 40
0.0
 40
0.0582579197187782
 40
0.1200055830882721
 40
0.1843207662278153
 40
0.2499995588905516
 40
0.3156797953406257
 40
0.3799944891433912
 40
0.4417419436425066
 40
0.4999997927053319
 40
0.5582580293116208
 40
0.620005692879154
 40
0.6843205982336383
 40
0.7500000937531464
 40
0.815679698494026
 40
0.8799944076944696
 40
0.9417420753921598
 40
1.0
 40
1.0
 40
1.0
 40
1.0
 10
6265.538632593417
 20
5278.379572859985
 30
0.0
 10
6265.246563214586
 20
5278.355326651325
 30
0.0
 10
6264.644929028572
 20
5278.305381846872
 30
0.0
 10
6263.845173175931
 20
5278.192388386165
 30
0.0
 10
6263.154751060126
 20
5278.050766993229
 30
0.0
 10
6262.63547340766
 20
5277.883809161578
 30
0.0
 10
6262.323650272668
 20
5277.702028846803
 30
0.0
 10
6262.232555526034
 20
5277.516870137298
 30
0.0
 10
6262.348198317442
 20
5277.339495758981
 30
0.0
 10
6262.642900599629
 20
5277.174701049806
 30
0.0
 10
6263.105245306529
 20
5277.021994143293
 30
0.0
 10
6263.745615258321
 20
5276.882352712028
 30
0.0
 10
6264.56373444024
 20
5276.762615994183
 30
0.0
 10
6265.524114851579
 20
5276.672399633455
 30
0.0
 10
6266.571000723036
 20
5276.618093816697
 30
0.0
 10
6267.635666829062
 20
5276.602786973627
 30
0.0
 10
6268.661105016132
 20
5276.621122774947
 30
0.0
 10
6269.289847572457
 20
5276.659699187429
 30
0.0
 10
6269.595076985025
 20
5276.678426495773
 30
0.0
  0
LWPOLYLINE
  5
151
330
1F
100
AcDbEntity
  8
0
  6
Continuous
 62
     7
370
    25
100
AcDbPolyline
 90
       10
 70
   128
 43
0.0
 10
6267.5668547892
 20
5276.724202863
 10
6266.5827485764
 20
5276.7405196345
 10
6265.6342095726
 20
5276.7889037049
 10
6264.755522556
 20
5276.8675967371
 10
6263.9784437635
 20
5276.9737377083
 10
6263.3310600215
 20
5277.1035268223
 10
6262.8367680156
 20
5277.252240411
 10
6262.5134342381
 20
5277.4145140564
 10
6262.3727439934
 20
5277.5844916022
 10
6262.3668543094
 20
5277.6274814522
  0
LWPOLYLINE
  5
152
330
1F
100
AcDbEntity
  8
0
  6
Continuous
 62
     7
370
    25
100
AcDbPolyline
 90
       10
 70
   128
 43
0.0
 10
6272.7668548034
 20
5277.6274814522
 10
6272.7609646538
 20
5277.5844916022
 10
6272.6202748747
 20
5277.4145140564
 10
6272.2969410972
 20
5277.252240411
 10
6271.802649557
 20
5277.1035268223
 10
6271.1552653493
 20
5276.9737377083
 10
6270.3781870225
 20
5276.8675967371
 10
6269.4994995401
 20
5276.7889037049
 10
6268.5509610021
 20
5276.7405196345
 10
6267.5668547892
 20
5276.724202863
  0
SPLINE
  5
153
330
1F
100
AcDbEntity
  8
0
  6
Continuous
 62
     7
370
    25
100
AcDbSpline
210
0.0
220
0.0
230
1.0
 70
     8
 71
     3
 72
     9
 73
     5
 74
     0
 42
0.000000001
 43
0.00000001
 40
0.0
 40
0.0
 40
0.0
 40
0.0
 40
0.5040450426860332
 40
0.9999999999999999
 40
0.9999999999999999
 40
0.9999999999999999
 40
0.9999999999999999
 10
6271.672665796542
 20
5277.470631829483
 30
0.0
 10
6271.674810902628
 20
5277.469926118331
 30
0.0
 10
6271.679066685158
 20
5277.46852602292
 30
0.0
 10
6271.683539221435
 20
5277.469535251244
 30
0.0
 10
6271.685757397973
 20
5277.470035783035
 30
0.0
  0
ARC
  5
154
330
1F
100
AcDbEntity
  8
0
  6
Continuous
 62
     7
370
    25
100
AcDbCircle
 10
6271.2723294761
 20
5279.3292228476
 30
0.0
 40
1.904599482162853
100
AcDbArc
 50
282.5368905659
 51
282.9394265763
  0
SPLINE
  5
155
330
1F
100
AcDbEntity
  8
0
  6
Continuous
 62
     7
370
    25
100
AcDbSpline
210
0.0
220
0.0
230
1.0
 70
     8
 71
     3
 72
    12
 73
     8
 74
     0
 42
0.000000001
 43
0.00000001
 40
0.0
 40
0.0
 40
0.0
 40
0.0
 40
0.2313802009034748
 40
0.4627468350367741
 40
0.6940897811084334
 40
0.9254451768958327
 40
1.0
 40
1.0
 40
1.0
 40
1.0
 10
6271.698808952534
 20
5277.472986212952
 30
0.0
 10
6271.705617307241
 20
5277.475628722624
 30
0.0
 10
6271.719233617454
 20
5277.480913587027
 30
0.0
 10
6271.737175024905
 20
5277.502070742566
 30
0.0
 10
6271.750671520322
 20
5277.530211066318
 30
0.0
 10
6271.756789701719
 20
5277.555851410771
 30
0.0
 10
6271.758068425813
 20
5277.570576400677
 30
0.0
 10
6271.758380069697
 20
5277.574165097458
 30
0.0
  0
ELLIPSE
  5
156
330
1F
100
AcDbEntity
  8
0
  6
Continuous
 62
     7
370
    25
100
AcDbEllipse
 10
6267.5668546024
 20
5277.1547750288
 30
0.0
 11
3.141577906611019
 21
45.78336123536701
 31
0.0
210
0.0
220
0.0
230
1.0
 40
0.0905073082
 41
4.727759690764374
 42
4.731433457876626
  0
ARC
  5
157
330
1F
100
AcDbEntity
  8
0
  6
Continuous
 62
     7
370
    25
100
AcDbCircle
 10
6270.8548367122
 20
5281.7793254023
 30
0.0
 40
4.139327466818299
100
AcDbArc
 50
282.7681980692
 51
290.7776535045
  0
SPLINE
  5
158
330
1F
100
AcDbEntity
  8
0
  6
Continuous
 62
     7
370
    25
100
AcDbSpline
210
0.0
220
0.0
230
1.0
 70
     8
 71
     3
 72
    12
 73
     8
 74
     0
 42
0.000000001
 43
0.00000001
 40
0.0
 40
0.0
 40
0.0
 40
0.0
 40
0.2313751801728541
 40
0.4627162308969509
 40
0.6940351099518183
 40
0.9255160338808694
 40
1.0
 40
1.0
 40
1.0
 40
1.0
 10
6262.721631399654
 20
5277.780829302055
 30
0.0
 10
6262.722490934392
 20
5277.769566470181
 30
0.0
 10
6262.724209877078
 20
5277.747042467779
 30
0.0
 10
6262.731705892991
 20
5277.716342960722
 30
0.0
 10
6262.741993659117
 20
5277.692494525223
 30
0.0
 10
6262.751587278229
 20
5277.681006390545
 30
0.0
 10
6262.75721826765
 20
5277.678142282877
 30
0.0
 10
6262.758589073383
 20
5277.677445045692
 30
0.0
  0
ARC
  5
159
330
1F
100
AcDbEntity
  8
0
  6
Continuous
 62
     7
370
    25
100
AcDbCircle
 10
6259.8964975635
 20
5270.843697713
 30
0.0
 40
7.408891308265646
100
AcDbArc
 50
67.2064122818
 51
67.2752218912
  0
LINE
  5
15A
330
1F
100
AcDbEntity
  8
0
  6
Continuous
 62
     7
370
    25
100
AcDbLine
 10
6262.7667940253
 20
5277.6740028775
 30
0.0
 11
6262.7739698657
 21
5277.6741518891
 31
0.0
  0
LWPOLYLINE
  5
15B
330
1F
100
AcDbEntity
  8
0
  6
Continuous
 62
     7
370
    25
100
AcDbPolyline
 90
        3
 70
   128
 43
0.0
 10
6263.4535820254
 20
5277.7216418898
 10
6263.6360672333
 20
5277.682928673
 10
6263.7443185815
 20
5277.6618882334
  0
LINE
  5
15C
330
1F
100
AcDbEntity
  8
0
  6
Continuous
 62
     7
370
    25
100
AcDbLine
 10
6277.3037991867
 20
5284.2159404671
 30
0.0
 11
6277.3037991867
 21
5284.3597962773
 31
0.0
  0
SPLINE
  5
15D
330
1F
100
AcDbEntity
  8
0
  6
Continuous
 62
     7
370
    25
100
AcDbSpline
210
0.0
220
0.0
230
1.0
 70
     8
 71
     3
 72
    12
 73
     8
 74
     0
 42
0.000000001
 43
0.00000001
 40
0.0
 40
0.0
 40
0.0
 40
0.0
 40
0.2120370999765141
 40
0.4240245344318357
 40
0.637219766523222
 40
0.8525686154763589
 40
1.0
 40
1.0
 40
1.0
 40
1.0
 10
6277.303799186667
 20
5284.215940467102
 30
0.0
 10
6277.304296725112
 20
5284.182422129285
 30
0.0
 10
6277.305291685465
 20
5284.115393304662
 30
0.0
 10
6277.312872805792
 20
5284.018615253064
 30
0.0
 10
6277.323519728039
 20
5283.938669417465
 30
0.0
 10
6277.334794114586
 20
5283.887602596556
 30
0.0
 10
6277.341722291937
 20
5283.873938697672
 30
0.0
 10
6277.344537855425
 20
5283.868385783417
 30
0.0
  0
SPLINE
  5
15E
330
1F
100
AcDbEntity
  8
0
  6
Continuous
 62
     7
370
    25
100
AcDbSpline
210
0.0
220
0.0
230
1.0
 70
     8
 71
     3
 72
    12
 73
     8
 74
     0
 42
0.000000001
 43
0.00000001
 40
0.0
 40
0.0
 40
0.0
 40
0.0
 40
0.2120370550037645
 40
0.4240245201617215
 40
0.6372199010778995
 40
0.8525687059281974
 40
1.0
 40
1.0
 40
1.0
 40
1.0
 10
6257.829910799229
 20
5284.215940467102
 30
0.0
 10
6257.829413303381
 20
5284.182422127548
 30
0.0
 10
6257.828418428036
 20
5284.115393287491
 30
0.0
 10
6257.82083683833
 20
5284.018615221727
 30
0.0
 10
6257.81018867853
 20
5283.938669459091
 30
0.0
 10
6257.798914484043
 20
5283.887602600099
 30
0.0
 10
6257.791986506235
 20
5283.873938697738
 30
0.0
 10
6257.789171024525
 20
5283.868385783417
 30
0.0
  0
LINE
  5
15F
330
1F
100
AcDbEntity
  8
0
  6
Continuous
 62
     7
370
    25
100
AcDbLine
 10
6257.8299107992
 20
5284.3597962773
 30
0.0
 11
6257.8299107992
 21
5284.2159404671
 31
0.0
  0
LWPOLYLINE
  5
160
330
1F
100
AcDbEntity
  8
0
  6
Continuous
 62
     7
370
    25
100
AcDbPolyline
 90
        9
 70
   128
 43
0.0
 10
6267.5668547892
 20
5278.274653784
 10
6268.415374405
 20
5278.2580538904
 10
6269.2213456177
 20
5278.2090588724
 10
6269.9443541498
 20
5278.1301423228
 10
6270.5481445448
 20
5278.0252679503
 10
6271.0024409027
 20
5277.8996660626
 10
6271.2844621421
 20
5277.7596696532
 10
6271.3800675267
 20
5277.6122673666
 10
6271.3138598048
 20
5277.4893774903
  0
LWPOLYLINE
  5
161
330
1F
100
AcDbEntity
  8
0
  6
Continuous
 62
     7
370
    25
100
AcDbPolyline
 90
       10
 70
   128
 43
0.0
 10
6263.9985482239
 20
5277.3787214672
 10
6263.8492469707
 20
5277.4648799813
 10
6263.7536420518
 20
5277.6122673666
 10
6263.8492469707
 20
5277.7596696532
 10
6264.1312682101
 20
5277.8996660626
 10
6264.585564568
 20
5278.0252679503
 10
6265.189354963
 20
5278.1301423228
 10
6265.9123639607
 20
5278.2090588724
 10
6266.7183351734
 20
5278.2580538904
 10
6267.5668547892
 20
5278.274653784
  0
SPLINE
  5
162
330
1F
100
AcDbEntity
  8
0
  6
Continuous
 62
     7
370
    25
100
AcDbSpline
210
0.0
220
0.0
230
1.0
 70
     8
 71
     3
 72
    19
 73
    15
 74
     0
 42
0.000000001
 43
0.00000001
 40
0.0
 40
0.0
 40
0.0
 40
0.0
 40
0.11972857428921
 40
0.1841805322312337
 40
0.250000201701178
 40
0.3158194146333265
 40
0.3802720179108875
 40
0.5000005094796252
 40
0.6197283608780653
 40
0.6841811390670788
 40
0.7499998811586641
 40
0.815819692203762
 40
0.8802714659515259
 40
1.0
 40
1.0
 40
1.0
 40
1.0
 10
6266.145410671197
 20
5278.125105730278
 30
0.0
 10
6266.596058643756
 20
5278.148203072944
 30
0.0
 10
6267.289298197698
 20
5278.183734113805
 30
0.0
 10
6268.265730326504
 20
5278.16691035949
 30
0.0
 10
6268.998194990456
 20
5278.12946469613
 30
0.0
 10
6269.671681278002
 20
5278.066046854766
 30
0.0
 10
6270.417128002466
 20
5277.957080570151
 30
0.0
 10
6271.081410263586
 20
5277.781878064956
 30
0.0
 10
6271.324899767952
 20
5277.576389447867
 30
0.0
 10
6271.241311281849
 20
5277.407776781325
 30
0.0
 10
6271.023280942958
 20
5277.280223671802
 30
0.0
 10
6270.657725112117
 20
5277.163772397897
 30
0.0
 10
6270.03579078617
 20
5277.031941997823
 30
0.0
 10
6269.400970334633
 20
5276.971914919985
 30
0.0
 10
6268.988297975921
 20
5276.932893625481
 30
0.0
  0
SPLINE
  5
163
330
1F
100
AcDbEntity
  8
0
  6
Continuous
 62
     7
370
    25
100
AcDbSpline
210
0.0
220
0.0
230
1.0
 70
     8
 71
     3
 72
    19
 73
    15
 74
     0
 42
0.000000001
 43
0.00000001
 40
0.0
 40
0.0
 40
0.0
 40
0.0
 40
0.1197285291746592
 40
0.184180584878201
 40
0.2500002726714819
 40
0.3158200340638329
 40
0.3802718726310518
 40
0.5000004195212686
 40
0.6197280699799683
 40
0.6841808626995236
 40
0.7499998250596569
 40
0.8158196925453036
 40
0.8802714326206655
 40
1.0
 40
1.0
 40
1.0
 40
1.0
 10
6268.98829797592
 20
5276.932893625481
 30
0.0
 10
6268.537650167749
 20
5276.909796305794
 30
0.0
 10
6267.844410407308
 20
5276.874265276736
 30
0.0
 10
6266.867979360569
 20
5276.891088911821
 30
0.0
 10
6266.135508767427
 20
5276.928535035114
 30
0.0
 10
6265.462037266976
 20
5276.991951608759
 30
0.0
 10
6264.71657269272
 20
5277.100919351305
 30
0.0
 10
6264.052300814151
 20
5277.276125785054
 30
0.0
 10
6263.808809666995
 20
5277.481595154834
 30
0.0
 10
6263.89239831973
 20
5277.650203268208
 30
0.0
 10
6264.110426732772
 20
5277.777780759129
 30
0.0
 10
6264.475984792301
 20
5277.894225545307
 30
0.0
 10
6265.097917474937
 20
5278.02605810972
 30
0.0
 10
6265.732738090324
 20
5278.08608472532
 30
0.0
 10
6266.145410671198
 20
5278.125105730278
 30
0.0
  0
SPLINE
  5
164
330
1F
100
AcDbEntity
  8
0
  6
Continuous
 62
     7
370
    25
100
AcDbSpline
210
0.0
220
0.0
230
1.0
 70
     8
 71
     3
 72
     9
 73
     5
 74
     0
 42
0.000000001
 43
0.00000001
 40
0.0
 40
0.0
 40
0.0
 40
0.0
 40
0.4176802642233935
 40
1.0
 40
1.0
 40
1.0
 40
1.0
 10
6263.717994748914
 20
5278.106956115944
 30
0.0
 10
6263.718392340415
 20
5278.106606150822
 30
0.0
 10
6263.719344244385
 20
5278.105768272781
 30
0.0
 10
6263.720089381598
 20
5278.106848575179
 30
0.0
 10
6263.720523289704
 20
5278.107477656586
 30
0.0
  0
ARC
  5
165
330
1F
100
AcDbEntity
  8
0
  6
Continuous
 62
     7
370
    25
100
AcDbCircle
 10
6263.9021344126
 20
5277.9728945341
 30
0.0
 40
0.2260425110733287
100
AcDbArc
 50
142.2847806408
 51
143.4596642241
  0
SPLINE
  5
166
330
1F
100
AcDbEntity
  8
0
  6
Continuous
 62
     7
370
    25
100
AcDbSpline
210
0.0
220
0.0
230
1.0
 70
     8
 71
     3
 72
    12
 73
     8
 74
     0
 42
0.000000001
 43
0.00000001
 40
0.0
 40
0.0
 40
0.0
 40
0.0
 40
0.2286334403499885
 40
0.4573717773069153
 40
0.6867370324497049
 40
0.9180050391368906
 40
1.0
 40
1.0
 40
1.0
 40
1.0
 10
6263.723320982718
 20
5278.111173144562
 30
0.0
 10
6263.724668797674
 20
5278.114172766377
 30
0.0
 10
6263.727365045961
 20
5278.120173386227
 30
0.0
 10
6263.729098814259
 20
5278.142085122812
 30
0.0
 10
6263.728679518322
 20
5278.170725303594
 30
0.0
 10
6263.726540021194
 20
5278.196867460283
 30
0.0
 10
6263.724588117373
 20
5278.211974197463
 30
0.0
 10
6263.724077216649
 20
5278.215928307754
 30
0.0
  0
SPLINE
  5
167
330
1F
100
AcDbEntity
  8
0
  6
Continuous
 62
     7
370
    25
100
AcDbSpline
210
0.0
220
0.0
230
1.0
 70
     8
 71
     3
 72
    19
 73
    15
 74
     0
 42
0.000000001
 43
0.00000001
 40
0.0
 40
0.0
 40
0.0
 40
0.0
 40
0.1197284585129596
 40
0.184180113570863
 40
0.2499993233806838
 40
0.3158195515542142
 40
0.3802715362228359
 40
0.4999998683715742
 40
0.6197285469442093
 40
0.6841801304401267
 40
0.7499995303857777
 40
0.8158194768954041
 40
0.8802713720723127
 40
0.9999999999999999
 40
0.9999999999999999
 40
0.9999999999999999
 40
0.9999999999999999
 10
6268.982783614957
 20
5276.935203305466
 30
0.0
 10
6269.393854705264
 20
5276.974076457846
 30
0.0
 10
6270.026211632254
 20
5277.033875620964
 30
0.0
 10
6270.645729936134
 20
5277.165196501183
 30
0.0
 10
6271.009876459784
 20
5277.28117796715
 30
0.0
 10
6271.227050872646
 20
5277.408264820911
 30
0.0
 10
6271.310320591585
 20
5277.576212624817
 30
0.0
 10
6271.067771245107
 20
5277.780901420512
 30
0.0
 10
6270.406079902333
 20
5277.955419744437
 30
0.0
 10
6269.663507063351
 20
5278.063955385663
 30
0.0
 10
6268.992642532735
 20
5278.12714795133
 30
0.0
 10
6268.263021549723
 20
5278.164410916386
 30
0.0
 10
6267.290374100244
 20
5278.181205304333
 30
0.0
 10
6266.599825121491
 20
5278.145807071253
 30
0.0
 10
6266.150925963485
 20
5278.122796050293
 30
0.0
  0
SPLINE
  5
168
330
1F
100
AcDbEntity
  8
0
  6
Continuous
 62
     7
370
    25
100
AcDbSpline
210
0.0
220
0.0
230
1.0
 70
     8
 71
     3
 72
    19
 73
    15
 74
     0
 42
0.000000001
 43
0.00000001
 40
0.0
 40
0.0
 40
0.0
 40
0.0
 40
0.1197285391423595
 40
0.1841802454200471
 40
0.2499994619457351
 40
0.3158197044888925
 40
0.3802717178950261
 40
0.5000000970640449
 40
0.6197277855931118
 40
0.6841801800992398
 40
0.749999641261543
 40
0.8158193156517383
 40
0.8802713250519161
 40
1.0
 40
1.0
 40
1.0
 40
1.0
 10
6266.150925963484
 20
5278.122796050293
 30
0.0
 10
6265.739854786936
 20
5278.08392289047
 30
0.0
 10
6265.107497700445
 20
5278.024123713365
 30
0.0
 10
6264.487978635754
 20
5277.892802902845
 30
0.0
 10
6264.123832637782
 20
5277.776821372442
 30
0.0
 10
6263.906658829225
 20
5277.649734534558
 30
0.0
 10
6263.82338881848
 20
5277.481786661783
 30
0.0
 10
6264.065932084115
 20
5277.277099213586
 30
0.0
 10
6264.727640967593
 20
5277.102578610946
 30
0.0
 10
6265.470197119041
 20
5276.994042895993
 30
0.0
 10
6266.14106532907
 20
5276.930858236353
 30
0.0
 10
6266.870690808715
 20
5276.893563231632
 30
0.0
 10
6267.843333970887
 20
5276.876806806157
 30
0.0
 10
6268.533883994457
 20
5276.912197316114
 30
0.0
 10
6268.982783614957
 20
5276.935203305466
 30
0.0
  0
LWPOLYLINE
  5
169
330
1F
100
AcDbEntity
  8
0
  6
Continuous
 62
     7
370
    25
100
AcDbPolyline
 90
        8
 70
   128
 43
0.0
 10
6267.5668547892
 20
5277.0021244204
 10
6266.7366375246
 20
5277.0189925349
 10
6265.9511777603
 20
5277.068643204
 10
6265.2528190085
 20
5277.1484389221
 10
6264.6792109155
 20
5277.2540434515
 10
6264.2612761849
 20
5277.3797943508
 10
6264.0215463036
 20
5277.5188817894
 10
6263.9668543854
 20
5277.6274814522
  0
ARC
  5
16A
330
1F
100
AcDbEntity
  8
0
  6
Continuous
 62
     7
370
    25
100
AcDbCircle
 10
6268.339677583
 20
5283.2279654647
 30
0.0
 40
6.273623496829896
100
AcDbArc
 50
262.9239864581
 51
296.7850748693
  0
SPLINE
  5
16B
330
1F
100
AcDbEntity
  8
0
  6
Continuous
 62
     7
370
    25
100
AcDbSpline
210
0.0
220
0.0
230
1.0
 70
     8
 71
     3
 72
     9
 73
     5
 74
     0
 42
0.000000001
 43
0.00000001
 40
0.0
 40
0.0
 40
0.0
 40
0.0
 40
0.5036159089488342
 40
1.0
 40
1.0
 40
1.0
 40
1.0
 10
6270.403257760518
 20
5277.639834514839
 30
0.0
 10
6270.405412488721
 20
5277.639129110396
 30
0.0
 10
6270.409691003685
 20
5277.637728430967
 30
0.0
 10
6270.414166464358
 20
5277.638737555185
 30
0.0
 10
6270.416388011837
 20
5277.639238468391
 30
0.0
  0
ARC
  5
16C
330
1F
100
AcDbEntity
  8
0
  6
Continuous
 62
     7
370
    25
100
AcDbCircle
 10
6269.5770021887
 20
5281.3828321767
 30
0.0
 40
3.83654302892261
100
AcDbArc
 50
282.6377989408
 51
282.8376389287
  0
SPLINE
  5
16D
330
1F
100
AcDbEntity
  8
0
  6
Continuous
 62
     7
370
    25
100
AcDbSpline
210
0.0
220
0.0
230
1.0
 70
     8
 71
     3
 72
    12
 73
     8
 74
     0
 42
0.000000001
 43
0.00000001
 40
0.0
 40
0.0
 40
0.0
 40
0.0
 40
0.2313468209117293
 40
0.4626576324132055
 40
0.6940683464734801
 40
0.9254587140446812
 40
0.9999999999999999
 40
0.9999999999999999
 40
0.9999999999999999
 40
0.9999999999999999
 10
6270.429440032058
 20
5277.642188898308
 30
0.0
 10
6270.436231513891
 20
5277.644831621033
 30
0.0
 10
6270.449813420456
 20
5277.65011665514
 30
0.0
 10
6270.467630097218
 20
5277.671272372396
 30
0.0
 10
6270.480986510009
 20
5277.699446315172
 30
0.0
 10
6270.487031513715
 20
5277.72509506514
 30
0.0
 10
6270.488295677738
 20
5277.739823783957
 30
0.0
 10
6270.488603695595
 20
5277.743412486298
 30
0.0
  0
ELLIPSE
  5
16E
330
1F
100
AcDbEntity
  8
0
  6
Continuous
 62
     7
370
    25
100
AcDbEllipse
 10
6267.5668546024
 20
5277.1547750288
 30
0.0
 11
2.174938550891056
 21
31.69617316527911
 31
0.0
210
0.0
220
0.0
230
1.0
 40
0.0905073082
 41
4.737171472257758
 42
4.742479555564023
  0
LINE
  5
16F
330
1F
100
AcDbEntity
  8
0
  6
Continuous
 62
     7
370
    25
100
AcDbLine
 10
6270.4997264811
 20
5277.911631695
 30
0.0
 11
6270.6480875642
 21
5277.9508664524
 31
0.0
  0
LWPOLYLINE
  5
170
330
1F
100
AcDbEntity
  8
0
  6
Continuous
 62
     7
370
    25
100
AcDbPolyline
 90
        3
 70
   128
 43
0.0
 10
6265.0116846928
 20
5277.8337582266
 10
6265.0442129963
 20
5277.8281255877
 10
6265.2410284647
 20
5277.7969523585
  0
LWPOLYLINE
  5
171
330
1F
100
AcDbEntity
  8
0
  6
Continuous
 62
     7
370
    25
100
AcDbPolyline
 90
        3
 70
   128
 43
0.0
 10
6269.8750274287
 20
5277.6115372097
 10
6269.8174754189
 20
5277.5290592825
 10
6269.7488546402
 20
5277.4873658335
  0
LWPOLYLINE
  5
172
330
1F
100
AcDbEntity
  8
0
  6
Continuous
 62
     7
370
    25
100
AcDbPolyline
 90
        3
 70
   128
 43
0.0
 10
6265.3993719288
 20
5277.4802728808
 10
6265.3162336939
 20
5277.5290592825
 10
6265.2586565384
 20
5277.6118054306
  0
SPLINE
  5
173
330
1F
100
AcDbEntity
  8
0
  6
Continuous
 62
     7
370
    25
100
AcDbSpline
210
0.0
220
0.0
230
1.0
 70
     8
 71
     3
 72
    19
 73
    15
 74
     0
 42
0.000000001
 43
0.00000001
 40
0.0
 40
0.0
 40
0.0
 40
0.0
 40
0.1197217866532094
 40
0.1848223451772784
 40
0.2500003817062438
 40
0.3151010361603196
 40
0.3802786611558882
 40
0.5000008531416613
 40
0.6197212943931086
 40
0.6848219766757285
 40
0.7499996913959251
 40
0.8151000931447944
 40
0.8802783542344318
 40
1.0
 40
1.0
 40
1.0
 40
1.0
 10
6266.721531472468
 20
5277.883498302681
 30
0.0
 10
6266.989503009602
 20
5277.897203037568
 30
0.0
 10
6267.403188181856
 20
5277.918359932339
 30
0.0
 10
6267.984170329759
 20
5277.908446674558
 30
0.0
 10
6268.41761168639
 20
5277.885980568803
 30
0.0
 10
6268.81762585134
 20
5277.84868010249
 30
0.0
 10
6269.260673311445
 20
5277.783750255689
 30
0.0
 10
6269.657174555166
 20
5277.679404463393
 30
0.0
 10
6269.801587595003
 20
5277.556932231114
 30
0.0
 10
6269.752599035268
 20
5277.456613579728
 30
0.0
 10
6269.62173251179
 20
5277.381136860554
 30
0.0
 10
6269.406686543438
 20
5277.31196377427
 30
0.0
 10
6269.036228875018
 20
5277.233585753194
 30
0.0
 10
6268.657441070687
 20
5277.197722382877
 30
0.0
 10
6268.412178105974
 20
5277.174501053078
 30
0.0
  0
SPLINE
  5
174
330
1F
100
AcDbEntity
  8
0
  6
Continuous
 62
     7
370
    25
100
AcDbSpline
210
0.0
220
0.0
230
1.0
 70
     8
 71
     3
 72
    14
 73
    10
 74
     0
 42
0.000000001
 43
0.00000001
 40
0.0
 40
0.0
 40
0.0
 40
0.0
 40
0.1931859258308537
 40
0.298233988551524
 40
0.4034071640074542
 40
0.5084555079357861
 40
0.6136278308421497
 40
0.8068155505762921
 40
1.0
 40
1.0
 40
1.0
 40
1.0
 10
6268.412178105974
 20
5277.174501053078
 30
0.0
 10
6268.144211976261
 20
5277.160801227717
 30
0.0
 10
6267.730534803264
 20
5277.139651894285
 30
0.0
 10
6267.149510777046
 20
5277.149527971135
 30
0.0
 10
6266.716200514557
 20
5277.172023904737
 30
0.0
 10
6266.315701897926
 20
5277.209323466632
 30
0.0
 10
6265.874969112097
 20
5277.274219628242
 30
0.0
 10
6265.462336545253
 20
5277.378621572078
 30
0.0
 10
6265.392906411564
 20
5277.474850600589
 30
0.0
 10
6265.358191638553
 20
5277.522964707596
 30
0.0
  0
SPLINE
  5
175
330
1F
100
AcDbEntity
  8
0
  6
Continuous
 62
     7
370
    25
100
AcDbSpline
210
0.0
220
0.0
230
1.0
 70
     8
 71
     3
 72
    15
 73
    11
 74
     0
 42
0.000000001
 43
0.00000001
 40
0.0
 40
0.0
 40
0.0
 40
0.0
 40
0.0099779378794544
 40
0.2012335544213159
 40
0.3924936567797973
 40
0.4964940928996405
 40
0.6006183490620989
 40
0.7046173211597748
 40
0.8087415957973687
 40
1.0
 40
1.0
 40
1.0
 40
1.0
 10
6269.762916214132
 20
5277.527569166405
 30
0.0
 10
6269.764224312794
 20
5277.530052230437
 30
0.0
 10
6269.790605850393
 20
5277.580130293366
 30
0.0
 10
6269.63689922677
 20
5277.678906004588
 30
0.0
 10
6269.255526090905
 20
5277.782696295106
 30
0.0
 10
6268.81240112417
 20
5277.847360576068
 30
0.0
 10
6268.41458555553
 20
5277.884517528889
 30
0.0
 10
6267.982640720179
 20
5277.90691613405
 30
0.0
 10
6267.404036378101
 20
5277.916791128134
 30
0.0
 10
6266.991843532532
 20
5277.895714666163
 30
0.0
 10
6266.724951288962
 20
5277.882067791206
 30
0.0
  0
SPLINE
  5
176
330
1F
100
AcDbEntity
  8
0
  6
Continuous
 62
     7
370
    25
100
AcDbSpline
210
0.0
220
0.0
230
1.0
 70
     8
 71
     3
 72
    19
 73
    15
 74
     0
 42
0.000000001
 43
0.00000001
 40
0.0
 40
0.0
 40
0.0
 40
0.0
 40
0.1197222802593994
 40
0.1848220020345211
 40
0.2500011192253178
 40
0.3150999626386532
 40
0.3802782478365778
 40
0.4999998158679992
 40
0.6197220542441012
 40
0.6848214966707876
 40
0.7499997159072982
 40
0.8151001244989314
 40
0.8802783553002443
 40
1.0
 40
1.0
 40
1.0
 40
1.0
 10
6266.724951288962
 20
5277.882067791206
 30
0.0
 10
6266.480680111266
 20
5277.858940516004
 30
0.0
 10
6266.103584987426
 20
5277.823237643529
 30
0.0
 10
6265.734568920186
 20
5277.745168098116
 30
0.0
 10
6265.52043028657
 20
5277.676326859963
 30
0.0
 10
6265.389983142554
 20
5277.601111075892
 30
0.0
 10
6265.341126807017
 20
5277.501199688349
 30
0.0
 10
6265.48498981516
 20
5277.379217238044
 30
0.0
 10
6265.879784622781
 20
5277.27528731683
 30
0.0
 10
6266.32099440682
 20
5277.210641522823
 30
0.0
 10
6266.719211307531
 20
5277.173480856407
 30
0.0
 10
6267.151043820926
 20
5277.151083537946
 30
0.0
 10
6267.729686470483
 20
5277.141208086607
 30
0.0
 10
6268.141871055164
 20
5277.162284623632
 30
0.0
 10
6268.40875828948
 20
5277.175931564552
 30
0.0
  0
LINE
  5
177
330
1F
100
AcDbEntity
  8
0
  6
Continuous
 62
     7
370
    25
100
AcDbLine
 10
6265.4668546313
 20
5277.6276006615
 30
0.0
 11
6265.4676648819
 21
5277.6376142418
 31
0.0
  0
SPLINE
  5
178
330
1F
100
AcDbEntity
  8
0
  6
Continuous
 62
     7
370
    25
100
AcDbSpline
210
0.0
220
0.0
230
1.0
 70
     8
 71
     3
 72
    12
 73
     8
 74
     0
 42
0.000000001
 43
0.00000001
 40
0.0
 40
0.0
 40
0.0
 40
0.0
 40
0.2385955702962932
 40
0.4771613116367505
 40
0.7159252476657588
 40
0.9547057879134805
 40
1.0
 40
1.0
 40
1.0
 40
1.0
 10
6267.180710754657
 20
5277.745841375572
 30
0.0
 10
6267.18352258518
 20
5277.734988828775
 30
0.0
 10
6267.189145894696
 20
5277.713285091955
 30
0.0
 10
6267.210545709265
 20
5277.686167307772
 30
0.0
 10
6267.238782499062
 20
5277.667200508572
 30
0.0
 10
6267.262941554507
 20
5277.660758000139
 30
0.0
 10
6267.276127968946
 20
5277.66016486413
 30
0.0
 10
6267.278230472767
 20
5277.66007029174
 30
0.0
  0
LINE
  5
179
330
1F
100
AcDbEntity
  8
0
  6
Continuous
 62
     7
370
    25
100
AcDbLine
 10
6267.2782304728
 20
5277.6600702917
 30
0.0
 11
6267.3072821492
 21
5277.6594146406
 31
0.0
  0
SPLINE
  5
17A
330
1F
100
AcDbEntity
  8
0
  6
Continuous
 62
     7
370
    25
100
AcDbSpline
210
0.0
220
0.0
230
1.0
 70
     8
 71
     3
 72
    10
 73
     6
 74
     0
 42
0.000000001
 43
0.00000001
 40
0.0
 40
0.0
 40
0.0
 40
0.0
 40
0.3609693724669194
 40
0.7219718158895074
 40
1.0
 40
1.0
 40
1.0
 40
1.0
 10
6267.30728214916
 20
5277.659414640648
 30
0.0
 10
6267.318389121385
 20
5277.66030982847
 30
0.0
 10
6267.340604083423
 20
5277.662100286129
 30
0.0
 10
6267.368855357144
 20
5277.676698811902
 30
0.0
 10
6267.381154812522
 20
5277.691901104265
 30
0.0
 10
6267.386506035292
 20
5277.69851528762
 30
0.0
  0
LINE
  5
17B
330
1F
100
AcDbEntity
  8
0
  6
Continuous
 62
     7
370
    25
100
AcDbLine
 10
6267.2782304728
 20
5277.6600702917
 30
0.0
 11
6267.5084496879
 21
5277.9638304627
 31
0.0
  0
LINE
  5
17C
330
1F
100
AcDbEntity
  8
0
  6
Continuous
 62
     7
370
    25
100
AcDbLine
 10
6269.911070078
 20
5277.9900863087
 30
0.0
 11
6270.4997264811
 21
5277.911631695
 31
0.0
  0
LINE
  5
17D
330
1F
100
AcDbEntity
  8
0
  6
Continuous
 62
     7
370
    25
100
AcDbLine
 10
6262.0468695679
 20
5278.1495138323
 30
0.0
 11
6262.1679880687
 21
5278.1467422163
 31
0.0
  0
LINE
  5
17E
330
1F
100
AcDbEntity
  8
0
  6
Continuous
 62
     7
370
    25
100
AcDbLine
 10
6272.9662672647
 20
5278.1460269606
 30
0.0
 11
6273.0893247792
 21
5278.1488432801
 31
0.0
  0
LINE
  5
17F
330
1F
100
AcDbEntity
  8
0
  6
Continuous
 62
     7
370
    25
100
AcDbLine
 10
6262.7147293681
 20
5277.949435941
 30
0.0
 11
6263.6875675091
 21
5278.0194266951
 31
0.0
  0
LINE
  5
180
330
1F
100
AcDbEntity
  8
0
  6
Continuous
 62
     7
370
    25
100
AcDbLine
 10
6278.3190927732
 20
5283.7858780539
 30
0.0
 11
6278.3190927732
 21
5283.5426911032
 31
0.0
  0
LINE
  5
181
330
1F
100
AcDbEntity
  8
0
  6
Continuous
 62
     7
370
    25
100
AcDbLine
 10
6271.4327189171
 20
5277.9348626053
 30
0.0
 11
6272.365894358
 21
5277.9135241425
 31
0.0
  0
LINE
  5
182
330
1F
100
AcDbEntity
  8
0
  6
Continuous
 62
     7
370
    25
100
AcDbLine
 10
6273.0028170192
 20
5277.898965708
 30
0.0
 11
6273.8232963749
 21
5277.8801902449
 31
0.0
  0
LINE
  5
183
330
1F
100
AcDbEntity
  8
0
  6
Continuous
 62
     7
370
    25
100
AcDbLine
 10
6261.3090078377
 20
5277.8794451868
 30
0.0
 11
6262.1309605458
 21
5277.8982355511
 31
0.0
  0
LINE
  5
184
330
1F
100
AcDbEntity
  8
0
  6
Continuous
 62
     7
370
    25
100
AcDbLine
 10
6271.4097776481
 20
5277.7903213417
 30
0.0
 11
6271.7696579204
 21
5277.7423545039
 31
0.0
  0
LINE
  5
185
330
1F
100
AcDbEntity
  8
0
  6
Continuous
 62
     7
370
    25
100
AcDbLine
 10
6265.2354386666
 20
5277.8556629336
 30
0.0
 11
6264.2368010276
 21
5277.7838095343
 31
0.0
  0
LINE
  5
186
330
1F
100
AcDbEntity
  8
0
  6
Continuous
 62
     7
370
    25
100
AcDbLine
 10
6261.8650754013
 20
5277.8882964766
 30
0.0
 11
6261.3285767877
 21
5277.8497024691
 31
0.0
  0
LINE
  5
187
330
1F
100
AcDbEntity
  8
0
  6
Continuous
 62
     7
370
    25
100
AcDbLine
 10
6273.2386807476
 20
5277.8882666743
 30
0.0
 11
6273.8008636081
 21
5277.8478100216
 31
0.0
  0
LINE
  5
188
330
1F
100
AcDbEntity
  8
0
  6
Continuous
 62
     7
370
    25
100
AcDbLine
 10
6269.8848570728
 20
5277.7147724545
 30
0.0
 11
6270.4294400321
 21
5277.6421888983
 31
0.0
  0
LINE
  5
189
330
1F
100
AcDbEntity
  8
0
  6
Continuous
 62
     7
370
    25
100
AcDbLine
 10
6262.7585890734
 20
5277.6774450457
 30
0.0
 11
6263.7307454863
 21
5277.7473910963
 31
0.0
  0
LINE
  5
18A
330
1F
100
AcDbEntity
  8
0
  6
Continuous
 62
     7
370
    25
100
AcDbLine
 10
6262.1561099806
 20
5277.6340975678
 30
0.0
 11
6261.3727680438
 21
5277.5777413761
 31
0.0
  0
LINE
  5
18B
330
1F
100
AcDbEntity
  8
0
  6
Continuous
 62
     7
370
    25
100
AcDbLine
 10
6272.9775260234
 20
5277.6333227074
 30
0.0
 11
6273.7593648055
 21
5277.5770708239
 31
0.0
  0
LINE
  5
18C
330
1F
100
AcDbEntity
  8
0
  6
Continuous
 62
     7
370
    25
100
AcDbLine
 10
6256.8625702554
 20
5283.4601833737
 30
0.0
 11
6256.8684524887
 21
5283.4599151528
 31
0.0
  0
LINE
  5
18D
330
1F
100
AcDbEntity
  8
0
  6
Continuous
 62
     7
370
    25
100
AcDbLine
 10
6278.2652694297
 20
5283.4570392287
 30
0.0
 11
6278.2711392067
 21
5283.4601833737
 31
0.0
  0
LINE
  5
18E
330
1F
100
AcDbEntity
  8
0
  6
Continuous
 62
     7
370
    25
100
AcDbLine
 10
6271.3432025195
 20
5277.5203868067
 30
0.0
 11
6271.6988089525
 21
5277.472986213
 31
0.0
  0
LINE
  5
18F
330
1F
100
AcDbEntity
  8
0
  6
Continuous
 62
     8
370
    25
100
AcDbLine
 10
6300.3956998729
 20
5279.0036781943
 30
0.0
 11
6300.3960351491
 21
5290.3734728014
 31
0.0
  0
LINE
  5
190
330
1F
100
AcDbEntity
  8
0
  6
Continuous
 62
     8
370
    25
100
AcDbLine
 10
6234.7380078429
 20
5279.0033056652
 30
0.0
 11
6234.7376725667
 21
5290.3669311917
 31
0.0
  0
SPLINE
  5
191
330
1F
100
AcDbEntity
  8
0
  6
Continuous
 62
     8
370
    25
100
AcDbSpline
210
0.0
220
0.0
230
1.0
 70
     8
 71
     3
 72
    15
 73
    11
 74
     0
 42
0.000000001
 43
0.00000001
 40
0.0
 40
0.0
 40
0.0
 40
0.0
 40
0.1352220010491791
 40
0.2239543104278156
 40
0.3127227913777846
 40
0.482920595527368
 40
0.643498405122705
 40
0.8040772354683549
 40
0.9742750396179384
 40
1.0
 40
1.0
 40
1.0
 40
1.0
 10
6258.243149801457
 20
5281.67179071067
 30
0.0
 10
6257.813558845623
 20
5281.751944616564
 30
0.0
 10
6257.10207147276
 20
5281.884695297544
 30
0.0
 10
6256.362645957895
 20
5282.100136178372
 30
0.0
 10
6255.668347471379
 20
5282.349471845391
 30
0.0
 10
6255.114259740398
 20
5282.669700862448
 30
0.0
 10
6254.889793301569
 20
5283.058253737202
 30
0.0
 10
6255.136922908032
 20
5283.443805954674
 30
0.0
 10
6255.522575047113
 20
5283.722697213728
 30
0.0
 10
6255.963318883349
 20
5283.859169093763
 30
0.0
 10
6256.021189227068
 20
5283.877088061554
 30
0.0
  0
SPLINE
  5
192
330
1F
100
AcDbEntity
  8
0
  6
Continuous
 62
     8
370
    25
100
AcDbSpline
210
0.0
220
0.0
230
1.0
 70
     8
 71
     3
 72
    16
 73
    12
 74
     0
 42
0.000000001
 43
0.00000001
 40
0.0
 40
0.0
 40
0.0
 40
0.0
 40
0.0140410221253625
 40
0.0899254814894568
 40
0.1658414798223851
 40
0.3113968922120002
 40
0.4487260563711413
 40
0.5860543475709578
 40
0.7316097599605729
 40
0.8832162136458639
 40
1.0
 40
1.0
 40
1.0
 40
1.0
 10
6277.964579247237
 20
5284.225581518394
 30
0.0
 10
6278.01479181962
 20
5284.215621021465
 30
0.0
 10
6278.336377364323
 20
5284.151829192479
 30
0.0
 10
6278.761601253211
 20
5284.014246869714
 30
0.0
 10
6279.470343272546
 20
5283.766704109424
 30
0.0
 10
6280.019831259602
 20
5283.445453019515
 30
0.0
 10
6280.2373607531
 20
5283.057914417611
 30
0.0
 10
6280.023405789031
 20
5282.669451742139
 30
0.0
 10
6279.338851001367
 20
5282.28339745398
 30
0.0
 10
6278.302320756456
 20
5281.93713629496
 30
0.0
 10
6277.310203151597
 20
5281.750539978392
 30
0.0
 10
6276.878506192771
 20
5281.669346920235
 30
0.0
  0
SPLINE
  5
193
330
1F
100
AcDbEntity
  8
0
  6
Continuous
 62
     8
370
    25
100
AcDbSpline
210
0.0
220
0.0
230
1.0
 70
     8
 71
     3
 72
    11
 73
     7
 74
     0
 42
0.000000001
 43
0.00000001
 40
0.0
 40
0.0
 40
0.0
 40
0.0
 40
0.3078926556437198
 40
0.6438629951329737
 40
0.819479118416936
 40
1.0
 40
1.0
 40
1.0
 40
1.0
 10
6258.193245812618
 20
5282.290337911827
 30
0.0
 10
6257.693979652242
 20
5282.404089760073
 30
0.0
 10
6256.649917705663
 20
5282.64196683954
 30
0.0
 10
6255.882650213152
 20
5282.997451735851
 30
0.0
 10
6255.5191252443
 20
5283.306810387739
 30
0.0
 10
6255.48443755884
 20
5283.468804159972
 30
0.0
 10
6255.466854854786
 20
5283.550916544182
 30
0.0
  0
SPLINE
  5
194
330
1F
100
AcDbEntity
  8
0
  6
Continuous
 62
     8
370
    25
100
AcDbSpline
210
0.0
220
0.0
230
1.0
 70
     8
 71
     3
 72
    11
 73
     7
 74
     0
 42
0.000000001
 43
0.00000001
 40
0.0
 40
0.0
 40
0.0
 40
0.0
 40
0.1806621605318126
 40
0.3564188150276828
 40
0.6926549140492497
 40
1.0
 40
1.0
 40
1.0
 40
1.0
 10
6279.666854490825
 20
5283.550916544182
 30
0.0
 10
6279.649273302865
 20
5283.468801784672
 30
0.0
 10
6279.61458830762
 20
5283.306801921532
 30
0.0
 10
6279.251048449284
 20
5282.997485468105
 30
0.0
 10
6278.484708746378
 20
5282.642279564198
 30
0.0
 10
6277.442036708457
 20
5282.404712840101
 30
0.0
 10
6276.944103992902
 20
5282.291261783821
 30
0.0
  0
ARC
  5
195
330
1F
100
AcDbEntity
  8
0
  6
Continuous
 62
     8
370
    25
100
AcDbCircle
 10
6236.2381820458
 20
5272.6380074381
 30
0.0
 40
1.490608658790379
100
AcDbArc
 50
192.3726942691
 51
270.4427621355
  0
ARC
  5
196
330
1F
100
AcDbEntity
  8
0
  6
Continuous
 62
     8
370
    25
100
AcDbCircle
 10
6298.8931471386
 20
5272.6409874768
 30
0.0
 40
1.493572147503924
100
AcDbArc
 50
269.6494342532
 51
347.5398739077
  0
SPLINE
  5
197
330
1F
100
AcDbEntity
  8
0
  6
Continuous
 62
     8
370
    25
100
AcDbSpline
210
0.0
220
0.0
230
1.0
 70
     8
 71
     3
 72
    11
 73
     7
 74
     0
 42
0.000000001
 43
0.00000001
 40
0.0
 40
0.0
 40
0.0
 40
0.0
 40
0.1430238544224969
 40
0.3689599317899114
 40
0.5900633493431299
 40
1.0
 40
1.0
 40
1.0
 40
1.0
 10
6237.126820444428
 20
5266.548214784843
 30
0.0
 10
6237.165879264271
 20
5266.496385791093
 30
0.0
 10
6237.26663965535
 20
5266.362682066803
 30
0.0
 10
6237.482285275045
 20
5266.199850838988
 30
0.0
 10
6237.83029988106
 20
5266.016797133202
 30
0.0
 10
6238.12215695433
 20
5265.992090158166
 30
0.0
 10
6238.311753331983
 20
5265.976039997322
 30
0.0
  0
SPLINE
  5
198
330
1F
100
AcDbEntity
  8
0
  6
Continuous
 62
     8
370
    25
100
AcDbSpline
210
0.0
220
0.0
230
1.0
 70
     8
 71
     3
 72
    11
 73
     7
 74
     0
 42
0.000000001
 43
0.00000001
 40
0.0
 40
0.0
 40
0.0
 40
0.0
 40
0.143026165942859
 40
0.3689625228036449
 40
0.5900667022277177
 40
1.0
 40
1.0
 40
1.0
 40
1.0
 10
6298.006889134013
 20
5266.548214784843
 30
0.0
 10
6297.967828880751
 20
5266.496385915229
 30
0.0
 10
6297.867065712764
 20
5266.362683733108
 30
0.0
 10
6297.651423056543
 20
5266.199850294322
 30
0.0
 10
6297.303409275934
 20
5266.016798374905
 30
0.0
 10
6297.011555377422
 20
5265.992090607518
 30
0.0
 10
6296.821961834395
 20
5265.976039997322
 30
0.0
  0
SPLINE
  5
199
330
1F
100
AcDbEntity
  8
0
  6
Continuous
 62
     8
370
    25
100
AcDbSpline
210
0.0
220
0.0
230
1.0
 70
     8
 71
     3
 72
    10
 73
     6
 74
     0
 42
0.000000001
 43
0.00000001
 40
0.0
 40
0.0
 40
0.0
 40
0.0
 40
0.2851647839611961
 40
0.6327096653398728
 40
1.0
 40
1.0
 40
1.0
 40
1.0
 10
6238.354996501767
 20
5262.302136353237
 30
0.0
 10
6238.390102214219
 20
5262.197476289573
 30
0.0
 10
6238.467993050768
 20
5261.965261662876
 30
0.0
 10
6238.793042311388
 20
5261.669473687717
 30
0.0
 10
6239.125896860054
 20
5261.569949006644
 30
0.0
 10
6239.296921252572
 20
5261.518812111599
 30
0.0
  0
SPLINE
  5
19A
330
1F
100
AcDbEntity
  8
0
  6
Continuous
 62
     8
370
    25
100
AcDbSpline
210
0.0
220
0.0
230
1.0
 70
     8
 71
     3
 72
    11
 73
     7
 74
     0
 42
0.000000001
 43
0.00000001
 40
0.0
 40
0.0
 40
0.0
 40
0.0
 40
0.0410991554097389
 40
0.3667224019925129
 40
0.6922928856541749
 40
1.0
 40
1.0
 40
1.0
 40
1.0
 10
6296.773484631741
 20
5262.302553585751
 30
0.0
 10
6296.772923904013
 20
5262.286696483291
 30
0.0
 10
6296.767920603649
 20
5262.145205626734
 30
0.0
 10
6296.599492017777
 20
5261.909358924394
 30
0.0
 10
6296.282146650414
 20
5261.64394348448
 30
0.0
 10
6295.983077271251
 20
5261.560944186969
 30
0.0
 10
6295.837760626638
 20
5261.520615152103
 30
0.0
  0
SPLINE
  5
19B
330
1F
100
AcDbEntity
  8
0
  6
Continuous
 62
     8
370
    25
100
AcDbSpline
210
0.0
220
0.0
230
1.0
 70
     8
 71
     3
 72
    11
 73
     7
 74
     0
 42
0.000000001
 43
0.00000001
 40
0.0
 40
0.0
 40
0.0
 40
0.0
 40
0.0478577379485184
 40
0.3687925533190872
 40
0.689727187866593
 40
1.0
 40
1.0
 40
1.0
 40
1.0
 10
6239.28179284867
 20
5250.026254287941
 30
0.0
 10
6239.28034321963
 20
5250.026260801515
 30
0.0
 10
6239.269172353268
 20
5250.026310995232
 30
0.0
 10
6239.346497501061
 20
5250.025062145583
 30
0.0
 10
6239.510756468694
 20
5250.022542699797
 30
0.0
 10
6239.692843328787
 20
5250.019891063873
 30
0.0
 10
6239.782348930204
 20
5250.018587640507
 30
0.0
  0
SPLINE
  5
19C
330
1F
100
AcDbEntity
  8
0
  6
Continuous
 62
     8
370
    25
100
AcDbSpline
210
0.0
220
0.0
230
1.0
 70
     8
 71
     3
 72
    11
 73
     7
 74
     0
 42
0.000000001
 43
0.00000001
 40
0.0
 40
0.0
 40
0.0
 40
0.0
 40
0.0500157128651957
 40
0.3702231481907217
 40
0.6904304031030096
 40
1.0
 40
1.0
 40
1.0
 40
1.0
 10
6295.851752816999
 20
5250.02624683736
 30
0.0
 10
6295.853283480372
 20
5250.026256376166
 30
0.0
 10
6295.864613660039
 20
5250.026326983715
 30
0.0
 10
6295.787286003768
 20
5250.025057219947
 30
0.0
 10
6295.622935342736
 20
5250.022543883593
 30
0.0
 10
6295.440860394385
 20
5250.019891454003
 30
0.0
 10
6295.351360648238
 20
5250.018587640507
 30
0.0
  0
LINE
  5
19D
330
1F
100
AcDbEntity
  8
0
  6
Continuous
 62
     8
370
    25
100
AcDbLine
 10
6295.8307216906
 20
5250.8998721158
 30
0.0
 11
6295.8329736286
 21
5250.0261946833
 31
0.0
  0
SPLINE
  5
19E
330
1F
100
AcDbEntity
  8
0
  6
Continuous
 62
     8
370
    25
100
AcDbSpline
210
0.0
220
0.0
230
1.0
 70
     8
 71
     3
 72
    11
 73
     7
 74
     0
 42
0.000000001
 43
0.00000001
 40
0.0
 40
0.0
 40
0.0
 40
0.0
 40
0.0937920261816679
 40
0.3987051843620286
 40
0.7036405147767668
 40
1.0
 40
1.0
 40
1.0
 40
1.0
 10
6238.410991340244
 20
5193.841809711439
 30
0.0
 10
6238.410428326863
 20
5193.841802424551
 30
0.0
 10
6238.408034985312
 20
5193.841771448355
 30
0.0
 10
6238.491417033849
 20
5193.840631884239
 30
0.0
 10
6238.653224746908
 20
5193.838503498408
 30
0.0
 10
6238.821004714954
 20
5193.836351236347
 30
0.0
 10
6238.903698235118
 20
5193.835290453417
 30
0.0
  0
LINE
  5
19F
330
1F
100
AcDbEntity
  8
0
  6
Continuous
 62
     8
370
    25
100
AcDbLine
 10
6238.2556318336
 20
5124.2897420442
 30
0.0
 11
6238.1909421676
 21
5145.6294439985
 31
0.0
  0
LINE
  5
1A0
330
1F
100
AcDbEntity
  8
0
  6
Continuous
 62
     8
370
    25
100
AcDbLine
 10
6238.151293903
 20
5159.2114868826
 30
0.0
 11
6238.4087114626
 21
5193.8419251954
 31
0.0
  0
LINE
  5
1A1
330
1F
100
AcDbEntity
  8
0
  6
Continuous
 62
     8
370
    25
100
AcDbLine
 10
6296.7249962532
 20
5193.8419251954
 30
0.0
 11
6296.8866645389
 21
5172.0927900886
 31
0.0
  0
LINE
  5
1A2
330
1F
100
AcDbEntity
  8
0
  6
Continuous
 62
     8
370
    25
100
AcDbLine
 10
6296.9823150926
 20
5158.6750786072
 30
0.0
 11
6296.8780777448
 21
5124.2897420442
 31
0.0
  0
SPLINE
  5
1A3
330
1F
100
AcDbEntity
  8
0
  6
Continuous
 62
     8
370
    25
100
AcDbSpline
210
0.0
220
0.0
230
1.0
 70
     8
 71
     3
 72
    12
 73
     8
 74
     0
 42
0.000000001
 43
0.00000001
 40
0.0
 40
0.0
 40
0.0
 40
0.0
 40
0.2497804367225768
 40
0.4995608844519246
 40
0.7493413125891517
 40
0.9991217532234906
 40
1.0
 40
1.0
 40
1.0
 40
1.0
 10
6311.573446451986
 20
5141.789501138983
 30
0.0
 10
6311.57414256953
 20
5141.24385571618
 30
0.0
 10
6311.57553480465
 20
5140.152564846534
 30
0.0
 10
6311.572290302207
 20
5138.738179878563
 30
0.0
 10
6311.575982698406
 20
5137.878960693488
 30
0.0
 10
6311.573092411714
 20
5137.497738578546
 30
0.0
 10
6311.573448928129
 20
5137.605739537154
 30
0.0
 10
6311.573450177276
 20
5137.606117946116
 30
0.0
  0
LINE
  5
1A4
330
1F
100
AcDbEntity
  8
0
  6
Continuous
 62
     8
370
    25
100
AcDbLine
 10
6310.2024427646
 20
5135.3892472824
 30
0.0
 11
6310.2024427646
 21
5144.3201329811
 31
0.0
  0
LINE
  5
1A5
330
1F
100
AcDbEntity
  8
0
  6
Continuous
 62
     8
370
    25
100
AcDbLine
 10
6303.2024416172
 20
5147.3054968072
 30
0.0
 11
6303.2024416172
 21
5148.1892469591
 31
0.0
  0
LINE
  5
1A6
330
1F
100
AcDbEntity
  8
0
  6
Continuous
 62
     8
370
    25
100
AcDbLine
 10
6278.8200291836
 20
5283.4786757147
 30
0.0
 11
6278.7811790624
 21
5283.4451182997
 31
0.0
  0
SPLINE
  5
1A7
330
1F
100
AcDbEntity
  8
0
  6
Continuous
 62
     8
370
    25
100
AcDbSpline
210
0.0
220
0.0
230
1.0
 70
     8
 71
     3
 72
    14
 73
    10
 74
     0
 42
0.000000001
 43
0.00000001
 40
0.0
 40
0.0
 40
0.0
 40
0.0
 40
0.1347890679529457
 40
0.2776523407548738
 40
0.4264557130693617
 40
0.5784164376449221
 40
0.730376055871495
 40
0.879178571538126
 40
1.0
 40
1.0
 40
1.0
 40
1.0
 10
6269.595076985025
 20
5276.678426495773
 30
0.0
 10
6269.887141197629
 20
5276.702672084762
 30
0.0
 10
6270.488765005194
 20
5276.752615634618
 30
0.0
 10
6271.288599346424
 20
5276.865619259163
 30
0.0
 10
6271.97870568893
 20
5277.007199797581
 30
0.0
 10
6272.499214024798
 20
5277.174226948357
 30
0.0
 10
6272.806414565554
 20
5277.355847484288
 30
0.0
 10
6272.908870071184
 20
5277.532262049009
 30
0.0
 10
6272.811968984202
 20
5277.643488084553
 30
0.0
 10
6272.768546550834
 20
5277.693329683525
 30
0.0
  0
ARC
  5
1A8
330
1F
100
AcDbEntity
  8
0
  6
Continuous
 62
     8
370
    25
100
AcDbCircle
 10
6268.2113845454
 20
5274.930978319
 30
0.0
 40
3.154853975994127
100
AcDbArc
 50
58.1749033291
 51
101.7883965718
  0
ARC
  5
1A9
330
1F
100
AcDbEntity
  8
0
  6
Continuous
 62
     8
370
    25
100
AcDbCircle
 10
6266.9225797711
 20
5274.9276662827
 30
0.0
 40
3.158044250745777
100
AcDbArc
 50
78.2284037931
 51
121.7951652557
  0
SPLINE
  5
1AA
330
1F
100
AcDbEntity
  8
0
  6
Continuous
 62
     8
370
    25
100
AcDbSpline
210
0.0
220
0.0
230
1.0
 70
     8
 71
     3
 72
    12
 73
     8
 74
     0
 42
0.000000001
 43
0.00000001
 40
0.0
 40
0.0
 40
0.0
 40
0.0
 40
0.1711919263379755
 40
0.3425864209274178
 40
0.513782608365666
 40
0.6851732900011674
 40
1.0
 40
1.0
 40
1.0
 40
1.0
 10
6265.358191638552
 20
5277.522964707596
 30
0.0
 10
6265.364454166474
 20
5277.549096595446
 30
0.0
 10
6265.376986632653
 20
5277.601391292529
 30
0.0
 10
6265.513082848183
 20
5277.67686123251
 30
0.0
 10
6265.726724880501
 20
5277.746038664178
 30
0.0
 10
6266.097635816874
 20
5277.824388677726
 30
0.0
 10
6266.476327723719
 20
5277.860267011524
 30
0.0
 10
6266.721531472468
 20
5277.883498302681
 30
0.0
  0
SPLINE
  5
1AB
330
1F
100
AcDbEntity
  8
0
  6
Continuous
 62
     8
370
    25
100
AcDbSpline
210
0.0
220
0.0
230
1.0
 70
     8
 71
     3
 72
    12
 73
     8
 74
     0
 42
0.000000001
 43
0.00000001
 40
0.0
 40
0.0
 40
0.0
 40
0.0
 40
0.3200814663522511
 40
0.4941294212747352
 40
0.6683895588436679
 40
0.8424406742003684
 40
1.0
 40
1.0
 40
1.0
 40
1.0
 10
6268.40875828948
 20
5277.175931564552
 30
0.0
 10
6268.652958456127
 20
5277.199059419233
 30
0.0
 10
6269.029945253881
 20
5277.234763309179
 30
0.0
 10
6269.399501129788
 20
5277.312828950593
 30
0.0
 10
6269.611900970653
 20
5277.381681933445
 30
0.0
 10
6269.744505868652
 20
5277.454455231339
 30
0.0
 10
6269.756986326764
 20
5277.504019505135
 30
0.0
 10
6269.762916214132
 20
5277.527569166405
 30
0.0
  0
LWPOLYLINE
  5
1AC
330
1F
100
AcDbEntity
  8
0
  6
Continuous
 62
     8
370
    25
100
AcDbPolyline
 90
        7
 70
   128
 43
0.0
 10
6267.5668547892
 20
5277.262686125
 10
6266.9179185325
 20
5277.2805377161
 10
6266.3325059259
 20
5277.3323639548
 10
6265.8679184535
 20
5277.4130686438
 10
6265.5696363219
 20
5277.5147541678
 10
6265.4668546313
 20
5277.6274814522
 10
6265.4668546313
 20
5277.6276006615
  0
ARC
  5
1AD
330
1F
100
AcDbEntity
  8
0
  6
Continuous
 62
     8
370
    25
100
AcDbCircle
 10
6268.0382939365
 20
5280.7773289981
 30
0.0
 40
3.546120330006686
100
AcDbArc
 50
262.3601911286
 51
297.338808963
  0
LINE
  5
1AE
330
1F
100
AcDbEntity
  8
0
  6
Continuous
 62
     8
370
    25
100
AcDbLine
 10
6267.4680256316
 20
5277.8715028679
 30
0.0
 11
6267.3072821492
 21
5277.6594146406
 31
0.0
  0
LINE
  5
1AF
330
1F
100
AcDbEntity
  8
0
  6
Continuous
 62
     8
370
    25
100
AcDbLine
 10
6262.1651894444
 20
5278.1430467284
 30
0.0
 11
6262.0340201103
 21
5278.1460418618
 31
0.0
  0
LINE
  5
1B0
330
1F
100
AcDbEntity
  8
0
  6
Continuous
 62
     8
370
    25
100
AcDbLine
 10
6273.0972186693
 20
5278.146712414
 30
0.0
 11
6272.9679864862
 21
5278.1437619841
 31
0.0
  0
LINE
  5
1B1
330
1F
100
AcDbEntity
  8
0
  6
Continuous
 62
     8
370
    25
100
AcDbLine
 10
6257.8299107992
 20
5284.2159404671
 30
0.0
 11
6257.2772118294
 21
5284.2159404671
 31
0.0
  0
LINE
  5
1B2
330
1F
100
AcDbEntity
  8
0
  6
Continuous
 62
     8
370
    25
100
AcDbLine
 10
6277.8564972834
 20
5284.2159404671
 30
0.0
 11
6277.3037991867
 21
5284.2159404671
 31
0.0
  0
LINE
  5
1B3
330
1F
100
AcDbEntity
  8
0
  6
Continuous
 62
     8
370
    25
100
AcDbLine
 10
6267.2996266776
 20
5277.9027357018
 30
0.0
 11
6267.1807107547
 21
5277.7458413756
 31
0.0
  0
LINE
  5
1B4
330
1F
100
AcDbEntity
  8
0
  6
Continuous
 62
     8
370
    25
100
AcDbLine
 10
6272.0250782588
 20
5278.0260875141
 30
0.0
 11
6271.449288077
 21
5278.0392601406
 31
0.0
  0
LINE
  5
1B5
330
1F
100
AcDbEntity
  8
0
  6
Continuous
 62
     8
370
    25
100
AcDbLine
 10
6272.3781142415
 20
5277.9094859278
 30
0.0
 11
6271.4321247333
 21
5277.9311224139
 31
0.0
  0
LINE
  5
1B6
330
1F
100
AcDbEntity
  8
0
  6
Continuous
 62
     8
370
    25
100
AcDbLine
 10
6273.5811827735
 20
5277.9905035412
 30
0.0
 11
6273.0127705292
 21
5278.0034973538
 31
0.0
  0
LINE
  5
1B7
330
1F
100
AcDbEntity
  8
0
  6
Continuous
 62
     8
370
    25
100
AcDbLine
 10
6262.1205809557
 20
5278.0072673476
 30
0.0
 11
6261.5627550551
 21
5277.9944970524
 31
0.0
  0
LINE
  5
1B8
330
1F
100
AcDbEntity
  8
0
  6
Continuous
 62
     8
370
    25
100
AcDbLine
 10
6273.8305481182
 20
5277.8762712395
 30
0.0
 11
6273.0024603226
 21
5277.8952106154
 31
0.0
  0
LINE
  5
1B9
330
1F
100
AcDbEntity
  8
0
  6
Continuous
 62
     8
370
    25
100
AcDbLine
 10
6262.1311803379
 20
5277.8959407723
 30
0.0
 11
6261.3045523905
 21
5277.8770311987
 31
0.0
  0
LINE
  5
1BA
330
1F
100
AcDbEntity
  8
0
  6
Continuous
 62
     8
370
    25
100
AcDbLine
 10
6265.2358195775
 20
5277.8516545212
 30
0.0
 11
6264.2450050482
 21
5277.7803673661
 31
0.0
  0
LINE
  5
1BB
330
1F
100
AcDbEntity
  8
0
  6
Continuous
 62
     8
370
    25
100
AcDbLine
 10
6269.8951160566
 20
5277.8225227511
 30
0.0
 11
6270.4886036956
 21
5277.7434124863
 31
0.0
  0
LINE
  5
1BC
330
1F
100
AcDbEntity
  8
0
  6
Continuous
 62
     8
370
    25
100
AcDbLine
 10
6262.7216313997
 20
5277.7808293021
 30
0.0
 11
6263.7141046145
 21
5277.8522356665
 31
0.0
  0
LINE
  5
1BD
330
1F
100
AcDbEntity
  8
0
  6
Continuous
 62
     8
370
    25
100
AcDbLine
 10
6269.8844156259
 20
5277.7101381934
 30
0.0
 11
6270.4163880118
 21
5277.6392384684
 31
0.0
  0
LINE
  5
1BE
330
1F
100
AcDbEntity
  8
0
  6
Continuous
 62
     8
370
    25
100
AcDbLine
 10
6263.7313787856
 20
5277.7434124863
 30
0.0
 11
6262.7667940253
 21
5277.6740028775
 31
0.0
  0
LINE
  5
1BF
330
1F
100
AcDbEntity
  8
0
  6
Continuous
 62
     8
370
    25
100
AcDbLine
 10
6262.1460824304
 20
5277.7394189751
 30
0.0
 11
6261.3355710202
 21
5277.6810958302
 31
0.0
  0
LINE
  5
1C0
330
1F
100
AcDbEntity
  8
0
  6
Continuous
 62
     8
370
    25
100
AcDbLine
 10
6273.7967676514
 20
5277.6849254286
 30
0.0
 11
6272.9879791879
 21
5277.7431144631
 31
0.0
  0
LINE
  5
1C1
330
1F
100
AcDbEntity
  8
0
  6
Continuous
 62
     8
370
    25
100
AcDbLine
 10
6262.1564908915
 20
5277.6300891554
 30
0.0
 11
6261.3809711331
 21
5277.5742992079
 31
0.0
  0
LINE
  5
1C2
330
1F
100
AcDbEntity
  8
0
  6
Continuous
 62
     8
370
    25
100
AcDbLine
 10
6273.754324022
 20
5277.574954859
 30
0.0
 11
6272.9772917957
 21
5277.6308640158
 31
0.0
  0
LINE
  5
1C3
330
1F
100
AcDbEntity
  8
0
  6
Continuous
 62
     8
370
    25
100
AcDbLine
 10
6271.3834011958
 20
5277.6241435921
 30
0.0
 11
6271.7583800697
 21
5277.5741650975
 31
0.0
  0
LINE
  5
1C4
330
1F
100
AcDbEntity
  8
0
  6
Continuous
 62
     8
370
    25
100
AcDbLine
 10
6271.685757398
 20
5277.470035783
 30
0.0
 11
6271.3397119225
 21
5277.5161697781
 31
0.0
  0
LINE
  5
1C5
330
1F
100
AcDbEntity
  8
0
  6
Continuous
 62
     8
370
    25
100
AcDbLine
 10
6272.8621235148
 20
5277.427045933
 30
0.0
 11
6272.948617305
 21
5277.4155273354
 31
0.0
  0
LINE
  5
1C6
330
1F
100
AcDbEntity
  8
0
  6
Continuous
 62
     8
370
    25
100
AcDbLine
 10
6262.2678919726
 20
5277.4301602757
 30
0.0
 11
6262.1873120808
 21
5277.4194165385
 31
0.0
  0
SPLINE
  5
1C7
330
1F
100
AcDbEntity
  8
0
  6
Continuous
 62
     7
370
    25
100
AcDbSpline
210
0.0
220
0.0
230
1.0
 70
     8
 71
     3
 72
    18
 73
    14
 74
     0
 42
0.000000001
 43
0.00000001
 40
0.0
 40
0.0
 40
0.0
 40
0.0
 40
0.0936713757213282
 40
0.1810314062819846
 40
0.2605864535492978
 40
0.3311994153373713
 40
0.4101018095117387
 40
0.4735121395887896
 40
0.5366715949122246
 40
0.6347995919067083
 40
0.7371407950696812
 40
0.8584408291651636
 40
1.0
 40
1.0
 40
1.0
 40
1.0
 10
6565.187363372356
 20
5252.458272806389
 30
0.0
 10
6565.209629248307
 20
5253.122502340308
 30
0.0
 10
6565.252660780668
 20
5254.406207268235
 30
0.0
 10
6565.615866901006
 20
5256.223793202375
 30
0.0
 10
6566.124462823822
 20
5257.830641722921
 30
0.0
 10
6566.78013010113
 20
5259.318307280579
 30
0.0
 10
6567.531941561537
 20
5260.629782684902
 30
0.0
 10
6568.380645710941
 20
5261.814874896074
 30
0.0
 10
6569.420907493888
 20
5263.022210389511
 30
0.0
 10
6570.797805348569
 20
5264.29463899966
 30
0.0
 10
6572.682384530921
 20
5265.586564044204
 30
0.0
 10
6575.024838690023
 20
5266.732121991832
 30
0.0
 10
6576.84726394269
 20
5267.131128594621
 30
0.0
 10
6577.828705729157
 20
5267.346008054001
 30
0.0
  0
LINE
  5
1C8
330
1F
100
AcDbEntity
  8
0
  6
Continuous
 62
     7
370
    25
100
AcDbLine
 10
6690.4429425012
 20
5287.4175741589
 30
0.0
 11
6690.9163374912
 21
5304.6613022005
 31
0.0
  0
SPLINE
  5
1C9
330
1F
100
AcDbEntity
  8
0
  6
Continuous
 62
     7
370
    25
100
AcDbSpline
210
0.0
220
0.0
230
1.0
 70
     8
 71
     3
 72
    11
 73
     7
 74
     0
 42
0.000000001
 43
0.00000001
 40
0.0
 40
0.0
 40
0.0
 40
0.0
 40
0.2427158539871071
 40
0.5006755174891317
 40
0.7582440555969789
 40
1.0
 40
1.0
 40
1.0
 40
1.0
 10
6689.188756467015
 20
5285.976035824997
 30
0.0
 10
6689.353375737251
 20
5286.020218446849
 30
0.0
 10
6689.692953218328
 20
5286.111358587455
 30
0.0
 10
6690.106373526766
 20
5286.461493530245
 30
0.0
 10
6690.38817468904
 20
5286.923293892884
 30
0.0
 10
6690.426280905586
 20
5287.271831491777
 30
0.0
 10
6690.444730640561
 20
5287.440581551773
 30
0.0
  0
SPLINE
  5
1CA
330
1F
100
AcDbEntity
  8
0
  6
Continuous
 62
     7
370
    25
100
AcDbSpline
210
0.0
220
0.0
230
1.0
 70
     8
 71
     3
 72
     9
 73
     5
 74
     0
 42
0.000000001
 43
0.00000001
 40
0.0
 40
0.0
 40
0.0
 40
0.0
 40
0.236934648655984
 40
1.0
 40
1.0
 40
1.0
 40
1.0
 10
6510.508565650493
 20
5275.52270733474
 30
0.0
 10
6510.484529862095
 20
5275.480268050218
 30
0.0
 10
6510.383085060606
 20
5275.301149948404
 30
0.0
 10
6510.374953197777
 20
5275.091548032276
 30
0.0
 10
6510.368748055012
 20
5274.931608072502
 30
0.0
  0
SPLINE
  5
1CB
330
1F
100
AcDbEntity
  8
0
  6
Continuous
 62
     7
370
    25
100
AcDbSpline
210
0.0
220
0.0
230
1.0
 70
     8
 71
     3
 72
    10
 73
     6
 74
     0
 42
0.000000001
 43
0.00000001
 40
0.0
 40
0.0
 40
0.0
 40
0.0
 40
0.3637290542464381
 40
0.738642196919921
 40
1.0
 40
1.0
 40
1.0
 40
1.0
 10
6511.44963730982
 20
5276.372148028595
 30
0.0
 10
6511.304482939044
 20
5276.314442366864
 30
0.0
 10
6511.00971093205
 20
5276.197256686317
 30
0.0
 10
6510.672862715258
 20
5275.888246568528
 30
0.0
 10
6510.556403155648
 20
5275.629139455153
 30
0.0
 10
6510.508565650493
 20
5275.52270733474
 30
0.0
  0
SPLINE
  5
1CC
330
1F
100
AcDbEntity
  8
0
  6
Continuous
 62
     7
370
    25
100
AcDbSpline
210
0.0
220
0.0
230
1.0
 70
     8
 71
     3
 72
    13
 73
     9
 74
     0
 42
0.000000001
 43
0.00000001
 40
0.0
 40
0.0
 40
0.0
 40
0.0
 40
0.2386257199897975
 40
0.3679302116065703
 40
0.5002280446257465
 40
0.632497365515164
 40
0.761706082822463
 40
1.0
 40
1.0
 40
1.0
 40
1.0
 10
6690.915935159833
 20
5304.661376706345
 30
0.0
 10
6690.899673949172
 20
5304.858982273502
 30
0.0
 10
6690.874601250891
 20
5305.16366467799
 30
0.0
 10
6690.680167448993
 20
5305.531701491253
 30
0.0
 10
6690.474823657665
 20
5305.784139023552
 30
0.0
 10
6690.218130038044
 20
5305.98422674594
 30
0.0
 10
6689.846126785748
 20
5306.171132451857
 30
0.0
 10
6689.540581705533
 20
5306.190287628629
 30
0.0
 10
6689.34246194473
 20
5306.202708116753
 30
0.0
  0
SPLINE
  5
1CD
330
1F
100
AcDbEntity
  8
0
  6
Continuous
 62
     7
370
    25
100
AcDbSpline
210
0.0
220
0.0
230
1.0
 70
     8
 71
     3
 72
    44
 73
    40
 74
     0
 42
0.000000001
 43
0.00000001
 40
0.0
 40
0.0
 40
0.0
 40
0.0
 40
0.0453337693411903
 40
0.093790940309388
 40
0.1393116637419924
 40
0.1819095600821963
 40
0.221596168221366
 40
0.2577495472055721
 40
0.2911112817148125
 40
0.3216872309387432
 40
0.3494821299621327
 40
0.3776961035064073
 40
0.4023276020550516
 40
0.4233798623826781
 40
0.4408555205895689
 40
0.4547573773439049
 40
0.4650898189665972
 40
0.4724350469005035
 40
0.4773651534197054
 40
0.4793143035468697
 40
0.4818002382276468
 40
0.4861362153156082
 40
0.4923229726592798
 40
0.500360703450666
 40
0.5102495305568278
 40
0.5245597101326727
 40
0.5415360250424558
 40
0.5611790580418066
 40
0.5834896941114464
 40
0.6084693983560119
 40
0.6396178400649974
 40
0.6741208952022496
 40
0.7119840158658404
 40
0.7532145121121125
 40
0.7978218979200337
 40
0.8449313533599284
 40
0.8953239729048957
 40
0.9490171510942081
 40
1.0
 40
1.0
 40
1.0
 40
1.0
 10
6689.34034597984
 20
5306.196777454597
 30
0.0
 10
6686.611502134478
 20
5306.062337498161
 30
0.0
 10
6680.965802826139
 20
5305.784194954261
 30
0.0
 10
6672.586716506077
 20
5305.246793646425
 30
0.0
 10
6664.377931735917
 20
5304.637883607843
 30
0.0
 10
6656.70273890229
 20
5303.985153190478
 30
0.0
 10
6649.596304886435
 20
5303.310430418331
 30
0.0
 10
6643.049963406004
 20
5302.628090704377
 30
0.0
 10
6637.05519445495
 20
5301.952080118416
 30
0.0
 10
6631.565964672574
 20
5301.289763896277
 30
0.0
 10
6626.38929551106
 20
5300.627850006993
 30
0.0
 10
6621.572301876347
 20
5299.978571464246
 30
0.0
 10
6617.162023746637
 20
5299.355324266496
 30
0.0
 10
6613.395732718403
 20
5298.801947821627
 30
0.0
 10
6610.271784590957
 20
5298.328221498423
 30
0.0
 10
6607.788505667628
 20
5297.942212704208
 30
0.0
 10
6605.910737284999
 20
5297.644900174667
 30
0.0
 10
6604.569061579776
 20
5297.429662535827
 30
0.0
 10
6603.724615272025
 20
5297.292992466581
 30
0.0
 10
6603.1693137596
 20
5297.202654637737
 30
0.0
 10
6602.647810589858
 20
5297.117572196993
 30
0.0
 10
6601.874286364702
 20
5296.990700893877
 30
0.0
 10
6600.770673990985
 20
5296.808291024923
 30
0.0
 10
6599.337233937393
 20
5296.568887905424
 30
0.0
 10
6597.421512550073
 20
5296.244753784401
 30
0.0
 10
6594.975761688046
 20
5295.823702274623
 30
0.0
 10
6591.952556763547
 20
5295.291621413283
 30
0.0
 10
6588.45714186975
 20
5294.660666318881
 30
0.0
 10
6584.490610458299
 20
5293.924236501885
 30
0.0
 10
6579.847193241132
 20
5293.034962250093
 30
0.0
 10
6574.488963867594
 20
5291.971640510727
 30
0.0
 10
6568.378721573908
 20
5290.709313009612
 30
0.0
 10
6561.685513151307
 20
5289.266349948622
 30
0.0
 10
6554.412009982585
 20
5287.626619181492
 30
0.0
 10
6546.613209680656
 20
5285.784621999918
 30
0.0
 10
6538.298619441078
 20
5283.725898666749
 30
0.0
 10
6529.479002971297
 20
5281.431150475622
 30
0.0
 10
6520.459784257601
 20
5278.977632538783
 30
0.0
 10
6514.400058422527
 20
5277.220610559415
 30
0.0
 10
6511.448646382601
 20
5276.36484645961
 30
0.0
  0
LINE
  5
1CE
330
1F
100
AcDbEntity
  8
0
  6
Continuous
 62
     7
370
    25
100
AcDbLine
 10
6568.9973202061
 20
5265.8568307078
 30
0.0
 11
6569.6013015222
 21
5265.9952773964
 31
0.0
  0
SPLINE
  5
1CF
330
1F
100
AcDbEntity
  8
0
  6
Continuous
 62
     7
370
    25
100
AcDbSpline
210
0.0
220
0.0
230
1.0
 70
     8
 71
     3
 72
    12
 73
     8
 74
     0
 42
0.000000001
 43
0.00000001
 40
0.0
 40
0.0
 40
0.0
 40
0.0
 40
0.1756342320827717
 40
0.3958124606564821
 40
0.6081193837388273
 40
0.8125614977789366
 40
0.9999999999999999
 40
0.9999999999999999
 40
0.9999999999999999
 40
0.9999999999999999
 10
6565.596862183124
 20
5168.301541662795
 30
0.0
 10
6565.587301008659
 20
5173.228530896354
 30
0.0
 10
6565.565753774119
 20
5184.332082345501
 30
0.0
 10
6565.483179755794
 20
5201.391231564361
 30
0.0
 10
6565.376696992663
 20
5219.258375707027
 30
0.0
 10
6565.268447755254
 20
5236.207062680823
 30
0.0
 10
6565.210341130386
 20
5247.200179180636
 30
0.0
 10
6565.182548434645
 20
5252.458243004066
 30
0.0
  0
SPLINE
  5
1D0
330
1F
100
AcDbEntity
  8
0
  6
Continuous
 62
     7
370
    25
100
AcDbSpline
210
0.0
220
0.0
230
1.0
 70
     8
 71
     3
 72
     9
 73
     5
 74
     0
 42
0.000000001
 43
0.00000001
 40
0.0
 40
0.0
 40
0.0
 40
0.0
 40
0.898384013300443
 40
1.0
 40
1.0
 40
1.0
 40
1.0
 10
6565.576164470226
 20
5124.289121783358
 30
0.0
 10
6565.594265444514
 20
5130.87143747543
 30
0.0
 10
6565.614413815391
 20
5138.198277217258
 30
0.0
 10
6565.611860728622
 20
5145.525134877116
 30
0.0
 10
6565.61160129419
 20
5146.26966074763
 30
0.0
  0
LINE
  5
1D1
330
1F
100
AcDbEntity
  8
0
  6
Continuous
 62
     7
370
    25
100
AcDbLine
 10
6510.4283564251
 20
5141.2270910358
 30
0.0
 11
6510.3851654094
 21
5141.3188642608
 31
0.0
  0
LINE
  5
1D2
330
1F
100
AcDbEntity
  8
0
  6
Continuous
 62
     7
370
    25
100
AcDbLine
 10
6510.1501815479
 20
5137.6139941411
 30
0.0
 11
6510.2633707683
 21
5137.854066982
 31
0.0
  0
LINE
  5
1D3
330
1F
100
AcDbEntity
  8
0
  6
Continuous
 62
     7
370
    25
100
AcDbLine
 10
6510.3616364758
 20
5141.3304259321
 30
0.0
 11
6510.0758284788
 21
5141.0445833598
 31
0.0
  0
LINE
  5
1D4
330
1F
100
AcDbEntity
  8
0
  6
Continuous
 62
     7
370
    25
100
AcDbLine
 10
6510.0760352325
 20
5137.6445834311
 30
0.0
 11
6510.1188742082
 21
5137.6017498104
 31
0.0
  0
ARC
  5
1D5
330
1F
100
AcDbEntity
  8
0
  6
Continuous
 62
     7
370
    25
100
AcDbCircle
 10
6671.8084891783
 20
5283.0438624058
 30
0.0
 40
9.424999999983951
100
AcDbArc
 50
352.7316967676
 51
8.7875577232
  0
ARC
  5
1D6
330
1F
100
AcDbEntity
  8
0
  6
Continuous
 62
     7
370
    25
100
AcDbCircle
 10
6671.8084891783
 20
5283.0438624058
 30
0.0
 40
9.424999999992046
100
AcDbArc
 50
191.2193913736
 51
207.2752523292
  0
LINE
  5
1D7
330
1F
100
AcDbEntity
  8
0
  6
Continuous
 62
     7
370
    25
100
AcDbLine
 10
6681.1228473198
 20
5284.4837292349
 30
0.0
 11
6681.0983647119
 21
5284.6225484526
 31
0.0
  0
LINE
  5
1D8
330
1F
100
AcDbEntity
  8
0
  6
Continuous
 62
     7
370
    25
100
AcDbLine
 10
6662.5102017533
 20
5281.5128400242
 30
0.0
 11
6662.563607515
 21
5281.2100782311
 31
0.0
  0
LINE
  5
1D9
330
1F
100
AcDbEntity
  8
0
  6
Continuous
 62
     7
370
    25
100
AcDbLine
 10
6681.1580438625
 20
5281.8497999823
 30
0.0
 11
6681.1577607404
 21
5281.8514540112
 31
0.0
  0
LINE
  5
1DA
330
1F
100
AcDbEntity
  8
0
  6
Continuous
 62
     7
370
    25
100
AcDbLine
 10
6663.4314064395
 20
5278.7247135556
 30
0.0
 11
6663.4316970121
 21
5278.7230595267
 31
0.0
  0
SPLINE
  5
1DB
330
1F
100
AcDbEntity
  8
0
  6
Continuous
 62
     7
370
    25
100
AcDbSpline
210
0.0
220
0.0
230
1.0
 70
     8
 71
     3
 72
     9
 73
     5
 74
     0
 42
0.000000001
 43
0.00000001
 40
0.0
 40
0.0
 40
0.0
 40
0.0
 40
0.2968420023237584
 40
0.9999999999999999
 40
0.9999999999999999
 40
0.9999999999999999
 40
0.9999999999999999
 10
6680.033408523709
 20
5280.062450400574
 30
0.0
 10
6680.099029904531
 20
5280.220496458421
 30
0.0
 10
6680.320094916583
 20
5280.752921306018
 30
0.0
 10
6680.401757619696
 20
5281.324093627282
 30
0.0
 10
6680.459179402501
 20
5281.725718013031
 30
0.0
  0
SPLINE
  5
1DC
330
1F
100
AcDbEntity
  8
0
  6
Continuous
 62
     7
370
    25
100
AcDbSpline
210
0.0
220
0.0
230
1.0
 70
     8
 71
     3
 72
     9
 73
     5
 74
     0
 42
0.000000001
 43
0.00000001
 40
0.0
 40
0.0
 40
0.0
 40
0.0
 40
0.5518602102515331
 40
0.9999999999999999
 40
0.9999999999999999
 40
0.9999999999999999
 40
0.9999999999999999
 10
6664.126359344632
 20
5278.843028775436
 30
0.0
 10
6664.27907569079
 20
5278.561286274562
 30
0.0
 10
6664.555805817953
 20
5278.050753904878
 30
0.0
 10
6664.93326204909
 20
5277.608636185756
 30
0.0
 10
6665.102415205151
 20
5277.410505644066
 30
0.0
  0
LINE
  5
1DD
330
1F
100
AcDbEntity
  8
0
  6
Continuous
 62
     7
370
    25
100
AcDbLine
 10
6665.0859792244
 20
5277.4039491331
 30
0.0
 11
6665.7533277284
 21
5276.3522102749
 31
0.0
  0
LINE
  5
1DE
330
1F
100
AcDbEntity
  8
0
  6
Continuous
 62
     7
370
    25
100
AcDbLine
 10
6679.7876734745
 20
5278.8277252829
 30
0.0
 11
6680.0548959982
 21
5280.0443156874
 31
0.0
  0
ARC
  5
1DF
330
1F
100
AcDbEntity
  8
0
  6
Continuous
 62
     7
370
    25
100
AcDbCircle
 10
6679.6900062028
 20
5278.849173231
 30
0.0
 40
0.1000000000682179
100
AcDbArc
 50
280.0034745477
 51
347.6117147089
  0
ARC
  5
1E0
330
1F
100
AcDbEntity
  8
0
  6
Continuous
 62
     7
370
    25
100
AcDbCircle
 10
6665.8377590357
 20
5276.4057821528
 30
0.0
 40
0.1000000000702055
100
AcDbArc
 50
212.3952343869
 51
280.0034745489
  0
ARC
  5
1E1
330
1F
100
AcDbEntity
  8
0
  6
Continuous
 62
     7
370
    25
100
AcDbCircle
 10
6559.9785663985
 20
5124.2892474228
 30
0.0
 40
1.25
100
AcDbArc
 50
270.0
 51
359.9616354677
  0
ARC
  5
1E2
330
1F
100
AcDbEntity
  8
0
  6
Continuous
 62
     7
370
    25
100
AcDbCircle
 10
6515.4785663985
 20
5124.2892474228
 30
0.0
 40
1.25
100
AcDbArc
 50
179.9616354675
 51
270.0
  0
LINE
  5
1E3
330
1F
100
AcDbEntity
  8
0
  6
Continuous
 62
     7
370
    25
100
AcDbLine
 10
6515.4785667073
 20
5123.0392477727
 30
0.0
 11
6559.9785656195
 21
5123.0392477727
 31
0.0
  0
LINE
  5
1E4
330
1F
100
AcDbEntity
  8
0
  6
Continuous
 62
     7
370
    25
100
AcDbLine
 10
6569.0089021336
 20
5265.8221110022
 30
0.0
 11
6569.6397502433
 21
5265.9760399973
 31
0.0
  0
SPLINE
  5
1E5
330
1F
100
AcDbEntity
  8
0
  6
Continuous
 62
     7
370
    25
100
AcDbSpline
210
0.0
220
0.0
230
1.0
 70
     8
 71
     3
 72
    11
 73
     7
 74
     0
 42
0.000000001
 43
0.00000001
 40
0.0
 40
0.0
 40
0.0
 40
0.0
 40
0.2598721611808013
 40
0.5165597725718137
 40
0.7647124576403422
 40
1.0
 40
1.0
 40
1.0
 40
1.0
 10
6560.312427998692
 20
5261.518812111599
 30
0.0
 10
6559.77088116793
 20
5260.742603284953
 30
0.0
 10
6558.694423780328
 20
5259.199697522602
 30
0.0
 10
6557.681790199516
 20
5256.416723049462
 30
0.0
 10
6557.122563081241
 20
5253.520947650178
 30
0.0
 10
6557.159857083484
 20
5251.554001683907
 30
0.0
 10
6557.178007857115
 20
5250.596700540764
 30
0.0
  0
SPLINE
  5
1E6
330
1F
100
AcDbEntity
  8
0
  6
Continuous
 62
     7
370
    25
100
AcDbSpline
210
0.0
220
0.0
230
1.0
 70
     8
 71
     3
 72
    10
 73
     6
 74
     0
 42
0.000000001
 43
0.00000001
 40
0.0
 40
0.0
 40
0.0
 40
0.0
 40
0.3335063403626216
 40
0.6668157596301393
 40
1.0
 40
1.0
 40
1.0
 40
1.0
 10
6569.199858651668
 20
5267.453862658722
 30
0.0
 10
6572.643676607599
 20
5268.024755584937
 30
0.0
 10
6579.529279093643
 20
5269.166204349743
 30
0.0
 10
6589.904662975263
 20
5270.891847975626
 30
0.0
 10
6596.828493605091
 20
5272.047830351222
 30
0.0
 10
6600.289758713157
 20
5272.625712982399
 30
0.0
  0
SPLINE
  5
1E7
330
1F
100
AcDbEntity
  8
0
  6
Continuous
 62
     7
370
    25
100
AcDbSpline
210
0.0
220
0.0
230
1.0
 70
     8
 71
     3
 72
    11
 73
     7
 74
     0
 42
0.000000001
 43
0.00000001
 40
0.0
 40
0.0
 40
0.0
 40
0.0
 40
0.2495003504147448
 40
0.4995423057912769
 40
0.7498234491549521
 40
1.0
 40
1.0
 40
1.0
 40
1.0
 10
6559.161050663502
 20
5262.610411576015
 30
0.0
 10
6559.884413864695
 20
5263.212634478034
 30
0.0
 10
6561.33271051377
 20
5264.418387562448
 30
0.0
 10
6563.805310034182
 20
5265.799754199768
 30
0.0
 10
6566.428237769142
 20
5266.875124650861
 30
0.0
 10
6568.276114997506
 20
5267.260976869666
 30
0.0
 10
6569.199860514314
 20
5267.453862658722
 30
0.0
  0
SPLINE
  5
1E8
330
1F
100
AcDbEntity
  8
0
  6
Continuous
 62
     7
370
    25
100
AcDbSpline
210
0.0
220
0.0
230
1.0
 70
     8
 71
     3
 72
    13
 73
     9
 74
     0
 42
0.000000001
 43
0.00000001
 40
0.0
 40
0.0
 40
0.0
 40
0.0
 40
0.124894279491516
 40
0.249668628778755
 40
0.374531538494236
 40
0.4994485088879227
 40
0.7491914111960251
 40
1.0
 40
1.0
 40
1.0
 40
1.0
 10
6553.286850870759
 20
5250.026194683296
 30
0.0
 10
6553.306921049812
 20
5250.622944485469
 30
0.0
 10
6553.347042135455
 20
5251.815871058561
 30
0.0
 10
6553.676303296745
 20
5253.579483155496
 30
0.0
 10
6554.182543215909
 20
5255.296426551827
 30
0.0
 10
6555.104682437975
 20
5257.493485810957
 30
0.0
 10
6556.647978486699
 20
5260.072731947551
 30
0.0
 10
6558.322171804916
 20
5261.763318599606
 30
0.0
 10
6559.161050663502
 20
5262.610411576015
 30
0.0
  0
LINE
  5
1E9
330
1F
100
AcDbEntity
  8
0
  6
Continuous
 62
     7
370
    25
100
AcDbLine
 10
6553.3595825072
 20
5193.8419251954
 30
0.0
 11
6553.2868508708
 21
5250.0261946833
 31
0.0
  0
SPLINE
  5
1EA
330
1F
100
AcDbEntity
  8
0
  6
Continuous
 62
     7
370
    25
100
AcDbSpline
210
0.0
220
0.0
230
1.0
 70
     8
 71
     3
 72
     9
 73
     5
 74
     0
 42
0.000000001
 43
0.00000001
 40
0.0
 40
0.0
 40
0.0
 40
0.0
 40
0.499990869858564
 40
1.0
 40
1.0
 40
1.0
 40
1.0
 10
6553.37255303672
 20
5124.289742044193
 30
0.0
 10
6553.375017783466
 20
5135.881761988509
 30
0.0
 10
6553.379947366976
 20
5159.066225231998
 30
0.0
 10
6553.366370876443
 20
5182.249884094234
 30
0.0
 10
6553.359582507223
 20
5193.841925195438
 30
0.0
  0
SPLINE
  5
1EB
330
1F
100
AcDbEntity
  8
0
  6
Continuous
 62
     7
370
    25
100
AcDbSpline
210
0.0
220
0.0
230
1.0
 70
    24
 71
     3
 72
    23
 73
    19
 74
     0
 42
0.000000001
 43
0.00000001
 40
0.0
 40
0.0
 40
0.0
 40
0.0
 40
0.0681409705572433
 40
0.137864652347107
 40
0.2142989254205818
 40
0.2535043932718508
 40
0.2927084904170425
 40
0.3336357640408921
 40
0.3745582971568988
 40
0.416974145821308
 40
0.4593805349403645
 40
0.495615482510939
 40
0.5318591102801743
 40
0.6060663587351008
 40
0.6713103646351722
 40
0.7366732196855272
 40
0.8020260954892461
 40
1.0
 40
1.0
 40
1.0
 40
1.0
 10
6510.376884089023
 20
5124.289246580583
 30
0.0
 10
6510.438677946629
 20
5124.289246580583
 30
0.0
 10
6510.563700948597
 20
5124.289246580583
 30
0.0
 10
6511.555396336399
 20
5124.289246580583
 30
0.0
 10
6512.891012391569
 20
5124.289246580583
 30
0.0
 10
6514.332075112495
 20
5124.289246580583
 30
0.0
 10
6515.60171177498
 20
5124.289246580583
 30
0.0
 10
6517.051791973819
 20
5124.289246580583
 30
0.0
 10
6518.704362554511
 20
5124.289246580583
 30
0.0
 10
6520.541495391098
 20
5124.289246580583
 30
0.0
 10
6522.463299760232
 20
5124.289246580583
 30
0.0
 10
6524.41039422226
 20
5124.289246580583
 30
0.0
 10
6527.006680517949
 20
5124.289246580583
 30
0.0
 10
6530.272253428521
 20
5124.289246580583
 30
0.0
 10
6534.183428119055
 20
5124.289246580583
 30
0.0
 10
6537.975210394278
 20
5124.289246580583
 30
0.0
 10
6544.373213373908
 20
5124.289246580583
 30
0.0
 10
6549.510359661042
 20
5124.289246580583
 30
0.0
 10
6553.372560487301
 20
5124.289246580583
 30
0.0
  0
LINE
  5
1EC
330
1F
100
AcDbEntity
  8
0
  6
Continuous
 62
     7
370
    25
100
AcDbLine
 10
6510.3760961901
 20
5136.7392473174
 30
0.0
 11
6510.376884089
 21
5124.2892465806
 31
0.0
  0
SPLINE
  5
1ED
330
1F
100
AcDbEntity
  8
0
  6
Continuous
 62
     7
370
    25
100
AcDbSpline
210
0.0
220
0.0
230
1.0
 70
     8
 71
     3
 72
    17
 73
    13
 74
     0
 42
0.000000001
 43
0.00000001
 40
0.0
 40
0.0
 40
0.0
 40
0.0
 40
0.1074709552930356
 40
0.2148335772797541
 40
0.3235995765181507
 40
0.4288517534717038
 40
0.5389048935187802
 40
0.6435120486034459
 40
0.7519234522155859
 40
0.858985856189239
 40
0.9663314220787829
 40
1.0
 40
1.0
 40
1.0
 40
1.0
 10
6510.37577954045
 20
5141.83924738506
 30
0.0
 10
6510.378752682558
 20
5141.809998500942
 30
0.0
 10
6510.384695969777
 20
5141.751530216284
 30
0.0
 10
6510.424786854836
 20
5141.313180803183
 30
0.0
 10
6510.468427411432
 20
5140.663720173983
 30
0.0
 10
6510.499928333292
 20
5139.852144621818
 30
0.0
 10
6510.504754958063
 20
5138.984962035495
 30
0.0
 10
6510.480414004128
 20
5138.148139154018
 30
0.0
 10
6510.438749115333
 20
5137.440611538136
 30
0.0
 10
6510.396592625666
 20
5136.944001066139
 30
0.0
 10
6510.377759920339
 20
5136.754647941057
 30
0.0
 10
6510.376416859678
 20
5136.742215653931
 30
0.0
 10
6510.376096190125
 20
5136.739247317446
 30
0.0
  0
LWPOLYLINE
  5
1EE
330
1F
100
AcDbEntity
  8
0
  6
Continuous
 62
     7
370
    25
100
AcDbPolyline
 90
        3
 70
   128
 43
0.0
 10
6510.3687722694
 20
5274.9315782702
 10
6510.3708286296
 20
5229.9875824964
 10
6510.3757795404
 20
5141.8392473851
  0
SPLINE
  5
1EF
330
1F
100
AcDbEntity
  8
0
  6
Continuous
 62
     7
370
    25
100
AcDbSpline
210
0.0
220
0.0
230
1.0
 70
     8
 71
     3
 72
    25
 73
    21
 74
     0
 42
0.000000001
 43
0.00000001
 40
0.0
 40
0.0
 40
0.0
 40
0.0
 40
0.0983372846341031
 40
0.1966994335400622
 40
0.295096735769059
 40
0.3935711273727225
 40
0.4921509049916307
 40
0.5538628616370339
 40
0.6156783836780292
 40
0.6776506144447388
 40
0.7398847696303051
 40
0.781614458862058
 40
0.8236415185498761
 40
0.8661374619698387
 40
0.8985144046399135
 40
0.9315110778678861
 40
0.9483384182903521
 40
0.9653698339487371
 40
0.9826318973485225
 40
1.0
 40
1.0
 40
1.0
 40
1.0
 10
6600.641709239394
 20
5290.062351456863
 30
0.0
 10
6597.303931447846
 20
5289.508252310786
 30
0.0
 10
6590.627531918179
 20
5288.399913916412
 30
0.0
 10
6580.627097863601
 20
5286.73855970352
 30
0.0
 10
6570.657056182947
 20
5285.080156105726
 30
0.0
 10
6560.736604704177
 20
5283.426206539938
 30
0.0
 10
6552.126312509148
 20
5281.989419827784
 30
0.0
 10
6544.823045178674
 20
5280.772825221021
 30
0.0
 10
6538.798557914423
 20
5279.771047723387
 30
0.0
 10
6532.864305031337
 20
5278.787993469249
 30
0.0
 10
6527.710103578384
 20
5277.938711049262
 30
0.0
 10
6523.342751619427
 20
5277.217229987459
 30
0.0
 10
6519.736136174311
 20
5276.616177565649
 30
0.0
 10
6516.634808669478
 20
5276.08929767759
 30
0.0
 10
6514.088720611308
 20
5275.639466846575
 30
0.0
 10
6512.466740121753
 20
5275.340522161448
 30
0.0
 10
6511.438014900859
 20
5275.144182079552
 30
0.0
 10
6510.842662111248
 20
5275.028316393261
 30
0.0
 10
6510.445608795932
 20
5274.949443875031
 30
0.0
 10
6510.394436675417
 20
5274.937545616145
 30
0.0
 10
6510.368772269399
 20
5274.93157827018
 30
0.0
  0
SPLINE
  5
1F0
330
1F
100
AcDbEntity
  8
0
  6
Continuous
 62
     7
370
    25
100
AcDbSpline
210
0.0
220
0.0
230
1.0
 70
     8
 71
     3
 72
     9
 73
     5
 74
     0
 42
0.000000001
 43
0.00000001
 40
0.0
 40
0.0
 40
0.0
 40
0.0
 40
0.5581640783931782
 40
1.0
 40
1.0
 40
1.0
 40
1.0
 10
6600.289758713157
 20
5272.625712982399
 30
0.0
 10
6600.352594434649
 20
5275.869935123033
 30
0.0
 10
6600.465170151944
 20
5281.682244202422
 30
0.0
 10
6600.5876106355
 20
5287.494353006801
 30
0.0
 10
6600.641709239394
 20
5290.062351456863
 30
0.0
  0
LINE
  5
1F1
330
1F
100
AcDbEntity
  8
0
  6
Continuous
 62
     7
370
    25
100
AcDbLine
 10
6602.0442102562
 20
5272.9162856257
 30
0.0
 11
6602.4750177275
 21
5290.3669311917
 31
0.0
  0
SPLINE
  5
1F2
330
1F
100
AcDbEntity
  8
0
  6
Continuous
 62
     7
370
    25
100
AcDbSpline
210
0.0
220
0.0
230
1.0
 70
     8
 71
     3
 72
    30
 73
    26
 74
     0
 42
0.000000001
 43
0.00000001
 40
0.0
 40
0.0
 40
0.0
 40
0.0
 40
0.0000062400719956
 40
0.0153885913422622
 40
0.0312350635392971
 40
0.0464704553258717
 40
0.0624698471421484
 40
0.0829172408549176
 40
0.1038335358229551
 40
0.1249531714456035
 40
0.156195987356849
 40
0.1874425241222282
 40
0.2174042210219146
 40
0.2499540965052459
 40
0.2995845583591668
 40
0.3492913166485522
 40
0.3990472853235135
 40
0.4485814919196186
 40
0.4999582675109704
 40
0.5819360352241474
 40
0.66617322112071
 40
0.7499680855111172
 40
0.8312641952311806
 40
0.9145770042181983
 40
1.0
 40
1.0
 40
1.0
 40
1.0
 10
6689.191915513188
 20
5285.9765722668
 30
0.0
 10
6689.19193041992
 20
5285.976572267149
 30
0.0
 10
6689.228691791099
 20
5285.976573128833
 30
0.0
 10
6689.097017651751
 20
5285.963635388573
 30
0.0
 10
6688.787941490312
 20
5285.908228767674
 30
0.0
 10
6688.254281268973
 20
5285.819900351902
 30
0.0
 10
6687.493479582136
 20
5285.69235699961
 30
0.0
 10
6686.458821092013
 20
5285.519359470242
 30
0.0
 10
6685.160317783974
 20
5285.302100376484
 30
0.0
 10
6683.48086368654
 20
5285.021137710554
 30
0.0
 10
6681.395471013052
 20
5284.672247139895
 30
0.0
 10
6678.944309712379
 20
5284.262183084592
 30
0.0
 10
6676.34237710021
 20
5283.826891094849
 30
0.0
 10
6673.13225710216
 20
5283.289871991051
 30
0.0
 10
6669.24537461753
 20
5282.639589912457
 30
0.0
 10
6664.73813814564
 20
5281.885553084953
 30
0.0
 10
6660.153048792157
 20
5281.118502437399
 30
0.0
 10
6655.458113992827
 20
5280.333054232069
 30
0.0
 10
6649.701051843177
 20
5279.369930229454
 30
0.0
 10
6642.779899047752
 20
5278.212037017254
 30
0.0
 10
6634.762011024027
 20
5276.870694312855
 30
0.0
 10
6626.718433659079
 20
5275.525036475927
 30
0.0
 10
6618.672320023985
 20
5274.178948468179
 30
0.0
 10
6610.553161726893
 20
5272.820672804097
 30
0.0
 10
6605.06639848417
 20
5271.902757796313
 30
0.0
 10
6602.288708509118
 20
5271.438060632927
 30
0.0
  0
SPLINE
  5
1F3
330
1F
100
AcDbEntity
  8
0
  6
Continuous
 62
     7
370
    25
100
AcDbSpline
210
0.0
220
0.0
230
1.0
 70
     8
 71
     3
 72
    13
 73
     9
 74
     0
 42
0.000000001
 43
0.00000001
 40
0.0
 40
0.0
 40
0.0
 40
0.0
 40
0.2394059881782765
 40
0.3682830787099817
 40
0.499905407674093
 40
0.6315429977739574
 40
0.7604583077808248
 40
1.0
 40
1.0
 40
1.0
 40
1.0
 10
6602.288708509118
 20
5271.438060632927
 30
0.0
 10
6602.28542620124
 20
5271.457791053796
 30
0.0
 10
6602.280376960577
 20
5271.488142759687
 30
0.0
 10
6602.249629610664
 20
5271.672302920843
 30
0.0
 10
6602.217877434005
 20
5271.862964171396
 30
0.0
 10
6602.178601472312
 20
5272.099706304814
 30
0.0
 10
6602.121649364868
 20
5272.443885922673
 30
0.0
 10
6602.074720017687
 20
5272.730167751914
 30
0.0
 10
6602.044210256249
 20
5272.916285625679
 30
0.0
  0
ARC
  5
1F4
330
1F
100
AcDbEntity
  8
0
  6
Continuous
 62
     7
370
    25
100
AcDbCircle
 10
6507.4807601456
 20
5274.7740498721
 30
0.0
 40
96.26550223934528
100
AcDbArc
 50
9.3217177388
 51
10.1723505657
  0
LINE
  5
1F5
330
1F
100
AcDbEntity
  8
0
  6
Continuous
 62
     7
370
    25
100
AcDbLine
 10
6602.4750177275
 20
5290.3669311917
 30
0.0
 11
6600.6417092394
 21
5290.0623514569
 31
0.0
  0
LWPOLYLINE
  5
1F6
330
1F
100
AcDbEntity
  8
0
  6
Continuous
 62
     7
370
    25
100
AcDbPolyline
 90
        9
 70
   128
 43
0.0
 10
6600.6417092394
 20
5290.0623514569
 10
6600.6031599354
 20
5290.2939602053
 10
6600.5655792069
 20
5290.5198916113
 10
6600.5298909258
 20
5290.7345875418
 10
6600.4969705354
 20
5290.9327431834
 10
6600.4676338743
 20
5291.1095007574
 10
6600.4426036488
 20
5291.2604793227
 10
6600.4224945318
 20
5291.3819684899
 10
6600.4078019868
 20
5291.4709731257
  0
LINE
  5
1F7
330
1F
100
AcDbEntity
  8
0
  6
Continuous
 62
     7
370
    25
100
AcDbLine
 10
6600.4078019868
 20
5291.4709731257
 30
0.0
 11
6602.2330601226
 21
5291.7754783547
 31
0.0
  0
LINE
  5
1F8
330
1F
100
AcDbEntity
  8
0
  6
Continuous
 62
     7
370
    25
100
AcDbLine
 10
6600.2897587132
 20
5272.6257129824
 30
0.0
 11
6602.0442102562
 21
5272.9162856257
 31
0.0
  0
ARC
  5
1F9
330
1F
100
AcDbEntity
  8
0
  6
Continuous
 62
     7
370
    25
100
AcDbCircle
 10
6511.8687730158
 20
5274.9316426433
 30
0.0
 40
1.500000747814084
100
AcDbArc
 50
106.3152684511
 51
180.0024588713
  0
LINE
  5
1FA
330
1F
100
AcDbEntity
  8
0
  6
Continuous
 62
     7
370
    25
100
AcDbLine
 10
6511.459405021
 20
5276.373757354
 30
0.0
 11
6511.4473890971
 21
5276.3712390578
 31
0.0
  0
LINE
  5
1FB
330
1F
100
AcDbEntity
  8
0
  6
Continuous
 62
     7
370
    25
100
AcDbLine
 10
6689.3400777589
 20
5306.201903454
 30
0.0
 11
6689.3316138994
 21
5306.2008007681
 31
0.0
  0
LINE
  5
1FC
330
1F
100
AcDbEntity
  8
0
  6
Continuous
 62
     7
370
    25
100
AcDbLine
 10
6600.5515497636
 20
5271.1474432862
 30
0.0
 11
6602.2887085091
 21
5271.4380606329
 31
0.0
  0
ARC
  5
1FD
330
1F
100
AcDbEntity
  8
0
  6
Continuous
 62
     7
370
    25
100
AcDbCircle
 10
6639.2353868528
 20
5278.7603912479
 30
0.0
 40
39.42583199646932
100
AcDbArc
 50
188.9516236016
 51
191.1334853133
  0
SPLINE
  5
1FE
330
1F
100
AcDbEntity
  8
0
  6
Continuous
 62
     7
370
    25
100
AcDbSpline
210
0.0
220
0.0
230
1.0
 70
     8
 71
     3
 72
    11
 73
     7
 74
     0
 42
0.000000001
 43
0.00000001
 40
0.0
 40
0.0
 40
0.0
 40
0.0
 40
0.2457112121033384
 40
0.497515935566993
 40
0.7483197068870352
 40
1.0
 40
1.0
 40
1.0
 40
1.0
 10
6569.639750243336
 20
5265.976039997322
 30
0.0
 10
6572.161100591125
 20
5266.3978454393
 30
0.0
 10
6577.266329475203
 20
5267.251916880715
 30
0.0
 10
6584.976534559692
 20
5268.541805664735
 30
0.0
 10
6592.760311291313
 20
5269.843996492414
 30
0.0
 10
6597.951451836931
 20
5270.712456047871
 30
0.0
 10
6600.551549763591
 20
5271.147443286163
 30
0.0
  0
SPLINE
  5
1FF
330
1F
100
AcDbEntity
  8
0
  6
Continuous
 62
     7
370
    25
100
AcDbSpline
210
0.0
220
0.0
230
1.0
 70
     8
 71
     3
 72
    13
 73
     9
 74
     0
 42
0.000000001
 43
0.00000001
 40
0.0
 40
0.0
 40
0.0
 40
0.0
 40
0.2391777822966024
 40
0.3681827995111894
 40
0.5000019030876557
 40
0.6318230853813825
 40
0.7608246784454763
 40
1.0
 40
1.0
 40
1.0
 40
1.0
 10
6569.199858651668
 20
5267.453862658722
 30
0.0
 10
6569.23350333682
 20
5267.265560300591
 30
0.0
 10
6569.285294913148
 20
5266.975693538279
 30
0.0
 10
6569.36715253007
 20
5266.627998656023
 30
0.0
 10
6569.431917123717
 20
5266.389479434964
 30
0.0
 10
6569.49489175444
 20
5266.198851151869
 30
0.0
 10
6569.570577033105
 20
5266.017302393995
 30
0.0
 10
6569.612509831901
 20
5265.992289129876
 30
0.0
 10
6569.639750243336
 20
5265.976039997322
 30
0.0
  0
LINE
  5
200
330
1F
100
AcDbEntity
  8
0
  6
Continuous
 62
     7
370
    25
100
AcDbLine
 10
6554.6892848324
 20
5250.0185876405
 30
0.0
 11
6557.1780078571
 21
5250.5967005408
 31
0.0
  0
SPLINE
  5
201
330
1F
100
AcDbEntity
  8
0
  6
Continuous
 62
     7
370
    25
100
AcDbSpline
210
0.0
220
0.0
230
1.0
 70
     8
 71
     3
 72
    13
 73
     9
 74
     0
 42
0.000000001
 43
0.00000001
 40
0.0
 40
0.0
 40
0.0
 40
0.0
 40
0.1238843118209236
 40
0.2480342359496543
 40
0.3726440648142721
 40
0.4976244722524331
 40
0.7481435576275167
 40
1.0
 40
1.0
 40
1.0
 40
1.0
 10
6554.689210326583
 20
5250.018587640507
 30
0.0
 10
6554.71538536725
 20
5250.562600465039
 30
0.0
 10
6554.767791568791
 20
5251.651792496673
 30
0.0
 10
6555.099234198228
 20
5253.260386066424
 30
0.0
 10
6555.59511749558
 20
5254.82780972481
 30
0.0
 10
6556.485361566549
 20
5256.836792892982
 30
0.0
 10
6557.95566880276
 20
5259.194679183292
 30
0.0
 10
6559.525451128662
 20
5260.742722503756
 30
0.0
 10
6560.312431723983
 20
5261.518804661018
 30
0.0
  0
SPLINE
  5
202
330
1F
100
AcDbEntity
  8
0
  6
Continuous
 62
     7
370
    25
100
AcDbSpline
210
0.0
220
0.0
230
1.0
 70
     8
 71
     3
 72
    11
 73
     7
 74
     0
 42
0.000000001
 43
0.00000001
 40
0.0
 40
0.0
 40
0.0
 40
0.0
 40
0.1966443029478837
 40
0.4361631992034655
 40
0.7102943411128575
 40
1.0
 40
1.0
 40
1.0
 40
1.0
 10
6559.161052526147
 20
5262.610411576015
 30
0.0
 10
6559.248670777944
 20
5262.513135926572
 30
0.0
 10
6559.443010794105
 20
5262.297375501122
 30
0.0
 10
6559.76303031765
 20
5261.972651814574
 30
0.0
 10
6560.092097854243
 20
5261.668933901777
 30
0.0
 10
6560.237643271613
 20
5261.569765794856
 30
0.0
 10
6560.312426136047
 20
5261.518812111599
 30
0.0
  0
SPLINE
  5
203
330
1F
100
AcDbEntity
  8
0
  6
Continuous
 62
     7
370
    25
100
AcDbSpline
210
0.0
220
0.0
230
1.0
 70
     8
 71
     3
 72
    11
 73
     7
 74
     0
 42
0.000000001
 43
0.00000001
 40
0.0
 40
0.0
 40
0.0
 40
0.0
 40
0.2463969354017972
 40
0.4999628905465498
 40
0.7535472841339764
 40
1.0
 40
1.0
 40
1.0
 40
1.0
 10
6553.359582507223
 20
5193.841925195438
 30
0.0
 10
6553.477119266893
 20
5193.841940809079
 30
0.0
 10
6553.715612566391
 20
5193.841972490647
 30
0.0
 10
6554.065584978221
 20
5193.840666171874
 30
0.0
 10
6554.388162360694
 20
5193.838495206925
 30
0.0
 10
6554.558413346406
 20
5193.836348498924
 30
0.0
 10
6554.642324754209
 20
5193.835290453417
 30
0.0
  0
SPLINE
  5
204
330
1F
100
AcDbEntity
  8
0
  6
Continuous
 62
     7
370
    25
100
AcDbSpline
210
0.0
220
0.0
230
1.0
 70
     8
 71
     3
 72
    22
 73
    18
 74
     0
 42
0.000000001
 43
0.00000001
 40
0.0
 40
0.0
 40
0.0
 40
0.0
 40
0.1258342930959908
 40
0.2432991443923722
 40
0.3523942085369028
 40
0.4531193247917382
 40
0.5454743431994227
 40
0.6294592642843584
 40
0.7050738878405561
 40
0.7643703719973705
 40
0.8172581498751792
 40
0.8637372135137061
 40
0.9038075373966445
 40
0.9374689862006389
 40
0.9647215390360814
 40
0.9855652406573995
 40
1.0
 40
1.0
 40
1.0
 40
1.0
 10
6554.637759410948
 20
5124.289246580583
 30
0.0
 10
6554.636592942433
 20
5127.206326779963
 30
0.0
 10
6554.634337589105
 20
5132.846467469525
 30
0.0
 10
6554.630962306415
 20
5141.015771834511
 30
0.0
 10
6554.628630376092
 20
5148.603034319992
 30
0.0
 10
6554.62761974919
 20
5155.608209301578
 30
0.0
 10
6554.628153729313
 20
5162.031255002929
 30
0.0
 10
6554.629840970107
 20
5167.872143578257
 30
0.0
 10
6554.631948821298
 20
5172.946616487588
 30
0.0
 10
6554.634064065756
 20
5177.300151326688
 30
0.0
 10
6554.635975331629
 20
5180.978235249464
 30
0.0
 10
6554.637686128963
 20
5184.21059496904
 30
0.0
 10
6554.639139757647
 20
5186.997235875494
 30
0.0
 10
6554.6403161976
 20
5189.338163335642
 30
0.0
 10
6554.641217500461
 20
5191.23338334456
 30
0.0
 10
6554.641869296082
 20
5192.682903180876
 30
0.0
 10
6554.642192507124
 20
5193.500682619805
 30
0.0
 10
6554.642324754209
 20
5193.835290453417
 30
0.0
  0
SPLINE
  5
205
330
1F
100
AcDbEntity
  8
0
  6
Continuous
 62
     7
370
    25
100
AcDbSpline
210
0.0
220
0.0
230
1.0
 70
    24
 71
     3
 72
    10
 73
     6
 74
     0
 42
0.000000001
 43
0.00000001
 40
0.0
 40
0.0
 40
0.0
 40
0.0
 40
0.2690448426044971
 40
0.62751388505138
 40
1.0
 40
1.0
 40
1.0
 40
1.0
 10
6553.37255303672
 20
5124.289246580583
 30
0.0
 10
6553.498841313796
 20
5124.289246580583
 30
0.0
 10
6553.793393131322
 20
5124.289246580583
 30
0.0
 10
6554.253688819333
 20
5124.289246580583
 30
0.0
 10
6554.50810959077
 20
5124.289246580583
 30
0.0
 10
6554.637759410948
 20
5124.289246580583
 30
0.0
  0
SPLINE
  5
206
330
1F
100
AcDbEntity
  8
0
  6
Continuous
 62
     7
370
    25
100
AcDbSpline
210
0.0
220
0.0
230
1.0
 70
     8
 71
     3
 72
    11
 73
     7
 74
     0
 42
0.000000001
 43
0.00000001
 40
0.0
 40
0.0
 40
0.0
 40
0.0
 40
0.2457767060968924
 40
0.4999997599664288
 40
0.7542226706000523
 40
0.9999999999999999
 40
0.9999999999999999
 40
0.9999999999999999
 40
0.9999999999999999
 10
6553.286850870759
 20
5250.026194683296
 30
0.0
 10
6553.413506275197
 20
5250.026312525183
 30
0.0
 10
6553.671169716225
 20
5250.026552258703
 30
0.0
 10
6554.056657191143
 20
5250.025125471085
 30
0.0
 10
6554.412739083949
 20
5250.022527480536
 30
0.0
 10
6554.598096881427
 20
5250.019886048237
 30
0.0
 10
6554.689210326583
 20
5250.018587640507
 30
0.0
  0
SPLINE
  5
207
330
1F
100
AcDbEntity
  8
0
  6
Continuous
 62
     7
370
    25
100
AcDbSpline
210
0.0
220
0.0
230
1.0
 70
     8
 71
     3
 72
    27
 73
    23
 74
     0
 42
0.000000001
 43
0.00000001
 40
0.0
 40
0.0
 40
0.0
 40
0.0
 40
0.0137200546596149
 40
0.0671285558850411
 40
0.1183237621921554
 40
0.170950922555555
 40
0.2231513254460699
 40
0.2767944265227595
 40
0.3302269635536164
 40
0.3852294022573551
 40
0.4382069576840285
 40
0.4928130972411325
 40
0.5442676262748268
 40
0.5972308327828979
 40
0.6485017039057281
 40
0.7011843027236626
 40
0.7538470155616814
 40
0.8079850778439782
 40
0.861487456193179
 40
0.916596060184167
 40
0.9690994508796853
 40
1.0
 40
1.0
 40
1.0
 40
1.0
 10
6565.606395200998
 20
5146.269659816307
 30
0.0
 10
6565.608545872762
 20
5146.26113784174
 30
0.0
 10
6565.619068534173
 20
5146.219442100715
 30
0.0
 10
6565.561307917702
 20
5146.447427977369
 30
0.0
 10
6565.436645614326
 20
5146.956198391822
 30
0.0
 10
6565.251491121816
 20
5147.757269165742
 30
0.0
 10
6565.027732020374
 20
5148.820905838072
 30
0.0
 10
6564.788082717339
 20
5150.123263864865
 30
0.0
 10
6564.556206550554
 20
5151.65149272435
 30
0.0
 10
6564.363272635745
 20
5153.33943756085
 30
0.0
 10
6564.230545492225
 20
5155.157759536
 30
0.0
 10
6564.176418816729
 20
5157.001606202336
 30
0.0
 10
6564.203702035806
 20
5158.852292416338
 30
0.0
 10
6564.305578720043
 20
5160.620293961781
 30
0.0
 10
6564.47155554192
 20
5162.307044455126
 30
0.0
 10
6564.681803009558
 20
5163.853148281897
 30
0.0
 10
6564.918295777397
 20
5165.245772832385
 30
0.0
 10
6565.152751292368
 20
5166.423725543543
 30
0.0
 10
6565.362317394815
 20
5167.364590880546
 30
0.0
 10
6565.513593654943
 20
5167.99480748995
 30
0.0
 10
6565.595398529555
 20
5168.321042873411
 30
0.0
 10
6565.5918346717
 20
5168.306804016519
 30
0.0
 10
6565.590514288456
 20
5168.301528624279
 30
0.0
  0
LINE
  5
208
330
1F
100
AcDbEntity
  8
0
  6
Continuous
 62
     7
370
    25
100
AcDbLine
 10
6554.6423247542
 20
5193.8352904534
 30
0.0
 11
6554.6892103266
 21
5250.0185876405
 31
0.0
  0
SPLINE
  5
209
330
1F
100
AcDbEntity
  8
0
  6
Continuous
 62
     7
370
    25
100
AcDbSpline
210
0.0
220
0.0
230
1.0
 70
    24
 71
     3
 72
    14
 73
    10
 74
     0
 42
0.000000001
 43
0.00000001
 40
0.0
 40
0.0
 40
0.0
 40
0.0
 40
0.0845927512072796
 40
0.2398838013370969
 40
0.3946812316822595
 40
0.5494786051859701
 40
0.7047696579482563
 40
0.8595670012195604
 40
1.0
 40
1.0
 40
1.0
 40
1.0
 10
6565.50744404009
 20
5124.289246580583
 30
0.0
 10
6565.517311806584
 20
5124.289246580583
 30
0.0
 10
6565.545294314583
 20
5124.289246580583
 30
0.0
 10
6564.990805252763
 20
5124.289246580583
 30
0.0
 10
6563.902168231901
 20
5124.289246580583
 30
0.0
 10
6562.248773284203
 20
5124.289246580583
 30
0.0
 10
6560.095473735295
 20
5124.289246580583
 30
0.0
 10
6557.57310094646
 20
5124.289246580583
 30
0.0
 10
6555.583946008813
 20
5124.289246580583
 30
0.0
 10
6554.637759410948
 20
5124.289246580583
 30
0.0
  0
SPLINE
  5
20A
330
1F
100
AcDbEntity
  8
0
  6
Continuous
 62
     7
370
    25
100
AcDbSpline
210
0.0
220
0.0
230
1.0
 70
     8
 71
     3
 72
     9
 73
     5
 74
     0
 42
0.000000001
 43
0.00000001
 40
0.0
 40
0.0
 40
0.0
 40
0.0
 40
0.4028357087313503
 40
1.0
 40
1.0
 40
1.0
 40
1.0
 10
6510.381911368281
 20
5141.775749928338
 30
0.0
 10
6510.38012163912
 20
5141.7947879003
 30
0.0
 10
6510.375678812625
 20
5141.84204779199
 30
0.0
 10
6510.375741879289
 20
5141.840294430143
 30
0.0
 10
6510.37577954045
 20
5141.83924738506
 30
0.0
  0
LINE
  5
20B
330
1F
100
AcDbEntity
  8
0
  6
Continuous
 62
     7
370
    25
100
AcDbLine
 10
6510.3758074801
 20
5141.339244742
 30
0.0
 11
6510.3874322485
 21
5141.2946859626
 31
0.0
  0
SPLINE
  5
20C
330
1F
100
AcDbEntity
  8
0
  6
Continuous
 62
     7
370
    25
100
AcDbSpline
210
0.0
220
0.0
230
1.0
 70
     8
 71
     3
 72
    17
 73
    13
 74
     0
 42
0.000000001
 43
0.00000001
 40
0.0
 40
0.0
 40
0.0
 40
0.0
 40
0.1042007386722224
 40
0.2181324065501244
 40
0.3306600252251111
 40
0.4417035480921553
 40
0.5512622556422451
 40
0.6593359579639281
 40
0.7659242023579895
 40
0.8710270137805101
 40
0.9746439318065838
 40
0.9999999999999999
 40
0.9999999999999999
 40
0.9999999999999999
 40
0.9999999999999999
 10
6510.375807480127
 20
5141.339244741966
 30
0.0
 10
6510.368027043775
 20
5141.328119558597
 30
0.0
 10
6510.351739584329
 20
5141.304830251315
 30
0.0
 10
6510.326632581425
 20
5141.010366435839
 30
0.0
 10
6510.300707779365
 20
5140.538055753323
 30
0.0
 10
6510.274768816575
 20
5139.937623043038
 30
0.0
 10
6510.248834814792
 20
5139.286039328891
 30
0.0
 10
6510.22288923869
 20
5138.659861682216
 30
0.0
 10
6510.196940925742
 20
5138.124892221281
 30
0.0
 10
6510.170948983045
 20
5137.761477544445
 30
0.0
 10
6510.151450046586
 20
5137.586090071406
 30
0.0
 10
6510.140489889807
 20
5137.604420587025
 30
0.0
 10
6510.138335124761
 20
5137.608024363426
 30
0.0
  0
SPLINE
  5
20D
330
1F
100
AcDbEntity
  8
0
  6
Continuous
 62
     7
370
    25
100
AcDbSpline
210
0.0
220
0.0
230
1.0
 70
     8
 71
     3
 72
    14
 73
    10
 74
     0
 42
0.000000001
 43
0.00000001
 40
0.0
 40
0.0
 40
0.0
 40
0.0
 40
0.0071905895663173
 40
0.1756664058559972
 40
0.3441423963386958
 40
0.5126194267727588
 40
0.6810978301224623
 40
0.8495789942708274
 40
1.0
 40
1.0
 40
1.0
 40
1.0
 10
6510.485638351352
 20
5140.109008147983
 30
0.0
 10
6510.485102527271
 20
5140.103497669968
 30
0.0
 10
6510.472012322427
 20
5139.968876460022
 30
0.0
 10
6510.446378805083
 20
5139.616482015508
 30
0.0
 10
6510.408724026939
 20
5139.111354407104
 30
0.0
 10
6510.371069300787
 20
5138.620041447386
 30
0.0
 10
6510.33341123594
 20
5138.218063296128
 30
0.0
 10
6510.297089830457
 20
5137.937829883587
 30
0.0
 10
6510.273316026538
 20
5137.884991457349
 30
0.0
 10
6510.262102306992
 20
5137.860068424625
 30
0.0
  0
LWPOLYLINE
  5
20E
330
1F
100
AcDbEntity
  8
0
  6
Continuous
 62
     7
370
    25
100
AcDbPolyline
 90
       11
 70
   128
 43
0.0
 10
6510.0758284788
 20
5141.0445833598
 10
6510.0758284788
 20
5141.0299948901
 10
6510.0758396547
 20
5140.8591079079
 10
6510.0758601438
 20
5140.5144384033
 10
6510.0758899461
 20
5140.0355351806
 10
6510.0759234737
 20
5139.4773494238
 10
6510.075958864
 20
5138.9039295744
 10
6510.075990529
 20
5138.3810721589
 10
6510.0760147434
 20
5137.968771697
 10
6510.0760296445
 20
5137.7143371636
 10
6510.0760352325
 20
5137.6445834311
  0
LINE
  5
20F
330
1F
100
AcDbEntity
  8
0
  6
Continuous
 62
     7
370
    25
100
AcDbLine
 10
6510.3758112054
 20
5141.3195732301
 30
0.0
 11
6510.3758074801
 21
5141.339244742
 31
0.0
  0
LWPOLYLINE
  5
210
330
1F
100
AcDbEntity
  8
0
  6
Continuous
 62
     7
370
    25
100
AcDbPolyline
 90
       23
 70
   128
 43
0.0
 10
6663.4314064395
 20
5278.7247135556
 10
6663.5258574497
 20
5278.7413730538
 10
6663.8071988236
 20
5278.7909939205
 10
6664.2694328438
 20
5278.8725330746
 10
6664.9027098428
 20
5278.9842321789
 10
6665.6935293686
 20
5279.1237219488
 10
6666.6250456583
 20
5279.2880370533
 10
6667.6773954641
 20
5279.4736608183
 10
6668.8281525384
 20
5279.6766444361
 10
6670.05278957
 20
5279.8926516688
 10
6671.3251997243
 20
5280.1170929587
 10
6672.6182777893
 20
5280.3451701319
 10
6673.9044566166
 20
5280.5720403111
 10
6675.1563329708
 20
5280.7928606188
 10
6676.3472039711
 20
5281.0029222882
 10
6677.4516929399
 20
5281.1977400696
 10
6678.446285845
 20
5281.3731714403
 10
6679.3097485315
 20
5281.5254762089
 10
6680.0237078678
 20
5281.6514208233
 10
6680.5729348671
 20
5281.7482932722
 10
6680.9457172166
 20
5281.8140520966
 10
6681.1341125976
 20
5281.8472816861
 10
6681.1577607404
 20
5281.8514540112
  0
LWPOLYLINE
  5
211
330
1F
100
AcDbEntity
  8
0
  6
Continuous
 62
     7
370
    25
100
AcDbPolyline
 90
       23
 70
   128
 43
0.0
 10
6662.563607515
 20
5281.2100782311
 10
6662.6580585252
 20
5281.2267377293
 10
6662.9394967567
 20
5281.2763734972
 10
6663.4021852624
 20
5281.3579871571
 10
6664.0367139589
 20
5281.4699097788
 10
6664.830156089
 20
5281.6098763859
 10
6665.7663662445
 20
5281.7750110543
 10
6666.8262858402
 20
5281.9619610226
 10
6667.9883379947
 20
5282.166941396
 10
6669.2288596641
 20
5282.385750047
 10
6670.5226082813
 20
5282.6139613306
 10
6671.8432236921
 20
5282.8468962824
 10
6673.1638540041
 20
5283.0798461354
 10
6674.4576026212
 20
5283.308057419
 10
6675.6981242906
 20
5283.52686607
 10
6676.8601764452
 20
5283.7318464434
 10
6677.9200960409
 20
5283.9187964117
 10
6678.8563061964
 20
5284.0839310801
 10
6679.6497483265
 20
5284.2238976872
 10
6680.2842695724
 20
5284.3358203089
 10
6680.7469655286
 20
5284.4174339688
 10
6681.0284037601
 20
5284.4670697367
 10
6681.1228473198
 20
5284.4837292349
  0
LWPOLYLINE
  5
212
330
1F
100
AcDbEntity
  8
0
  6
Continuous
 62
     7
370
    25
100
AcDbPolyline
 90
       23
 70
   128
 43
0.0
 10
6663.4316970121
 20
5278.7230595267
 10
6663.5261480223
 20
5278.7397190249
 10
6663.8074893962
 20
5278.7893398917
 10
6664.2697234165
 20
5278.8708790457
 10
6664.9030078661
 20
5278.98257815
 10
6665.6938273918
 20
5279.12206792
 10
6666.6253436815
 20
5279.2863830244
 10
6667.6776785862
 20
5279.4720067894
 10
6668.8284356605
 20
5279.6749904072
 10
6670.0530726921
 20
5279.8909976399
 10
6671.3254977476
 20
5280.1154389298
 10
6672.6185758125
 20
5280.3435310042
 10
6673.9047546398
 20
5280.5704011833
 10
6675.1566160928
 20
5280.7912065899
 10
6676.3474870931
 20
5281.0012682593
 10
6677.4519909631
 20
5281.1960860407
 10
6678.446568967
 20
5281.3715323126
 10
6679.3100465547
 20
5281.5238370812
 10
6680.0239909898
 20
5281.6497667944
 10
6680.5732179891
 20
5281.7466392433
 10
6680.9460003387
 20
5281.8123980677
 10
6681.1343957197
 20
5281.8456276572
 10
6681.1580438625
 20
5281.8497999823
  0
LWPOLYLINE
  5
213
330
1F
100
AcDbEntity
  8
0
  6
Continuous
 62
     7
370
    25
100
AcDbPolyline
 90
       22
 70
   128
 43
0.0
 10
6665.0863517534
 20
5277.4040236389
 10
6665.0859792244
 20
5277.4039491331
 10
6665.1781280052
 20
5277.4202063
 10
6665.45229447
 20
5277.4685754692
 10
6665.9017432939
 20
5277.5478496468
 10
6666.515388013
 20
5277.6560916817
 10
6667.2781337511
 20
5277.790619365
 10
6668.1711901437
 20
5277.9481544411
 10
6669.1725779783
 20
5278.1247779047
 10
6670.2576209318
 20
5278.3161833203
 10
6671.3996161233
 20
5278.5176172173
 10
6672.5704450618
 20
5278.7241324103
 10
6673.7412740003
 20
5278.9306625044
 10
6674.8832691919
 20
5279.1320964014
 10
6675.9683121454
 20
5279.3234869158
 10
6676.9696999799
 20
5279.5001103794
 10
6677.8627563726
 20
5279.6576454556
 10
6678.6255021106
 20
5279.79218804
 10
6679.2391468298
 20
5279.9004300749
 10
6679.6885807525
 20
5279.9797042525
 10
6679.9627621185
 20
5280.0280585205
 10
6680.0548959982
 20
5280.0443156874
  0
SPLINE
  5
214
330
1F
100
AcDbEntity
  8
0
  6
Continuous
 62
     7
370
    25
100
AcDbSpline
210
0.0
220
0.0
230
1.0
 70
     8
 71
     3
 72
    21
 73
    17
 74
     0
 42
0.000000001
 43
0.00000001
 40
0.0
 40
0.0
 40
0.0
 40
0.0
 40
0.0730854481097767
 40
0.1477218568404781
 40
0.2223582865546276
 40
0.2954437924062968
 40
0.3656120677051435
 40
0.4318143530585719
 40
0.4980173524784069
 40
0.5681851241105418
 40
0.6412709883018751
 40
0.7159072762026977
 40
0.7905439068935992
 40
0.8636292358652666
 40
0.9337973787546294
 40
1.0
 40
1.0
 40
1.0
 40
1.0
 10
6665.855981827885
 20
5276.307447186691
 30
0.0
 10
6665.875980805654
 20
5276.310974311057
 30
0.0
 10
6665.916403163419
 20
5276.318103409588
 30
0.0
 10
6666.340272701886
 20
5276.392877084143
 30
0.0
 10
6667.014860407696
 20
5276.511857922988
 30
0.0
 10
6667.916731939517
 20
5276.670941137176
 30
0.0
 10
6668.967016399639
 20
5276.856210468565
 30
0.0
 10
6670.115926956076
 20
5277.058860508636
 30
0.0
 10
6671.355498072475
 20
5277.277519282879
 30
0.0
 10
6672.69010189292
 20
5277.512908124639
 30
0.0
 10
6674.08304520078
 20
5277.758620874702
 30
0.0
 10
6675.450428095727
 20
5277.999817191485
 30
0.0
 10
6676.706623067841
 20
5278.221390463755
 30
0.0
 10
6677.771977227469
 20
5278.409298140391
 30
0.0
 10
6678.621975864099
 20
5278.559240595336
 30
0.0
 10
6678.997736285359
 20
5278.625524712219
 30
0.0
 10
6679.180153132588
 20
5278.657703033668
 30
0.0
  0
SPLINE
  5
215
330
1F
100
AcDbEntity
  8
0
  6
Continuous
 62
     8
370
    25
100
AcDbSpline
210
0.0
220
0.0
230
1.0
 70
     8
 71
     3
 72
    14
 73
    10
 74
     0
 42
0.000000001
 43
0.00000001
 40
0.0
 40
0.0
 40
0.0
 40
0.0
 40
0.0545397198808425
 40
0.1316167249746495
 40
0.2312453867254941
 40
0.3534241785758627
 40
0.5512895186690248
 40
0.7889271682720007
 40
0.9999999999999999
 40
0.9999999999999999
 40
0.9999999999999999
 40
0.9999999999999999
 10
6560.312426136047
 20
5261.518812111599
 30
0.0
 10
6560.447165793546
 20
5261.636100192013
 30
0.0
 10
6560.77232317395
 20
5261.919142955277
 30
0.0
 10
6561.364301582963
 20
5262.391706163466
 30
0.0
 10
6562.155379765402
 20
5262.968027683818
 30
0.0
 10
6563.311293595637
 20
5263.712042344418
 30
0.0
 10
6564.926927250801
 20
5264.563628718366
 30
0.0
 10
6566.894353983588
 20
5265.367637898566
 30
0.0
 10
6568.332432060762
 20
5265.676719442525
 30
0.0
 10
6569.008902133614
 20
5265.82211100219
 30
0.0
  0
LINE
  5
216
330
1F
100
AcDbEntity
  8
0
  6
Continuous
 62
     8
370
    25
100
AcDbLine
 10
6569.005666719
 20
5265.8233030951
 30
0.0
 11
6569.6397502433
 21
5265.9760399973
 31
0.0
  0
SPLINE
  5
217
330
1F
100
AcDbEntity
  8
0
  6
Continuous
 62
     8
370
    25
100
AcDbSpline
210
0.0
220
0.0
230
1.0
 70
     8
 71
     3
 72
    13
 73
     9
 74
     0
 42
0.000000001
 43
0.00000001
 40
0.0
 40
0.0
 40
0.0
 40
0.0
 40
0.1670837964224023
 40
0.3339750624575905
 40
0.5007382815257982
 40
0.6673620627229498
 40
0.8338225878057637
 40
1.0
 40
1.0
 40
1.0
 40
1.0
 10
6557.178007857115
 20
5250.596700540764
 30
0.0
 10
6558.00228384048
 20
5250.788341428457
 30
0.0
 10
6559.649885995335
 20
5251.171402376361
 30
0.0
 10
6561.616550787882
 20
5251.628541222476
 30
0.0
 10
6563.195784816416
 20
5251.995556106528
 30
0.0
 10
6564.327644538883
 20
5252.258546377645
 30
0.0
 10
6565.050571354033
 20
5252.426498449084
 30
0.0
 10
6565.141652795648
 20
5252.447652586107
 30
0.0
 10
6565.1871547561
 20
5252.458220652325
 30
0.0
  0
SPLINE
  5
218
330
1F
100
AcDbEntity
  8
0
  6
Continuous
 62
     8
370
    25
100
AcDbSpline
210
0.0
220
0.0
230
1.0
 70
     8
 71
     3
 72
    55
 73
    51
 74
     0
 42
0.000000001
 43
0.00000001
 40
0.0
 40
0.0
 40
0.0
 40
0.0
 40
0.0521211868041775
 40
0.1102817276390477
 40
0.1744121379095857
 40
0.2442245272288349
 40
0.3099074366798787
 40
0.3789190182754428
 40
0.4417137532096134
 40
0.4697559565955603
 40
0.4729142309162834
 40
0.47607422421558
 40
0.479235948545119
 40
0.4823991183596132
 40
0.4855637307103404
 40
0.4887296723032311
 40
0.4918968318543293
 40
0.5547896470482032
 40
0.6131426149769356
 40
0.6667187298590658
 40
0.6836666611006377
 40
0.6915961994235514
 40
0.6973227040666918
 40
0.704231393381481
 40
0.712281805836356
 40
0.7214255217922247
 40
0.731606440389633
 40
0.7631083734692338
 40
0.7999342227062414
 40
0.8402498258947807
 40
0.8558644302894417
 40
0.8699104829815072
 40
0.8804462131010624
 40
0.8896257426578135
 40
0.9043217417070757
 40
0.9146670832143003
 40
0.923129269502667
 40
0.9340938425242405
 40
0.9446353536640213
 40
0.9547980433837591
 40
0.9646285818771204
 40
0.973352443352653
 40
0.9776890312469396
 40
0.9826114528586338
 40
0.988104948945817
 40
0.9925866830859719
 40
0.995633987377838
 40
0.9980679575887229
 40
0.9998958983304194
 40
1.0
 40
1.0
 40
1.0
 40
1.0
 10
6602.044210256249
 20
5272.916285625679
 30
0.0
 10
6603.779688480769
 20
5273.204677723172
 30
0.0
 10
6607.451737192917
 20
5273.814878309517
 30
0.0
 10
6613.255398428551
 20
5274.778969963533
 30
0.0
 10
6619.639684920281
 20
5275.83929248585
 30
0.0
 10
6626.25948620876
 20
5276.938421784193
 30
0.0
 10
6633.019090242
 20
5278.060205521066
 30
0.0
 10
6639.517937174257
 20
5279.138047527743
 30
0.0
 10
6644.747022239604
 20
5280.004499873049
 30
0.0
 10
6647.804844873053
 20
5280.510686079492
 30
0.0
 10
6648.920212848394
 20
5280.695287205698
 30
0.0
 10
6649.227803223209
 20
5280.746187960363
 30
0.0
 10
6649.535413367746
 20
5280.797094673151
 30
0.0
 10
6649.843035106538
 20
5280.8479705333
 30
0.0
 10
6650.150641637674
 20
5280.898882893341
 30
0.0
 10
6650.458236913008
 20
5280.949766906055
 30
0.0
 10
6652.699107135559
 20
5281.320407082097
 30
0.0
 10
6656.70649316633
 20
5281.982895470341
 30
0.0
 10
6662.264901711239
 20
5282.90013702379
 30
0.0
 10
6666.295302708432
 20
5283.56370199312
 30
0.0
 10
6668.712112165887
 20
5283.960803423755
 30
0.0
 10
6669.649251753533
 20
5284.114626545464
 30
0.0
 10
6670.276764274294
 20
5284.217654954721
 30
0.0
 10
6670.905844403876
 20
5284.320862321706
 30
0.0
 10
6671.635760475586
 20
5284.440567150627
 30
0.0
 10
6672.460499010887
 20
5284.575759941637
 30
0.0
 10
6673.982209976497
 20
5284.824961293531
 30
0.0
 10
6676.298857373959
 20
5285.203593739197
 30
0.0
 10
6679.404650945763
 20
5285.709035687844
 30
0.0
 10
6681.924274463635
 20
5286.116161821033
 30
0.0
 10
6683.71296409156
 20
5286.402796187776
 30
0.0
 10
6684.699744836568
 20
5286.56004545132
 30
0.0
 10
6685.495039385569
 20
5286.686053345758
 30
0.0
 10
6686.274516899569
 20
5286.808917072683
 30
0.0
 10
6687.007939974673
 20
5286.923599502312
 30
0.0
 10
6687.674103467661
 20
5287.026652352438
 30
0.0
 10
6688.226614262886
 20
5287.111647928827
 30
0.0
 10
6688.737305844657
 20
5287.189545439334
 30
0.0
 10
6689.216070900302
 20
5287.260884722236
 30
0.0
 10
6689.613909538851
 20
5287.318308052752
 30
0.0
 10
6689.923621712571
 20
5287.361023784691
 30
0.0
 10
6690.118307468115
 20
5287.385548497807
 30
0.0
 10
6690.240478154888
 20
5287.400113613742
 30
0.0
 10
6690.32232978191
 20
5287.409421463432
 30
0.0
 10
6690.383784175859
 20
5287.415509344798
 30
0.0
 10
6690.418771598837
 20
5287.417804816206
 30
0.0
 10
6690.435992654825
 20
5287.418256164581
 30
0.0
 10
6690.440220827641
 20
5287.417710811384
 30
0.0
 10
6690.445373152061
 20
5287.417987130238
 30
0.0
 10
6690.442515339634
 20
5287.417609412133
 30
0.0
 10
6690.442361355931
 20
5287.417589060051
 30
0.0
  0
SPLINE
  5
219
330
1F
100
AcDbEntity
  8
0
  6
Continuous
 62
     8
370
    25
100
AcDbSpline
210
0.0
220
0.0
230
1.0
 70
     8
 71
     3
 72
    26
 73
    22
 74
     0
 42
0.000000001
 43
0.00000001
 40
0.0
 40
0.0
 40
0.0
 40
0.0
 40
0.0000773836461283
 40
0.0174857934465671
 40
0.0347750439065472
 40
0.051853724886316
 40
0.06869261644702
 40
0.1017040388866203
 40
0.1340687967319455
 40
0.1765542726437823
 40
0.2185797057332685
 40
0.2603080791313879
 40
0.3225439589626119
 40
0.3845255342052143
 40
0.4463314623504224
 40
0.5080298946161252
 40
0.6065913309927283
 40
0.7050263434834473
 40
0.8033861277177092
 40
0.9017043936891135
 40
1.0
 40
1.0
 40
1.0
 40
1.0
 10
6690.915354014546
 20
5304.661332002861
 30
0.0
 10
6690.915548513119
 20
5304.661351972676
 30
0.0
 10
6690.959497874986
 20
5304.66586439987
 30
0.0
 10
6690.808230188193
 20
5304.643887709408
 30
0.0
 10
6690.456931745916
 20
5304.592945013966
 30
0.0
 10
6689.856665732763
 20
5304.507319410068
 30
0.0
 10
6688.848970127206
 20
5304.361832384701
 30
0.0
 10
6687.250333268938
 20
5304.126872494157
 30
0.0
 10
6684.758180116343
 20
5303.751603756322
 30
0.0
 10
6681.727991909687
 20
5303.284343780621
 30
0.0
 10
6678.203662647372
 20
5302.731344131113
 30
0.0
 10
6673.937477357038
 20
5302.054133121103
 30
0.0
 10
6668.89972724678
 20
5301.246425802958
 30
0.0
 10
6663.08949947438
 20
5300.310195868223
 30
0.0
 10
6657.191471223144
 20
5299.354328159026
 30
0.0
 10
6650.036017087895
 20
5298.189644365643
 30
0.0
 10
6641.596901571449
 20
5296.810927081257
 30
0.0
 10
6631.872670063774
 20
5295.21718516195
 30
0.0
 10
6622.09898512672
 20
5293.609411798391
 30
0.0
 10
6612.294855272889
 20
5291.991942307396
 30
0.0
 10
6605.748045403679
 20
5290.908559943799
 30
0.0
 10
6602.475017727525
 20
5290.366931191666
 30
0.0
  0
SPLINE
  5
21A
330
1F
100
AcDbEntity
  8
0
  6
Continuous
 62
     8
370
    25
100
AcDbSpline
210
0.0
220
0.0
230
1.0
 70
     8
 71
     3
 72
    41
 73
    37
 74
     0
 42
0.000000001
 43
0.00000001
 40
0.0
 40
0.0
 40
0.0
 40
0.0
 40
0.0642263422287779
 40
0.1228662964166605
 40
0.1759110745515243
 40
0.2233581237965092
 40
0.2652075714800264
 40
0.3014602981459264
 40
0.3321167216990719
 40
0.3571760196345476
 40
0.376395371918366
 40
0.3901738707105455
 40
0.3977978302878762
 40
0.3998173733693425
 40
0.4002115185179448
 40
0.40054965479188
 40
0.4037969965932303
 40
0.5012310255074188
 40
0.5641752547129797
 40
0.6271431009994978
 40
0.6901364817367971
 40
0.7523841796101605
 40
0.7937948982960235
 40
0.8352392167027354
 40
0.8789641852830368
 40
0.891769275509005
 40
0.9040535901937538
 40
0.9158086899412469
 40
0.9270391474558011
 40
0.9303495279682615
 40
0.9396473043397865
 40
0.9546728320486245
 40
0.9643314099009936
 40
0.9754300207059297
 40
0.9879705073723933
 40
1.0
 40
1.0
 40
1.0
 40
1.0
 10
6600.407801986844
 20
5291.470973125679
 30
0.0
 10
6598.271504125101
 20
5291.114774357462
 30
0.0
 10
6594.184722950795
 20
5290.433358883371
 30
0.0
 10
6588.337357334001
 20
5289.456842767316
 30
0.0
 10
6583.053820112295
 20
5288.573425099156
 30
0.0
 10
6578.335127842725
 20
5287.783417525489
 30
0.0
 10
6574.180748489923
 20
5287.087093719294
 30
0.0
 10
6570.589130197826
 20
5286.48441985266
 30
0.0
 10
6567.55810080942
 20
5285.975279236842
 30
0.0
 10
6565.093124024496
 20
5285.56091270853
 30
0.0
 10
6563.186618236354
 20
5285.240155411255
 30
0.0
 10
6561.854534684368
 20
5285.015962984583
 30
0.0
 10
6561.087234904053
 20
5284.886731384489
 30
0.0
 10
6560.758543089652
 20
5284.831426774582
 30
0.0
 10
6560.6684497192
 20
5284.816226303183
 30
0.0
 10
6560.538150298456
 20
5284.794316881562
 30
0.0
 10
6557.231415502503
 20
5284.237091414167
 30
0.0
 10
6551.899820266906
 20
5283.337935501312
 30
0.0
 10
6544.71148081196
 20
5282.122295383517
 30
0.0
 10
6538.710565020642
 20
5281.102297587641
 30
0.0
 10
6532.843657967355
 20
5280.098247667268
 30
0.0
 10
6527.792344571981
 20
5279.230255645314
 30
0.0
 10
6523.562374231677
 20
5278.500518855262
 30
0.0
 10
6520.044351065997
 20
5277.892287549161
 30
0.0
 10
6517.523623268682
 20
5277.455369218787
 30
0.0
 10
6515.916483331826
 20
5277.175193956694
 30
0.0
 10
6515.101333838371
 20
5277.032558075658
 30
0.0
 10
6514.37086036448
 20
5276.903981897419
 30
0.0
 10
6513.867454559304
 20
5276.814741381789
 30
0.0
 10
6513.438633338111
 20
5276.73825672544
 30
0.0
 10
6512.969943581089
 20
5276.654185742007
 30
0.0
 10
6512.469756590066
 20
5276.56338846556
 30
0.0
 10
6512.041119491301
 20
5276.484710356221
 30
0.0
 10
6511.732951067913
 20
5276.427458492192
 30
0.0
 10
6511.504301957478
 20
5276.38416411591
 30
0.0
 10
6511.474161719323
 20
5276.377177842307
 30
0.0
 10
6511.459405020983
 20
5276.373757354004
 30
0.0
  0
SPLINE
  5
21B
330
1F
100
AcDbEntity
  8
0
  6
Continuous
 62
     8
370
    25
100
AcDbSpline
210
0.0
220
0.0
230
1.0
 70
     8
 71
     3
 72
    40
 73
    36
 74
     0
 42
0.000000001
 43
0.00000001
 40
0.0
 40
0.0
 40
0.0
 40
0.0
 40
0.0635071819652874
 40
0.1261984779381984
 40
0.1881175856926698
 40
0.249307486483926
 40
0.3145955651574745
 40
0.3778758535274548
 40
0.4392116505111148
 40
0.4986728741329309
 40
0.5347504270280318
 40
0.5699204953019725
 40
0.6042052378078984
 40
0.6395858435135442
 40
0.6589047609474498
 40
0.6777303952269563
 40
0.6960701426956506
 40
0.7139318645473074
 40
0.7313242188800817
 40
0.7482563757504277
 40
0.7716561904901175
 40
0.7939822643803843
 40
0.815270666011823
 40
0.8355624987770471
 40
0.8549053370118422
 40
0.8733539370491382
 40
0.8902871277686232
 40
0.906339633981926
 40
0.9215901086859485
 40
0.9361311770696139
 40
0.9528434193383033
 40
0.9687496129558408
 40
0.9841008243707509
 40
0.9991754361679489
 40
1.0
 40
1.0
 40
1.0
 40
1.0
 10
6602.233060122639
 20
5291.775478354675
 30
0.0
 10
6604.30837115332
 20
5292.122330205482
 30
0.0
 10
6608.432331392391
 20
5292.811577850984
 30
0.0
 10
6614.574462075066
 20
5293.836767152781
 30
0.0
 10
6620.632072069957
 20
5294.84703169274
 30
0.0
 10
6626.760755372805
 20
5295.868212226935
 30
0.0
 10
6632.915279612528
 20
5296.891231815557
 30
0.0
 10
6639.048545534771
 20
5297.909420615699
 30
0.0
 10
6644.960386249595
 20
5298.890773211975
 30
0.0
 10
6649.963188990352
 20
5299.720495806071
 30
0.0
 10
6654.100666466918
 20
5300.405720721941
 30
0.0
 10
6657.418574580988
 20
5300.954913285788
 30
0.0
 10
6660.688727739139
 20
5301.495598527543
 30
0.0
 10
6663.438897260048
 20
5301.949507811493
 30
0.0
 10
6665.690483288347
 20
5302.320785618926
 30
0.0
 10
6667.407547851781
 20
5302.603797301027
 30
0.0
 10
6669.066637799352
 20
5302.877223879949
 30
0.0
 10
6670.667755794276
 20
5303.141041606858
 30
0.0
 10
6672.21095000416
 20
5303.395258690728
 30
0.0
 10
6673.898297836616
 20
5303.673164326367
 30
0.0
 10
6675.702242836203
 20
5303.96988675629
 30
0.0
 10
6677.590914332944
 20
5304.279972641416
 30
0.0
 10
6679.346200266188
 20
5304.567709285615
 30
0.0
 10
6680.968142646861
 20
5304.833167954616
 30
0.0
 10
6682.45670994945
 20
5305.076321051584
 30
0.0
 10
6683.795203100962
 20
5305.294486380173
 30
0.0
 10
6684.983650449702
 20
5305.487607164741
 30
0.0
 10
6686.021655476306
 20
5305.656126809263
 30
0.0
 10
6686.921987610547
 20
5305.80246476208
 30
0.0
 10
6687.73313780005
 20
5305.934656924753
 30
0.0
 10
6688.422812590919
 20
5306.047294257158
 30
0.0
 10
6688.957421964449
 20
5306.135190659846
 30
0.0
 10
6689.257773274157
 20
5306.185778826741
 30
0.0
 10
6689.37925393297
 20
5306.207024111872
 30
0.0
 10
6689.342009339865
 20
5306.202155928038
 30
0.0
 10
6689.340077758939
 20
5306.201903454048
 30
0.0
  0
LWPOLYLINE
  5
21C
330
1F
100
AcDbEntity
  8
0
  6
Continuous
 62
     8
370
    25
100
AcDbPolyline
 90
        3
 70
   128
 43
0.0
 10
6679.4258285772
 20
5278.7638887083
 10
6679.6919782173
 20
5278.8108422673
 10
6679.7876734745
 20
5278.8277252829
  0
SPLINE
  5
21D
330
1F
100
AcDbEntity
  8
0
  6
Continuous
 62
     7
370
    25
100
AcDbSpline
210
0.0
220
0.0
230
1.0
 70
     8
 71
     3
 72
    12
 73
     8
 74
     0
 42
0.000000001
 43
0.00000001
 40
0.0
 40
0.0
 40
0.0
 40
0.0
 40
0.2569176035309546
 40
0.4943520031700871
 40
0.7123391021371264
 40
0.9108904005620607
 40
1.0
 40
1.0
 40
1.0
 40
1.0
 10
6300.384673013651
 20
4848.895850770097
 30
0.0
 10
6300.368455992568
 20
4850.904873120021
 30
0.0
 10
6300.337251759194
 20
4854.770564724832
 30
0.0
 10
6300.133802308538
 20
4860.336888448397
 30
0.0
 10
6299.838670473677
 20
4865.440639997834
 30
0.0
 10
6299.542528039136
 20
4869.382262356922
 30
0.0
 10
6299.318761621919
 20
4871.618889713262
 30
0.0
 10
6299.249444811904
 20
4872.311736635786
 30
0.0
  0
SPLINE
  5
21E
330
1F
100
AcDbEntity
  8
0
  6
Continuous
 62
     7
370
    25
100
AcDbSpline
210
0.0
220
0.0
230
1.0
 70
     8
 71
     3
 72
     9
 73
     5
 74
     0
 42
0.000000001
 43
0.00000001
 40
0.0
 40
0.0
 40
0.0
 40
0.0
 40
0.5000859941329836
 40
0.9999999999999999
 40
0.9999999999999999
 40
0.9999999999999999
 40
0.9999999999999999
 10
6268.48086966511
 20
4939.097072176558
 30
0.0
 10
6268.328380292485
 20
4939.106423659568
 30
0.0
 10
6268.023453990981
 20
4939.125123409453
 30
0.0
 10
6267.719360569015
 20
4939.117057828929
 30
0.0
 10
6267.567340008282
 20
4939.113025732261
 30
0.0
  0
LINE
  5
21F
330
1F
100
AcDbEntity
  8
0
  6
Continuous
 62
     7
370
    25
100
AcDbLine
 10
6267.5673372143
 20
4939.1132268979
 30
0.0
 11
6266.6491155544
 21
4939.0967871919
 31
0.0
  0
SPLINE
  5
220
330
1F
100
AcDbEntity
  8
0
  6
Continuous
 62
     7
370
    25
100
AcDbSpline
210
0.0
220
0.0
230
1.0
 70
     8
 71
     3
 72
    12
 73
     8
 74
     0
 42
0.000000001
 43
0.00000001
 40
0.0
 40
0.0
 40
0.0
 40
0.0
 40
0.0013331381432422
 40
0.2183342653068625
 40
0.4571259429830008
 40
0.7176954981534063
 40
1.0
 40
1.0
 40
1.0
 40
1.0
 10
6235.67784270581
 20
4870.20276784144
 30
0.0
 10
6235.676925791012
 20
4870.193336701249
 30
0.0
 10
6235.526758368383
 20
4868.64875478732
 30
0.0
 10
6235.295475021629
 20
4865.40592466523
 30
0.0
 10
6234.997027766383
 20
4860.32089918574
 30
0.0
 10
6234.795981259555
 20
4854.764495629368
 30
0.0
 10
6234.764970748744
 20
4850.903001169399
 30
0.0
 10
6234.748844712341
 20
4848.894952975135
 30
0.0
  0
SPLINE
  5
221
330
1F
100
AcDbEntity
  8
0
  6
Continuous
 62
     7
370
    25
100
AcDbSpline
210
0.0
220
0.0
230
1.0
 70
     8
 71
     3
 72
    43
 73
    39
 74
     0
 42
0.000000001
 43
0.00000001
 40
0.0
 40
0.0
 40
0.0
 40
0.0
 40
0.0610813431621424
 40
0.1257239387598136
 40
0.1873339979643265
 40
0.2459252960106844
 40
0.3014551046399828
 40
0.3529301210505176
 40
0.4012570857212532
 40
0.4463028963364178
 40
0.4879211655612266
 40
0.5226526928241261
 40
0.5543087903882733
 40
0.5827753646854062
 40
0.6079313679788647
 40
0.6296649893222286
 40
0.6451013602261786
 40
0.6581719249780512
 40
0.6696915224743318
 40
0.6777034769330507
 40
0.6854796856863832
 40
0.6933313680893608
 40
0.7015617707850955
 40
0.7135594484870751
 40
0.7270823842290259
 40
0.7415936255618649
 40
0.756873936409681
 40
0.7728718703005145
 40
0.7895336606294714
 40
0.8068163337425834
 40
0.8247336491592804
 40
0.8434223321350743
 40
0.8625323759099857
 40
0.8820338894099249
 40
0.9019330928341047
 40
0.9426016402683846
 40
0.9835081245202942
 40
1.0
 40
1.0
 40
1.0
 40
1.0
 10
6267.145102567339
 20
4939.123560853225
 30
0.0
 10
6267.105828078847
 20
4939.122521487644
 30
0.0
 10
6267.024989264073
 20
4939.120382157894
 30
0.0
 10
6266.885011109344
 20
4939.116065842823
 30
0.0
 10
6266.72551699358
 20
4939.110468775545
 30
0.0
 10
6266.547466765707
 20
4939.103290478364
 30
0.0
 10
6266.350673475535
 20
4939.094175149399
 30
0.0
 10
6266.134827024536
 20
4939.082714763165
 30
0.0
 10
6265.900456567615
 20
4939.068499293802
 30
0.0
 10
6265.64643882805
 20
4939.050957024891
 30
0.0
 10
6265.380495899481
 20
4939.030121113748
 30
0.0
 10
6265.10565406506
 20
4939.005905010269
 30
0.0
 10
6264.825546768969
 20
4938.978416480803
 30
0.0
 10
6264.531590651302
 20
4938.946508034815
 30
0.0
 10
6264.221259634957
 20
4938.909187009531
 30
0.0
 10
6263.917437336799
 20
4938.869356739164
 30
0.0
 10
6263.601102107868
 20
4938.823533286491
 30
0.0
 10
6263.335775533948
 20
4938.783284469218
 30
0.0
 10
6262.765147234222
 20
4938.687933152627
 30
0.0
 10
6261.999048904146
 20
4938.538527859408
 30
0.0
 10
6261.127819443114
 20
4938.343058476387
 30
0.0
 10
6260.076371636937
 20
4938.068625828375
 30
0.0
 10
6258.705510723473
 20
4937.650607445788
 30
0.0
 10
6256.96500167513
 20
4937.013666983133
 30
0.0
 10
6254.91551227114
 20
4936.089511244603
 30
0.0
 10
6252.789270408962
 20
4934.918904192197
 30
0.0
 10
6250.652461820922
 20
4933.491930739553
 30
0.0
 10
6248.562711155574
 20
4931.796507458424
 30
0.0
 10
6246.575680234526
 20
4929.816847068812
 30
0.0
 10
6244.75569251544
 20
4927.540052551935
 30
0.0
 10
6243.185798236325
 20
4924.948632015127
 30
0.0
 10
6241.906845402731
 20
4922.090949030024
 30
0.0
 10
6240.909642574848
 20
4919.031904955286
 30
0.0
 10
6240.161989786907
 20
4915.834650955724
 30
0.0
 10
6239.42711462082
 20
4911.403587867261
 30
0.0
 10
6238.894812233912
 20
4905.735337055536
 30
0.0
 10
6238.512195044224
 20
4900.251491726361
 30
0.0
 10
6238.223415243919
 20
4897.046517923362
 30
0.0
 10
6238.140442132318
 20
4896.125654868703
 30
0.0
  0
SPLINE
  5
222
330
1F
100
AcDbEntity
  8
0
  6
Continuous
 62
     7
370
    25
100
AcDbSpline
210
0.0
220
0.0
230
1.0
 70
     8
 71
     3
 72
    45
 73
    41
 74
     0
 42
0.000000001
 43
0.00000001
 40
0.0
 40
0.0
 40
0.0
 40
0.0
 40
0.006310566759041
 40
0.0291930552819095
 40
0.0522314116861442
 40
0.0752484119453643
 40
0.0980201597987942
 40
0.1179153776757095
 40
0.1374131521188956
 40
0.1565194898008322
 40
0.1752055325263852
 40
0.1931208947910242
 40
0.2104017803248882
 40
0.2270623844552088
 40
0.2430598273145335
 40
0.2583404202627512
 40
0.2728526858891353
 40
0.2863797084486225
 40
0.2983814888455158
 40
0.3066131124599642
 40
0.3144638642835909
 40
0.322236679138897
 40
0.3302427431139733
 40
0.3417510484732588
 40
0.3548057367522602
 40
0.3702244304134321
 40
0.3919372238850085
 40
0.4170729751827831
 40
0.4455200574246058
 40
0.4771572825652005
 40
0.5118705674077075
 40
0.5542580572003813
 40
0.600196800885927
 40
0.6495325073556774
 40
0.702125439201539
 40
0.7578591255374942
 40
0.81557354564396
 40
0.8761988291573125
 40
0.9397503990339068
 40
1.0
 40
1.0
 40
1.0
 40
1.0
 10
6296.987757741773
 20
4896.125178031545
 30
0.0
 10
6296.956333771623
 20
4896.477560251484
 30
0.0
 10
6296.810964626057
 20
4898.107701254627
 30
0.0
 10
6296.571545688436
 20
4901.026280857021
 30
0.0
 10
6296.285847080133
 20
4904.880715486726
 30
0.0
 10
6295.96429745115
 20
4908.726406152701
 30
0.0
 10
6295.543390544573
 20
4912.386129037342
 30
0.0
 10
6294.973350474334
 20
4915.826475211499
 30
0.0
 10
6294.226414630945
 20
4919.023439563674
 30
0.0
 10
6293.230159740509
 20
4922.082352566216
 30
0.0
 10
6291.9523136356
 20
4924.940185835433
 30
0.0
 10
6290.383610259582
 20
4927.532083588753
 30
0.0
 10
6288.564629964631
 20
4929.809525833235
 30
0.0
 10
6286.57837652768
 20
4931.789899798298
 30
0.0
 10
6284.48917903938
 20
4933.486105413802
 30
0.0
 10
6282.352702526452
 20
4934.913903272617
 30
0.0
 10
6280.226454905021
 20
4936.085401135889
 30
0.0
 10
6278.176667522742
 20
4937.010441185047
 30
0.0
 10
6276.435375556539
 20
4937.648212315205
 30
0.0
 10
6275.063564159367
 20
4938.066875588168
 30
0.0
 10
6274.011209599765
 20
4938.341779225487
 30
0.0
 10
6273.138973065666
 20
4938.537632166939
 30
0.0
 10
6272.371756691434
 20
4938.687367522621
 30
0.0
 10
6271.799666664563
 20
4938.783014732741
 30
0.0
 10
6271.533649591765
 20
4938.823380852341
 30
0.0
 10
6271.217450129867
 20
4938.869196808735
 30
0.0
 10
6270.913499375012
 20
4938.90905944014
 30
0.0
 10
6270.60314393818
 20
4938.946392356343
 30
0.0
 10
6270.309133759076
 20
4938.978321284437
 30
0.0
 10
6270.028981435107
 20
4939.005822741554
 30
0.0
 10
6269.752084241501
 20
4939.030229119262
 30
0.0
 10
6269.48281179233
 20
4939.051303231124
 30
0.0
 10
6269.224732478559
 20
4939.069065332667
 30
0.0
 10
6268.987026720229
 20
4939.083398918899
 30
0.0
 10
6268.769993361151
 20
4939.094823955561
 30
0.0
 10
6268.574798496812
 20
4939.103781985984
 30
0.0
 10
6268.400070586838
 20
4939.110770269979
 30
0.0
 10
6268.2441148295
 20
4939.116214317655
 30
0.0
 10
6268.106774899274
 20
4939.120436249572
 30
0.0
 10
6268.027200686133
 20
4939.122541763066
 30
0.0
 10
6267.988474763298
 20
4939.123566441161
 30
0.0
  0
SPLINE
  5
223
330
1F
100
AcDbEntity
  8
0
  6
Continuous
 62
     7
370
    25
100
AcDbSpline
210
0.0
220
0.0
230
1.0
 70
     8
 71
     3
 72
    13
 73
     9
 74
     0
 42
0.000000001
 43
0.00000001
 40
0.0
 40
0.0
 40
0.0
 40
0.0
 40
0.0233118643701872
 40
0.1465916037841384
 40
0.3051759410177785
 40
0.4996322322686086
 40
0.7310000918977544
 40
1.0
 40
1.0
 40
1.0
 40
1.0
 10
6239.422027676665
 20
4894.867599189203
 30
0.0
 10
6239.411296625646
 20
4894.865897348771
 30
0.0
 10
6239.343816738399
 20
4894.855195694259
 30
0.0
 10
6239.262456594568
 20
4894.646004909096
 30
0.0
 10
6239.115788242513
 20
4894.183493824006
 30
0.0
 10
6238.927477875634
 20
4893.328921881212
 30
0.0
 10
6238.66761892376
 20
4892.029751455379
 30
0.0
 10
6238.449960586129
 20
4890.824877393311
 30
0.0
 10
6238.332946508491
 20
4890.177131809216
 30
0.0
  0
LINE
  5
224
330
1F
100
AcDbEntity
  8
0
  6
Continuous
 62
     7
370
    25
100
AcDbLine
 10
6296.0645022833
 20
4894.5441815927
 30
0.0
 11
6296.4813361907
 21
4894.8837790563
 31
0.0
  0
LINE
  5
225
330
1F
100
AcDbEntity
  8
0
  6
Continuous
 62
     7
370
    25
100
AcDbLine
 10
6238.6525391632
 20
4894.8824137374
 30
0.0
 11
6239.2017996901
 21
4894.4324117079
 31
0.0
  0
SPLINE
  5
226
330
1F
100
AcDbEntity
  8
0
  6
Continuous
 62
     7
370
    25
100
AcDbSpline
210
0.0
220
0.0
230
1.0
 70
     8
 71
     3
 72
    11
 73
     7
 74
     0
 42
0.000000001
 43
0.00000001
 40
0.0
 40
0.0
 40
0.0
 40
0.0
 40
0.2762143154272477
 40
0.5393712327303921
 40
0.781863721635176
 40
1.0
 40
1.0
 40
1.0
 40
1.0
 10
6238.144290357196
 20
4896.131656311374
 30
0.0
 10
6238.142192851491
 20
4895.998260143881
 30
0.0
 10
6238.13809699485
 20
4895.737773806698
 30
0.0
 10
6238.255175709882
 20
4895.379456483516
 30
0.0
 10
6238.427616842978
 20
4895.082695809814
 30
0.0
 10
6238.577289917693
 20
4894.935508010113
 30
0.0
 10
6238.648169397676
 20
4894.865805461925
 30
0.0
  0
SPLINE
  5
227
330
1F
100
AcDbEntity
  8
0
  6
Continuous
 62
     7
370
    25
100
AcDbSpline
210
0.0
220
0.0
230
1.0
 70
     8
 71
     3
 72
    11
 73
     7
 74
     0
 42
0.000000001
 43
0.00000001
 40
0.0
 40
0.0
 40
0.0
 40
0.0
 40
0.218135536748033
 40
0.4606292517108141
 40
0.7237856436511728
 40
1.0
 40
1.0
 40
1.0
 40
1.0
 10
6296.485540180766
 20
4894.865805461925
 30
0.0
 10
6296.556418648047
 20
4894.935508234817
 30
0.0
 10
6296.706090250539
 20
4895.082697164221
 30
0.0
 10
6296.878536556701
 20
4895.379455143922
 30
0.0
 10
6296.995614224643
 20
4895.737773250148
 30
0.0
 10
6296.991518516001
 20
4895.998259247178
 30
0.0
 10
6296.989421083891
 20
4896.131655380052
 30
0.0
  0
LINE
  5
228
330
1F
100
AcDbEntity
  8
0
  6
Continuous
 62
     7
370
    25
100
AcDbLine
 10
6296.6594423198
 20
4905.1238137222
 30
0.0
 11
6310.2024427646
 21
4905.1238137222
 31
0.0
  0
LINE
  5
229
330
1F
100
AcDbEntity
  8
0
  6
Continuous
 62
     7
370
    25
100
AcDbLine
 10
6310.2024427646
 20
4917.9238138645
 30
0.0
 11
6296.6594423198
 21
4917.9238138645
 31
0.0
  0
LINE
  5
22A
330
1F
100
AcDbEntity
  8
0
  6
Continuous
 62
     7
370
    25
100
AcDbLine
 10
6311.7699480646
 20
4915.0123062468
 30
0.0
 11
6311.5640736216
 21
4915.7052400447
 31
0.0
  0
LINE
  5
22B
330
1F
100
AcDbEntity
  8
0
  6
Continuous
 62
     7
370
    25
100
AcDbLine
 10
6312.2318542593
 20
4911.5240805009
 30
0.0
 11
6312.1463290447
 21
4913.0313763785
 31
0.0
  0
SPLINE
  5
22C
330
1F
100
AcDbEntity
  8
0
  6
Continuous
 62
     7
370
    25
100
AcDbSpline
210
0.0
220
0.0
230
1.0
 70
     8
 71
     3
 72
     9
 73
     5
 74
     0
 42
0.000000001
 43
0.00000001
 40
0.0
 40
0.0
 40
0.0
 40
0.0
 40
0.5705059098376625
 40
1.0
 40
1.0
 40
1.0
 40
1.0
 10
6312.142223774755
 20
4910.014589728709
 30
0.0
 10
6312.172034709502
 20
4910.30094568293
 30
0.0
 10
6312.224288216839
 20
4910.802879053438
 30
0.0
 10
6312.229581028156
 20
4911.307394218898
 30
0.0
 10
6312.231854259336
 20
4911.52408050086
 30
0.0
  0
SPLINE
  5
22D
330
1F
100
AcDbEntity
  8
0
  6
Continuous
 62
     7
370
    25
100
AcDbSpline
210
0.0
220
0.0
230
1.0
 70
     8
 71
     3
 72
     9
 73
     5
 74
     0
 42
0.000000001
 43
0.00000001
 40
0.0
 40
0.0
 40
0.0
 40
0.0
 40
0.4579586257427238
 40
0.9999999999999999
 40
0.9999999999999999
 40
0.9999999999999999
 40
0.9999999999999999
 10
6311.561152994002
 20
4907.344123294499
 30
0.0
 10
6311.600227174997
 20
4907.447095041015
 30
0.0
 10
6311.685549688425
 20
4907.671944494062
 30
0.0
 10
6311.736169557282
 20
4907.90712864127
 30
0.0
 10
6311.763607620561
 20
4908.034608179625
 30
0.0
  0
ARC
  5
22E
330
1F
100
AcDbEntity
  8
0
  6
Continuous
 62
     7
370
    25
100
AcDbCircle
 10
6311.0024415408
 20
4907.523813866
 30
0.0
 40
0.6000000000003638
100
AcDbArc
 50
270.0
 51
342.7908549305
  0
ARC
  5
22F
330
1F
100
AcDbEntity
  8
0
  6
Continuous
 62
     7
370
    25
100
AcDbCircle
 10
6311.0024415408
 20
4915.523813866
 30
0.0
 40
0.5999999999997517
100
AcDbArc
 50
17.9129348077
 51
90.0
  0
ARC
  5
230
330
1F
100
AcDbEntity
  8
0
  6
Continuous
 62
     7
370
    25
100
AcDbCircle
 10
6310.2024415408
 20
4917.123813866
 30
0.0
 40
0.8000000000001819
100
AcDbArc
 50
0.0
 51
89.9999999999
  0
ARC
  5
231
330
1F
100
AcDbEntity
  8
0
  6
Continuous
 62
     7
370
    25
100
AcDbCircle
 10
6310.2024415408
 20
4905.923813866
 30
0.0
 40
0.8000000000001819
100
AcDbArc
 50
270.0
 51
359.9999999999
  0
LINE
  5
232
330
1F
100
AcDbEntity
  8
0
  6
Continuous
 62
     7
370
    25
100
AcDbLine
 10
6311.7763481134
 20
4908.0274016055
 30
0.0
 11
6311.8815167838
 21
4908.0274016055
 31
0.0
  0
LINE
  5
233
330
1F
100
AcDbEntity
  8
0
  6
Continuous
 62
     7
370
    25
100
AcDbLine
 10
6312.249314695
 20
4910.0274015987
 30
0.0
 11
6312.1469921463
 21
4910.0274015987
 31
0.0
  0
SPLINE
  5
234
330
1F
100
AcDbEntity
  8
0
  6
Continuous
 62
     7
370
    25
100
AcDbSpline
210
0.0
220
0.0
230
1.0
 70
     8
 71
     3
 72
     9
 73
     5
 74
     0
 42
0.000000001
 43
0.00000001
 40
0.0
 40
0.0
 40
0.0
 40
0.0
 40
0.3951505592507639
 40
1.0
 40
1.0
 40
1.0
 40
1.0
 10
6311.874695777261
 20
4908.04449801046
 30
0.0
 10
6311.943515088218
 20
4908.309659853604
 30
0.0
 10
6312.117674808725
 20
4908.980699883627
 30
0.0
 10
6312.20476149458
 20
4909.676058969363
 30
0.0
 10
6312.257435827815
 20
4910.096646523491
 30
0.0
  0
SPLINE
  5
235
330
1F
100
AcDbEntity
  8
0
  6
Continuous
 62
     7
370
    25
100
AcDbSpline
210
0.0
220
0.0
230
1.0
 70
     8
 71
     3
 72
     9
 73
     5
 74
     0
 42
0.000000001
 43
0.00000001
 40
0.0
 40
0.0
 40
0.0
 40
0.0
 40
0.4635122137442176
 40
1.0
 40
1.0
 40
1.0
 40
1.0
 10
6312.257219760978
 20
4912.953060764742
 30
0.0
 10
6312.21815308737
 20
4913.276597505872
 30
0.0
 10
6312.133869065392
 20
4913.974608758944
 30
0.0
 10
6311.960973732064
 20
4914.653423868786
 30
0.0
 10
6311.868217497432
 20
4915.017599884343
 30
0.0
  0
LINE
  5
236
330
1F
100
AcDbEntity
  8
0
  6
Continuous
 62
     7
370
    25
100
AcDbLine
 10
6312.1478936666
 20
4913.02740941
 30
0.0
 11
6312.2468187505
 21
4913.02740941
 31
0.0
  0
LINE
  5
237
330
1F
100
AcDbEntity
  8
0
  6
Continuous
 62
     7
370
    25
100
AcDbLine
 10
6311.8778809005
 20
4915.027409505
 30
0.0
 11
6311.7761953765
 21
4915.027409505
 31
0.0
  0
ARC
  5
238
330
1F
100
AcDbEntity
  8
0
  6
Continuous
 62
     7
370
    25
100
AcDbCircle
 10
6295.6594415408
 20
4917.136563866
 30
0.0
 40
1.272700000000222
100
AcDbArc
 50
38.2115519151
 51
154.7419978996
  0
LWPOLYLINE
  5
239
330
1F
100
AcDbEntity
  8
0
  6
Continuous
 62
     7
370
    25
100
AcDbPolyline
 90
        3
 70
   128
 43
0.0
 10
6296.2870772028
 20
4904.803887654
 10
6296.5593754345
 20
4905.0111292786
 10
6296.6594423198
 20
4905.1238137222
  0
SPLINE
  5
23A
330
1F
100
AcDbEntity
  8
0
  6
Continuous
 62
     7
370
    25
100
AcDbSpline
210
0.0
220
0.0
230
1.0
 70
     8
 71
     3
 72
     9
 73
     5
 74
     0
 42
0.000000001
 43
0.00000001
 40
0.0
 40
0.0
 40
0.0
 40
0.0
 40
0.3085841789922158
 40
1.0
 40
1.0
 40
1.0
 40
1.0
 10
6265.575233570599
 20
4939.227626837713
 30
0.0
 10
6265.613174995036
 20
4939.209808886581
 30
0.0
 10
6265.736128234442
 20
4939.152067912336
 30
0.0
 10
6265.859131521293
 20
4939.094029988614
 30
0.0
 10
6265.944177939856
 20
4939.053901649934
 30
0.0
  0
LINE
  5
23B
330
1F
100
AcDbEntity
  8
0
  6
Continuous
 62
     7
370
    25
100
AcDbLine
 10
6269.4205787995
 20
4939.1237042769
 30
0.0
 11
6269.1205783778
 21
4939.4237056299
 31
0.0
  0
LINE
  5
23C
330
1F
100
AcDbEntity
  8
0
  6
Continuous
 62
     7
370
    25
100
AcDbLine
 10
6265.7205785656
 20
4939.4237056299
 30
0.0
 11
6265.5500459516
 21
4939.2531730159
 31
0.0
  0
LINE
  5
23D
330
1F
100
AcDbEntity
  8
0
  6
Continuous
 62
     7
370
    25
100
AcDbLine
 10
6235.7680021816
 20
4849.0918345674
 30
0.0
 11
6235.7756651038
 21
4847.2665764316
 31
0.0
  0
SPLINE
  5
23E
330
1F
100
AcDbEntity
  8
0
  6
Continuous
 62
     7
370
    25
100
AcDbSpline
210
0.0
220
0.0
230
1.0
 70
     8
 71
     3
 72
    41
 73
    37
 74
     0
 42
0.000000001
 43
0.00000001
 40
0.0
 40
0.0
 40
0.0
 40
0.0
 40
0.0641024756999631
 40
0.1226293372326663
 40
0.1755718135344923
 40
0.2229273566919664
 40
0.2646960937879352
 40
0.3008789036680375
 40
0.3314762034311675
 40
0.3564871721586876
 40
0.3756694581178352
 40
0.3894213837819424
 40
0.3970306398376976
 40
0.3990462880407913
 40
0.3994396730434829
 40
0.3997771571898789
 40
0.4030182361877928
 40
0.5002643544327571
 40
0.5630871897847984
 40
0.6259335966700398
 40
0.6888054887604776
 40
0.750933136106367
 40
0.7922639903347295
 40
0.8336283794837258
 40
0.8772690203584063
 40
0.8900494147660792
 40
0.9023100379970402
 40
0.9140424669314204
 40
0.9252512654546471
 40
0.9285552615876006
 40
0.9378351063247701
 40
0.9528316558932327
 40
0.9624716062717283
 40
0.9735488123640905
 40
0.9860651135250572
 40
0.9999999999999999
 40
0.9999999999999999
 40
0.9999999999999999
 40
0.9999999999999999
 10
6235.768002181613
 20
4849.091834567409
 30
0.0
 10
6235.783874065072
 20
4851.228132429152
 30
0.0
 10
6235.814237300314
 20
4855.314913603459
 30
0.0
 10
6236.039651967595
 20
4861.162279220252
 30
0.0
 10
6236.357722257053
 20
4866.445816441958
 30
0.0
 10
6236.746936710242
 20
4871.164508711528
 30
0.0
 10
6237.172802920304
 20
4875.31888806433
 30
0.0
 10
6237.60639133332
 20
4878.910506356428
 30
0.0
 10
6238.020871850284
 20
4881.941535744833
 30
0.0
 10
6238.391563589331
 20
4884.406512529757
 30
0.0
 10
6238.699933016682
 20
4886.313018317899
 30
0.0
 10
6238.927149129397
 20
4887.645101869885
 30
0.0
 10
6239.062556167588
 20
4888.4124016502
 30
0.0
 10
6239.121438983683
 20
4888.741093464601
 30
0.0
 10
6239.137643344823
 20
4888.831186835053
 30
0.0
 10
6239.161098968108
 20
4888.961486255796
 30
0.0
 10
6239.759890084962
 20
4892.268221051751
 30
0.0
 10
6240.878204907953
 20
4897.599816287352
 30
0.0
 10
6242.775536228211
 20
4904.788155742282
 30
0.0
 10
6244.662405505553
 20
4910.789071533656
 30
0.0
 10
6246.87516453963
 20
4916.655978586734
 30
0.0
 10
6249.195068655054
 20
4921.707291982795
 30
0.0
 10
6251.55204385635
 20
4925.937262321338
 30
0.0
 10
6253.899979718173
 20
4929.455285493054
 30
0.0
 10
6256.008804625584
 20
4931.976013272263
 30
0.0
 10
6257.660114590097
 20
4933.583153235108
 30
0.0
 10
6258.58763055232
 20
4934.398302669882
 30
0.0
 10
6259.518121369598
 20
4935.128776350792
 30
0.0
 10
6260.243367355129
 20
4935.632181592532
 30
0.0
 10
6260.918997637245
 20
4936.061003875336
 30
0.0
 10
6261.720475205228
 20
4936.529682382366
 30
0.0
 10
6262.749842627827
 20
4937.029934504472
 30
0.0
 10
6263.876340013684
 20
4937.458386564506
 30
0.0
 10
6264.955376538884
 20
4937.767294483017
 30
0.0
 10
6266.204346865223
 20
4938.005002154929
 30
0.0
 10
6267.098717985289
 20
4938.035945849777
 30
0.0
 10
6267.569886244201
 20
4938.052247457129
 30
0.0
  0
SPLINE
  5
23F
330
1F
100
AcDbEntity
  8
0
  6
Continuous
 62
     7
370
    25
100
AcDbSpline
210
0.0
220
0.0
230
1.0
 70
     8
 71
     3
 72
    52
 73
    48
 74
     0
 42
0.000000001
 43
0.00000001
 40
0.0
 40
0.0
 40
0.0
 40
0.0
 40
0.0150645768474466
 40
0.0297252202460288
 40
0.0577336887575486
 40
0.0841069562721178
 40
0.1088186795742651
 40
0.1391986084299247
 40
0.1666721728893932
 40
0.191258316400591
 40
0.222733132731281
 40
0.2477554954946272
 40
0.2670137381404507
 40
0.2792302708534811
 40
0.2844087707356796
 40
0.2877266549079352
 40
0.296010124586213
 40
0.3092595323609917
 40
0.3274728275528081
 40
0.3401074888213618
 40
0.3543615148351036
 40
0.3702352353696615
 40
0.387729145133775
 40
0.4068433173333943
 40
0.4275774887007192
 40
0.4386827307530768
 40
0.499372209546171
 40
0.5190302252724655
 40
0.5386873326838746
 40
0.5583442903351018
 40
0.5739956724176627
 40
0.5838268261600834
 40
0.5957768072625735
 40
0.60984571077754
 40
0.6260336026040539
 40
0.6557523446042625
 40
0.6907012268939487
 40
0.7308799927308427
 40
0.7762907267698648
 40
0.7910868508621828
 40
0.8026075191372307
 40
0.8141284196047411
 40
0.82564951226005
 40
0.8371708365155015
 40
0.8486923549560906
 40
0.9030094498773864
 40
1.0
 40
1.0
 40
1.0
 40
1.0
 10
6267.569886244201
 20
4938.052247457129
 30
0.0
 10
6268.078682435741
 20
4938.030262660477
 30
0.0
 10
6269.082632231808
 20
4937.986882555668
 30
0.0
 10
6270.994073485914
 20
4937.575267753115
 30
0.0
 10
6273.168199153685
 20
4936.70287818244
 30
0.0
 10
6275.423907400655
 20
4935.276375497854
 30
0.0
 10
6277.525886276845
 20
4933.520610448366
 30
0.0
 10
6279.439590724167
 20
4931.5154829852
 30
0.0
 10
6281.153347711249
 20
4929.351083249952
 30
0.0
 10
6282.739022184338
 20
4927.051058349627
 30
0.0
 10
6284.141478323749
 20
4924.732204423151
 30
0.0
 10
6285.340070725839
 20
4922.504982905532
 30
0.0
 10
6286.17852389052
 20
4920.816350345988
 30
0.0
 10
6286.698395670717
 20
4919.709628566433
 30
0.0
 10
6286.985057279592
 20
4919.081049065855
 30
0.0
 10
6287.214516031192
 20
4918.570601574814
 30
0.0
 10
6287.548788605419
 20
4917.812233996096
 30
0.0
 10
6288.067618864023
 20
4916.592612362437
 30
0.0
 10
6288.619178179451
 20
4915.229737608975
 30
0.0
 10
6289.161242196016
 20
4913.827405783537
 30
0.0
 10
6289.657483679391
 20
4912.491291643913
 30
0.0
 10
6290.188897907879
 20
4910.995839419716
 30
0.0
 10
6290.749810273203
 20
4909.339409721964
 30
0.0
 10
6291.33463875695
 20
4907.520547696055
 30
0.0
 10
6291.82879792632
 20
4905.89651412485
 30
0.0
 10
6292.690749942441
 20
4902.937234703056
 30
0.0
 10
6293.466762232088
 20
4899.990756992564
 30
0.0
 10
6294.233948517022
 20
4896.750279329869
 30
0.0
 10
6294.663257868524
 20
4894.834177999987
 30
0.0
 10
6295.042553411402
 20
4893.043873226671
 30
0.0
 10
6295.339100368244
 20
4891.570626117895
 30
0.0
 10
6295.576342603105
 20
4890.347267896916
 30
0.0
 10
6295.79656210184
 20
4889.174322308219
 30
0.0
 10
6296.04617905282
 20
4887.791670561539
 30
0.0
 10
6296.385313690037
 20
4885.824257061951
 30
0.0
 10
6296.811518196132
 20
4883.166812969649
 30
0.0
 10
6297.310845937895
 20
4879.712918791539
 30
0.0
 10
6297.815515669779
 20
4875.73286408627
 30
0.0
 10
6298.171244020096
 20
4872.410752638277
 30
0.0
 10
6298.393777909111
 20
4870.034100713217
 30
0.0
 10
6298.503933360195
 20
4868.779719864859
 30
0.0
 10
6298.59880726623
 20
4867.63343028533
 30
0.0
 10
6298.687956929979
 20
4866.486662682564
 30
0.0
 10
6298.77148468311
 20
4865.339457037003
 30
0.0
 10
6298.945380351048
 20
4862.770932309872
 30
0.0
 10
6299.246104154785
 20
4857.359696051565
 30
0.0
 10
6299.319070688634
 20
4852.32412699731
 30
0.0
 10
6299.365843369925
 20
4849.096249036413
 30
0.0
  0
LINE
  5
240
330
1F
100
AcDbEntity
  8
0
  6
Continuous
 62
     7
370
    25
100
AcDbLine
 10
6299.3650759601
 20
4847.2703017219
 30
0.0
 11
6299.3658433699
 21
4849.0962490364
 31
0.0
  0
SPLINE
  5
241
330
1F
100
AcDbEntity
  8
0
  6
Continuous
 62
     7
370
    25
100
AcDbSpline
210
0.0
220
0.0
230
1.0
 70
     8
 71
     3
 72
    65
 73
    61
 74
     0
 42
0.000000001
 43
0.00000001
 40
0.0
 40
0.0
 40
0.0
 40
0.0
 40
0.0317657638889278
 40
0.0631234283945719
 40
0.0940948507797868
 40
0.1247015299107297
 40
0.1573580835118527
 40
0.1890103571126997
 40
0.2196900123048813
 40
0.2494320215023571
 40
0.2674777132098318
 40
0.2850694886622228
 40
0.3022184315334591
 40
0.3199155160570191
 40
0.3295786777783276
 40
0.3389951033710893
 40
0.3481684924248113
 40
0.3571027770431962
 40
0.365802287934885
 40
0.3742716118857994
 40
0.3859760044767339
 40
0.3971433208308531
 40
0.4077916021569962
 40
0.4179414080300712
 40
0.4276165347369069
 40
0.4368443709395325
 40
0.4453142120131822
 40
0.4533435420262198
 40
0.4609717025531164
 40
0.4682450239425105
 40
0.4766043484398866
 40
0.4845604941101896
 40
0.4922390423015042
 40
0.4997792376660029
 40
0.5073237039892203
 40
0.5150079665702297
 40
0.5202797508731314
 40
0.5257137124601846
 40
0.5313446551000708
 40
0.5386128325469421
 40
0.5462489939846858
 40
0.5542996569269352
 40
0.5628040465134645
 40
0.5779878488596455
 40
0.5941450744445468
 40
0.6091867965235558
 40
0.6254842177825232
 40
0.6460703420064164
 40
0.6668304027986326
 40
0.6880024975971718
 40
0.708145498431645
 40
0.7289573539488782
 40
0.750457635376583
 40
0.7845328030881918
 40
0.8198500432560124
 40
0.8564622371042228
 40
0.8927240761463816
 40
0.9279816048625393
 40
0.9637291863777461
 40
1.0
 40
1.0
 40
1.0
 40
1.0
 10
6235.775665103757
 20
4847.266576431613
 30
0.0
 10
6235.809171119547
 20
4845.191265400934
 30
0.0
 10
6235.875752694474
 20
4841.067305161863
 30
0.0
 10
6236.17102493318
 20
4834.925174479187
 30
0.0
 10
6236.609235313354
 20
4828.867564484296
 30
0.0
 10
6237.220122527859
 20
4822.738881181448
 30
0.0
 10
6238.006767994272
 20
4816.584356941725
 30
0.0
 10
6238.982790252035
 20
4810.451091019482
 30
0.0
 10
6240.123470328576
 20
4804.539250304659
 30
0.0
 10
6241.26978769259
 20
4799.536447563902
 30
0.0
 10
6242.352380077183
 20
4795.398970087336
 30
0.0
 10
6243.311429193806
 20
4792.081061973266
 30
0.0
 10
6244.351905705428
 20
4788.810908815114
 30
0.0
 10
6245.314562427578
 20
4786.060739294207
 30
0.0
 10
6246.167888351426
 20
4783.809153265905
 30
0.0
 10
6246.85693539362
 20
4782.092088702477
 30
0.0
 10
6247.562247924237
 20
4780.432998754888
 30
0.0
 10
6248.283862333841
 20
4778.831880760025
 30
0.0
 10
6249.02171022308
 20
4777.288686549922
 30
0.0
 10
6249.878724840823
 20
4775.601338718358
 30
0.0
 10
6250.863605513375
 20
4773.797393714267
 30
0.0
 10
6251.990455422759
 20
4771.908722234316
 30
0.0
 10
6253.140578852252
 20
4770.1534362429
 30
0.0
 10
6254.313984949457
 20
4768.531494064297
 30
0.0
 10
6255.510803215512
 20
4767.042926059514
 30
0.0
 10
6256.715996216393
 20
4765.704435320308
 30
0.0
 10
6257.923671595781
 20
4764.515979898819
 30
0.0
 10
6259.128998629131
 20
4763.478002504542
 30
0.0
 10
6260.34552472553
 20
4762.577574747304
 30
0.0
 10
6261.651217588278
 20
4761.766778347748
 30
0.0
 10
6263.051943513323
 20
4761.075628529081
 30
0.0
 10
6264.55259138695
 20
4760.546357113337
 30
0.0
 10
6266.058072650117
 20
4760.227096117245
 30
0.0
 10
6267.566978640728
 20
4760.119043420835
 30
0.0
 10
6269.076612253585
 20
4760.222199830278
 30
0.0
 10
6270.409673217976
 20
4760.500180077838
 30
0.0
 10
6271.568611588457
 20
4760.875388541192
 30
0.0
 10
6272.566863786321
 20
4761.291462820492
 30
0.0
 10
6273.647129093557
 20
4761.842108722491
 30
0.0
 10
6274.803030245306
 20
4762.554017343756
 30
0.0
 10
6276.024290127056
 20
4763.451600000305
 30
0.0
 10
6277.237051776308
 20
4764.488439295451
 30
0.0
 10
6278.732629313173
 20
4765.949859809703
 30
0.0
 10
6280.460727740007
 20
4767.925169988249
 30
0.0
 10
6282.26682413232
 20
4770.383080165379
 30
0.0
 10
6283.932242475582
 20
4773.020544412361
 30
0.0
 10
6285.590229498034
 20
4775.996894877971
 30
0.0
 10
6287.253661694311
 20
4779.390909262494
 30
0.0
 10
6288.860251976273
 20
4783.159212647612
 30
0.0
 10
6290.285136176406
 20
4786.966507689656
 30
0.0
 10
6291.570678304089
 20
4790.82444889992
 30
0.0
 10
6292.734675620282
 20
4794.741743380839
 30
0.0
 10
6294.009279694847
 20
4799.573038785888
 30
0.0
 10
6295.317116423683
 20
4805.371949180706
 30
0.0
 10
6296.570218782393
 20
4812.18840431792
 30
0.0
 10
6297.587108254728
 20
4819.186974758267
 30
0.0
 10
6298.367472139488
 20
4826.210218058168
 30
0.0
 10
6298.917549054366
 20
4833.197058147952
 30
0.0
 10
6299.270211392902
 20
4840.197309605705
 30
0.0
 10
6299.333301648755
 20
4844.901245915366
 30
0.0
 10
6299.365075960123
 20
4847.270301721912
 30
0.0
  0
SPLINE
  5
242
330
1F
100
AcDbEntity
  8
0
  6
Continuous
 62
     7
370
    25
100
AcDbSpline
210
0.0
220
0.0
230
1.0
 70
     8
 71
     3
 72
    11
 73
     7
 74
     0
 42
0.000000001
 43
0.00000001
 40
0.0
 40
0.0
 40
0.0
 40
0.0
 40
0.2437543969007208
 40
0.4999959978313926
 40
0.7562454722533432
 40
1.0
 40
1.0
 40
1.0
 40
1.0
 10
6299.365075960123
 20
4847.270301721912
 30
0.0
 10
6299.506094446977
 20
4847.259168936166
 30
0.0
 10
6299.795355604696
 20
4847.2363330473
 30
0.0
 10
6300.130635513706
 20
4847.17588866155
 30
0.0
 10
6300.355235094286
 20
4847.102814619052
 30
0.0
 10
6300.382663607515
 20
4847.050125990659
 30
0.0
 10
6300.396035149062
 20
4847.024440012794
 30
0.0
  0
SPLINE
  5
243
330
1F
100
AcDbEntity
  8
0
  6
Continuous
 62
     7
370
    25
100
AcDbSpline
210
0.0
220
0.0
230
1.0
 70
     8
 71
     3
 72
    43
 73
    39
 74
     0
 42
0.000000001
 43
0.00000001
 40
0.0
 40
0.0
 40
0.0
 40
0.0
 40
0.0491513827444261
 40
0.0983137346975391
 40
0.1474981945489043
 40
0.1967192811417034
 40
0.2460036360947636
 40
0.2768539216767375
 40
0.3077580033255644
 40
0.3387608100200106
 40
0.3698620632847813
 40
0.3907425370743616
 40
0.4117602661728121
 40
0.4329940901596128
 40
0.4491801077303673
 40
0.4656885154329199
 40
0.4741079403752967
 40
0.4826467666514829
 40
0.4912925847785757
 40
0.4999984864190115
 40
0.5087033912855468
 40
0.5173487116906326
 40
0.5258887388889264
 40
0.5343088617361114
 40
0.5508159002962034
 40
0.5669995805577346
 40
0.5882440267915712
 40
0.6092584331165936
 40
0.6301242976516032
 40
0.6612447399795561
 40
0.6922380197879884
 40
0.7231434689852143
 40
0.753995165920438
 40
0.8032798471177852
 40
0.8525013112888735
 40
0.9016851583069168
 40
0.9508482445241435
 40
1.0
 40
1.0
 40
1.0
 40
1.0
 10
6300.396035149061
 20
4847.024440012794
 30
0.0
 10
6300.334439566249
 20
4843.753048343094
 30
0.0
 10
6300.211234654217
 20
4837.209534920914
 30
0.0
 10
6299.528847068992
 20
4827.409747808069
 30
0.0
 10
6298.45398729271
 20
4817.639566584477
 30
0.0
 10
6296.921344483353
 20
4807.917549412017
 30
0.0
 10
6295.12871211844
 20
4799.480362298843
 30
0.0
 10
6293.218925004047
 20
4792.32495411563
 30
0.0
 10
6291.343045109667
 20
4786.425576092782
 30
0.0
 10
6289.149081462013
 20
4780.613281926485
 30
0.0
 10
6286.812469011128
 20
4775.578234380643
 30
0.0
 10
6284.443723030325
 20
4771.305349082571
 30
0.0
 10
6282.105513988455
 20
4767.776967097902
 30
0.0
 10
6279.597790561725
 20
4764.75264620201
 30
0.0
 10
6276.964499028009
 20
4762.254252332907
 30
0.0
 10
6274.688006433101
 20
4760.654973817708
 30
0.0
 10
6272.667980618035
 20
4759.644329199069
 30
0.0
 10
6271.042174339244
 20
4759.049882366558
 30
0.0
 10
6269.330658119381
 20
4758.672691871303
 30
0.0
 10
6267.57044847885
 20
4758.539335249648
 30
0.0
 10
6265.810242391889
 20
4758.671565760272
 30
0.0
 10
6264.098746837669
 20
4759.047928100095
 30
0.0
 10
6262.472901798193
 20
4759.641630206804
 30
0.0
 10
6260.452977145185
 20
4760.651419395145
 30
0.0
 10
6258.17703914137
 20
4762.249056654366
 30
0.0
 10
6255.538985517715
 20
4764.741545163972
 30
0.0
 10
6253.03996448088
 20
4767.771618543296
 30
0.0
 10
6250.700698184205
 20
4771.295980722511
 30
0.0
 10
6248.322295792852
 20
4775.562156357941
 30
0.0
 10
6245.995696196115
 20
4780.599910187407
 30
0.0
 10
6243.797529508719
 20
4786.410136845491
 30
0.0
 10
6241.919768638573
 20
4792.308165392753
 30
0.0
 10
6240.008184954762
 20
4799.463619438593
 30
0.0
 10
6238.216777017631
 20
4807.902734991629
 30
0.0
 10
6236.681563752878
 20
4817.626966488119
 30
0.0
 10
6235.605366762341
 20
4827.400651428162
 30
0.0
 10
6234.922638385867
 20
4837.204781281208
 30
0.0
 10
6234.79930571708
 20
4843.751591150522
 30
0.0
 10
6234.737646489703
 20
4847.024618826728
 30
0.0
  0
ARC
  5
244
330
1F
100
AcDbEntity
  8
0
  6
Continuous
 62
     7
370
    25
100
AcDbCircle
 10
6235.5950294358
 20
4845.693946064
 30
0.0
 40
1.582970472733826
100
AcDbArc
 50
83.447600191
 51
122.7946109156
  0
ARC
  5
245
330
1F
100
AcDbEntity
  8
0
  6
Continuous
 62
     7
370
    25
100
AcDbCircle
 10
6299.5570503391
 20
4847.5571286979
 30
0.0
 40
1.550951811503097
100
AcDbArc
 50
57.00312564
 51
97.0816483622
  0
LINE
  5
246
330
1F
100
AcDbEntity
  8
0
  6
Continuous
 62
     7
370
    25
100
AcDbLine
 10
6300.4016882771
 20
4848.8579124137
 30
0.0
 11
6300.3960351491
 21
4847.0244400128
 31
0.0
  0
LINE
  5
247
330
1F
100
AcDbEntity
  8
0
  6
Continuous
 62
     7
370
    25
100
AcDbLine
 10
6234.7376725667
 20
4847.0246188267
 30
0.0
 11
6234.7320213014
 21
4848.8579273149
 31
0.0
  0
ARC
  5
248
330
1F
100
AcDbEntity
  8
0
  6
Continuous
 62
     7
370
    25
100
AcDbCircle
 10
6235.5760484652
 20
4847.5308564042
 30
0.0
 40
1.572736168345614
100
AcDbArc
 50
82.9895247826
 51
122.4566697428
  0
ARC
  5
249
330
1F
100
AcDbEntity
  8
0
  6
Continuous
 62
     7
370
    25
100
AcDbCircle
 10
6154.5846857419
 20
4938.274014975
 30
0.0
 40
112.9854181448705
100
AcDbArc
 50
359.887539904
 51
0.4345190781
  0
LINE
  5
24A
330
1F
100
AcDbEntity
  8
0
  6
Continuous
 62
     7
370
    25
100
AcDbLine
 10
6267.9867527479
 20
4939.1000766232
 30
0.0
 11
6268.4403738969
 21
4939.0668172314
 31
0.0
  0
SPLINE
  5
24B
330
1F
100
AcDbEntity
  8
0
  6
Continuous
 62
     7
370
    25
100
AcDbSpline
210
0.0
220
0.0
230
1.0
 70
     8
 71
     3
 72
     9
 73
     5
 74
     0
 42
0.000000001
 43
0.00000001
 40
0.0
 40
0.0
 40
0.0
 40
0.0
 40
0.5137172537124517
 40
1.0
 40
1.0
 40
1.0
 40
1.0
 10
6297.074009388053
 20
4888.407509021383
 30
0.0
 10
6297.599748106186
 20
4885.215639561072
 30
0.0
 10
6298.623149041881
 20
4879.002358933948
 30
0.0
 10
6299.209536268998
 20
4872.734947692009
 30
0.0
 10
6299.494686260187
 20
4869.687213741165
 30
0.0
  0
LINE
  5
24C
330
1F
100
AcDbEntity
  8
0
  6
Continuous
 62
     7
370
    25
100
AcDbLine
 10
6300.3573461467
 20
4850.9974509402
 30
0.0
 11
6300.4016882771
 21
4848.8579124137
 31
0.0
  0
SPLINE
  5
24D
330
1F
100
AcDbEntity
  8
0
  6
Continuous
 62
     7
370
    25
100
AcDbSpline
210
0.0
220
0.0
230
1.0
 70
     8
 71
     3
 72
     9
 73
     5
 74
     0
 42
0.000000001
 43
0.00000001
 40
0.0
 40
0.0
 40
0.0
 40
0.0
 40
0.4787739374511813
 40
1.0
 40
1.0
 40
1.0
 40
1.0
 10
6235.689402281606
 20
4870.170950137001
 30
0.0
 10
6235.960467688909
 20
4873.061533962245
 30
0.0
 10
6236.526633442931
 20
4879.099005092427
 30
0.0
 10
6237.514113478001
 20
4885.083242736896
 30
0.0
 10
6238.028813808524
 20
4888.202383361679
 30
0.0
  0
SPLINE
  5
24E
330
1F
100
AcDbEntity
  8
0
  6
Continuous
 62
     7
370
    25
100
AcDbSpline
210
0.0
220
0.0
230
1.0
 70
     8
 71
     3
 72
    10
 73
     6
 74
     0
 42
0.000000001
 43
0.00000001
 40
0.0
 40
0.0
 40
0.0
 40
0.0
 40
0.3494842129605284
 40
0.6997270716844439
 40
1.0
 40
1.0
 40
1.0
 40
1.0
 10
6238.342539131009
 20
4890.338585890751
 30
0.0
 10
6238.220541702147
 20
4889.614460804049
 30
0.0
 10
6237.976282017488
 20
4888.164638730087
 30
0.0
 10
6237.602005225614
 20
4885.821380146205
 30
0.0
 10
6237.362978630315
 20
4884.180346415981
 30
0.0
 10
6237.252645849549
 20
4883.422858260494
 30
0.0
  0
SPLINE
  5
24F
330
1F
100
AcDbEntity
  8
0
  6
Continuous
 62
     7
370
    25
100
AcDbSpline
210
0.0
220
0.0
230
1.0
 70
     8
 71
     3
 72
    13
 73
     9
 74
     0
 42
0.000000001
 43
0.00000001
 40
0.0
 40
0.0
 40
0.0
 40
0.0
 40
0.124894279491516
 40
0.249668628778755
 40
0.374531538494236
 40
0.4994485088879227
 40
0.7491914111960251
 40
1.0
 40
1.0
 40
1.0
 40
1.0
 10
6239.300784378612
 20
4896.212785683494
 30
0.0
 10
6239.305350563908
 20
4896.19271550444
 30
0.0
 10
6239.314478549803
 20
4896.152594418799
 30
0.0
 10
6239.274146516349
 20
4895.823333257509
 30
0.0
 10
6239.197947047926
 20
4895.317093338344
 30
0.0
 10
6239.046274824778
 20
4894.394954116278
 30
0.0
 10
6238.775929384439
 20
4892.851658067554
 30
0.0
 10
6238.487207447533
 20
4891.177464749338
 30
0.0
 10
6238.342539131009
 20
4890.338585890751
 30
0.0
  0
LINE
  5
250
330
1F
100
AcDbEntity
  8
0
  6
Continuous
 62
     7
370
    25
100
AcDbLine
 10
6238.4087114626
 20
4896.140054047
 30
0.0
 11
6239.3007843786
 21
4896.2127856835
 31
0.0
  0
SPLINE
  5
251
330
1F
100
AcDbEntity
  8
0
  6
Continuous
 62
     7
370
    25
100
AcDbSpline
210
0.0
220
0.0
230
1.0
 70
     8
 71
     3
 72
     9
 73
     5
 74
     0
 42
0.000000001
 43
0.00000001
 40
0.0
 40
0.0
 40
0.0
 40
0.0
 40
0.8588197524786565
 40
1.0
 40
1.0
 40
1.0
 40
1.0
 10
6267.44311647799
 20
4939.121791340333
 30
0.0
 10
6267.191263485566
 20
4939.120386245641
 30
0.0
 10
6266.898008711561
 20
4939.118750169286
 30
0.0
 10
6266.651913158497
 20
4939.106522825425
 30
0.0
 10
6266.617169327402
 20
4939.104796565992
 30
0.0
  0
SPLINE
  5
252
330
1F
100
AcDbEntity
  8
0
  6
Continuous
 62
     7
370
    25
100
AcDbSpline
210
0.0
220
0.0
230
1.0
 70
     8
 71
     3
 72
    11
 73
     7
 74
     0
 42
0.000000001
 43
0.00000001
 40
0.0
 40
0.0
 40
0.0
 40
0.0
 40
0.0605827564242008
 40
0.4189827502472083
 40
0.7658041818908461
 40
1.0
 40
1.0
 40
1.0
 40
1.0
 10
6266.101728848481
 20
4939.080448068601
 30
0.0
 10
6266.058330459917
 20
4939.078460439698
 30
0.0
 10
6265.758192643966
 20
4939.064714247317
 30
0.0
 10
6265.380748128191
 20
4939.031170901872
 30
0.0
 10
6265.047146161441
 20
4939.001375926387
 30
0.0
 10
6265.051118521882
 20
4939.001460269203
 30
0.0
 10
6265.052719696724
 20
4939.001494266015
 30
0.0
  0
LWPOLYLINE
  5
253
330
1F
100
AcDbEntity
  8
0
  6
Continuous
 62
     7
370
    25
100
AcDbPolyline
 90
        3
 70
   128
 43
0.0
 10
6267.5668547892
 20
4939.1308642849
 10
6267.5667085716
 20
4939.1288079246
 10
6267.5668547892
 20
4939.1238570138
  0
LINE
  5
254
330
1F
100
AcDbEntity
  8
0
  6
Continuous
 62
     7
370
    25
100
AcDbLine
 10
6295.8329233372
 20
4896.2127856835
 30
0.0
 11
6296.7249962532
 21
4896.1400531157
 31
0.0
  0
SPLINE
  5
255
330
1F
100
AcDbEntity
  8
0
  6
Continuous
 62
     7
370
    25
100
AcDbSpline
210
0.0
220
0.0
230
1.0
 70
     8
 71
     3
 72
    14
 73
    10
 74
     0
 42
0.000000001
 43
0.00000001
 40
0.0
 40
0.0
 40
0.0
 40
0.0
 40
0.167855237883048
 40
0.3360599664122465
 40
0.5010416308014344
 40
0.6265038085548028
 40
0.7511639822439897
 40
0.8778519384198642
 40
1.0
 40
1.0
 40
1.0
 40
1.0
 10
6296.79126357969
 20
4890.338053174239
 30
0.0
 10
6296.693313259924
 20
4890.908345876759
 30
0.0
 10
6296.497208678464
 20
4892.050118685705
 30
0.0
 10
6296.247642461557
 20
4893.474762239368
 30
0.0
 10
6296.060885408036
 20
4894.557807543235
 30
0.0
 10
6295.93552137769
 20
4895.318247439787
 30
0.0
 10
6295.859899430967
 20
4895.821848764872
 30
0.0
 10
6295.819709988869
 20
4896.152571638479
 30
0.0
 10
6295.828606519682
 20
4896.19296620384
 30
0.0
 10
6295.832973628604
 20
4896.21279499672
 30
0.0
  0
SPLINE
  5
256
330
1F
100
AcDbEntity
  8
0
  6
Continuous
 62
     7
370
    25
100
AcDbSpline
210
0.0
220
0.0
230
1.0
 70
     8
 71
     3
 72
    10
 73
     6
 74
     0
 42
0.000000001
 43
0.00000001
 40
0.0
 40
0.0
 40
0.0
 40
0.0
 40
0.2928011481974958
 40
0.6468137146395725
 40
1.0
 40
1.0
 40
1.0
 40
1.0
 10
6297.869489251935
 20
4883.50120111547
 30
0.0
 10
6297.763033943771
 20
4884.231909845722
 30
0.0
 10
6297.527868358728
 20
4885.846085305903
 30
0.0
 10
6297.157509261963
 20
4888.163970398878
 30
0.0
 10
6296.913250344233
 20
4889.613923617359
 30
0.0
 10
6296.79126357969
 20
4890.338053174239
 30
0.0
  0
SPLINE
  5
257
330
1F
100
AcDbEntity
  8
0
  6
Continuous
 62
     7
370
    25
100
AcDbSpline
210
0.0
220
0.0
230
1.0
 70
     8
 71
     3
 72
    11
 73
     7
 74
     0
 42
0.000000001
 43
0.00000001
 40
0.0
 40
0.0
 40
0.0
 40
0.0
 40
0.1394692046021994
 40
0.5138307814298532
 40
0.9018180097217774
 40
1.0
 40
1.0
 40
1.0
 40
1.0
 10
6270.080995003992
 20
4939.001496128661
 30
0.0
 10
6270.090764386005
 20
4939.000589110391
 30
0.0
 10
6270.126756626784
 20
4938.99724748449
 30
0.0
 10
6269.875495159299
 20
4939.020440106207
 30
0.0
 10
6269.543818880914
 20
4939.051749079177
 30
0.0
 10
6269.240213725368
 20
4939.068147315377
 30
0.0
 10
6269.178900591397
 20
4939.071458943111
 30
0.0
  0
SPLINE
  5
258
330
1F
100
AcDbEntity
  8
0
  6
Continuous
 62
     7
370
    25
100
AcDbSpline
210
0.0
220
0.0
230
1.0
 70
     8
 71
     3
 72
     9
 73
     5
 74
     0
 42
0.000000001
 43
0.00000001
 40
0.0
 40
0.0
 40
0.0
 40
0.0
 40
0.4841914495333178
 40
1.0
 40
1.0
 40
1.0
 40
1.0
 10
6268.077615372204
 20
4939.115909106952
 30
0.0
 10
6267.99749943787
 20
4939.118468134419
 30
0.0
 10
6267.832036098087
 20
4939.123753290673
 30
0.0
 10
6267.657092297444
 20
4939.123821718266
 30
0.0
 10
6267.566854789221
 20
4939.123857013804
 30
0.0
  0
LINE
  5
259
330
1F
100
AcDbEntity
  8
0
  6
Continuous
 62
     7
370
    25
100
AcDbLine
 10
6296.9792827063
 20
4896.1244264542
 30
0.0
 11
6296.9636625641
 21
4896.1248362362
 31
0.0
  0
SPLINE
  5
25A
330
1F
100
AcDbEntity
  8
0
  6
Continuous
 62
     7
370
    25
100
AcDbSpline
210
0.0
220
0.0
230
1.0
 70
     8
 71
     3
 72
    11
 73
     7
 74
     0
 42
0.000000001
 43
0.00000001
 40
0.0
 40
0.0
 40
0.0
 40
0.0
 40
0.2457767597605655
 40
0.4999997955419005
 40
0.7542226880873327
 40
1.0
 40
1.0
 40
1.0
 40
1.0
 10
6295.832923337185
 20
4896.212785683494
 30
0.0
 10
6295.847273357666
 20
4896.086130288639
 30
0.0
 10
6295.876466546287
 20
4895.828466905032
 30
0.0
 10
6295.791947750447
 20
4895.442979354814
 30
0.0
 10
6295.62181496736
 20
4895.086897472298
 30
0.0
 10
6295.440491165169
 20
4894.901539673483
 30
0.0
 10
6295.351360648238
 20
4894.81042622767
 30
0.0
  0
LINE
  5
25B
330
1F
100
AcDbEntity
  8
0
  6
Continuous
 62
     7
370
    25
100
AcDbLine
 10
6238.6436543458
 20
4894.8712732568
 30
0.0
 11
6238.6435574883
 21
4894.8714511394
 31
0.0
  0
SPLINE
  5
25C
330
1F
100
AcDbEntity
  8
0
  6
Continuous
 62
     7
370
    25
100
AcDbSpline
210
0.0
220
0.0
230
1.0
 70
     8
 71
     3
 72
    11
 73
     7
 74
     0
 42
0.000000001
 43
0.00000001
 40
0.0
 40
0.0
 40
0.0
 40
0.0
 40
0.2463969354017972
 40
0.4999628905465498
 40
0.7535472841339764
 40
1.0
 40
1.0
 40
1.0
 40
1.0
 10
6238.408711462581
 20
4896.140054047029
 30
0.0
 10
6238.403987059861
 20
4896.02251728736
 30
0.0
 10
6238.394400795985
 20
4895.784023987862
 30
0.0
 10
6238.48861747562
 20
4895.434051576032
 30
0.0
 10
6238.653901739932
 20
4895.111474193559
 30
0.0
 10
6238.821228223385
 20
4894.941223207847
 30
0.0
 10
6238.903698235118
 20
4894.857311800044
 30
0.0
  0
SPLINE
  5
25D
330
1F
100
AcDbEntity
  8
0
  6
Continuous
 62
     7
370
    25
100
AcDbSpline
210
0.0
220
0.0
230
1.0
 70
     8
 71
     3
 72
    11
 73
     7
 74
     0
 42
0.000000001
 43
0.00000001
 40
0.0
 40
0.0
 40
0.0
 40
0.0
 40
0.2463966257304077
 40
0.4999629475596541
 40
0.7535482848514035
 40
1.0
 40
1.0
 40
1.0
 40
1.0
 10
6296.724996253217
 20
4896.140053115707
 30
0.0
 10
6296.729721426917
 20
4896.022516662722
 30
0.0
 10
6296.739309268324
 20
4895.78402365858
 30
0.0
 10
6296.645091759761
 20
4895.434051363006
 30
0.0
 10
6296.479808355879
 20
4895.111474093973
 30
0.0
 10
6296.312482555549
 20
4894.941222953145
 30
0.0
 10
6296.230013205969
 20
4894.857311800044
 30
0.0
  0
LINE
  5
25E
330
1F
100
AcDbEntity
  8
0
  6
Continuous
 62
     7
370
    25
100
AcDbLine
 10
6304.8024407619
 20
4909.9511048594
 30
0.0
 11
6304.8024407619
 21
4909.1510563781
 31
0.0
  0
LINE
  5
25F
330
1F
100
AcDbEntity
  8
0
  6
Continuous
 62
     7
370
    25
100
AcDbLine
 10
6310.2024427646
 20
4909.9511048594
 30
0.0
 11
6304.8024407619
 21
4909.9511048594
 31
0.0
  0
LINE
  5
260
330
1F
100
AcDbEntity
  8
0
  6
Continuous
 62
     7
370
    25
100
AcDbLine
 10
6310.2024427646
 20
4909.1510563781
 30
0.0
 11
6310.2024427646
 21
4909.9511048594
 31
0.0
  0
LINE
  5
261
330
1F
100
AcDbEntity
  8
0
  6
Continuous
 62
     7
370
    25
100
AcDbLine
 10
6304.8024407619
 20
4909.1510563781
 30
0.0
 11
6310.2024427646
 21
4909.1510563781
 31
0.0
  0
LWPOLYLINE
  5
262
330
1F
100
AcDbEntity
  8
0
  6
Continuous
 62
     7
370
    25
100
AcDbPolyline
 90
        9
 70
   128
 43
0.0
 10
6310.2024427646
 20
4909.9511048594
 10
6310.3585138017
 20
4909.9511039281
 10
6310.5085871213
 20
4909.9511011778
 10
6310.6468959742
 20
4909.9510966958
 10
6310.7681280964
 20
4909.9510906567
 10
6310.8676156991
 20
4909.951083308
 10
6310.9415440851
 20
4909.9510749116
 10
6310.9870708578
 20
4909.9510658166
 10
6311.0024414056
 20
4909.9510563579
  0
ARC
  5
263
330
1F
100
AcDbEntity
  8
0
  6
Continuous
 62
     7
370
    25
100
AcDbCircle
 10
6310.2024415408
 20
4909.9510563525
 30
0.0
 40
0.8000000000001819
100
AcDbArc
 50
270.0
 51
0.0000000001
  0
ARC
  5
264
330
1F
100
AcDbEntity
  8
0
  6
Continuous
 62
     7
370
    25
100
AcDbCircle
 10
6304.8024415408
 20
4909.9510563525
 30
0.0
 40
0.8000000000059818
100
AcDbArc
 50
180.0000000005
 51
270.0
  0
LWPOLYLINE
  5
265
330
1F
100
AcDbEntity
  8
0
  6
Continuous
 62
     7
370
    25
100
AcDbPolyline
 90
        9
 70
   128
 43
0.0
 10
6304.0024421209
 20
4909.9510563579
 10
6304.0178126686
 20
4909.9510658166
 10
6304.0633375787
 20
4909.9510749116
 10
6304.1372659647
 20
4909.951083308
 10
6304.2367554301
 20
4909.9510906567
 10
6304.3579856896
 20
4909.9510966958
 10
6304.4962945425
 20
4909.9511011778
 10
6304.6463697248
 20
4909.9511039281
 10
6304.8024407619
 20
4909.9511048594
  0
LINE
  5
266
330
1F
100
AcDbEntity
  8
0
  6
Continuous
 62
     7
370
    25
100
AcDbLine
 10
6310.2024427646
 20
4913.0083815585
 30
0.0
 11
6310.2024427646
 21
4909.9511048594
 31
0.0
  0
LWPOLYLINE
  5
267
330
1F
100
AcDbEntity
  8
0
  6
Continuous
 62
     7
370
    25
100
AcDbPolyline
 90
        9
 70
   128
 43
0.0
 10
6311.0024414056
 20
4913.0083328969
 10
6310.9870708578
 20
4913.008342443
 10
6310.9415440851
 20
4913.0083515234
 10
6310.8676156991
 20
4913.0083599053
 10
6310.7681280964
 20
4913.0083673558
 10
6310.6468959742
 20
4913.0083731766
 10
6310.5085871213
 20
4913.0083778332
 10
6310.3585138017
 20
4913.0083806272
 10
6310.2024427646
 20
4913.0083815585
  0
LINE
  5
268
330
1F
100
AcDbEntity
  8
0
  6
Continuous
 62
     7
370
    25
100
AcDbLine
 10
6311.0024414056
 20
4913.0083328969
 30
0.0
 11
6311.0024414056
 21
4909.9510563579
 31
0.0
  0
LINE
  5
269
330
1F
100
AcDbEntity
  8
0
  6
Continuous
 62
     7
370
    25
100
AcDbLine
 10
6304.8024407619
 20
4909.9511048594
 30
0.0
 11
6304.8024407619
 21
4913.0083815585
 31
0.0
  0
LINE
  5
26A
330
1F
100
AcDbEntity
  8
0
  6
Continuous
 62
     7
370
    25
100
AcDbLine
 10
6304.0024421209
 20
4909.9510563579
 30
0.0
 11
6304.0024421209
 21
4913.0083328969
 31
0.0
  0
LWPOLYLINE
  5
26B
330
1F
100
AcDbEntity
  8
0
  6
Continuous
 62
     7
370
    25
100
AcDbPolyline
 90
        9
 70
   128
 43
0.0
 10
6304.8024407619
 20
4913.0083815585
 10
6304.6463697248
 20
4913.0083806272
 10
6304.4962945425
 20
4913.0083778332
 10
6304.3579856896
 20
4913.0083731766
 10
6304.2367554301
 20
4913.0083673558
 10
6304.1372659647
 20
4913.0083599053
 10
6304.0633375787
 20
4913.0083515234
 10
6304.0178126686
 20
4913.008342443
 10
6304.0024421209
 20
4913.0083328969
  0
LINE
  5
26C
330
1F
100
AcDbEntity
  8
0
  6
Continuous
 62
     7
370
    25
100
AcDbLine
 10
6304.8024407619
 20
4913.0083815585
 30
0.0
 11
6310.2024427646
 21
4913.0083815585
 31
0.0
  0
ARC
  5
26D
330
1F
100
AcDbEntity
  8
0
  6
Continuous
 62
     7
370
    25
100
AcDbCircle
 10
6310.2024415408
 20
4913.0083329547
 30
0.0
 40
0.8000000000005248
100
AcDbArc
 50
0.0
 51
90.0
  0
LINE
  5
26E
330
1F
100
AcDbEntity
  8
0
  6
Continuous
 62
     7
370
    25
100
AcDbLine
 10
6310.2024427646
 20
4913.0083815585
 30
0.0
 11
6310.2024427646
 21
4913.8083329349
 31
0.0
  0
LINE
  5
26F
330
1F
100
AcDbEntity
  8
0
  6
Continuous
 62
     7
370
    25
100
AcDbLine
 10
6304.8024407619
 20
4913.8083329349
 30
0.0
 11
6304.8024407619
 21
4913.0083815585
 31
0.0
  0
LINE
  5
270
330
1F
100
AcDbEntity
  8
0
  6
Continuous
 62
     7
370
    25
100
AcDbLine
 10
6310.2024427646
 20
4913.8083329349
 30
0.0
 11
6304.8024407619
 21
4913.8083329349
 31
0.0
  0
ARC
  5
271
330
1F
100
AcDbEntity
  8
0
  6
Continuous
 62
     7
370
    25
100
AcDbCircle
 10
6304.8024415408
 20
4913.0083329547
 30
0.0
 40
0.8000000000005248
100
AcDbArc
 50
90.0
 51
180.0000000001
  0
LINE
  5
272
330
1F
100
AcDbEntity
  8
0
  6
Continuous
 62
     7
370
    25
100
AcDbLine
 10
6304.8024407619
 20
4909.1505497386
 30
0.0
 11
6304.8024407619
 21
4909.1510563781
 31
0.0
  0
ARC
  5
273
330
1F
100
AcDbEntity
  8
0
  6
Continuous
 62
     7
370
    25
100
AcDbCircle
 10
6304.8024415408
 20
4909.9505497232
 30
0.0
 40
0.8000000000059818
100
AcDbArc
 50
180.0000000005
 51
270.0
  0
LINE
  5
274
330
1F
100
AcDbEntity
  8
0
  6
Continuous
 62
     7
370
    25
100
AcDbLine
 10
6304.0024421209
 20
4909.9505497184
 30
0.0
 11
6304.0024421209
 21
4909.9510563579
 31
0.0
  0
ARC
  5
275
330
1F
100
AcDbEntity
  8
0
  6
Continuous
 62
     7
370
    25
100
AcDbCircle
 10
6310.2024415408
 20
4909.9505497232
 30
0.0
 40
0.8000000000001819
100
AcDbArc
 50
270.0
 51
0.0000000001
  0
LINE
  5
276
330
1F
100
AcDbEntity
  8
0
  6
Continuous
 62
     7
370
    25
100
AcDbLine
 10
6310.2024427646
 20
4909.1510563781
 30
0.0
 11
6310.2024427646
 21
4909.1505497386
 31
0.0
  0
LINE
  5
277
330
1F
100
AcDbEntity
  8
0
  6
Continuous
 62
     7
370
    25
100
AcDbLine
 10
6311.0024414056
 20
4909.9510563579
 30
0.0
 11
6311.0024414056
 21
4909.9505497184
 31
0.0
  0
LINE
  5
278
330
1F
100
AcDbEntity
  8
0
  6
Continuous
 62
     7
370
    25
100
AcDbLine
 10
6304.8024407619
 20
4909.1505497386
 30
0.0
 11
6310.2024427646
 21
4909.1505497386
 31
0.0
  0
SPLINE
  5
279
330
1F
100
AcDbEntity
  8
0
  6
Continuous
 62
     7
370
    25
100
AcDbSpline
210
0.0
220
0.0
230
1.0
 70
     8
 71
     3
 72
    12
 73
     8
 74
     0
 42
0.000000001
 43
0.00000001
 40
0.0
 40
0.0
 40
0.0
 40
0.0
 40
0.1584268004738929
 40
0.3258060643961766
 40
0.4998797936517354
 40
0.7498646411131893
 40
1.0
 40
1.0
 40
1.0
 40
1.0
 10
6304.002442120874
 20
4915.146369200123
 30
0.0
 10
6304.011855832391
 20
4915.297582828402
 30
0.0
 10
6304.031215210294
 20
4915.608554942751
 30
0.0
 10
6304.144715056914
 20
4916.028006738088
 30
0.0
 10
6304.310339232708
 20
4916.482001565646
 30
0.0
 10
6304.53568772505
 20
4916.947861016827
 30
0.0
 10
6304.713505244852
 20
4917.242970883291
 30
0.0
 10
6304.802440761888
 20
4917.390570223254
 30
0.0
  0
SPLINE
  5
27A
330
1F
100
AcDbEntity
  8
0
  6
Continuous
 62
     7
370
    25
100
AcDbSpline
210
0.0
220
0.0
230
1.0
 70
    24
 71
     3
 72
    10
 73
     6
 74
     0
 42
0.000000001
 43
0.00000001
 40
0.0
 40
0.0
 40
0.0
 40
0.0
 40
0.333265763734006
 40
0.6667519593639797
 40
1.0
 40
1.0
 40
1.0
 40
1.0
 10
6304.002442120874
 20
4915.146369200123
 30
0.0
 10
6304.002442120874
 20
4914.720682757084
 30
0.0
 10
6304.002442120874
 20
4913.869028309325
 30
0.0
 10
6304.002442120875
 20
4913.151028242518
 30
0.0
 10
6304.002442120874
 20
4913.055557422302
 30
0.0
 10
6304.002442120874
 20
4913.007839063105
 30
0.0
  0
ARC
  5
27B
330
1F
100
AcDbEntity
  8
0
  6
Continuous
 62
     7
370
    25
100
AcDbCircle
 10
6310.2337174731
 20
4906.4143383409
 30
0.0
 40
0.7694777786159214
100
AcDbArc
 50
267.6706247109
 51
357.463607896
  0
LINE
  5
27C
330
1F
100
AcDbEntity
  8
0
  6
Continuous
 62
     7
370
    25
100
AcDbLine
 10
6310.2024427646
 20
4909.1505497386
 30
0.0
 11
6310.2024427646
 21
4905.6454963907
 31
0.0
  0
SPLINE
  5
27D
330
1F
100
AcDbEntity
  8
0
  6
Continuous
 62
     7
370
    25
100
AcDbSpline
210
0.0
220
0.0
230
1.0
 70
    24
 71
     3
 72
    11
 73
     7
 74
     0
 42
0.000000001
 43
0.00000001
 40
0.0
 40
0.0
 40
0.0
 40
0.0
 40
0.2789046565975495
 40
0.5577921852527115
 40
0.8366967306816658
 40
1.0
 40
1.0
 40
1.0
 40
1.0
 10
6311.002441405618
 20
4906.380285920497
 30
0.0
 10
6311.002441405618
 20
4906.928414055683
 30
0.0
 10
6311.002441405618
 20
4908.024636664702
 30
0.0
 10
6311.002441405619
 20
4909.104146106226
 30
0.0
 10
6311.002441405618
 20
4909.746495944927
 30
0.0
 10
6311.002441405618
 20
4909.827214747317
 30
0.0
 10
6311.002441405618
 20
4909.8570234569
 30
0.0
  0
ARC
  5
27E
330
1F
100
AcDbEntity
  8
0
  6
Continuous
 62
     7
370
    25
100
AcDbCircle
 10
6310.2343800932
 20
4916.6223826113
 30
0.0
 40
0.7688512210519843
100
AcDbArc
 50
2.5974194661
 51
92.3806956844
  0
SPLINE
  5
27F
330
1F
100
AcDbEntity
  8
0
  6
Continuous
 62
     7
370
    25
100
AcDbSpline
210
0.0
220
0.0
230
1.0
 70
    24
 71
     3
 72
    11
 73
     7
 74
     0
 42
0.000000001
 43
0.00000001
 40
0.0
 40
0.0
 40
0.0
 40
0.0
 40
0.2499923816423889
 40
0.4999999148345635
 40
0.7499923205398594
 40
1.0
 40
1.0
 40
1.0
 40
1.0
 10
6311.002441405618
 20
4916.657225407583
 30
0.0
 10
6311.002441405618
 20
4916.097584692971
 30
0.0
 10
6311.002441405618
 20
4914.978269345018
 30
0.0
 10
6311.002441405619
 20
4913.865145015053
 30
0.0
 10
6311.002441405619
 20
4913.138963194896
 30
0.0
 10
6311.002441405618
 20
4913.051547997141
 30
0.0
 10
6311.002441405618
 20
4913.007839063105
 30
0.0
  0
LINE
  5
280
330
1F
100
AcDbEntity
  8
0
  6
Continuous
 62
     7
370
    25
100
AcDbLine
 10
6304.8024407619
 20
4917.3905702233
 30
0.0
 11
6310.2024427646
 21
4917.3905702233
 31
0.0
  0
LINE
  5
281
330
1F
100
AcDbEntity
  8
0
  6
Continuous
 62
     7
370
    25
100
AcDbLine
 10
6304.8024407619
 20
4905.6454963907
 30
0.0
 11
6304.8024407619
 21
4909.1505497386
 31
0.0
  0
SPLINE
  5
282
330
1F
100
AcDbEntity
  8
0
  6
Continuous
 62
     7
370
    25
100
AcDbSpline
210
0.0
220
0.0
230
1.0
 70
     8
 71
     3
 72
    12
 73
     8
 74
     0
 42
0.000000001
 43
0.00000001
 40
0.0
 40
0.0
 40
0.0
 40
0.0
 40
0.1854277871931881
 40
0.3401611186641608
 40
0.5002732244634567
 40
0.7501303858012868
 40
1.0
 40
1.0
 40
1.0
 40
1.0
 10
6304.802440761888
 20
4905.645496390682
 30
0.0
 10
6304.736462641112
 20
4905.75274396253
 30
0.0
 10
6304.615427969282
 20
4905.949486072037
 30
0.0
 10
6304.442928351318
 20
4906.2728515523
 30
0.0
 10
6304.262639978805
 20
4906.667724791735
 30
0.0
 10
6304.069525835233
 20
4907.173221620857
 30
0.0
 10
6304.024803730475
 20
4907.639750843891
 30
0.0
 10
6304.002442120874
 20
4907.873021268208
 30
0.0
  0
SPLINE
  5
283
330
1F
100
AcDbEntity
  8
0
  6
Continuous
 62
     7
370
    25
100
AcDbSpline
210
0.0
220
0.0
230
1.0
 70
    24
 71
     3
 72
    10
 73
     6
 74
     0
 42
0.000000001
 43
0.00000001
 40
0.0
 40
0.0
 40
0.0
 40
0.0
 40
0.2299977576471704
 40
0.6151326253784645
 40
1.0
 40
1.0
 40
1.0
 40
1.0
 10
6304.002442120874
 20
4909.8570234569
 30
0.0
 10
6304.002442120874
 20
4909.824818002157
 30
0.0
 10
6304.002442120874
 20
4909.738684006196
 30
0.0
 10
6304.002442120875
 20
4909.107225931219
 30
0.0
 10
6304.002442120874
 20
4908.28432753293
 30
0.0
 10
6304.002442120874
 20
4907.873021268208
 30
0.0
  0
LINE
  5
284
330
1F
100
AcDbEntity
  8
0
  6
Continuous
 62
     7
370
    25
100
AcDbLine
 10
6310.2024427646
 20
4905.6454963907
 30
0.0
 11
6304.8024407619
 21
4905.6454963907
 31
0.0
  0
LWPOLYLINE
  5
285
330
1F
100
AcDbEntity
  8
0
  6
Continuous
 62
     7
370
    25
100
AcDbPolyline
 90
        9
 70
   128
 43
0.0
 10
6304.0024421209
 20
4907.8730212682
 10
6303.9870697105
 20
4907.9521583085
 10
6303.9415448004
 20
4908.0282543478
 10
6303.8676164144
 20
4908.0983848003
 10
6303.768126949
 20
4908.1598545349
 10
6303.6468985521
 20
4908.2103016012
 10
6303.5085878366
 20
4908.247787102
 10
6303.3585145169
 20
4908.2708705141
 10
6303.2024416172
 20
4908.2786648692
  0
LINE
  5
286
330
1F
100
AcDbEntity
  8
0
  6
Continuous
 62
     7
370
    25
100
AcDbLine
 10
6303.2024416172
 20
4908.2786648692
 30
0.0
 11
6303.2024416172
 21
4914.7438627592
 31
0.0
  0
LWPOLYLINE
  5
287
330
1F
100
AcDbEntity
  8
0
  6
Continuous
 62
     7
370
    25
100
AcDbPolyline
 90
        9
 70
   128
 43
0.0
 10
6303.2024416172
 20
4914.7438627592
 10
6303.3585145169
 20
4914.7515969276
 10
6303.5085878366
 20
4914.774501875
 10
6303.6468985521
 20
4914.8116975016
 10
6303.768126949
 20
4914.8617542274
 10
6303.8676164144
 20
4914.9227488711
 10
6303.9415448004
 20
4914.9923368282
 10
6303.9870697105
 20
4915.0678438059
 10
6304.0024421209
 20
4915.1463692001
  0
SPLINE
  5
288
330
1F
100
AcDbEntity
  8
0
  6
Continuous
 62
     7
370
    25
100
AcDbSpline
210
0.0
220
0.0
230
1.0
 70
     8
 71
     3
 72
    10
 73
     6
 74
     0
 42
0.000000001
 43
0.00000001
 40
0.0
 40
0.0
 40
0.0
 40
0.0
 40
0.2498693336975218
 40
0.5000085642746742
 40
1.0
 40
1.0
 40
1.0
 40
1.0
 10
6303.202441617214
 20
4914.743862759245
 30
0.0
 10
6303.240388164682
 20
4915.049889589068
 30
0.0
 10
6303.31632224766
 20
4915.662273804231
 30
0.0
 10
6303.898391378961
 20
4916.63341784657
 30
0.0
 10
6304.440862522288
 20
4917.087744040701
 30
0.0
 10
6304.802440761888
 20
4917.390570223254
 30
0.0
  0
SPLINE
  5
289
330
1F
100
AcDbEntity
  8
0
  6
Continuous
 62
     7
370
    25
100
AcDbSpline
210
0.0
220
0.0
230
1.0
 70
     8
 71
     3
 72
    10
 73
     6
 74
     0
 42
0.000000001
 43
0.00000001
 40
0.0
 40
0.0
 40
0.0
 40
0.0
 40
0.4999914927264188
 40
0.7501306201384513
 40
1.0
 40
1.0
 40
1.0
 40
1.0
 10
6304.802440761889
 20
4905.645496390682
 30
0.0
 10
6304.440862576936
 20
4905.945764167226
 30
0.0
 10
6303.898391610824
 20
4906.396251938924
 30
0.0
 10
6303.316322138478
 20
4907.36299906997
 30
0.0
 10
6303.240388135861
 20
4907.973552731144
 30
0.0
 10
6303.202441617214
 20
4908.278664869178
 30
0.0
  0
SPLINE
  5
28A
330
1F
100
AcDbEntity
  8
0
  6
Continuous
 62
     7
370
    25
100
AcDbSpline
210
0.0
220
0.0
230
1.0
 70
     8
 71
     3
 72
    12
 73
     8
 74
     0
 42
0.000000001
 43
0.00000001
 40
0.0
 40
0.0
 40
0.0
 40
0.0
 40
0.2194592610816094
 40
0.4389806248212641
 40
0.6566883351568852
 40
0.8708555004011828
 40
1.0
 40
1.0
 40
1.0
 40
1.0
 10
6311.963819622361
 20
4909.027462247215
 30
0.0
 10
6311.985061209365
 20
4909.141279735254
 30
0.0
 10
6312.027550394325
 20
4909.368946919443
 30
0.0
 10
6312.083887557961
 20
4909.672614258417
 30
0.0
 10
6312.125189695844
 20
4909.895966612796
 30
0.0
 10
6312.147741154052
 20
4910.018265071421
 30
0.0
 10
6312.147196885388
 20
4910.015295651877
 30
0.0
 10
6312.146992146337
 20
4910.014178637104
 30
0.0
  0
SPLINE
  5
28B
330
1F
100
AcDbEntity
  8
0
  6
Continuous
 62
     7
370
    25
100
AcDbSpline
210
0.0
220
0.0
230
1.0
 70
     8
 71
     3
 72
    13
 73
     9
 74
     0
 42
0.000000001
 43
0.00000001
 40
0.0
 40
0.0
 40
0.0
 40
0.0
 40
0.0168581196543719
 40
0.2261788961105549
 40
0.4356131585345947
 40
0.6473879968023281
 40
0.8627094864278507
 40
1.0
 40
1.0
 40
1.0
 40
1.0
 10
6311.776370465123
 20
4908.031496281657
 30
0.0
 10
6311.776114368523
 20
4908.03014498653
 30
0.0
 10
6311.77267841909
 20
4908.012015180444
 30
0.0
 10
6311.785738499671
 20
4908.080926833564
 30
0.0
 10
6311.815826576399
 20
4908.239907624024
 30
0.0
 10
6311.864407811364
 20
4908.497343556815
 30
0.0
 10
6311.916339101318
 20
4908.773664705837
 30
0.0
 10
6311.950513658633
 20
4908.95633790389
 30
0.0
 10
6311.963819622361
 20
4909.027462247215
 30
0.0
  0
SPLINE
  5
28C
330
1F
100
AcDbEntity
  8
0
  6
Continuous
 62
     7
370
    25
100
AcDbSpline
210
0.0
220
0.0
230
1.0
 70
     8
 71
     3
 72
    25
 73
    21
 74
     0
 42
0.000000001
 43
0.00000001
 40
0.0
 40
0.0
 40
0.0
 40
0.0
 40
0.0000020404417086
 40
0.0000078956222636
 40
0.0000310679428843
 40
0.0001232071932543
 40
0.0004906996781308
 40
0.0019584897308002
 40
0.0441238152333238
 40
0.0836378372171524
 40
0.125116856430585
 40
0.1670937891195124
 40
0.2034726301755214
 40
0.2502743858912477
 40
0.3919118111306503
 40
0.500161437973251
 40
0.6226968243817868
 40
0.7500881044201171
 40
0.8810970547679517
 40
1.0
 40
1.0
 40
1.0
 40
1.0
 10
6311.573446451986
 20
4911.524067578759
 30
0.0
 10
6311.573446451986
 20
4911.524063116172
 30
0.0
 10
6311.573446451986
 20
4911.524045847899
 30
0.0
 10
6311.573446451986
 20
4911.523977900157
 30
0.0
 10
6311.573446451988
 20
4911.523712900078
 30
0.0
 10
6311.573446451893
 20
4911.522656974212
 30
0.0
 10
6311.573446455577
 20
4911.518441567653
 30
0.0
 10
6311.573445650361
 20
4911.422209785665
 30
0.0
 10
6311.573539872142
 20
4911.240320780739
 30
0.0
 10
6311.573808350871
 20
4910.972233524296
 30
0.0
 10
6311.574124025466
 20
4910.706855685409
 30
0.0
 10
6311.574376614539
 20
4910.451615119036
 30
0.0
 10
6311.574581207376
 20
4910.189404897361
 30
0.0
 10
6311.574736314669
 20
4909.728432682735
 30
0.0
 10
6311.574305720369
 20
4909.154226486821
 30
0.0
 10
6311.573114549637
 20
4908.526520893094
 30
0.0
 10
6311.573987946323
 20
4908.026346988883
 30
0.0
 10
6311.574959883828
 20
4907.634815615292
 30
0.0
 10
6311.574092277128
 20
4907.385542841017
 30
0.0
 10
6311.57365466083
 20
4907.354379639817
 30
0.0
 10
6311.573446451986
 20
4907.339552828964
 30
0.0
  0
SPLINE
  5
28D
330
1F
100
AcDbEntity
  8
0
  6
Continuous
 62
     7
370
    25
100
AcDbSpline
210
0.0
220
0.0
230
1.0
 70
     8
 71
     3
 72
    30
 73
    26
 74
     0
 42
0.000000001
 43
0.00000001
 40
0.0
 40
0.0
 40
0.0
 40
0.0
 40
0.1188416431395292
 40
0.2497888258856726
 40
0.3353548549217941
 40
0.4185545000223005
 40
0.4998159251939655
 40
0.549679280121779
 40
0.6081072518264603
 40
0.6748961131135949
 40
0.7498924906749859
 40
0.832992774575832
 40
0.8590736723489732
 40
0.8749517621058684
 40
0.9374573191977239
 40
0.9687213263723516
 40
0.9843583072505745
 40
0.9921784937154406
 40
0.9980424740675126
 40
0.9995095418515705
 40
0.9998768356964712
 40
0.9999689473509503
 40
0.999992090530282
 40
0.9999979605627409
 40
1.0
 40
1.0
 40
1.0
 40
1.0
 10
6311.573446451986
 20
4915.708074990583
 30
0.0
 10
6311.573654227157
 20
4915.693318636913
 30
0.0
 10
6311.574090942053
 20
4915.662302806434
 30
0.0
 10
6311.574868983642
 20
4915.440143808984
 30
0.0
 10
6311.574322008967
 20
4915.151335505822
 30
0.0
 10
6311.57367524613
 20
4914.846336089407
 30
0.0
 10
6311.573328161361
 20
4914.536469066083
 30
0.0
 10
6311.573657822123
 20
4914.230943187446
 30
0.0
 10
6311.574168524729
 20
4913.927226491894
 30
0.0
 10
6311.574553290139
 20
4913.555453990073
 30
0.0
 10
6311.574722366943
 20
4913.111547064525
 30
0.0
 10
6311.574497004781
 20
4912.728992091079
 30
0.0
 10
6311.574246185392
 20
4912.463434594717
 30
0.0
 10
6311.574008251789
 20
4912.239958130951
 30
0.0
 10
6311.573718495863
 20
4912.002286996842
 30
0.0
 10
6311.573518741599
 20
4911.763504003647
 30
0.0
 10
6311.573470222646
 20
4911.64383986625
 30
0.0
 10
6311.573449250344
 20
4911.579691324308
 30
0.0
 10
6311.573446299419
 20
4911.546538699656
 30
0.0
 10
6311.573446455975
 20
4911.529693627834
 30
0.0
 10
6311.573446451882
 20
4911.525478221786
 30
0.0
 10
6311.573446451989
 20
4911.524422335124
 30
0.0
 10
6311.573446451986
 20
4911.524157296167
 30
0.0
 10
6311.573446451986
 20
4911.524089348425
 30
0.0
 10
6311.573446451986
 20
4911.524072041347
 30
0.0
 10
6311.573446451986
 20
4911.524067578759
 30
0.0
  0
SPLINE
  5
28E
330
1F
100
AcDbEntity
  8
0
  6
Continuous
 62
     7
370
    25
100
AcDbSpline
210
0.0
220
0.0
230
1.0
 70
     8
 71
     3
 72
    12
 73
     8
 74
     0
 42
0.000000001
 43
0.00000001
 40
0.0
 40
0.0
 40
0.0
 40
0.0
 40
0.2196174233594362
 40
0.4392933774417069
 40
0.6572161192648398
 40
0.8714887436707779
 40
1.0
 40
1.0
 40
1.0
 40
1.0
 10
6311.962474792565
 20
4914.027469877076
 30
0.0
 10
6311.941096530466
 20
4914.141352404929
 30
0.0
 10
6311.898334308704
 20
4914.369147811718
 30
0.0
 10
6311.840960483977
 20
4914.672892381832
 30
0.0
 10
6311.798627350496
 20
4914.896223227173
 30
0.0
 10
6311.775408908006
 20
4915.018349227716
 30
0.0
 10
6311.775986343742
 20
4915.015305724432
 30
0.0
 10
6311.77620282706
 20
4915.014164701027
 30
0.0
  0
SPLINE
  5
28F
330
1F
100
AcDbEntity
  8
0
  6
Continuous
 62
     7
370
    25
100
AcDbSpline
210
0.0
220
0.0
230
1.0
 70
     8
 71
     3
 72
    13
 73
     9
 74
     0
 42
0.000000001
 43
0.00000001
 40
0.0
 40
0.0
 40
0.0
 40
0.0
 40
0.0166861539219235
 40
0.2262428823625443
 40
0.4359060955126085
 40
0.6477657627080025
 40
0.8630287534189155
 40
1.0
 40
1.0
 40
1.0
 40
1.0
 10
6312.147882490718
 20
4913.031464621347
 30
0.0
 10
6312.148130327761
 20
4913.030129347079
 30
0.0
 10
6312.151490680732
 20
4913.012024737682
 30
0.0
 10
6312.138720284864
 20
4913.081044290531
 30
0.0
 10
6312.109248915737
 20
4913.240256382303
 30
0.0
 10
6312.061406172097
 20
4913.497934207744
 30
0.0
 10
6312.009919638229
 20
4913.7741454001
 30
0.0
 10
6311.975758739431
 20
4913.956542280095
 30
0.0
 10
6311.962474792564
 20
4914.027469877076
 30
0.0
  0
LINE
  5
290
330
1F
100
AcDbEntity
  8
0
  6
Continuous
 62
     7
370
    25
100
AcDbLine
 10
6311.0024414056
 20
4916.6572254076
 30
0.0
 11
6311.0024414056
 21
4917.0096616185
 31
0.0
  0
SPLINE
  5
291
330
1F
100
AcDbEntity
  8
0
  6
Continuous
 62
     7
370
    25
100
AcDbSpline
210
0.0
220
0.0
230
1.0
 70
     8
 71
     3
 72
    12
 73
     8
 74
     0
 42
0.000000001
 43
0.00000001
 40
0.0
 40
0.0
 40
0.0
 40
0.0
 40
0.2194072237954881
 40
0.4388712282900226
 40
0.6566208587915513
 40
0.8708000119269033
 40
0.9999999999999999
 40
0.9999999999999999
 40
0.9999999999999999
 40
0.9999999999999999
 10
6312.065810620154
 20
4909.027462247215
 30
0.0
 10
6312.044662888416
 20
4908.913610085057
 30
0.0
 10
6312.002361952093
 20
4908.685876296782
 30
0.0
 10
6311.94561601845
 20
4908.382188007367
 30
0.0
 10
6311.903733857211
 20
4908.158793370183
 30
0.0
 10
6311.880733115517
 20
4908.036478447731
 30
0.0
 10
6311.881302534107
 20
4908.039480947965
 30
0.0
 10
6311.881516783797
 20
4908.040610670034
 30
0.0
  0
SPLINE
  5
292
330
1F
100
AcDbEntity
  8
0
  6
Continuous
 62
     7
370
    25
100
AcDbSpline
210
0.0
220
0.0
230
1.0
 70
     8
 71
     3
 72
    13
 73
     9
 74
     0
 42
0.000000001
 43
0.00000001
 40
0.0
 40
0.0
 40
0.0
 40
0.0
 40
0.0161308082080306
 40
0.2258660809334383
 40
0.435703607616937
 40
0.6476945678260775
 40
0.8630224838103642
 40
1.0
 40
1.0
 40
1.0
 40
1.0
 10
6312.249314694965
 20
4910.023471621136
 30
0.0
 10
6312.249551252467
 20
4910.024762729277
 30
0.0
 10
6312.252863567339
 20
4910.042841025895
 30
0.0
 10
6312.240230777652
 20
4909.973861946365
 30
0.0
 10
6312.211072366333
 20
4909.814726910975
 30
0.0
 10
6312.163712424052
 20
4909.557011086482
 30
0.0
 10
6312.112755325568
 20
4909.280778770317
 30
0.0
 10
6312.078953054746
 20
4909.098379634099
 30
0.0
 10
6312.065810620153
 20
4909.027462247215
 30
0.0
  0
SPLINE
  5
293
330
1F
100
AcDbEntity
  8
0
  6
Continuous
 62
     7
370
    25
100
AcDbSpline
210
0.0
220
0.0
230
1.0
 70
     8
 71
     3
 72
    12
 73
     8
 74
     0
 42
0.000000001
 43
0.00000001
 40
0.0
 40
0.0
 40
0.0
 40
0.0
 40
0.2210966970273817
 40
0.4422554632039338
 40
0.6616045083496015
 40
0.877418714754607
 40
1.0
 40
1.0
 40
1.0
 40
1.0
 10
6312.064476966226
 20
4914.027469877076
 30
0.0
 10
6312.085617459437
 20
4913.913668643666
 30
0.0
 10
6312.127904380694
 20
4913.686034229077
 30
0.0
 10
6312.183994215577
 20
4913.382307671883
 30
0.0
 10
6312.22506205403
 20
4913.159176476449
 30
0.0
 10
6312.247368928831
 20
4913.037644223456
 30
0.0
 10
6312.246902154402
 20
4913.040168808485
 30
0.0
 10
6312.246733068788
 20
4913.041083320898
 30
0.0
  0
SPLINE
  5
294
330
1F
100
AcDbEntity
  8
0
  6
Continuous
 62
     7
370
    25
100
AcDbSpline
210
0.0
220
0.0
230
1.0
 70
     8
 71
     3
 72
    13
 73
     9
 74
     0
 42
0.000000001
 43
0.00000001
 40
0.0
 40
0.0
 40
0.0
 40
0.0
 40
0.0161813592345563
 40
0.2256768132356
 40
0.4352837651329917
 40
0.6472104546381563
 40
0.8626530513097643
 40
0.9999999999999999
 40
0.9999999999999999
 40
0.9999999999999999
 40
0.9999999999999999
 10
6311.877880900466
 20
4915.023467682225
 30
0.0
 10
6311.877636246635
 20
4915.02476265484
 30
0.0
 10
6311.874224129248
 20
4915.04282326945
 30
0.0
 10
6311.8872393156
 20
4914.973920431507
 30
0.0
 10
6311.917169026559
 20
4914.815024539309
 30
0.0
 10
6311.965530792933
 20
4914.557572497109
 30
0.0
 10
6312.017220608178
 20
4914.281254478185
 30
0.0
 10
6312.05123470277
 20
4914.098585864173
 30
0.0
 10
6312.064476966226
 20
4914.027469877076
 30
0.0
  0
SPLINE
  5
295
330
1F
100
AcDbEntity
  8
0
  6
Continuous
 62
     7
370
    25
100
AcDbSpline
210
0.0
220
0.0
230
1.0
 70
     8
 71
     3
 72
    12
 73
     8
 74
     0
 42
0.000000001
 43
0.00000001
 40
0.0
 40
0.0
 40
0.0
 40
0.0
 40
0.2094908118660915
 40
0.4385452111451452
 40
0.6647768338185178
 40
0.888024749853582
 40
1.0
 40
1.0
 40
1.0
 40
1.0
 10
6267.566824986899
 20
4939.123829074127
 30
0.0
 10
6267.362071278539
 20
4939.131609749467
 30
0.0
 10
6266.933442655329
 20
4939.14789770921
 30
0.0
 10
6266.335251135982
 20
4939.173000707727
 30
0.0
 10
6265.869241801277
 20
4939.19894074805
 30
0.0
 10
6265.60227689265
 20
4939.22063900197
 30
0.0
 10
6265.585740695866
 20
4939.233824602092
 30
0.0
 10
6265.580217077696
 20
4939.238229013902
 30
0.0
  0
LINE
  5
296
330
1F
100
AcDbEntity
  8
0
  6
Continuous
 62
     7
370
    25
100
AcDbLine
 10
6268.7385926985
 20
4939.0959974303
 30
0.0
 11
6269.0712378391
 21
4939.1236316337
 31
0.0
  0
LWPOLYLINE
  5
297
330
1F
100
AcDbEntity
  8
0
  6
Continuous
 62
     7
370
    25
100
AcDbPolyline
 90
       11
 70
   128
 43
0.0
 10
6269.1205783778
 20
4939.4237056299
 10
6269.0230465525
 20
4939.4237391575
 10
6268.7416409173
 20
4939.4237708225
 10
6268.3086513573
 20
4939.4237931742
 10
6267.7737611377
 20
4939.4238062128
 10
6267.1983444163
 20
4939.4238080754
 10
6266.6484291696
 20
4939.4237968995
 10
6266.1871125021
 20
4939.4237764104
 10
6265.8673289263
 20
4939.4237466081
 10
6265.7257706889
 20
4939.4237130805
 10
6265.7205785656
 20
4939.4237056299
  0
LWPOLYLINE
  5
298
330
1F
100
AcDbEntity
  8
0
  6
Continuous
 62
     7
370
    25
100
AcDbPolyline
 90
        7
 70
   128
 43
0.0
 10
6269.4205787995
 20
4939.1237042769
 10
6269.3858614222
 20
4939.1237284913
 10
6269.2225162902
 20
4939.1237582936
 10
6268.9359967628
 20
4939.1237843706
 10
6268.5458871567
 20
4939.1238048597
 10
6268.0788549626
 20
4939.1238197609
 10
6267.5668249869
 20
4939.1238290741
  0
LINE
  5
299
330
1F
100
AcDbEntity
  8
0
  6
Continuous
 62
     7
370
    25
100
AcDbLine
 10
6268.6005790749
 20
4939.1238029971
 30
0.0
 11
6268.6005790749
 21
4939.1024254187
 31
0.0
  0
LINE
  5
29A
330
1F
100
AcDbEntity
  8
0
  6
Continuous
 62
     8
370
    25
100
AcDbLine
 10
6267.5668547892
 20
4939.1308642849
 30
0.0
 11
6267.9867527479
 21
4939.1000766232
 31
0.0
  0
SPLINE
  5
29B
330
1F
100
AcDbEntity
  8
0
  6
Continuous
 62
     8
370
    25
100
AcDbSpline
210
0.0
220
0.0
230
1.0
 70
     8
 71
     3
 72
    22
 73
    18
 74
     0
 42
0.000000001
 43
0.00000001
 40
0.0
 40
0.0
 40
0.0
 40
0.0
 40
0.0147755611570576
 40
0.043489936134697
 40
0.0718202402489035
 40
0.0998110855820283
 40
0.1547002837228006
 40
0.2085613069906774
 40
0.2792588842596544
 40
0.3491763517989235
 40
0.4185977643341288
 40
0.5221267777208553
 40
0.6252165246047672
 40
0.7280443714125705
 40
0.8307003301847657
 40
0.9946854954032581
 40
1.0
 40
1.0
 40
1.0
 40
1.0
 10
6268.44037389692
 20
4939.066817231399
 30
0.0
 10
6268.745924320106
 20
4939.050865780378
 30
0.0
 10
6269.645272118069
 20
4939.003914765882
 30
0.0
 10
6271.097412992972
 20
4938.651912366297
 30
0.0
 10
6272.753233522151
 20
4938.062884266154
 30
0.0
 10
6274.807182566774
 20
4937.032132054142
 30
0.0
 10
6277.12568151192
 20
4935.411027083758
 30
0.0
 10
6279.803260871023
 20
4932.863984955744
 30
0.0
 10
6282.328979127861
 20
4929.761197252575
 30
0.0
 10
6284.685523513978
 20
4926.152078757597
 30
0.0
 10
6287.06777339268
 20
4921.781544745447
 30
0.0
 10
6289.386363495205
 20
4916.623917315392
 30
0.0
 10
6291.579414114375
 20
4910.686519321487
 30
0.0
 10
6293.445665603092
 20
4904.661310597508
 30
0.0
 10
6295.315636217986
 20
4897.353193152107
 30
0.0
 10
6296.539803350031
 20
4891.9296427092
 30
0.0
 10
6297.057750453439
 20
4888.514707625032
 30
0.0
 10
6297.074009388053
 20
4888.407509021383
 30
0.0
  0
SPLINE
  5
29C
330
1F
100
AcDbEntity
  8
0
  6
Continuous
 62
     8
370
    25
100
AcDbSpline
210
0.0
220
0.0
230
1.0
 70
     8
 71
     3
 72
    22
 73
    18
 74
     0
 42
0.000000001
 43
0.00000001
 40
0.0
 40
0.0
 40
0.0
 40
0.0
 40
0.0088026949239917
 40
0.1699296041483645
 40
0.2707967097214967
 40
0.3718330911085676
 40
0.4731256101461055
 40
0.5748462400303113
 40
0.6430526816678531
 40
0.711745170075207
 40
0.7812040406795066
 40
0.8341235828875553
 40
0.8880560637708361
 40
0.9155600551393279
 40
0.9433976038844651
 40
0.9716121422981641
 40
1.0
 40
1.0
 40
1.0
 40
1.0
 10
6238.028813808524
 20
4888.202383361679
 30
0.0
 10
6238.056162265567
 20
4888.383154799156
 30
0.0
 10
6238.5841042787
 20
4891.87281553111
 30
0.0
 10
6239.821673039985
 20
4897.369962668679
 30
0.0
 10
6241.694572230967
 20
4904.677311829767
 30
0.0
 10
6243.562383085081
 20
4910.700884757559
 30
0.0
 10
6245.757319011891
 20
4916.635384457245
 30
0.0
 10
6248.076811786016
 20
4921.789523869963
 30
0.0
 10
6250.458567775204
 20
4926.156886971999
 30
0.0
 10
6252.813559682097
 20
4929.763499820655
 30
0.0
 10
6255.336861063946
 20
4932.864827996145
 30
0.0
 10
6258.011908571204
 20
4935.41091591546
 30
0.0
 10
6260.328577688028
 20
4937.032896436013
 30
0.0
 10
6262.381756068187
 20
4938.061621652716
 30
0.0
 10
6264.036258329881
 20
4938.65697444319
 30
0.0
 10
6265.776329644561
 20
4939.054027758274
 30
0.0
 10
6266.968795944411
 20
4939.105199878822
 30
0.0
 10
6267.566854789221
 20
4939.130864284855
 30
0.0
  0
SPLINE
  5
29D
330
1F
100
AcDbEntity
  8
0
  6
Continuous
 62
     8
370
    25
100
AcDbSpline
210
0.0
220
0.0
230
1.0
 70
     8
 71
     3
 72
     9
 73
     5
 74
     0
 42
0.000000001
 43
0.00000001
 40
0.0
 40
0.0
 40
0.0
 40
0.0
 40
0.1583566994691238
 40
1.0
 40
1.0
 40
1.0
 40
1.0
 10
6238.17004701432
 20
4896.12483623616
 30
0.0
 10
6238.161627385729
 20
4896.124570804765
 30
0.0
 10
6238.108458630513
 20
4896.122894643308
 30
0.0
 10
6238.271493911006
 20
4896.132212084811
 30
0.0
 10
6238.408711462581
 20
4896.140054047029
 30
0.0
  0
SPLINE
  5
29E
330
1F
100
AcDbEntity
  8
0
  6
Continuous
 62
     8
370
    25
100
AcDbSpline
210
0.0
220
0.0
230
1.0
 70
     8
 71
     3
 72
     9
 73
     5
 74
     0
 42
0.000000001
 43
0.00000001
 40
0.0
 40
0.0
 40
0.0
 40
0.0
 40
0.961535646657284
 40
1.0
 40
1.0
 40
1.0
 40
1.0
 10
6296.724996253216
 20
4896.140053115707
 30
0.0
 10
6296.869484610593
 20
4896.131841275113
 30
0.0
 10
6297.01975294217
 20
4896.123300935892
 30
0.0
 10
6296.980781709604
 20
4896.124384765426
 30
0.0
 10
6296.979282706344
 20
4896.124426454227
 30
0.0
  0
LINE
  5
29F
330
1F
100
AcDbEntity
  8
0
  6
Continuous
 62
     8
370
    25
100
AcDbLine
 10
6296.230013206
 20
4894.8573108687
 30
0.0
 11
6296.0142872327
 21
4894.8469173088
 31
0.0
  0
SPLINE
  5
2A0
330
1F
100
AcDbEntity
  8
0
  6
Continuous
 62
     8
370
    25
100
AcDbSpline
210
0.0
220
0.0
230
1.0
 70
     8
 71
     3
 72
    18
 73
    14
 74
     0
 42
0.000000001
 43
0.00000001
 40
0.0
 40
0.0
 40
0.0
 40
0.0
 40
0.0348112763221631
 40
0.1113777725186205
 40
0.1849348526092874
 40
0.2661826779781343
 40
0.3397801854867929
 40
0.4187331905225693
 40
0.5030416691966909
 40
0.5927057712007959
 40
0.6729879954329212
 40
0.7302149246043725
 40
1.0
 40
1.0
 40
1.0
 40
1.0
 10
6296.491180270278
 20
4894.871148459535
 30
0.0
 10
6296.491351507996
 20
4894.871221168096
 30
0.0
 10
6296.491899378617
 20
4894.871453797239
 30
0.0
 10
6296.489459551271
 20
4894.871535958916
 30
0.0
 10
6296.483947383063
 20
4894.871349001919
 30
0.0
 10
6296.474997445533
 20
4894.870726226467
 30
0.0
 10
6296.462608373441
 20
4894.869791309576
 30
0.0
 10
6296.446814874878
 20
4894.868609525112
 30
0.0
 10
6296.42629504567
 20
4894.86714071384
 30
0.0
 10
6296.401804164376
 20
4894.865501260108
 30
0.0
 10
6296.376420989151
 20
4894.863904900769
 30
0.0
 10
6296.326638068668
 20
4894.861080613469
 30
0.0
 10
6296.273692953649
 20
4894.859015000503
 30
0.0
 10
6296.230013205969
 20
4894.857310868721
 30
0.0
  0
SPLINE
  5
2A1
330
1F
100
AcDbEntity
  8
0
  6
Continuous
 62
     8
370
    25
100
AcDbSpline
210
0.0
220
0.0
230
1.0
 70
     8
 71
     3
 72
    19
 73
    15
 74
     0
 42
0.000000001
 43
0.00000001
 40
0.0
 40
0.0
 40
0.0
 40
0.0
 40
0.0598590140725779
 40
0.2186262589164016
 40
0.3630044936780519
 40
0.4929933741839919
 40
0.5949297884776359
 40
0.6858490143556001
 40
0.7657510381333968
 40
0.8346358159460172
 40
0.8925031151594721
 40
0.9393528998624974
 40
0.9751852469922996
 40
1.0
 40
1.0
 40
1.0
 40
1.0
 10
6238.643557488286
 20
4894.871451139372
 30
0.0
 10
6238.643297452399
 20
4894.871577294926
 30
0.0
 10
6238.6423477095
 20
4894.872038059557
 30
0.0
 10
6238.65417136717
 20
4894.871433920011
 30
0.0
 10
6238.676507928431
 20
4894.869806866262
 30
0.0
 10
6238.705300666342
 20
4894.867685521443
 30
0.0
 10
6238.736074002402
 20
4894.86557295763
 30
0.0
 10
6238.766417926332
 20
4894.863661118524
 30
0.0
 10
6238.796404515507
 20
4894.861950447773
 30
0.0
 10
6238.824722839134
 20
4894.860496791925
 30
0.0
 10
6238.85024852813
 20
4894.859320357579
 30
0.0
 10
6238.872092221819
 20
4894.858419053624
 30
0.0
 10
6238.889440656627
 20
4894.857767258195
 30
0.0
 10
6238.899558396399
 20
4894.857444047136
 30
0.0
 10
6238.903698235118
 20
4894.857311800044
 30
0.0
  0
LINE
  5
2A2
330
1F
100
AcDbEntity
  8
0
  6
Continuous
 62
     8
370
    25
100
AcDbLine
 10
6304.8024407619
 20
4913.8083329349
 30
0.0
 11
6304.8024407619
 21
4917.3905702233
 31
0.0
  0
LINE
  5
2A3
330
1F
100
AcDbEntity
  8
0
  6
Continuous
 62
     8
370
    25
100
AcDbLine
 10
6310.2024427646
 20
4917.3905702233
 30
0.0
 11
6310.2024427646
 21
4913.8083329349
 31
0.0
  0
LINE
  5
2A4
330
1F
100
AcDbEntity
  8
0
  6
Continuous
 62
     8
370
    25
100
AcDbLine
 10
6310.2024427646
 20
4917.3905702233
 30
0.0
 11
6310.2024427646
 21
4917.9238138645
 31
0.0
  0
LINE
  5
2A5
330
1F
100
AcDbEntity
  8
0
  6
Continuous
 62
     8
370
    25
100
AcDbLine
 10
6310.2024427646
 20
4905.1238137222
 30
0.0
 11
6310.2024427646
 21
4905.6454963907
 31
0.0
  0
ENDSEC
  0
SECTION
  2
OBJECTS
  0
DICTIONARY
  5
C
330
0
100
AcDbDictionary
281
     1
  3
ACAD_GROUP
350
D
  3
ACAD_LAYOUT
350
1A
  3
ACAD_MLINESTYLE
350
17
  3
ACAD_PLOTSETTINGS
350
19
  3
ACAD_PLOTSTYLENAME
350
E
  3
ACAD_SCALELIST
350
47
  0
DICTIONARY
  5
D
102
{ACAD_REACTORS
330
C
102
}
330
C
100
AcDbDictionary
281
     1
  0
DICTIONARY
  5
1A
102
{ACAD_REACTORS
330
C
102
}
330
C
100
AcDbDictionary
281
     1
  3
Layout1
350
1E
  3
Layout2
350
26
  3
Model
350
22
  0
DICTIONARY
  5
17
102
{ACAD_REACTORS
330
C
102
}
330
C
100
AcDbDictionary
281
     1
  3
Standard
350
18
  0
DICTIONARY
  5
19
102
{ACAD_REACTORS
330
C
102
}
330
C
100
AcDbDictionary
281
     1
  0
ACDBDICTIONARYWDFLT
  5
E
102
{ACAD_REACTORS
330
C
102
}
330
C
100
AcDbDictionary
281
     1
  3
Normal
350
F
100
AcDbDictionaryWithDefault
340
F
  0
DICTIONARY
  5
47
102
{ACAD_REACTORS
330
C
102
}
330
C
100
AcDbDictionary
281
     1
  3
A0
350
48
  3
A1
350
49
  3
A2
350
4A
  3
A3
350
4B
  3
A4
350
4C
  3
A5
350
4D
  3
A6
350
4E
  3
A7
350
4F
  3
A8
350
50
  3
A9
350
51
  3
B0
350
52
  3
B1
350
53
  3
B2
350
54
  3
B3
350
55
  3
B4
350
56
  3
B5
350
57
  3
B6
350
58
  3
B7
350
59
  3
B8
350
5A
  3
B9
350
5B
  3
C0
350
5C
  3
C1
350
5D
  3
C2
350
5E
  3
C3
350
5F
  3
C4
350
60
  3
C5
350
61
  3
C6
350
62
  3
C7
350
63
  3
C8
350
64
  3
C9
350
65
  3
D0
350
66
  3
D1
350
67
  3
D2
350
68
  0
LAYOUT
  5
1E
102
{ACAD_REACTORS
330
1A
102
}
330
1A
100
AcDbPlotSettings
  1

  2
none_device
  4

  6

 40
0.0
 41
0.0
 42
0.0
 43
0.0
 44
0.0
 45
0.0
 46
0.0
 47
0.0
 48
0.0
 49
0.0
140
0.0
141
0.0
142
1.0
143
1.0
 70
   688
 72
     1
 73
     0
 74
     5
  7

 75
    16
147
1.0
148
0.0
149
0.0
100
AcDbLayout
  1
Layout1
 70
     1
 71
     1
 10
0.0
 20
0.0
 11
420.0
 21
297.0
 12
0.0
 22
0.0
 32
0.0
 14
1.0000000000E+20
 24
1.0000000000E+20
 34
1.0000000000E+20
 15
-1.0000000000E+20
 25
-1.0000000000E+20
 35
-1.0000000000E+20
146
0.0
 13
0.0
 23
0.0
 33
0.0
 16
1.0
 26
0.0
 36
0.0
 17
0.0
 27
1.0
 37
0.0
 76
     0
330
1B
  0
LAYOUT
  5
26
102
{ACAD_REACTORS
330
1A
102
}
330
1A
100
AcDbPlotSettings
  1

  2
none_device
  4

  6

 40
0.0
 41
0.0
 42
0.0
 43
0.0
 44
0.0
 45
0.0
 46
0.0
 47
0.0
 48
0.0
 49
0.0
140
0.0
141
0.0
142
1.0
143
1.0
 70
   688
 72
     1
 73
     0
 74
     5
  7

 75
    16
147
1.0
148
0.0
149
0.0
100
AcDbLayout
  1
Layout2
 70
     1
 71
     2
 10
0.0
 20
0.0
 11
0.0
 21
0.0
 12
0.0
 22
0.0
 32
0.0
 14
0.0
 24
0.0
 34
0.0
 15
0.0
 25
0.0
 35
0.0
146
0.0
 13
0.0
 23
0.0
 33
0.0
 16
1.0
 26
0.0
 36
0.0
 17
0.0
 27
1.0
 37
0.0
 76
     0
330
23
  0
LAYOUT
  5
22
102
{ACAD_REACTORS
330
1A
102
}
330
1A
100
AcDbPlotSettings
  1

  2
none_device
  4
Letter_(8.50_x_11.00_Inches)
  6

 40
6.35
 41
6.35
 42
6.35000508
 43
6.35000508
 44
215.9
 45
279.4
 46
0.0
 47
0.0
 48
0.0
 49
0.0
140
0.0
141
0.0
142
1.0
143
1.0
 70
  1712
 72
     1
 73
     0
 74
     0
  7

 75
     0
147
1.0
148
0.0
149
0.0
100
AcDbLayout
  1
Model
 70
     1
 71
     0
 10
0.0
 20
0.0
 11
20000.0
 21
10000.0
 12
0.0
 22
0.0
 32
0.0
 14
0.0
 24
0.0
 34
0.0
 15
20000.0
 25
10000.0
 35
0.0
146
0.0
 13
0.0
 23
0.0
 33
0.0
 16
1.0
 26
0.0
 36
0.0
 17
0.0
 27
1.0
 37
0.0
 76
     0
330
1F
331
29
  0
MLINESTYLE
  5
18
102
{ACAD_REACTORS
330
17
102
}
330
17
100
AcDbMlineStyle
  2
Standard
 70
     0
  3

 62
   256
 51
90.0
 52
90.0
 71
     2
 49
0.5
 62
   256
  6
BYLAYER
 49
-0.5
 62
   256
  6
BYLAYER
  0
ACDBPLACEHOLDER
  5
F
102
{ACAD_REACTORS
330
E
102
}
330
E
  0
SCALE
  5
48
102
{ACAD_REACTORS
330
47
102
}
330
47
100
AcDbScale
 70
     0
300
1:1
140
1.0
141
1.0
290
     1
  0
SCALE
  5
49
102
{ACAD_REACTORS
330
47
102
}
330
47
100
AcDbScale
 70
     0
300
1:2
140
1.0
141
2.0
290
     0
  0
SCALE
  5
4A
102
{ACAD_REACTORS
330
47
102
}
330
47
100
AcDbScale
 70
     0
300
1:4
140
1.0
141
4.0
290
     0
  0
SCALE
  5
4B
102
{ACAD_REACTORS
330
47
102
}
330
47
100
AcDbScale
 70
     0
300
1:5
140
1.0
141
5.0
290
     0
  0
SCALE
  5
4C
102
{ACAD_REACTORS
330
47
102
}
330
47
100
AcDbScale
 70
     0
300
1:8
140
1.0
141
8.0
290
     0
  0
SCALE
  5
4D
102
{ACAD_REACTORS
330
47
102
}
330
47
100
AcDbScale
 70
     0
300
1:10
140
1.0
141
10.0
290
     0
  0
SCALE
  5
4E
102
{ACAD_REACTORS
330
47
102
}
330
47
100
AcDbScale
 70
     0
300
1:16
140
1.0
141
16.0
290
     0
  0
SCALE
  5
4F
102
{ACAD_REACTORS
330
47
102
}
330
47
100
AcDbScale
 70
     0
300
1:20
140
1.0
141
20.0
290
     0
  0
SCALE
  5
50
102
{ACAD_REACTORS
330
47
102
}
330
47
100
AcDbScale
 70
     0
300
1:30
140
1.0
141
30.0
290
     0
  0
SCALE
  5
51
102
{ACAD_REACTORS
330
47
102
}
330
47
100
AcDbScale
 70
     0
300
1:40
140
1.0
141
40.0
290
     0
  0
SCALE
  5
52
102
{ACAD_REACTORS
330
47
102
}
330
47
100
AcDbScale
 70
     0
300
1:50
140
1.0
141
50.0
290
     0
  0
SCALE
  5
53
102
{ACAD_REACTORS
330
47
102
}
330
47
100
AcDbScale
 70
     0
300
1:100
140
1.0
141
100.0
290
     0
  0
SCALE
  5
54
102
{ACAD_REACTORS
330
47
102
}
330
47
100
AcDbScale
 70
     0
300
2:1
140
2.0
141
1.0
290
     0
  0
SCALE
  5
55
102
{ACAD_REACTORS
330
47
102
}
330
47
100
AcDbScale
 70
     0
300
4:1
140
4.0
141
1.0
290
     0
  0
SCALE
  5
56
102
{ACAD_REACTORS
330
47
102
}
330
47
100
AcDbScale
 70
     0
300
8:1
140
8.0
141
1.0
290
     0
  0
SCALE
  5
57
102
{ACAD_REACTORS
330
47
102
}
330
47
100
AcDbScale
 70
     0
300
10:1
140
10.0
141
1.0
290
     0
  0
SCALE
  5
58
102
{ACAD_REACTORS
330
47
102
}
330
47
100
AcDbScale
 70
     0
300
100:1
140
100.0
141
1.0
290
     0
  0
SCALE
  5
59
102
{ACAD_REACTORS
330
47
102
}
330
47
100
AcDbScale
 70
     0
300
1/128" = 1'-0"
140
0.0078125
141
12.0
290
     0
  0
SCALE
  5
5A
102
{ACAD_REACTORS
330
47
102
}
330
47
100
AcDbScale
 70
     0
300
1/64" = 1'-0"
140
0.015625
141
12.0
290
     0
  0
SCALE
  5
5B
102
{ACAD_REACTORS
330
47
102
}
330
47
100
AcDbScale
 70
     0
300
1/32" = 1'-0"
140
0.03125
141
12.0
290
     0
  0
SCALE
  5
5C
102
{ACAD_REACTORS
330
47
102
}
330
47
100
AcDbScale
 70
     0
300
1/16" = 1'-0"
140
0.0625
141
12.0
290
     0
  0
SCALE
  5
5D
102
{ACAD_REACTORS
330
47
102
}
330
47
100
AcDbScale
 70
     0
300
3/32" = 1'-0"
140
0.09375
141
12.0
290
     0
  0
SCALE
  5
5E
102
{ACAD_REACTORS
330
47
102
}
330
47
100
AcDbScale
 70
     0
300
1/8" = 1'-0"
140
0.125
141
12.0
290
     0
  0
SCALE
  5
5F
102
{ACAD_REACTORS
330
47
102
}
330
47
100
AcDbScale
 70
     0
300
3/16" = 1'-0"
140
0.1875
141
12.0
290
     0
  0
SCALE
  5
60
102
{ACAD_REACTORS
330
47
102
}
330
47
100
AcDbScale
 70
     0
300
1/4" = 1'-0"
140
0.25
141
12.0
290
     0
  0
SCALE
  5
61
102
{ACAD_REACTORS
330
47
102
}
330
47
100
AcDbScale
 70
     0
300
3/8" = 1'-0"
140
0.375
141
12.0
290
     0
  0
SCALE
  5
62
102
{ACAD_REACTORS
330
47
102
}
330
47
100
AcDbScale
 70
     0
300
1/2" = 1'-0"
140
0.5
141
12.0
290
     0
  0
SCALE
  5
63
102
{ACAD_REACTORS
330
47
102
}
330
47
100
AcDbScale
 70
     0
300
3/4" = 1'-0"
140
0.75
141
12.0
290
     0
  0
SCALE
  5
64
102
{ACAD_REACTORS
330
47
102
}
330
47
100
AcDbScale
 70
     0
300
1" = 1'-0"
140
1.0
141
12.0
290
     0
  0
SCALE
  5
65
102
{ACAD_REACTORS
330
47
102
}
330
47
100
AcDbScale
 70
     0
300
1-1/2" = 1'-0"
140
1.5
141
12.0
290
     0
  0
SCALE
  5
66
102
{ACAD_REACTORS
330
47
102
}
330
47
100
AcDbScale
 70
     0
300
3" = 1'-0"
140
3.0
141
12.0
290
     0
  0
SCALE
  5
67
102
{ACAD_REACTORS
330
47
102
}
330
47
100
AcDbScale
 70
     0
300
6" = 1'-0"
140
6.0
141
12.0
290
     0
  0
SCALE
  5
68
102
{ACAD_REACTORS
330
47
102
}
330
47
100
AcDbScale
 70
     0
300
1'-0" = 1'-0"
140
12.0
141
12.0
290
     0
  0
ENDSEC
  0
EOF
