  0
SECTION
  2
HEADER
  9
$ACADVER
  1
AC1009
  9
$DWGCODEPAGE
  3
ansi_1250
  9
$INSBASE
 10
0.0
 20
0.0
 30
0.0
  9
$EXTMIN
 10
0.0
 20
0.0
 30
0.0
  9
$EXTMAX
 10
20000.0
 20
10000.0
 30
0.0
  9
$LIMMIN
 10
0.0
 20
0.0
  9
$LIMMAX
 10
20000.0
 20
10000.0
  9
$ORTHOMODE
 70
     0
  9
$REGENMODE
 70
     1
  9
$FILLMODE
 70
     1
  9
$QTEXTMODE
 70
     0
  9
$MIRRTEXT
 70
     1
  9
$DRAGMODE
 70
     2
  9
$LTSCALE
 40
1.0
  9
$OSMODE
 70
    37
  9
$ATTMODE
 70
     1
  9
$TEXTSIZE
 40
2.0
  9
$TRACEWID
 40
1.0
  9
$TEXTSTYLE
  7
STANDARD
  9
$CLAYER
  8
0
  9
$CELTYPE
  6
BYLAYER
  9
$CECOLOR
 62
   256
  9
$DIMSCALE
 40
1.0
  9
$DIMASZ
 40
2.0
  9
$DIMEXO
 40
1.0
  9
$DIMDLI
 40
3.75
  9
$DIMRND
 40
0.0
  9
$DIMDLE
 40
0.0
  9
$DIMEXE
 40
1.0
  9
$DIMTP
 40
0.0
  9
$DIMTM
 40
0.0
  9
$DIMTXT
 40
2.0
  9
$DIMCEN
 40
2.5
  9
$DIMTSZ
 40
0.0
  9
$DIMTOL
 70
     0
  9
$DIMLIM
 70
     0
  9
$DIMTIH
 70
     1
  9
$DIMTOH
 70
     1
  9
$DIMSE1
 70
     0
  9
$DIMSE2
 70
     0
  9
$DIMTAD
 70
     1
  9
$DIMZIN
 70
     0
  9
$DIMBLK
  1

  9
$DIMASO
 70
     1
  9
$DIMSHO
 70
     1
  9
$DIMPOST
  1

  9
$DIMAPOST
  1

  9
$DIMALT
 70
     0
  9
$DIMALTD
 70
     3
  9
$DIMALTF
 40
0.0393700787
  9
$DIMLFAC
 40
1.0
  9
$DIMTOFL
 70
     1
  9
$DIMTVP
 40
0.0
  9
$DIMTIX
 70
     0
  9
$DIMSOXD
 70
     0
  9
$DIMSAH
 70
     0
  9
$DIMBLK1
  1

  9
$DIMBLK2
  1

  9
$DIMSTYLE
  2
ISO-25
  9
$DIMCLRD
 70
     0
  9
$DIMCLRE
 70
     0
  9
$DIMCLRT
 70
     0
  9
$DIMTFAC
 40
1.0
  9
$DIMGAP
 40
1.524
  9
$LUNITS
 70
     2
  9
$LUPREC
 70
     3
  9
$SKETCHINC
 40
1.0
  9
$FILLETRAD
 40
10.0
  9
$AUNITS
 70
     0
  9
$AUPREC
 70
     2
  9
$MENU
  1
.
  9
$ELEVATION
 40
0.0
  9
$PELEVATION
 40
0.0
  9
$THICKNESS
 40
0.0
  9
$LIMCHECK
 70
     0
  9
$CHAMFERA
 40
0.0
  9
$CHAMFERB
 40
0.0
  9
$SKPOLY
 70
     0
  9
$TDCREATE
 40
2458878.513543217
  9
$TDUPDATE
 40
2458878.513543611
  9
$TDINDWG
 40
0.0000000116
  9
$TDUSRTIMER
 40
0.0000000116
  9
$USRTIMER
 70
     1
  9
$ANGBASE
 50
0.0
  9
$ANGDIR
 70
     0
  9
$PDMODE
 70
     0
  9
$PDSIZE
 40
-1.0
  9
$PLINEWID
 40
0.0
  9
$COORDS
 70
     1
  9
$SPLFRAME
 70
     0
  9
$SPLINETYPE
 70
     6
  9
$SPLINESEGS
 70
     8
  9
$ATTDIA
 70
     0
  9
$ATTREQ
 70
     1
  9
$HANDLING
 70
     1
  9
$HANDSEED
  5
A61
  9
$SURFTAB1
 70
     6
  9
$SURFTAB2
 70
     6
  9
$SURFTYPE
 70
     6
  9
$SURFU
 70
     6
  9
$SURFV
 70
     6
  9
$UCSNAME
  2

  9
$UCSORG
 10
0.0
 20
0.0
 30
0.0
  9
$UCSXDIR
 10
1.0
 20
0.0
 30
0.0
  9
$UCSYDIR
 10
0.0
 20
1.0
 30
0.0
  9
$PUCSNAME
  2

  9
$PUCSORG
 10
0.0
 20
0.0
 30
0.0
  9
$PUCSXDIR
 10
1.0
 20
0.0
 30
0.0
  9
$PUCSYDIR
 10
0.0
 20
1.0
 30
0.0
  9
$USERI1
 70
     0
  9
$USERI2
 70
     0
  9
$USERI3
 70
     0
  9
$USERI4
 70
     0
  9
$USERI5
 70
     0
  9
$USERR1
 40
0.0
  9
$USERR2
 40
0.0
  9
$USERR3
 40
0.0
  9
$USERR4
 40
0.0
  9
$USERR5
 40
0.0
  9
$WORLDVIEW
 70
     1
  9
$SHADEDGE
 70
     3
  9
$SHADEDIF
 70
    70
  9
$TILEMODE
 70
     1
  9
$MAXACTVP
 70
    64
  9
$PLIMCHECK
 70
     0
  9
$PEXTMIN
 10
1.0000000000E+20
 20
1.0000000000E+20
 30
1.0000000000E+20
  9
$PEXTMAX
 10
-1.0000000000E+20
 20
-1.0000000000E+20
 30
-1.0000000000E+20
  9
$PLIMMIN
 10
0.0
 20
0.0
  9
$PLIMMAX
 10
420.0
 20
297.0
  9
$UNITMODE
 70
     0
  9
$VISRETAIN
 70
     1
  9
$PLINEGEN
 70
     0
  9
$PSLTSCALE
 70
     1
  0
ENDSEC
  0
SECTION
  2
TABLES
  0
TABLE
  2
VPORT
 70
     1
  0
VPORT
  2
*ACTIVE
 70
     0
 10
0.0
 20
0.0
 11
1.0
 21
1.0
 12
10000.0
 22
5000.0
 13
0.0
 23
0.0
 14
10.0
 24
10.0
 15
10.0
 25
10.0
 16
0.0
 26
0.0
 36
1.0
 17
0.0
 27
0.0
 37
0.0
 40
10000.0
 41
2.0
 42
50.0
 43
0.0
 44
0.0
 50
0.0
 51
0.0
 71
     0
 72
  2000
 73
     1
 74
     3
 75
     0
 76
     0
 77
     0
 78
     0
  0
ENDTAB
  0
TABLE
  2
LTYPE
 70
     6
  0
LTYPE
  2
CONTINUOUS
 70
     0
  3
Solid line
 72
    65
 73
     0
 40
0.0
  0
LTYPE
  2
HIDDEN
 70
     0
  3
Hidden __ __ __ __ __ __ __ __ __ __ __ __ __ __
 72
    65
 73
     2
 40
1.905
 49
1.27
 49
-0.635
  0
LTYPE
  2
PHANTOM
 70
     0
  3
Phantom ______  __  __  ______  __  __  ______
 72
    65
 73
     6
 40
12.7
 49
6.35
 49
-1.27
 49
1.27
 49
-1.27
 49
1.27
 49
-1.27
  0
LTYPE
  2
CENTER
 70
     0
  3
Center ____ _ ____ _ ____ _ ____ _ ____ _ ____
 72
    65
 73
     4
 40
10.16
 49
6.35
 49
-1.27
 49
1.27
 49
-1.27
  0
LTYPE
  2
CENTERX2
 70
     0
  3
Center (2x) ________  __  ________  __  _____
 72
    65
 73
     4
 40
20.32
 49
12.7
 49
-2.54
 49
2.54
 49
-2.54
  0
LTYPE
  2
DOT2
 70
     0
  3
Dot (.5x) ........................................
 72
    65
 73
     2
 40
0.635
 49
0.0
 49
-0.635
  0
ENDTAB
  0
TABLE
  2
LAYER
 70
    13
  0
LAYER
  2
0
 70
     0
 62
     7
  6
CONTINUOUS
  0
LAYER
  2
FORMAT
 70
     0
 62
     7
  6
CONTINUOUS
  0
LAYER
  2
OSA
 70
     0
 62
     7
  6
CENTER
  0
LAYER
  2
0_35
 70
     0
 62
     7
  6
CONTINUOUS
  0
LAYER
  2
0_5
 70
     0
 62
     7
  6
CONTINUOUS
  0
LAYER
  2
0_25
 70
     0
 62
     7
  6
CONTINUOUS
  0
LAYER
  2
0_18
 70
     0
 62
     7
  6
CONTINUOUS
  0
LAYER
  2
SLD-0
 70
     0
 62
   179
  6
CONTINUOUS
  0
LAYER
  2
KOTY
 70
     0
 62
     7
  6
CONTINUOUS
  0
LAYER
  2
SILNA
 70
     0
 62
   179
  6
CONTINUOUS
  0
LAYER
  2
0_18_1
 70
     0
 62
   179
  6
CONTINUOUS
  0
LAYER
  2
0_35_1
 70
     0
 62
   179
  6
CONTINUOUS
  0
LAYER
  2
0_5_1
 70
     0
 62
   179
  6
CONTINUOUS
  0
ENDTAB
  0
TABLE
  2
STYLE
 70
     1
  0
STYLE
  2
STANDARD
 70
     0
 40
0.0
 41
1.0
 50
0.0
 71
     0
 42
2.0
  3
txt
  4

  0
ENDTAB
  0
TABLE
  2
VIEW
 70
     0
  0
ENDTAB
  0
TABLE
  2
UCS
 70
     0
  0
ENDTAB
  0
TABLE
  2
APPID
 70
     1
  0
APPID
  2
ACAD
 70
     0
  0
ENDTAB
  0
TABLE
  2
DIMSTYLE
 70
     1
  0
DIMSTYLE
  2
ISO-25
 70
     0
  3

  4

  5

  6

  7

 40
1.0
 41
2.5
 42
0.625
 43
3.75
 44
1.25
 45
0.0
 46
0.0
 47
0.0
 48
0.0
140
2.5
141
2.5
142
0.0
143
0.0393700787
144
1.0
145
0.0
146
1.0
147
0.625
 71
     0
 72
     0
 73
     0
 74
     0
 75
     0
 76
     0
 77
     1
 78
     8
170
     0
171
     3
172
     1
173
     0
174
     0
175
     0
176
     0
177
     0
178
     0
  0
ENDTAB
  0
ENDSEC
  0
SECTION
  2
BLOCKS
  0
BLOCK
  8
0
  2
$MODEL_SPACE
 70
     0
 10
0.0
 20
0.0
 30
0.0
  3
$MODEL_SPACE
  1

  0
ENDBLK
  5
21
  8
0
  0
BLOCK
 67
     1
  8
0
  2
$PAPER_SPACE
 70
     0
 10
0.0
 20
0.0
 30
0.0
  3
$PAPER_SPACE
  1

  0
ENDBLK
  5
1D
 67
     1
  8
0
  0
ENDSEC
  0
SECTION
  2
ENTITIES
  0
LINE
  5
7F
  8
0
  6
CONTINUOUS
 62
     7
 10
6297.1147467769
 20
7039.7489128914
 30
0.0
 11
6296.9147467769
 21
7039.9489128914
 31
0.0
  0
LINE
  5
80
  8
0
  6
CONTINUOUS
 62
     7
 10
6292.3147467769
 20
7039.9489128914
 30
0.0
 11
6292.1147467769
 21
7039.7489128914
 31
0.0
  0
ARC
  5
81
  8
0
  6
CONTINUOUS
 62
     7
 10
6328.3189033664
 20
7015.4723124294
 30
0.0
 40
8.741478229741915
 50
0.0
 51
34.0718951293
  0
LINE
  5
82
  8
0
  6
CONTINUOUS
 62
     7
 10
6337.0603815962
 20
7015.3599257425
 30
0.0
 11
6337.0603815962
 21
7015.4723124294
 31
0.0
  0
ARC
  5
83
  8
0
  6
CONTINUOUS
 62
     7
 10
6328.3393106332
 20
7015.2586441059
 30
0.0
 40
8.719985417121663
 50
325.8975760198
 51
0.0
  0
LINE
  5
84
  8
0
  6
CONTINUOUS
 62
     7
 10
6337.0592960503
 20
7015.2586441059
 30
0.0
 11
6337.0592960503
 21
7015.3469875971
 31
0.0
  0
LINE
  5
85
  8
0
  6
CONTINUOUS
 62
     7
 10
6335.559777843
 20
7019.7797658059
 30
0.0
 11
6335.5516460667
 21
7019.7797658059
 31
0.0
  0
LINE
  5
86
  8
0
  6
CONTINUOUS
 62
     7
 10
6335.5516460667
 20
7010.9593837389
 30
0.0
 11
6335.559777843
 21
7010.9593837389
 31
0.0
  0
LINE
  5
87
  8
0
  6
CONTINUOUS
 62
     7
 10
6328.8058625381
 20
7007.9911533162
 30
0.0
 11
6335.059777843
 21
7007.9911533162
 31
0.0
  0
ARC
  5
88
  8
0
  6
CONTINUOUS
 62
     7
 10
6335.0598071937
 20
7008.493814073
 30
0.0
 40
0.499970341092733
 50
268.4702587749
 51
0.6039057846
  0
LINE
  5
89
  8
0
  6
CONTINUOUS
 62
     7
 10
6335.059777843
 20
7022.0195747724
 30
0.0
 11
6328.8225175662
 21
7022.0195747724
 31
0.0
  0
ARC
  5
8A
  8
0
  6
CONTINUOUS
 62
     7
 10
6335.059777843
 20
7021.5195747724
 30
0.0
 40
0.5
 50
0.0
 51
90.0
  0
ARC
  5
8B
  8
0
  6
CONTINUOUS
 62
     7
 10
6293.5143665101
 20
6923.4539917683
 30
0.0
 40
51.45058896655491
 50
246.025358573
 51
271.274400839
  0
ARC
  5
8C
  8
0
  6
CONTINUOUS
 62
     7
 10
6295.572708553
 20
6922.9830117295
 30
0.0
 40
50.94638088565118
 50
268.9710859837
 51
294.5385148459
  0
POLYLINE
  5
8D
  8
0
  6
CONTINUOUS
 62
     7
 66
     1
 10
0.0
 20
0.0
 30
0.0
 70
   128
  0
VERTEX
  5
2B1
  8
0
  6
CONTINUOUS
 62
     7
 10
6270.3954363062
 20
6877.5401930064
 30
0.0
  0
VERTEX
  5
2B2
  8
0
  6
CONTINUOUS
 62
     7
 10
6271.2000265971
 20
6877.0989470808
 30
0.0
  0
VERTEX
  5
2B3
  8
0
  6
CONTINUOUS
 62
     7
 10
6272.5913237745
 20
6876.4280584238
 30
0.0
  0
SEQEND
  5
9E0
  8
0
  6
CONTINUOUS
 62
     7
  0
ARC
  5
8E
  8
0
  6
CONTINUOUS
 62
     7
 10
6452.5953305395
 20
7014.7820817202
 30
0.0
 40
192.3897470342446
 50
176.6813463703
 51
179.9156753172
  0
POLYLINE
  5
8F
  8
0
  6
CONTINUOUS
 62
     7
 66
     1
 10
0.0
 20
0.0
 30
0.0
 70
   128
  0
VERTEX
  5
2B4
  8
0
  6
CONTINUOUS
 62
     7
 10
6316.7583066969
 20
6876.6114461991
 30
0.0
  0
VERTEX
  5
2B5
  8
0
  6
CONTINUOUS
 62
     7
 10
6317.5141248949
 20
6876.9728568773
 30
0.0
  0
VERTEX
  5
2B6
  8
0
  6
CONTINUOUS
 62
     7
 10
6318.8527953796
 20
6877.7044902502
 30
0.0
  0
SEQEND
  5
9E1
  8
0
  6
CONTINUOUS
 62
     7
  0
POLYLINE
  5
90
  8
0
  6
CONTINUOUS
 62
     7
 66
     1
 10
0.0
 20
0.0
 30
0.0
 70
   128
  0
VERTEX
  5
2B7
  8
0
  6
CONTINUOUS
 62
     7
 10
6328.8117766865
 20
7018.4088685157
 30
0.0
  0
VERTEX
  5
2B8
  8
0
  6
CONTINUOUS
 62
     7
 10
6328.8044132843
 20
7020.0210229736
 30
0.0
  0
VERTEX
  5
2B9
  8
0
  6
CONTINUOUS
 62
     7
 10
6328.7965737508
 20
7020.8573042241
 30
0.0
  0
SEQEND
  5
9E2
  8
0
  6
CONTINUOUS
 62
     7
  0
ARC
  5
91
  8
0
  6
CONTINUOUS
 62
     7
 10
6589.7906553268
 20
7009.4678370984
 30
0.0
 40
329.7711623108003
 50
177.0632555759
 51
180.7613306841
  0
POLYLINE
  5
92
  8
0
  6
CONTINUOUS
 62
     7
 66
     1
 10
0.0
 20
0.0
 30
0.0
 70
   128
  0
VERTEX
  5
2BA
  8
0
  6
CONTINUOUS
 62
     7
 10
6260.4097924429
 20
6997.1896109252
 30
0.0
  0
VERTEX
  5
2BB
  8
0
  6
CONTINUOUS
 62
     7
 10
6260.4280263315
 20
6996.6045496208
 30
0.0
  0
VERTEX
  5
2BC
  8
0
  6
CONTINUOUS
 62
     7
 10
6260.5375704903
 20
6993.5802141945
 30
0.0
  0
VERTEX
  5
2BD
  8
0
  6
CONTINUOUS
 62
     7
 10
6260.6630294325
 20
6990.7038680151
 30
0.0
  0
VERTEX
  5
2BE
  8
0
  6
CONTINUOUS
 62
     7
 10
6260.7359076175
 20
6989.277149955
 30
0.0
  0
VERTEX
  5
2BF
  8
0
  6
CONTINUOUS
 62
     7
 10
6260.8164369808
 20
6987.8477566902
 30
0.0
  0
VERTEX
  5
2C0
  8
0
  6
CONTINUOUS
 62
     7
 10
6260.922817277
 20
6986.1127979524
 30
0.0
  0
VERTEX
  5
2C1
  8
0
  6
CONTINUOUS
 62
     7
 10
6261.0485370416
 20
6984.1126350735
 30
0.0
  0
VERTEX
  5
2C2
  8
0
  6
CONTINUOUS
 62
     7
 10
6261.1568482938
 20
6982.1645759927
 30
0.0
  0
VERTEX
  5
2C3
  8
0
  6
CONTINUOUS
 62
     7
 10
6261.256984871
 20
6979.9362014188
 30
0.0
  0
VERTEX
  5
2C4
  8
0
  6
CONTINUOUS
 62
     7
 10
6261.344103624
 20
6977.4137676008
 30
0.0
  0
VERTEX
  5
2C5
  8
0
  6
CONTINUOUS
 62
     7
 10
6261.4158548054
 20
6974.8733322178
 30
0.0
  0
VERTEX
  5
2C6
  8
0
  6
CONTINUOUS
 62
     7
 10
6261.4827553442
 20
6972.2819338363
 30
0.0
  0
VERTEX
  5
2C7
  8
0
  6
CONTINUOUS
 62
     7
 10
6261.5351799517
 20
6970.1488942187
 30
0.0
  0
VERTEX
  5
2C8
  8
0
  6
CONTINUOUS
 62
     7
 10
6261.5832109306
 20
6967.9596273097
 30
0.0
  0
VERTEX
  5
2C9
  8
0
  6
CONTINUOUS
 62
     7
 10
6261.6239734341
 20
6965.5644533008
 30
0.0
  0
VERTEX
  5
2CA
  8
0
  6
CONTINUOUS
 62
     7
 10
6261.6490790268
 20
6962.9752788582
 30
0.0
  0
VERTEX
  5
2CB
  8
0
  6
CONTINUOUS
 62
     7
 10
6261.6514346002
 20
6960.2568651623
 30
0.0
  0
VERTEX
  5
2CC
  8
0
  6
CONTINUOUS
 62
     7
 10
6261.642115223
 20
6957.5811173436
 30
0.0
  0
VERTEX
  5
2CD
  8
0
  6
CONTINUOUS
 62
     7
 10
6261.6383955835
 20
6955.6583024918
 30
0.0
  0
VERTEX
  5
2CE
  8
0
  6
CONTINUOUS
 62
     7
 10
6261.6467246957
 20
6953.7651572316
 30
0.0
  0
VERTEX
  5
2CF
  8
0
  6
CONTINUOUS
 62
     7
 10
6261.6729529673
 20
6951.6770527706
 30
0.0
  0
VERTEX
  5
2D0
  8
0
  6
CONTINUOUS
 62
     7
 10
6261.7207197719
 20
6949.4251583998
 30
0.0
  0
VERTEX
  5
2D1
  8
0
  6
CONTINUOUS
 62
     7
 10
6261.7660982832
 20
6947.7603422119
 30
0.0
  0
VERTEX
  5
2D2
  8
0
  6
CONTINUOUS
 62
     7
 10
6261.8257263208
 20
6945.7267672271
 30
0.0
  0
VERTEX
  5
2D3
  8
0
  6
CONTINUOUS
 62
     7
 10
6261.8971833501
 20
6943.4026387826
 30
0.0
  0
VERTEX
  5
2D4
  8
0
  6
CONTINUOUS
 62
     7
 10
6261.9720497191
 20
6940.9522692507
 30
0.0
  0
VERTEX
  5
2D5
  8
0
  6
CONTINUOUS
 62
     7
 10
6262.0354252994
 20
6938.6479009245
 30
0.0
  0
VERTEX
  5
2D6
  8
0
  6
CONTINUOUS
 62
     7
 10
6262.0777283157
 20
6936.8001833245
 30
0.0
  0
SEQEND
  5
9E3
  8
0
  6
CONTINUOUS
 62
     7
  0
POLYLINE
  5
93
  8
0
  6
CONTINUOUS
 62
     7
 66
     1
 10
0.0
 20
0.0
 30
0.0
 70
   128
  0
VERTEX
  5
2D7
  8
0
  6
CONTINUOUS
 62
     7
 10
6262.8523068082
 20
6923.5132082915
 30
0.0
  0
VERTEX
  5
2D8
  8
0
  6
CONTINUOUS
 62
     7
 10
6262.9794029531
 20
6922.1022973666
 30
0.0
  0
VERTEX
  5
2D9
  8
0
  6
CONTINUOUS
 62
     7
 10
6263.0901830871
 20
6920.8970629231
 30
0.0
  0
VERTEX
  5
2DA
  8
0
  6
CONTINUOUS
 62
     7
 10
6263.1762858119
 20
6919.9449332361
 30
0.0
  0
VERTEX
  5
2DB
  8
0
  6
CONTINUOUS
 62
     7
 10
6263.2340219027
 20
6919.2851142978
 30
0.0
  0
VERTEX
  5
2DC
  8
0
  6
CONTINUOUS
 62
     7
 10
6263.2783063972
 20
6918.7647058855
 30
0.0
  0
VERTEX
  5
2DD
  8
0
  6
CONTINUOUS
 62
     7
 10
6263.3701368523
 20
6917.6945167279
 30
0.0
  0
VERTEX
  5
2DE
  8
0
  6
CONTINUOUS
 62
     7
 10
6263.5040319428
 20
6916.0999186415
 30
0.0
  0
VERTEX
  5
2DF
  8
0
  6
CONTINUOUS
 62
     7
 10
6263.6153268285
 20
6914.7173176719
 30
0.0
  0
VERTEX
  5
2E0
  8
0
  6
CONTINUOUS
 62
     7
 10
6263.6368023863
 20
6914.4350371492
 30
0.0
  0
SEQEND
  5
9E4
  8
0
  6
CONTINUOUS
 62
     7
  0
POLYLINE
  5
94
  8
0
  6
CONTINUOUS
 62
     7
 66
     1
 10
0.0
 20
0.0
 30
0.0
 70
   128
  0
VERTEX
  5
2E1
  8
0
  6
CONTINUOUS
 62
     7
 10
6325.6944927549
 20
6920.8666229617
 30
0.0
  0
VERTEX
  5
2E2
  8
0
  6
CONTINUOUS
 62
     7
 10
6325.7349559016
 20
6922.12637996
 30
0.0
  0
VERTEX
  5
2E3
  8
0
  6
CONTINUOUS
 62
     7
 10
6325.7756892402
 20
6923.5766384016
 30
0.0
  0
VERTEX
  5
2E4
  8
0
  6
CONTINUOUS
 62
     7
 10
6325.8118144661
 20
6924.9610845455
 30
0.0
  0
VERTEX
  5
2E5
  8
0
  6
CONTINUOUS
 62
     7
 10
6325.8425502895
 20
6926.1931988878
 30
0.0
  0
VERTEX
  5
2E6
  8
0
  6
CONTINUOUS
 62
     7
 10
6325.9006084527
 20
6928.5252554434
 30
0.0
  0
VERTEX
  5
2E7
  8
0
  6
CONTINUOUS
 62
     7
 10
6325.9615188668
 20
6931.0288580119
 30
0.0
  0
VERTEX
  5
2E8
  8
0
  6
CONTINUOUS
 62
     7
 10
6326.019107908
 20
6933.5672597605
 30
0.0
  0
VERTEX
  5
2E9
  8
0
  6
CONTINUOUS
 62
     7
 10
6326.0620423019
 20
6935.7219405787
 30
0.0
  0
VERTEX
  5
2EA
  8
0
  6
CONTINUOUS
 62
     7
 10
6326.0905366026
 20
6937.3677412344
 30
0.0
  0
VERTEX
  5
2EB
  8
0
  6
CONTINUOUS
 62
     7
 10
6326.105505473
 20
6938.4058481852
 30
0.0
  0
VERTEX
  5
2EC
  8
0
  6
CONTINUOUS
 62
     7
 10
6326.1235945766
 20
6939.5817799138
 30
0.0
  0
VERTEX
  5
2ED
  8
0
  6
CONTINUOUS
 62
     7
 10
6326.1739654624
 20
6941.1483859883
 30
0.0
  0
VERTEX
  5
2EE
  8
0
  6
CONTINUOUS
 62
     7
 10
6326.2723780743
 20
6943.2446152273
 30
0.0
  0
VERTEX
  5
2EF
  8
0
  6
CONTINUOUS
 62
     7
 10
6326.4153830488
 20
6945.8612886392
 30
0.0
  0
VERTEX
  5
2F0
  8
0
  6
CONTINUOUS
 62
     7
 10
6326.593264418
 20
6948.9084766722
 30
0.0
  0
VERTEX
  5
2F1
  8
0
  6
CONTINUOUS
 62
     7
 10
6326.7543020902
 20
6951.6405900417
 30
0.0
  0
VERTEX
  5
2F2
  8
0
  6
CONTINUOUS
 62
     7
 10
6326.8866407403
 20
6953.9343068867
 30
0.0
  0
VERTEX
  5
2F3
  8
0
  6
CONTINUOUS
 62
     7
 10
6326.9870425714
 20
6955.7362291946
 30
0.0
  0
VERTEX
  5
2F4
  8
0
  6
CONTINUOUS
 62
     7
 10
6327.0594685161
 20
6957.0878219975
 30
0.0
  0
VERTEX
  5
2F5
  8
0
  6
CONTINUOUS
 62
     7
 10
6327.1331892645
 20
6958.5268055778
 30
0.0
  0
VERTEX
  5
2F6
  8
0
  6
CONTINUOUS
 62
     7
 10
6327.213150074
 20
6960.190730325
 30
0.0
  0
VERTEX
  5
2F7
  8
0
  6
CONTINUOUS
 62
     7
 10
6327.2957045937
 20
6962.0674041036
 30
0.0
  0
VERTEX
  5
2F8
  8
0
  6
CONTINUOUS
 62
     7
 10
6327.4324109465
 20
6965.6960581329
 30
0.0
  0
VERTEX
  5
2F9
  8
0
  6
CONTINUOUS
 62
     7
 10
6327.5392277438
 20
6969.0821743894
 30
0.0
  0
VERTEX
  5
2FA
  8
0
  6
CONTINUOUS
 62
     7
 10
6327.629352849
 20
6971.995636411
 30
0.0
  0
VERTEX
  5
2FB
  8
0
  6
CONTINUOUS
 62
     7
 10
6327.7319728622
 20
6974.8889217956
 30
0.0
  0
VERTEX
  5
2FC
  8
0
  6
CONTINUOUS
 62
     7
 10
6327.8738655668
 20
6978.0176155749
 30
0.0
  0
VERTEX
  5
2FD
  8
0
  6
CONTINUOUS
 62
     7
 10
6328.0956839425
 20
6981.6890503854
 30
0.0
  0
VERTEX
  5
2FE
  8
0
  6
CONTINUOUS
 62
     7
 10
6328.1870573115
 20
6983.0566600248
 30
0.0
  0
VERTEX
  5
2FF
  8
0
  6
CONTINUOUS
 62
     7
 10
6328.2584899036
 20
6984.1555359144
 30
0.0
  0
VERTEX
  5
300
  8
0
  6
CONTINUOUS
 62
     7
 10
6328.3175122896
 20
6985.120397767
 30
0.0
  0
VERTEX
  5
301
  8
0
  6
CONTINUOUS
 62
     7
 10
6328.4554192438
 20
6987.740820493
 30
0.0
  0
VERTEX
  5
302
  8
0
  6
CONTINUOUS
 62
     7
 10
6328.5578677912
 20
6990.4662433903
 30
0.0
  0
VERTEX
  5
303
  8
0
  6
CONTINUOUS
 62
     7
 10
6328.6251860625
 20
6993.2477908939
 30
0.0
  0
VERTEX
  5
304
  8
0
  6
CONTINUOUS
 62
     7
 10
6328.6831424554
 20
6996.9724125974
 30
0.0
  0
VERTEX
  5
305
  8
0
  6
CONTINUOUS
 62
     7
 10
6328.7309984595
 20
7000.6685665371
 30
0.0
  0
VERTEX
  5
306
  8
0
  6
CONTINUOUS
 62
     7
 10
6328.7718150339
 20
7004.2767304682
 30
0.0
  0
VERTEX
  5
307
  8
0
  6
CONTINUOUS
 62
     7
 10
6328.7971021146
 20
7006.9027188668
 30
0.0
  0
VERTEX
  5
308
  8
0
  6
CONTINUOUS
 62
     7
 10
6328.8183189215
 20
7009.5387904717
 30
0.0
  0
VERTEX
  5
309
  8
0
  6
CONTINUOUS
 62
     7
 10
6328.8343881272
 20
7012.1564967728
 30
0.0
  0
VERTEX
  5
30A
  8
0
  6
CONTINUOUS
 62
     7
 10
6328.8441588147
 20
7014.6957692819
 30
0.0
  0
VERTEX
  5
30B
  8
0
  6
CONTINUOUS
 62
     7
 10
6328.8469443982
 20
7016.5035308468
 30
0.0
  0
VERTEX
  5
30C
  8
0
  6
CONTINUOUS
 62
     7
 10
6328.8457381414
 20
7018.2070780373
 30
0.0
  0
VERTEX
  5
30D
  8
0
  6
CONTINUOUS
 62
     7
 10
6328.8405030658
 20
7019.7826203889
 30
0.0
  0
VERTEX
  5
30E
  8
0
  6
CONTINUOUS
 62
     7
 10
6328.831141433
 20
7021.2124054092
 30
0.0
  0
VERTEX
  5
30F
  8
0
  6
CONTINUOUS
 62
     7
 10
6328.8175308521
 20
7022.4863170058
 30
0.0
  0
VERTEX
  5
310
  8
0
  6
CONTINUOUS
 62
     7
 10
6328.799708402
 20
7023.5992464437
 30
0.0
  0
VERTEX
  5
311
  8
0
  6
CONTINUOUS
 62
     7
 10
6328.7792898064
 20
7024.5011098639
 30
0.0
  0
VERTEX
  5
312
  8
0
  6
CONTINUOUS
 62
     7
 10
6328.7558514457
 20
7025.2645490773
 30
0.0
  0
VERTEX
  5
313
  8
0
  6
CONTINUOUS
 62
     7
 10
6328.7301910126
 20
7025.8994457169
 30
0.0
  0
VERTEX
  5
314
  8
0
  6
CONTINUOUS
 62
     7
 10
6328.7034980356
 20
7026.421337876
 30
0.0
  0
VERTEX
  5
315
  8
0
  6
CONTINUOUS
 62
     7
 10
6328.6774381832
 20
7026.8514357583
 30
0.0
  0
SEQEND
  5
9E5
  8
0
  6
CONTINUOUS
 62
     7
  0
ARC
  5
95
  8
0
  6
CONTINUOUS
 62
     7
 10
6271.4983184958
 20
6879.2598631409
 30
0.0
 40
2.041602499645254
 50
188.2814993953
 51
237.3420160882
  0
ARC
  5
96
  8
0
  6
CONTINUOUS
 62
     7
 10
6317.7498225568
 20
6879.3718825947
 30
0.0
 40
2.003406677059358
 50
303.462627119
 51
352.7663931391
  0
ARC
  5
97
  8
0
  6
CONTINUOUS
 62
     7
 10
6445.0512358118
 20
6925.739394172
 30
0.0
 40
181.7267098539949
 50
187.5385663293
 51
194.916423003
  0
ARC
  5
98
  8
0
  6
CONTINUOUS
 62
     7
 10
6159.4360510294
 20
6922.3307315756
 30
0.0
 40
166.071736086668
 50
344.915602559
 51
352.4963612029
  0
LINE
  5
99
  8
0
  6
CONTINUOUS
 62
     7
 10
6292.1681105854
 20
7039.7489128914
 30
0.0
 11
6292.1147467769
 21
7039.7489128914
 31
0.0
  0
LINE
  5
9A
  8
0
  6
CONTINUOUS
 62
     7
 10
6297.1147467769
 20
7039.7489128914
 30
0.0
 11
6292.1681105854
 21
7039.7489128914
 31
0.0
  0
LINE
  5
9B
  8
0
  6
CONTINUOUS
 62
     7
 10
6292.3147467769
 20
7039.9489128914
 30
0.0
 11
6296.9147467769
 21
7039.9489128914
 31
0.0
  0
ARC
  5
9C
  8
0
  6
CONTINUOUS
 62
     7
 10
6336.8768972638
 20
7015.4002483715
 30
0.0
 40
0.1878627547375111
 50
288.3403626225
 51
347.605664919
  0
POLYLINE
  5
9D
  8
0
  6
CONTINUOUS
 62
     7
 66
     1
 10
0.0
 20
0.0
 30
0.0
 70
   128
  0
VERTEX
  5
316
  8
0
  6
CONTINUOUS
 62
     7
 10
6336.9360103857
 20
7015.2219282844
 30
0.0
  0
VERTEX
  5
317
  8
0
  6
CONTINUOUS
 62
     7
 10
6336.4314911659
 20
7015.0540309955
 30
0.0
  0
VERTEX
  5
318
  8
0
  6
CONTINUOUS
 62
     7
 10
6335.559777843
 20
7014.8999791959
 30
0.0
  0
SEQEND
  5
9E6
  8
0
  6
CONTINUOUS
 62
     7
  0
LINE
  5
9E
  8
0
  6
CONTINUOUS
 62
     7
 10
6335.5516460667
 20
7017.3586880197
 30
0.0
 11
6335.559777843
 21
7017.3586880197
 31
0.0
  0
LINE
  5
9F
  8
0
  6
CONTINUOUS
 62
     7
 10
6335.5516460667
 20
7013.3804615251
 30
0.0
 11
6335.559777843
 21
7013.3804615251
 31
0.0
  0
LINE
  5
A0
  8
0
  6
CONTINUOUS
 62
     7
 10
6335.5516460667
 20
7012.6794628143
 30
0.0
 11
6335.559777843
 21
7012.6794628143
 31
0.0
  0
LINE
  5
A1
  8
0
  6
CONTINUOUS
 62
     7
 10
6335.059777843
 20
7016.5245557972
 30
0.0
 11
6335.059777843
 21
7021.9853174133
 31
0.0
  0
LINE
  5
A2
  8
0
  6
CONTINUOUS
 62
     7
 10
6335.059777843
 20
7015.9192879143
 30
0.0
 11
6335.059777843
 21
7016.5245557972
 31
0.0
  0
LINE
  5
A3
  8
0
  6
CONTINUOUS
 62
     7
 10
6335.059777843
 20
7008.0751134349
 30
0.0
 11
6335.059777843
 21
7008.0776042881
 31
0.0
  0
ARC
  5
A4
  8
0
  6
CONTINUOUS
 62
     7
 10
6335.0611645763
 20
7021.486704051
 30
0.0
 40
0.4986152907151566
 50
0.1632559013
 51
90.1593494484
  0
LINE
  5
A5
  8
0
  6
CONTINUOUS
 62
     7
 10
6335.559777843
 20
7021.4881247801
 30
0.0
 11
6335.559777843
 21
7016.161326067
 31
0.0
  0
ARC
  5
A6
  8
0
  6
CONTINUOUS
 62
     7
 10
6335.1195233573
 20
7016.0810481548
 30
0.0
 40
0.4475137487503468
 50
10.3340255276
 51
97.6722048715
  0
LINE
  5
A7
  8
0
  6
CONTINUOUS
 62
     7
 10
6335.559777843
 20
7016.161326067
 30
0.0
 11
6335.559777843
 21
7008.5316218819
 31
0.0
  0
POLYLINE
  5
A8
  8
0
  6
CONTINUOUS
 62
     7
 66
     1
 10
0.0
 20
0.0
 30
0.0
 70
   128
  0
VERTEX
  5
319
  8
0
  6
CONTINUOUS
 62
     7
 10
6335.059777843
 20
7015.9192879143
 30
0.0
  0
VERTEX
  5
31A
  8
0
  6
CONTINUOUS
 62
     7
 10
6335.2523753651
 20
7015.9378978538
 30
0.0
  0
VERTEX
  5
31B
  8
0
  6
CONTINUOUS
 62
     7
 10
6335.4145069166
 20
7015.9905389283
 30
0.0
  0
VERTEX
  5
31C
  8
0
  6
CONTINUOUS
 62
     7
 10
6335.5222132356
 20
7016.0690137674
 30
0.0
  0
VERTEX
  5
31D
  8
0
  6
CONTINUOUS
 62
     7
 10
6335.559777843
 20
7016.161326067
 30
0.0
  0
SEQEND
  5
9E7
  8
0
  6
CONTINUOUS
 62
     7
  0
LINE
  5
A9
  8
0
  6
CONTINUOUS
 62
     7
 10
6335.059777843
 20
7022.0086928328
 30
0.0
 11
6328.8226338298
 21
7022.0086928328
 31
0.0
  0
LINE
  5
AA
  8
0
  6
CONTINUOUS
 62
     7
 10
6335.059777843
 20
7021.9853174133
 30
0.0
 11
6335.059777843
 21
7022.0086928328
 31
0.0
  0
ARC
  5
AB
  8
0
  6
CONTINUOUS
 62
     7
 10
6335.0606977399
 20
7021.5096132406
 30
0.0
 40
0.4990804399295617
 50
0.066568755
 51
90.1056067052
  0
POLYLINE
  5
AC
  8
0
  6
CONTINUOUS
 62
     7
 66
     1
 10
0.0
 20
0.0
 30
0.0
 70
   128
  0
VERTEX
  5
31E
  8
0
  6
CONTINUOUS
 62
     7
 10
6270.1455738478
 20
6878.4427593237
 30
0.0
  0
VERTEX
  5
31F
  8
0
  6
CONTINUOUS
 62
     7
 10
6269.8085198276
 20
6891.3938288111
 30
0.0
  0
VERTEX
  5
320
  8
0
  6
CONTINUOUS
 62
     7
 10
6269.2885666154
 20
6904.3196588981
 30
0.0
  0
VERTEX
  5
321
  8
0
  6
CONTINUOUS
 62
     7
 10
6268.5639393488
 20
6917.1833487578
 30
0.0
  0
VERTEX
  5
322
  8
0
  6
CONTINUOUS
 62
     7
 10
6268.0038322714
 20
6925.0454406161
 30
0.0
  0
VERTEX
  5
323
  8
0
  6
CONTINUOUS
 62
     7
 10
6267.351529631
 20
6932.8691589423
 30
0.0
  0
VERTEX
  5
324
  8
0
  6
CONTINUOUS
 62
     7
 10
6266.6130613393
 20
6940.6158605414
 30
0.0
  0
VERTEX
  5
325
  8
0
  6
CONTINUOUS
 62
     7
 10
6265.7944573075
 20
6948.2469022182
 30
0.0
  0
VERTEX
  5
326
  8
0
  6
CONTINUOUS
 62
     7
 10
6264.9017474471
 20
6955.7236407774
 30
0.0
  0
VERTEX
  5
327
  8
0
  6
CONTINUOUS
 62
     7
 10
6264.296092988
 20
6960.4377633971
 30
0.0
  0
VERTEX
  5
328
  8
0
  6
CONTINUOUS
 62
     7
 10
6263.4639154858
 20
6966.6165749405
 30
0.0
  0
VERTEX
  5
329
  8
0
  6
CONTINUOUS
 62
     7
 10
6262.6449570896
 20
6972.5937807985
 30
0.0
  0
VERTEX
  5
32A
  8
0
  6
CONTINUOUS
 62
     7
 10
6261.8909799518
 20
6978.3336450044
 30
0.0
  0
VERTEX
  5
32B
  8
0
  6
CONTINUOUS
 62
     7
 10
6261.0912639248
 20
6985.8227806492
 30
0.0
  0
VERTEX
  5
32C
  8
0
  6
CONTINUOUS
 62
     7
 10
6260.6203929081
 20
6992.9795796625
 30
0.0
  0
VERTEX
  5
32D
  8
0
  6
CONTINUOUS
 62
     7
 10
6260.5179958842
 20
6995.6820498998
 30
0.0
  0
VERTEX
  5
32E
  8
0
  6
CONTINUOUS
 62
     7
 10
6260.4728629167
 20
6997.0965548283
 30
0.0
  0
VERTEX
  5
32F
  8
0
  6
CONTINUOUS
 62
     7
 10
6260.4713079063
 20
6997.1475076239
 30
0.0
  0
SEQEND
  5
9E8
  8
0
  6
CONTINUOUS
 62
     7
  0
POLYLINE
  5
AD
  8
0
  6
CONTINUOUS
 62
     7
 66
     1
 10
0.0
 20
0.0
 30
0.0
 70
   128
  0
VERTEX
  5
330
  8
0
  6
CONTINUOUS
 62
     7
 10
6260.4713079063
 20
6997.1475076239
 30
0.0
  0
VERTEX
  5
331
  8
0
  6
CONTINUOUS
 62
     7
 10
6260.4739810624
 20
6997.0657727008
 30
0.0
  0
VERTEX
  5
332
  8
0
  6
CONTINUOUS
 62
     7
 10
6260.6526971505
 20
6992.5465307722
 30
0.0
  0
VERTEX
  5
333
  8
0
  6
CONTINUOUS
 62
     7
 10
6261.1107972526
 20
6986.1041198287
 30
0.0
  0
VERTEX
  5
334
  8
0
  6
CONTINUOUS
 62
     7
 10
6261.8338830003
 20
6979.3146361478
 30
0.0
  0
VERTEX
  5
335
  8
0
  6
CONTINUOUS
 62
     7
 10
6262.7596086562
 20
6972.2251008162
 30
0.0
  0
VERTEX
  5
336
  8
0
  6
CONTINUOUS
 62
     7
 10
6263.5505718678
 20
6966.7662716986
 30
0.0
  0
VERTEX
  5
337
  8
0
  6
CONTINUOUS
 62
     7
 10
6264.3899817179
 20
6961.1653914602
 30
0.0
  0
VERTEX
  5
338
  8
0
  6
CONTINUOUS
 62
     7
 10
6265.2329214494
 20
6955.4120150685
 30
0.0
  0
VERTEX
  5
339
  8
0
  6
CONTINUOUS
 62
     7
 10
6266.0517133085
 20
6949.5291530717
 30
0.0
  0
VERTEX
  5
33A
  8
0
  6
CONTINUOUS
 62
     7
 10
6266.8256834168
 20
6943.5439367454
 30
0.0
  0
VERTEX
  5
33B
  8
0
  6
CONTINUOUS
 62
     7
 10
6267.5413330943
 20
6937.4735652511
 30
0.0
  0
VERTEX
  5
33C
  8
0
  6
CONTINUOUS
 62
     7
 10
6268.3954781631
 20
6929.2707366175
 30
0.0
  0
VERTEX
  5
33D
  8
0
  6
CONTINUOUS
 62
     7
 10
6269.137191694
 20
6920.9816446387
 30
0.0
  0
VERTEX
  5
33E
  8
0
  6
CONTINUOUS
 62
     7
 10
6269.7703131389
 20
6912.6391511831
 30
0.0
  0
VERTEX
  5
33F
  8
0
  6
CONTINUOUS
 62
     7
 10
6270.5281961123
 20
6900.0917591993
 30
0.0
  0
VERTEX
  5
340
  8
0
  6
CONTINUOUS
 62
     7
 10
6271.0042811439
 20
6889.5360897931
 30
0.0
  0
VERTEX
  5
341
  8
0
  6
CONTINUOUS
 62
     7
 10
6271.3492211975
 20
6878.9610223904
 30
0.0
  0
SEQEND
  5
9E9
  8
0
  6
CONTINUOUS
 62
     7
  0
ARC
  5
AE
  8
0
  6
CONTINUOUS
 62
     7
 10
6273.8559701735
 20
6871.4823425757
 30
0.0
 40
7.88761321315258
 50
108.5304320502
 51
118.0607837026
  0
ARC
  5
AF
  8
0
  6
CONTINUOUS
 62
     7
 10
6106.0615850128
 20
6872.8524433323
 30
0.0
 40
188.5980134998139
 50
359.7592217988
 51
0.3624139339
  0
POLYLINE
  5
B0
  8
0
  6
CONTINUOUS
 62
     7
 66
     1
 10
0.0
 20
0.0
 30
0.0
 70
   128
  0
VERTEX
  5
342
  8
0
  6
CONTINUOUS
 62
     7
 10
6272.8177777008
 20
6878.2619919792
 30
0.0
  0
VERTEX
  5
343
  8
0
  6
CONTINUOUS
 62
     7
 10
6272.8184046905
 20
6878.2647691164
 30
0.0
  0
VERTEX
  5
344
  8
0
  6
CONTINUOUS
 62
     7
 10
6272.8184191153
 20
6878.2656202545
 30
0.0
  0
SEQEND
  5
9EA
  8
0
  6
CONTINUOUS
 62
     7
  0
ARC
  5
B1
  8
0
  6
CONTINUOUS
 62
     7
 10
6293.3485728558
 20
6925.8894034925
 30
0.0
 40
51.86050464961986
 50
246.6795918784
 51
271.4444132954
  0
POLYLINE
  5
B2
  8
0
  6
CONTINUOUS
 62
     7
 66
     1
 10
0.0
 20
0.0
 30
0.0
 70
   128
  0
VERTEX
  5
345
  8
0
  6
CONTINUOUS
 62
     7
 10
6316.5188810458
 20
6878.4601736952
 30
0.0
  0
VERTEX
  5
346
  8
0
  6
CONTINUOUS
 62
     7
 10
6316.519161065
 20
6878.4570746522
 30
0.0
  0
VERTEX
  5
347
  8
0
  6
CONTINUOUS
 62
     7
 10
6316.5195859025
 20
6878.4558230941
 30
0.0
  0
SEQEND
  5
9EB
  8
0
  6
CONTINUOUS
 62
     7
  0
LINE
  5
B3
  8
0
  6
CONTINUOUS
 62
     7
 10
6294.655825657
 20
6874.0453774854
 30
0.0
 11
6294.6558398045
 21
6874.0463489049
 31
0.0
  0
ARC
  5
B4
  8
0
  6
CONTINUOUS
 62
     7
 10
6295.5932659898
 20
6925.7571064203
 30
0.0
 40
51.71925377143111
 50
268.9614408286
 51
293.8660695467
  0
POLYLINE
  5
B5
  8
0
  6
CONTINUOUS
 62
     7
 66
     1
 10
0.0
 20
0.0
 30
0.0
 70
   128
  0
VERTEX
  5
348
  8
0
  6
CONTINUOUS
 62
     7
 10
6294.6197541366
 20
7039.6811374818
 30
0.0
  0
VERTEX
  5
349
  8
0
  6
CONTINUOUS
 62
     7
 10
6294.6301807557
 20
7038.9661758849
 30
0.0
  0
VERTEX
  5
34A
  8
0
  6
CONTINUOUS
 62
     7
 10
6294.6262832309
 20
7037.9989079563
 30
0.0
  0
VERTEX
  5
34B
  8
0
  6
CONTINUOUS
 62
     7
 10
6294.6116357941
 20
7036.7260145732
 30
0.0
  0
VERTEX
  5
34C
  8
0
  6
CONTINUOUS
 62
     7
 10
6294.5898123612
 20
7035.0941766211
 30
0.0
  0
VERTEX
  5
34D
  8
0
  6
CONTINUOUS
 62
     7
 10
6294.5643868424
 20
7033.0500749857
 30
0.0
  0
VERTEX
  5
34E
  8
0
  6
CONTINUOUS
 62
     7
 10
6294.5389327752
 20
7030.5403890258
 30
0.0
  0
VERTEX
  5
34F
  8
0
  6
CONTINUOUS
 62
     7
 10
6294.5169975054
 20
7027.5118196632
 30
0.0
  0
VERTEX
  5
350
  8
0
  6
CONTINUOUS
 62
     7
 10
6294.5044950303
 20
7024.7335547296
 30
0.0
  0
VERTEX
  5
351
  8
0
  6
CONTINUOUS
 62
     7
 10
6294.4979942096
 20
7021.576303536
 30
0.0
  0
VERTEX
  5
352
  8
0
  6
CONTINUOUS
 62
     7
 10
6294.4993203024
 20
7018.0141114584
 30
0.0
  0
VERTEX
  5
353
  8
0
  6
CONTINUOUS
 62
     7
 10
6294.5104411772
 20
7014.0208742285
 30
0.0
  0
VERTEX
  5
354
  8
0
  6
CONTINUOUS
 62
     7
 10
6294.5333310547
 20
7009.5704809128
 30
0.0
  0
VERTEX
  5
355
  8
0
  6
CONTINUOUS
 62
     7
 10
6294.5698159447
 20
7004.6375151734
 30
0.0
  0
VERTEX
  5
356
  8
0
  6
CONTINUOUS
 62
     7
 10
6294.6203121444
 20
6999.2331469235
 30
0.0
  0
VERTEX
  5
357
  8
0
  6
CONTINUOUS
 62
     7
 10
6294.6849282607
 20
6993.5622396823
 30
0.0
  0
VERTEX
  5
358
  8
0
  6
CONTINUOUS
 62
     7
 10
6294.7654921176
 20
6987.5481692025
 30
0.0
  0
VERTEX
  5
359
  8
0
  6
CONTINUOUS
 62
     7
 10
6294.8540168467
 20
6981.1028937329
 30
0.0
  0
VERTEX
  5
35A
  8
0
  6
CONTINUOUS
 62
     7
 10
6294.9435929524
 20
6974.1210901427
 30
0.0
  0
VERTEX
  5
35B
  8
0
  6
CONTINUOUS
 62
     7
 10
6295.0099020427
 20
6968.1908482527
 30
0.0
  0
VERTEX
  5
35C
  8
0
  6
CONTINUOUS
 62
     7
 10
6295.0688384514
 20
6961.8138670549
 30
0.0
  0
VERTEX
  5
35D
  8
0
  6
CONTINUOUS
 62
     7
 10
6295.1167897241
 20
6954.939458322
 30
0.0
  0
VERTEX
  5
35E
  8
0
  6
CONTINUOUS
 62
     7
 10
6295.1502926168
 20
6947.5166888323
 30
0.0
  0
VERTEX
  5
35F
  8
0
  6
CONTINUOUS
 62
     7
 10
6295.1643039728
 20
6941.1495256627
 30
0.0
  0
VERTEX
  5
360
  8
0
  6
CONTINUOUS
 62
     7
 10
6295.1649848578
 20
6934.3728903623
 30
0.0
  0
VERTEX
  5
361
  8
0
  6
CONTINUOUS
 62
     7
 10
6295.1505283118
 20
6927.1607605649
 30
0.0
  0
VERTEX
  5
362
  8
0
  6
CONTINUOUS
 62
     7
 10
6295.1191273006
 20
6919.4871139555
 30
0.0
  0
VERTEX
  5
363
  8
0
  6
CONTINUOUS
 62
     7
 10
6295.0689747903
 20
6911.325928219
 30
0.0
  0
VERTEX
  5
364
  8
0
  6
CONTINUOUS
 62
     7
 10
6294.9997171944
 20
6902.8107414987
 30
0.0
  0
VERTEX
  5
365
  8
0
  6
CONTINUOUS
 62
     7
 10
6294.9089167961
 20
6893.775518045
 30
0.0
  0
VERTEX
  5
366
  8
0
  6
CONTINUOUS
 62
     7
 10
6294.7948616485
 20
6884.1956048498
 30
0.0
  0
VERTEX
  5
367
  8
0
  6
CONTINUOUS
 62
     7
 10
6294.6558398045
 20
6874.0463489049
 30
0.0
  0
SEQEND
  5
9EC
  8
0
  6
CONTINUOUS
 62
     7
  0
POLYLINE
  5
B6
  8
0
  6
CONTINUOUS
 62
     7
 66
     1
 10
0.0
 20
0.0
 30
0.0
 70
   128
  0
VERTEX
  5
368
  8
0
  6
CONTINUOUS
 62
     7
 10
6262.7105943492
 20
7031.5858928832
 30
0.0
  0
VERTEX
  5
369
  8
0
  6
CONTINUOUS
 62
     7
 10
6262.7581970659
 20
7031.1617184466
 30
0.0
  0
VERTEX
  5
36A
  8
0
  6
CONTINUOUS
 62
     7
 10
6262.7532658049
 20
7030.5584895812
 30
0.0
  0
VERTEX
  5
36B
  8
0
  6
CONTINUOUS
 62
     7
 10
6262.7086516306
 20
7029.7158589099
 30
0.0
  0
VERTEX
  5
36C
  8
0
  6
CONTINUOUS
 62
     7
 10
6262.637205467
 20
7028.5734788622
 30
0.0
  0
VERTEX
  5
36D
  8
0
  6
CONTINUOUS
 62
     7
 10
6262.5517779021
 20
7027.0710014037
 30
0.0
  0
VERTEX
  5
36E
  8
0
  6
CONTINUOUS
 62
     7
 10
6262.4652194746
 20
7025.148078432
 30
0.0
  0
VERTEX
  5
36F
  8
0
  6
CONTINUOUS
 62
     7
 10
6262.390380537
 20
7022.7443614597
 30
0.0
  0
VERTEX
  5
370
  8
0
  6
CONTINUOUS
 62
     7
 10
6262.3481711
 20
7020.4791252411
 30
0.0
  0
VERTEX
  5
371
  8
0
  6
CONTINUOUS
 62
     7
 10
6262.327369931
 20
7017.8505760964
 30
0.0
  0
VERTEX
  5
372
  8
0
  6
CONTINUOUS
 62
     7
 10
6262.3342194217
 20
7014.8294797234
 30
0.0
  0
VERTEX
  5
373
  8
0
  6
CONTINUOUS
 62
     7
 10
6262.3749498293
 20
7011.3865458601
 30
0.0
  0
VERTEX
  5
374
  8
0
  6
CONTINUOUS
 62
     7
 10
6262.4557661265
 20
7007.4923676513
 30
0.0
  0
VERTEX
  5
375
  8
0
  6
CONTINUOUS
 62
     7
 10
6262.5828701271
 20
7003.1175236724
 30
0.0
  0
VERTEX
  5
376
  8
0
  6
CONTINUOUS
 62
     7
 10
6262.7630087969
 20
6998.2337101689
 30
0.0
  0
VERTEX
  5
377
  8
0
  6
CONTINUOUS
 62
     7
 10
6263.0239159911
 20
6992.9802156216
 30
0.0
  0
VERTEX
  5
378
  8
0
  6
CONTINUOUS
 62
     7
 10
6263.4518000254
 20
6987.3921789539
 30
0.0
  0
VERTEX
  5
379
  8
0
  6
CONTINUOUS
 62
     7
 10
6264.0830705207
 20
6981.4930994847
 30
0.0
  0
VERTEX
  5
37A
  8
0
  6
CONTINUOUS
 62
     7
 10
6264.8822278168
 20
6975.1487449733
 30
0.0
  0
VERTEX
  5
37B
  8
0
  6
CONTINUOUS
 62
     7
 10
6265.6013891738
 20
6969.7565750766
 30
0.0
  0
VERTEX
  5
37C
  8
0
  6
CONTINUOUS
 62
     7
 10
6266.3793402205
 20
6963.9287761
 30
0.0
  0
VERTEX
  5
37D
  8
0
  6
CONTINUOUS
 62
     7
 10
6267.1963367664
 20
6957.5946219377
 30
0.0
  0
VERTEX
  5
37E
  8
0
  6
CONTINUOUS
 62
     7
 10
6268.0326388676
 20
6950.6833824135
 30
0.0
  0
VERTEX
  5
37F
  8
0
  6
CONTINUOUS
 62
     7
 10
6268.7023208264
 20
6944.6913520346
 30
0.0
  0
VERTEX
  5
380
  8
0
  6
CONTINUOUS
 62
     7
 10
6269.3616219465
 20
6938.2485003312
 30
0.0
  0
VERTEX
  5
381
  8
0
  6
CONTINUOUS
 62
     7
 10
6270.0004368387
 20
6931.3186121153
 30
0.0
  0
VERTEX
  5
382
  8
0
  6
CONTINUOUS
 62
     7
 10
6270.608659965
 20
6923.8654718401
 30
0.0
  0
VERTEX
  5
383
  8
0
  6
CONTINUOUS
 62
     7
 10
6271.1761857791
 20
6915.8528639466
 30
0.0
  0
VERTEX
  5
384
  8
0
  6
CONTINUOUS
 62
     7
 10
6271.6841855869
 20
6907.4037258128
 30
0.0
  0
VERTEX
  5
385
  8
0
  6
CONTINUOUS
 62
     7
 10
6272.133606937
 20
6898.345679072
 30
0.0
  0
VERTEX
  5
386
  8
0
  6
CONTINUOUS
 62
     7
 10
6272.5148760423
 20
6888.6444138455
 30
0.0
  0
VERTEX
  5
387
  8
0
  6
CONTINUOUS
 62
     7
 10
6272.8184191153
 20
6878.2656202545
 30
0.0
  0
SEQEND
  5
9ED
  8
0
  6
CONTINUOUS
 62
     7
  0
ARC
  5
B7
  8
0
  6
CONTINUOUS
 62
     7
 10
6292.9332336631
 20
6984.7305811333
 30
0.0
 40
55.75686653928524
 50
88.3283253656
 51
122.8228478806
  0
POLYLINE
  5
B8
  8
0
  6
CONTINUOUS
 62
     7
 66
     1
 10
0.0
 20
0.0
 30
0.0
 70
   128
  0
VERTEX
  5
388
  8
0
  6
CONTINUOUS
 62
     7
 10
6294.5597778347
 20
7040.4637177787
 30
0.0
  0
VERTEX
  5
389
  8
0
  6
CONTINUOUS
 62
     7
 10
6294.5910729745
 20
7040.201110913
 30
0.0
  0
VERTEX
  5
38A
  8
0
  6
CONTINUOUS
 62
     7
 10
6294.6086891902
 20
7039.9489128914
 30
0.0
  0
SEQEND
  5
9EE
  8
0
  6
CONTINUOUS
 62
     7
  0
POLYLINE
  5
B9
  8
0
  6
CONTINUOUS
 62
     7
 66
     1
 10
0.0
 20
0.0
 30
0.0
 70
   128
  0
VERTEX
  5
38B
  8
0
  6
CONTINUOUS
 62
     7
 10
6292.2596398574
 20
7039.8938059719
 30
0.0
  0
VERTEX
  5
38C
  8
0
  6
CONTINUOUS
 62
     7
 10
6292.1316650729
 20
7039.8799828474
 30
0.0
  0
VERTEX
  5
38D
  8
0
  6
CONTINUOUS
 62
     7
 10
6292.0164832416
 20
7039.8343509309
 30
0.0
  0
VERTEX
  5
38E
  8
0
  6
CONTINUOUS
 62
     7
 10
6292.1948961862
 20
7039.7923728125
 30
0.0
  0
VERTEX
  5
38F
  8
0
  6
CONTINUOUS
 62
     7
 10
6292.6468205505
 20
7039.7563881761
 30
0.0
  0
VERTEX
  5
390
  8
0
  6
CONTINUOUS
 62
     7
 10
6293.3208680149
 20
7039.7251382578
 30
0.0
  0
VERTEX
  5
391
  8
0
  6
CONTINUOUS
 62
     7
 10
6294.1408664778
 20
7039.6962892058
 30
0.0
  0
VERTEX
  5
392
  8
0
  6
CONTINUOUS
 62
     7
 10
6294.6197541366
 20
7039.6811374818
 30
0.0
  0
SEQEND
  5
9EF
  8
0
  6
CONTINUOUS
 62
     7
  0
ARC
  5
BA
  8
0
  6
CONTINUOUS
 62
     7
 10
6296.1863220063
 20
6984.7305811333
 30
0.0
 40
55.75686653928535
 50
57.1771521194
 51
91.6716746344
  0
POLYLINE
  5
BB
  8
0
  6
CONTINUOUS
 62
     7
 66
     1
 10
0.0
 20
0.0
 30
0.0
 70
   128
  0
VERTEX
  5
393
  8
0
  6
CONTINUOUS
 62
     7
 10
6326.4089613202
 20
7031.5858928832
 30
0.0
  0
VERTEX
  5
394
  8
0
  6
CONTINUOUS
 62
     7
 10
6326.4513569345
 20
7031.1035977954
 30
0.0
  0
VERTEX
  5
395
  8
0
  6
CONTINUOUS
 62
     7
 10
6326.4998641574
 20
7030.4334970178
 30
0.0
  0
VERTEX
  5
396
  8
0
  6
CONTINUOUS
 62
     7
 10
6326.5505204281
 20
7029.5209915066
 30
0.0
  0
VERTEX
  5
397
  8
0
  6
CONTINUOUS
 62
     7
 10
6326.5993627796
 20
7028.3114824246
 30
0.0
  0
VERTEX
  5
398
  8
0
  6
CONTINUOUS
 62
     7
 10
6326.6424272678
 20
7026.750371432
 30
0.0
  0
VERTEX
  5
399
  8
0
  6
CONTINUOUS
 62
     7
 10
6326.6757498051
 20
7024.7830602624
 30
0.0
  0
VERTEX
  5
39A
  8
0
  6
CONTINUOUS
 62
     7
 10
6326.6953661134
 20
7022.3549494105
 30
0.0
  0
VERTEX
  5
39B
  8
0
  6
CONTINUOUS
 62
     7
 10
6326.6985613426
 20
7020.0883224194
 30
0.0
  0
VERTEX
  5
39C
  8
0
  6
CONTINUOUS
 62
     7
 10
6326.6887900816
 20
7017.4771271509
 30
0.0
  0
VERTEX
  5
39D
  8
0
  6
CONTINUOUS
 62
     7
 10
6326.6639853685
 20
7014.4949950554
 30
0.0
  0
VERTEX
  5
39E
  8
0
  6
CONTINUOUS
 62
     7
 10
6326.6223074707
 20
7011.1153866153
 30
0.0
  0
VERTEX
  5
39F
  8
0
  6
CONTINUOUS
 62
     7
 10
6326.5623998872
 20
7007.3113987233
 30
0.0
  0
VERTEX
  5
3A0
  8
0
  6
CONTINUOUS
 62
     7
 10
6326.4829679677
 20
7003.0560817346
 30
0.0
  0
VERTEX
  5
3A1
  8
0
  6
CONTINUOUS
 62
     7
 10
6326.3818581804
 20
6998.3231237009
 30
0.0
  0
VERTEX
  5
3A2
  8
0
  6
CONTINUOUS
 62
     7
 10
6326.2305941731
 20
6993.2278075812
 30
0.0
  0
VERTEX
  5
3A3
  8
0
  6
CONTINUOUS
 62
     7
 10
6325.9491940316
 20
6987.7424256743
 30
0.0
  0
VERTEX
  5
3A4
  8
0
  6
CONTINUOUS
 62
     7
 10
6325.4978174789
 20
6981.8559860946
 30
0.0
  0
VERTEX
  5
3A5
  8
0
  6
CONTINUOUS
 62
     7
 10
6324.8935356735
 20
6975.4539616918
 30
0.0
  0
VERTEX
  5
3A6
  8
0
  6
CONTINUOUS
 62
     7
 10
6324.3258331176
 20
6969.9821010913
 30
0.0
  0
VERTEX
  5
3A7
  8
0
  6
CONTINUOUS
 62
     7
 10
6323.6885879763
 20
6964.0556001257
 30
0.0
  0
VERTEX
  5
3A8
  8
0
  6
CONTINUOUS
 62
     7
 10
6322.9926628413
 20
6957.6145798872
 30
0.0
  0
VERTEX
  5
3A9
  8
0
  6
CONTINUOUS
 62
     7
 10
6322.2489590716
 20
6950.5990955871
 30
0.0
  0
VERTEX
  5
3AA
  8
0
  6
CONTINUOUS
 62
     7
 10
6321.6270113069
 20
6944.5326592098
 30
0.0
  0
VERTEX
  5
3AB
  8
0
  6
CONTINUOUS
 62
     7
 10
6320.9871176785
 20
6938.0293845853
 30
0.0
  0
VERTEX
  5
3AC
  8
0
  6
CONTINUOUS
 62
     7
 10
6320.3348834412
 20
6931.0585400037
 30
0.0
  0
VERTEX
  5
3AD
  8
0
  6
CONTINUOUS
 62
     7
 10
6319.6759141959
 20
6923.5893931346
 30
0.0
  0
VERTEX
  5
3AE
  8
0
  6
CONTINUOUS
 62
     7
 10
6319.0158155207
 20
6915.5912116847
 30
0.0
  0
VERTEX
  5
3AF
  8
0
  6
CONTINUOUS
 62
     7
 10
6318.3718288085
 20
6907.1911705958
 30
0.0
  0
VERTEX
  5
3B0
  8
0
  6
CONTINUOUS
 62
     7
 10
6317.7374704188
 20
6898.2220606646
 30
0.0
  0
VERTEX
  5
3B1
  8
0
  6
CONTINUOUS
 62
     7
 10
6317.1180509614
 20
6888.6547667461
 30
0.0
  0
VERTEX
  5
3B2
  8
0
  6
CONTINUOUS
 62
     7
 10
6316.5188810458
 20
6878.4601736952
 30
0.0
  0
SEQEND
  5
9F0
  8
0
  6
CONTINUOUS
 62
     7
  0
POLYLINE
  5
BC
  8
0
  6
CONTINUOUS
 62
     7
 66
     1
 10
0.0
 20
0.0
 30
0.0
 70
   128
  0
VERTEX
  5
3B3
  8
0
  6
CONTINUOUS
 62
     7
 10
6294.6197541366
 20
7039.6811374818
 30
0.0
  0
VERTEX
  5
3B4
  8
0
  6
CONTINUOUS
 62
     7
 10
6295.480449026
 20
7039.7066014795
 30
0.0
  0
VERTEX
  5
3B5
  8
0
  6
CONTINUOUS
 62
     7
 10
6296.2434036231
 20
7039.7341920634
 30
0.0
  0
VERTEX
  5
3B6
  8
0
  6
CONTINUOUS
 62
     7
 10
6296.8225747559
 20
7039.7658869676
 30
0.0
  0
VERTEX
  5
3B7
  8
0
  6
CONTINUOUS
 62
     7
 10
6297.1526666426
 20
7039.8040175394
 30
0.0
  0
VERTEX
  5
3B8
  8
0
  6
CONTINUOUS
 62
     7
 10
6297.1965104435
 20
7039.8484463209
 30
0.0
  0
VERTEX
  5
3B9
  8
0
  6
CONTINUOUS
 62
     7
 10
6296.9488303026
 20
7039.8947699146
 30
0.0
  0
VERTEX
  5
3BA
  8
0
  6
CONTINUOUS
 62
     7
 10
6296.8879063384
 20
7039.8994974526
 30
0.0
  0
SEQEND
  5
9F1
  8
0
  6
CONTINUOUS
 62
     7
  0
ARC
  5
BD
  8
0
  6
CONTINUOUS
 62
     7
 10
6315.72983012
 20
6872.9375237779
 30
0.0
 40
6.587187692760786
 50
58.8084719221
 51
70.430707912
  0
POLYLINE
  5
BE
  8
0
  6
CONTINUOUS
 62
     7
 66
     1
 10
0.0
 20
0.0
 30
0.0
 70
   128
  0
VERTEX
  5
3BB
  8
0
  6
CONTINUOUS
 62
     7
 10
6317.936186386
 20
6879.144216434
 30
0.0
  0
VERTEX
  5
3BC
  8
0
  6
CONTINUOUS
 62
     7
 10
6318.557527233
 20
6888.9024586442
 30
0.0
  0
VERTEX
  5
3BD
  8
0
  6
CONTINUOUS
 62
     7
 10
6319.2458286126
 20
6898.6443958633
 30
0.0
  0
VERTEX
  5
3BE
  8
0
  6
CONTINUOUS
 62
     7
 10
6320.3345525021
 20
6912.2940392903
 30
0.0
  0
VERTEX
  5
3BF
  8
0
  6
CONTINUOUS
 62
     7
 10
6321.1473503301
 20
6921.3864249397
 30
0.0
  0
VERTEX
  5
3C0
  8
0
  6
CONTINUOUS
 62
     7
 10
6322.0291836777
 20
6930.4283926798
 30
0.0
  0
VERTEX
  5
3C1
  8
0
  6
CONTINUOUS
 62
     7
 10
6322.9782115657
 20
6939.38820246
 30
0.0
  0
VERTEX
  5
3C2
  8
0
  6
CONTINUOUS
 62
     7
 10
6323.7334106388
 20
6946.0482407613
 30
0.0
  0
VERTEX
  5
3C3
  8
0
  6
CONTINUOUS
 62
     7
 10
6324.5177762481
 20
6952.6193976099
 30
0.0
  0
VERTEX
  5
3C4
  8
0
  6
CONTINUOUS
 62
     7
 10
6324.9179042928
 20
6955.8627556021
 30
0.0
  0
VERTEX
  5
3C5
  8
0
  6
CONTINUOUS
 62
     7
 10
6325.5775553216
 20
6961.062447243
 30
0.0
  0
VERTEX
  5
3C6
  8
0
  6
CONTINUOUS
 62
     7
 10
6326.2262039844
 20
6966.1466991279
 30
0.0
  0
VERTEX
  5
3C7
  8
0
  6
CONTINUOUS
 62
     7
 10
6326.8231426126
 20
6971.0549896959
 30
0.0
  0
VERTEX
  5
3C8
  8
0
  6
CONTINUOUS
 62
     7
 10
6327.3511560829
 20
6975.8345239545
 30
0.0
  0
VERTEX
  5
3C9
  8
0
  6
CONTINUOUS
 62
     7
 10
6327.9035226
 20
6981.6343654167
 30
0.0
  0
VERTEX
  5
3CA
  8
0
  6
CONTINUOUS
 62
     7
 10
6328.3120354666
 20
6987.1140193357
 30
0.0
  0
VERTEX
  5
3CB
  8
0
  6
CONTINUOUS
 62
     7
 10
6328.5479237774
 20
6992.2670104327
 30
0.0
  0
VERTEX
  5
3CC
  8
0
  6
CONTINUOUS
 62
     7
 10
6328.6473552217
 20
6997.0466571609
 30
0.0
  0
VERTEX
  5
3CD
  8
0
  6
CONTINUOUS
 62
     7
 10
6328.6489289544
 20
6997.1511248148
 30
0.0
  0
SEQEND
  5
9F2
  8
0
  6
CONTINUOUS
 62
     7
  0
POLYLINE
  5
BF
  8
0
  6
CONTINUOUS
 62
     7
 66
     1
 10
0.0
 20
0.0
 30
0.0
 70
   128
  0
VERTEX
  5
3CE
  8
0
  6
CONTINUOUS
 62
     7
 10
6328.6489289544
 20
6997.1511248148
 30
0.0
  0
VERTEX
  5
3CF
  8
0
  6
CONTINUOUS
 62
     7
 10
6328.648209059
 20
6997.0970999808
 30
0.0
  0
VERTEX
  5
3D0
  8
0
  6
CONTINUOUS
 62
     7
 10
6328.5588502977
 20
6992.1795418055
 30
0.0
  0
VERTEX
  5
3D1
  8
0
  6
CONTINUOUS
 62
     7
 10
6328.3463440022
 20
6986.9349577798
 30
0.0
  0
VERTEX
  5
3D2
  8
0
  6
CONTINUOUS
 62
     7
 10
6327.9696786938
 20
6981.3974875158
 30
0.0
  0
VERTEX
  5
3D3
  8
0
  6
CONTINUOUS
 62
     7
 10
6327.4465576194
 20
6975.6206839558
 30
0.0
  0
VERTEX
  5
3D4
  8
0
  6
CONTINUOUS
 62
     7
 10
6326.9558107375
 20
6970.8344117895
 30
0.0
  0
VERTEX
  5
3D5
  8
0
  6
CONTINUOUS
 62
     7
 10
6326.4214237603
 20
6965.8875193587
 30
0.0
  0
VERTEX
  5
3D6
  8
0
  6
CONTINUOUS
 62
     7
 10
6325.8582523577
 20
6960.770351946
 30
0.0
  0
VERTEX
  5
3D7
  8
0
  6
CONTINUOUS
 62
     7
 10
6325.2863134974
 20
6955.5542424392
 30
0.0
  0
VERTEX
  5
3D8
  8
0
  6
CONTINUOUS
 62
     7
 10
6324.9362357214
 20
6952.3111517341
 30
0.0
  0
VERTEX
  5
3D9
  8
0
  6
CONTINUOUS
 62
     7
 10
6324.2467647583
 20
6945.7477039314
 30
0.0
  0
VERTEX
  5
3DA
  8
0
  6
CONTINUOUS
 62
     7
 10
6323.5802208916
 20
6939.1050925741
 30
0.0
  0
VERTEX
  5
3DB
  8
0
  6
CONTINUOUS
 62
     7
 10
6322.7405658074
 20
6930.1653750477
 30
0.0
  0
VERTEX
  5
3DC
  8
0
  6
CONTINUOUS
 62
     7
 10
6321.9614038715
 20
6921.1510792325
 30
0.0
  0
VERTEX
  5
3DD
  8
0
  6
CONTINUOUS
 62
     7
 10
6321.245909631
 20
6912.0909585279
 30
0.0
  0
VERTEX
  5
3DE
  8
0
  6
CONTINUOUS
 62
     7
 10
6320.2937943082
 20
6898.4786534499
 30
0.0
  0
VERTEX
  5
3DF
  8
0
  6
CONTINUOUS
 62
     7
 10
6319.6844141553
 20
6888.5331859767
 30
0.0
  0
VERTEX
  5
3E0
  8
0
  6
CONTINUOUS
 62
     7
 10
6319.1413380978
 20
6878.5724732024
 30
0.0
  0
SEQEND
  5
9F3
  8
0
  6
CONTINUOUS
 62
     7
  0
ARC
  5
C0
  8
0
  6
CONTINUOUS
 62
     7
 10
6274.86488057
 20
6875.690156735
 30
0.0
 40
4.80191867473933
 50
137.0657948912
 51
154.2694860855
  0
ARC
  5
C1
  8
0
  6
CONTINUOUS
 62
     7
 10
6282.5133205786
 20
6900.5229739835
 30
0.0
 40
24.28075104872815
 50
242.6263021292
 51
246.4649595089
  0
ARC
  5
C2
  8
0
  6
CONTINUOUS
 62
     7
 10
6241.1594060372
 20
7027.1862969031
 30
0.0
 40
19.42163492296797
 50
355.7098458989
 51
1.296093352
  0
POLYLINE
  5
C3
  8
0
  6
CONTINUOUS
 62
     7
 66
     1
 10
0.0
 20
0.0
 30
0.0
 70
   128
  0
VERTEX
  5
3E1
  8
0
  6
CONTINUOUS
 62
     7
 10
6260.2097870584
 20
7014.891547906
 30
0.0
  0
VERTEX
  5
3E2
  8
0
  6
CONTINUOUS
 62
     7
 10
6260.2017242654
 20
7013.8775638711
 30
0.0
  0
VERTEX
  5
3E3
  8
0
  6
CONTINUOUS
 62
     7
 10
6260.2071814664
 20
7010.5208741072
 30
0.0
  0
VERTEX
  5
3E4
  8
0
  6
CONTINUOUS
 62
     7
 10
6260.2497925107
 20
7006.5892554367
 30
0.0
  0
VERTEX
  5
3E5
  8
0
  6
CONTINUOUS
 62
     7
 10
6260.3345512128
 20
7002.2036197542
 30
0.0
  0
VERTEX
  5
3E6
  8
0
  6
CONTINUOUS
 62
     7
 10
6260.3953975523
 20
6999.7803322949
 30
0.0
  0
VERTEX
  5
3E7
  8
0
  6
CONTINUOUS
 62
     7
 10
6260.469398323
 20
6997.2096996731
 30
0.0
  0
VERTEX
  5
3E8
  8
0
  6
CONTINUOUS
 62
     7
 10
6260.4713079063
 20
6997.1475076239
 30
0.0
  0
SEQEND
  5
9F4
  8
0
  6
CONTINUOUS
 62
     7
  0
ARC
  5
C4
  8
0
  6
CONTINUOUS
 62
     7
 10
6264.7927071662
 20
7027.7769052697
 30
0.0
 40
4.340919306061811
 50
118.6624081512
 51
174.562273382
  0
ARC
  5
C5
  8
0
  6
CONTINUOUS
 62
     7
 10
6308.1216154394
 20
6897.5392299466
 30
0.0
 40
20.84951618133929
 50
293.7526926208
 51
298.0819364081
  0
ARC
  5
C6
  8
0
  6
CONTINUOUS
 62
     7
 10
6314.6848731636
 20
6876.1201701196
 30
0.0
 40
4.440258301230086
 50
23.8798136203
 51
42.925896331
  0
ARC
  5
C7
  8
0
  6
CONTINUOUS
 62
     7
 10
6324.3268485032
 20
7027.7769052697
 30
0.0
 40
4.340919306067457
 50
5.4377266184
 51
61.3375918487
  0
POLYLINE
  5
C8
  8
0
  6
CONTINUOUS
 62
     7
 66
     1
 10
0.0
 20
0.0
 30
0.0
 70
   128
  0
VERTEX
  5
3E9
  8
0
  6
CONTINUOUS
 62
     7
 10
6328.6489289544
 20
6997.1511248148
 30
0.0
  0
VERTEX
  5
3EA
  8
0
  6
CONTINUOUS
 62
     7
 10
6328.6498329465
 20
6997.2180665976
 30
0.0
  0
VERTEX
  5
3EB
  8
0
  6
CONTINUOUS
 62
     7
 10
6328.650303546
 20
6997.2529916913
 30
0.0
  0
VERTEX
  5
3EC
  8
0
  6
CONTINUOUS
 62
     7
 10
6328.7086814109
 20
7001.9036638192
 30
0.0
  0
VERTEX
  5
3ED
  8
0
  6
CONTINUOUS
 62
     7
 10
6328.7537765935
 20
7006.0914287608
 30
0.0
  0
VERTEX
  5
3EE
  8
0
  6
CONTINUOUS
 62
     7
 10
6328.7758001889
 20
7008.5712733284
 30
0.0
  0
VERTEX
  5
3EF
  8
0
  6
CONTINUOUS
 62
     7
 10
6328.7920054204
 20
7010.8458258383
 30
0.0
  0
VERTEX
  5
3F0
  8
0
  6
CONTINUOUS
 62
     7
 10
6328.80269953
 20
7012.9396813531
 30
0.0
  0
VERTEX
  5
3F1
  8
0
  6
CONTINUOUS
 62
     7
 10
6328.8081911487
 20
7014.8424823412
 30
0.0
  0
VERTEX
  5
3F2
  8
0
  6
CONTINUOUS
 62
     7
 10
6328.8090427324
 20
7016.5977900509
 30
0.0
  0
VERTEX
  5
3F3
  8
0
  6
CONTINUOUS
 62
     7
 10
6328.8057733288
 20
7018.177326546
 30
0.0
  0
SEQEND
  5
9F5
  8
0
  6
CONTINUOUS
 62
     7
  0
ARC
  5
C9
  8
0
  6
CONTINUOUS
 62
     7
 10
6021.0585032175
 20
7018.6041465572
 30
0.0
 40
307.739008046473
 50
0.3859178749
 51
1.7846891928
  0
ARC
  5
CA
  8
0
  6
CONTINUOUS
 62
     7
 10
6271.2041181839
 20
6878.6165582203
 30
0.0
 40
1.07271718919547
 50
189.3240152964
 51
231.6878204956
  0
ARC
  5
CB
  8
0
  6
CONTINUOUS
 62
     7
 10
6318.1065812026
 20
6878.7514142065
 30
0.0
 40
1.050115096151458
 50
307.4436035351
 51
350.1888462313
  0
POLYLINE
  5
CC
  8
0
  6
CONTINUOUS
 62
     7
 66
     1
 10
0.0
 20
0.0
 30
0.0
 70
   128
  0
VERTEX
  5
3F4
  8
0
  6
CONTINUOUS
 62
     7
 10
6269.5033738111
 20
6879.2074726641
 30
0.0
  0
VERTEX
  5
3F5
  8
0
  6
CONTINUOUS
 62
     7
 10
6269.6867930212
 20
6878.7053601646
 30
0.0
  0
VERTEX
  5
3F6
  8
0
  6
CONTINUOUS
 62
     7
 10
6269.9178321323
 20
6878.4058990526
 30
0.0
  0
VERTEX
  5
3F7
  8
0
  6
CONTINUOUS
 62
     7
 10
6270.0477775889
 20
6878.3754984862
 30
0.0
  0
VERTEX
  5
3F8
  8
0
  6
CONTINUOUS
 62
     7
 10
6270.1455738478
 20
6878.4427593237
 30
0.0
  0
SEQEND
  5
9F6
  8
0
  6
CONTINUOUS
 62
     7
  0
ARC
  5
CD
  8
0
  6
CONTINUOUS
 62
     7
 10
6437.5632606462
 20
6926.0481413473
 30
0.0
 40
174.3057242983525
 50
183.8199546974
 51
187.9274997604
  0
ARC
  5
CE
  8
0
  6
CONTINUOUS
 62
     7
 10
6279.8222988211
 20
7006.523471763
 30
0.0
 40
19.82096024264501
 50
184.1911253925
 51
188.8400566957
  0
ARC
  5
CF
  8
0
  6
CONTINUOUS
 62
     7
 10
6472.6109185306
 20
6942.4172541548
 30
0.0
 40
210.6080277674979
 50
181.5238292703
 51
185.150612093
  0
LINE
  5
D0
  8
0
  6
CONTINUOUS
 62
     7
 10
6260.4713229398
 20
7028.1882673843
 30
0.0
 11
6260.459500328
 21
7026.3564665019
 31
0.0
  0
ARC
  5
D1
  8
0
  6
CONTINUOUS
 62
     7
 10
6655.7264832989
 20
7012.5165854296
 30
0.0
 40
395.5335720101201
 50
179.4463813613
 51
181.7877291325
  0
LINE
  5
D2
  8
0
  6
CONTINUOUS
 62
     7
 10
6325.6943493963
 20
6920.8700524989
 30
0.0
 11
6325.6386258595
 21
6919.3464120504
 31
0.0
  0
POLYLINE
  5
D3
  8
0
  6
CONTINUOUS
 62
     7
 66
     1
 10
0.0
 20
0.0
 30
0.0
 70
   128
  0
VERTEX
  5
3F9
  8
0
  6
CONTINUOUS
 62
     7
 10
6324.0529011509
 20
6900.7531481915
 30
0.0
  0
VERTEX
  5
3FA
  8
0
  6
CONTINUOUS
 62
     7
 10
6324.4484002204
 20
6903.6549454748
 30
0.0
  0
VERTEX
  5
3FB
  8
0
  6
CONTINUOUS
 62
     7
 10
6325.0890213815
 20
6910.1988717521
 30
0.0
  0
VERTEX
  5
3FC
  8
0
  6
CONTINUOUS
 62
     7
 10
6325.6386239722
 20
6919.3463631542
 30
0.0
  0
VERTEX
  5
3FD
  8
0
  6
CONTINUOUS
 62
     7
 10
6325.6386258595
 20
6919.3464120504
 30
0.0
  0
VERTEX
  5
3FE
  8
0
  6
CONTINUOUS
 62
     7
 10
6325.6386258595
 20
6919.3464120504
 30
0.0
  0
SEQEND
  5
9F7
  8
0
  6
CONTINUOUS
 62
     7
  0
POLYLINE
  5
D4
  8
0
  6
CONTINUOUS
 62
     7
 66
     1
 10
0.0
 20
0.0
 30
0.0
 70
   128
  0
VERTEX
  5
3FF
  8
0
  6
CONTINUOUS
 62
     7
 10
6319.1413380978
 20
6878.5724732024
 30
0.0
  0
VERTEX
  5
400
  8
0
  6
CONTINUOUS
 62
     7
 10
6319.1505145583
 20
6878.5601771934
 30
0.0
  0
VERTEX
  5
401
  8
0
  6
CONTINUOUS
 62
     7
 10
6319.2391969315
 20
6878.5061594785
 30
0.0
  0
VERTEX
  5
402
  8
0
  6
CONTINUOUS
 62
     7
 10
6319.3621832203
 20
6878.5593801167
 30
0.0
  0
VERTEX
  5
403
  8
0
  6
CONTINUOUS
 62
     7
 10
6319.5411041518
 20
6878.8239031576
 30
0.0
  0
VERTEX
  5
404
  8
0
  6
CONTINUOUS
 62
     7
 10
6319.7223195228
 20
6879.336364191
 30
0.0
  0
SEQEND
  5
9F8
  8
0
  6
CONTINUOUS
 62
     7
  0
ARC
  5
D5
  8
0
  6
CONTINUOUS
 62
     7
 10
6201.7577438426
 20
7021.9200130445
 30
0.0
 40
127.0452170782449
 50
359.4186780697
 51
2.8280512911
  0
POLYLINE
  5
D6
  8
0
  6
CONTINUOUS
 62
     7
 66
     1
 10
0.0
 20
0.0
 30
0.0
 70
   128
  0
VERTEX
  5
405
  8
0
  6
CONTINUOUS
 62
     7
 10
6328.8042530425
 20
7019.2149266277
 30
0.0
  0
VERTEX
  5
406
  8
0
  6
CONTINUOUS
 62
     7
 10
6328.8111753225
 20
7017.9292821078
 30
0.0
  0
VERTEX
  5
407
  8
0
  6
CONTINUOUS
 62
     7
 10
6328.8137530235
 20
7016.3603378376
 30
0.0
  0
VERTEX
  5
408
  8
0
  6
CONTINUOUS
 62
     7
 10
6328.8124422539
 20
7014.6174487232
 30
0.0
  0
VERTEX
  5
409
  8
0
  6
CONTINUOUS
 62
     7
 10
6328.8068212724
 20
7012.7533456245
 30
0.0
  0
VERTEX
  5
40A
  8
0
  6
CONTINUOUS
 62
     7
 10
6328.79627413
 20
7010.7044270039
 30
0.0
  0
VERTEX
  5
40B
  8
0
  6
CONTINUOUS
 62
     7
 10
6328.7800919629
 20
7008.4427108497
 30
0.0
  0
VERTEX
  5
40C
  8
0
  6
CONTINUOUS
 62
     7
 10
6328.757900707
 20
7005.9759043113
 30
0.0
  0
VERTEX
  5
40D
  8
0
  6
CONTINUOUS
 62
     7
 10
6328.73423229
 20
7003.7346354146
 30
0.0
  0
VERTEX
  5
40E
  8
0
  6
CONTINUOUS
 62
     7
 10
6328.7057130178
 20
7001.3371391821
 30
0.0
  0
VERTEX
  5
40F
  8
0
  6
CONTINUOUS
 62
     7
 10
6328.660560841
 20
6997.95442018
 30
0.0
  0
VERTEX
  5
410
  8
0
  6
CONTINUOUS
 62
     7
 10
6328.6502703222
 20
6997.2421072922
 30
0.0
  0
VERTEX
  5
411
  8
0
  6
CONTINUOUS
 62
     7
 10
6328.6489289544
 20
6997.1511248148
 30
0.0
  0
SEQEND
  5
9F9
  8
0
  6
CONTINUOUS
 62
     7
  0
LINE
  5
D7
  8
0
  6
CONTINUOUS
 62
     8
 10
6335.059777843
 20
7021.9853174133
 30
0.0
 11
6328.8228835748
 21
7021.9853174133
 31
0.0
  0
LINE
  5
D8
  8
0
  6
CONTINUOUS
 62
     8
 10
6335.059777843
 20
7008.0776042881
 30
0.0
 11
6335.059777843
 21
7015.9192879143
 31
0.0
  0
LINE
  5
D9
  8
0
  6
CONTINUOUS
 62
     8
 10
6335.059777843
 20
7022.0086928328
 30
0.0
 11
6335.059777843
 21
7022.0195747724
 31
0.0
  0
POLYLINE
  5
DA
  8
0
  6
CONTINUOUS
 62
     8
 66
     1
 10
0.0
 20
0.0
 30
0.0
 70
   128
  0
VERTEX
  5
412
  8
0
  6
CONTINUOUS
 62
     8
 10
6272.6063822752
 20
6876.4375287614
 30
0.0
  0
VERTEX
  5
413
  8
0
  6
CONTINUOUS
 62
     8
 10
6272.5370747098
 20
6876.4525661798
 30
0.0
  0
VERTEX
  5
414
  8
0
  6
CONTINUOUS
 62
     8
 10
6272.4496728337
 20
6876.6942816919
 30
0.0
  0
VERTEX
  5
415
  8
0
  6
CONTINUOUS
 62
     8
 10
6272.4709151952
 20
6877.1100652668
 30
0.0
  0
VERTEX
  5
416
  8
0
  6
CONTINUOUS
 62
     8
 10
6272.5984076607
 20
6877.6530416739
 30
0.0
  0
VERTEX
  5
417
  8
0
  6
CONTINUOUS
 62
     8
 10
6272.8177777008
 20
6878.2619919792
 30
0.0
  0
SEQEND
  5
9FA
  8
0
  6
CONTINUOUS
 62
     8
  0
POLYLINE
  5
DB
  8
0
  6
CONTINUOUS
 62
     8
 66
     1
 10
0.0
 20
0.0
 30
0.0
 70
   128
  0
VERTEX
  5
418
  8
0
  6
CONTINUOUS
 62
     8
 10
6316.7372523359
 20
6876.6233097063
 30
0.0
  0
VERTEX
  5
419
  8
0
  6
CONTINUOUS
 62
     8
 10
6316.8117362428
 20
6876.6412168927
 30
0.0
  0
VERTEX
  5
41A
  8
0
  6
CONTINUOUS
 62
     8
 10
6316.8989885662
 20
6876.886674571
 30
0.0
  0
VERTEX
  5
41B
  8
0
  6
CONTINUOUS
 62
     8
 10
6316.8755938522
 20
6877.3047050181
 30
0.0
  0
VERTEX
  5
41C
  8
0
  6
CONTINUOUS
 62
     8
 10
6316.7441887579
 20
6877.8481798319
 30
0.0
  0
VERTEX
  5
41D
  8
0
  6
CONTINUOUS
 62
     8
 10
6316.5195859025
 20
6878.4558230941
 30
0.0
  0
SEQEND
  5
9FB
  8
0
  6
CONTINUOUS
 62
     8
  0
POLYLINE
  5
DC
  8
0
  6
CONTINUOUS
 62
     8
 66
     1
 10
0.0
 20
0.0
 30
0.0
 70
   128
  0
VERTEX
  5
41E
  8
0
  6
CONTINUOUS
 62
     8
 10
6270.3942090135
 20
6877.5381394009
 30
0.0
  0
VERTEX
  5
41F
  8
0
  6
CONTINUOUS
 62
     8
 10
6270.4556448524
 20
6877.5788465726
 30
0.0
  0
VERTEX
  5
420
  8
0
  6
CONTINUOUS
 62
     8
 10
6270.5390916254
 20
6877.7748564653
 30
0.0
  0
SEQEND
  5
9FC
  8
0
  6
CONTINUOUS
 62
     8
  0
ARC
  5
DD
  8
0
  6
CONTINUOUS
 62
     8
 10
6259.4179357004
 20
7027.7010791064
 30
0.0
 40
1.160593423308194
 50
356.2710480814
 51
24.8203925587
  0
POLYLINE
  5
DE
  8
0
  6
CONTINUOUS
 62
     8
 66
     1
 10
0.0
 20
0.0
 30
0.0
 70
   128
  0
VERTEX
  5
421
  8
0
  6
CONTINUOUS
 62
     8
 10
6318.8488439379
 20
6877.7114942282
 30
0.0
  0
VERTEX
  5
422
  8
0
  6
CONTINUOUS
 62
     8
 10
6318.8184975184
 20
6877.7159933755
 30
0.0
  0
VERTEX
  5
423
  8
0
  6
CONTINUOUS
 62
     8
 10
6318.7539554933
 20
6877.8877355091
 30
0.0
  0
VERTEX
  5
424
  8
0
  6
CONTINUOUS
 62
     8
 10
6318.7450304238
 20
6877.9176730554
 30
0.0
  0
SEQEND
  5
9FD
  8
0
  6
CONTINUOUS
 62
     8
  0
ARC
  5
DF
  8
0
  6
CONTINUOUS
 62
     8
 10
6422.5846852206
 20
6921.8180913651
 30
0.0
 40
158.9010784385494
 50
187.1616943751
 51
195.5546951983
  0
LINE
  5
E0
  8
0
  6
CONTINUOUS
 62
     8
 10
6260.2113753027
 20
7016.3383564605
 30
0.0
 11
6260.2187266142
 21
7016.7888990433
 31
0.0
  0
ARC
  5
E1
  8
0
  6
CONTINUOUS
 62
     8
 10
6249.8975065881
 20
7026.5930080315
 30
0.0
 40
10.69347673311705
 50
351.7247351092
 51
8.5794445472
  0
ARC
  5
E2
  8
0
  6
CONTINUOUS
 62
     8
 10
6168.2543644312
 20
6921.1101725567
 30
0.0
 40
157.122857932899
 50
344.5815139194
 51
352.5557641218
  0
POLYLINE
  5
E3
  8
0
  6
CONTINUOUS
 62
     8
 66
     1
 10
0.0
 20
0.0
 30
0.0
 70
   128
  0
VERTEX
  5
425
  8
0
  6
CONTINUOUS
 62
     8
 10
6269.4761486267
 20
6878.9650823863
 30
0.0
  0
VERTEX
  5
426
  8
0
  6
CONTINUOUS
 62
     8
 10
6269.4673094972
 20
6879.0707207712
 30
0.0
  0
VERTEX
  5
427
  8
0
  6
CONTINUOUS
 62
     8
 10
6269.5033738111
 20
6879.2074726641
 30
0.0
  0
SEQEND
  5
9FE
  8
0
  6
CONTINUOUS
 62
     8
  0
POLYLINE
  5
E4
  8
0
  6
CONTINUOUS
 62
     8
 66
     1
 10
0.0
 20
0.0
 30
0.0
 70
   128
  0
VERTEX
  5
428
  8
0
  6
CONTINUOUS
 62
     8
 10
6319.7223195228
 20
6879.336364191
 30
0.0
  0
VERTEX
  5
429
  8
0
  6
CONTINUOUS
 62
     8
 10
6319.7490638953
 20
6879.2034877914
 30
0.0
  0
VERTEX
  5
42A
  8
0
  6
CONTINUOUS
 62
     8
 10
6319.7393437135
 20
6879.1192590535
 30
0.0
  0
SEQEND
  5
9FF
  8
0
  6
CONTINUOUS
 62
     8
  0
LINE
  5
E5
  8
0
  6
CONTINUOUS
 62
     7
 10
6321.859777843
 20
7243.5557292346
 30
0.0
 11
6321.859777843
 21
7244.3557292346
 31
0.0
  0
LINE
  5
E6
  8
0
  6
CONTINUOUS
 62
     7
 10
6267.259777843
 20
7244.3557292346
 30
0.0
 11
6267.259777843
 21
7243.5557292346
 31
0.0
  0
ARC
  5
E7
  8
0
  6
CONTINUOUS
 62
     7
 10
6328.3393106332
 20
7266.6678068204
 30
0.0
 40
8.719985417121745
 50
0.0
 51
0.7289037942
  0
ARC
  5
E8
  8
0
  6
CONTINUOUS
 62
     7
 10
6328.3393106332
 20
7266.6678068204
 30
0.0
 40
8.719985417122173
 50
325.8975760198
 51
0.0
  0
LINE
  5
E9
  8
0
  6
CONTINUOUS
 62
     7
 10
6337.0592960503
 20
7266.6678068204
 30
0.0
 11
6337.0592960503
 21
7266.8891778212
 31
0.0
  0
ARC
  5
EA
  8
0
  6
CONTINUOUS
 62
     7
 10
6328.3189033664
 20
7266.881475144
 30
0.0
 40
8.741478229741968
 50
359.3265933387
 51
0.0
  0
ARC
  5
EB
  8
0
  6
CONTINUOUS
 62
     7
 10
6328.3189033664
 20
7266.881475144
 30
0.0
 40
8.741478229741205
 50
10.3416110754
 51
34.0718951293
  0
ARC
  5
EC
  8
0
  6
CONTINUOUS
 62
     7
 10
6328.3189033664
 20
7266.881475144
 30
0.0
 40
8.741478229741915
 50
0.0
 51
10.3416110754
  0
LINE
  5
ED
  8
0
  6
CONTINUOUS
 62
     7
 10
6337.0603815962
 20
7266.6764539477
 30
0.0
 11
6337.0603815962
 21
7266.8810210262
 31
0.0
  0
LINE
  5
EE
  8
0
  6
CONTINUOUS
 62
     7
 10
6335.059777843
 20
7297.813968986
 30
0.0
 11
6328.5599710687
 21
7297.813968986
 31
0.0
  0
LINE
  5
EF
  8
0
  6
CONTINUOUS
 62
     7
 10
6328.2477048943
 20
7260.128737487
 30
0.0
 11
6335.059777843
 21
7260.128737487
 31
0.0
  0
ARC
  5
F0
  8
0
  6
CONTINUOUS
 62
     7
 10
6335.059777843
 20
7260.628737487
 30
0.0
 40
0.5
 50
270.0
 51
0.0
  0
ARC
  5
F1
  8
0
  6
CONTINUOUS
 62
     7
 10
6335.0286443742
 20
7297.2831025579
 30
0.0
 40
0.5315648756051601
 50
357.6914867288
 51
86.6422954422
  0
LINE
  5
F2
  8
0
  6
CONTINUOUS
 62
     7
 10
6286.9359024475
 20
7373.3723482492
 30
0.0
 11
6288.7360870316
 21
7371.7265025759
 31
0.0
  0
LINE
  5
F3
  8
0
  6
CONTINUOUS
 62
     7
 10
6300.3834686378
 20
7371.7265025759
 30
0.0
 11
6302.1836532219
 21
7373.3723482492
 31
0.0
  0
LINE
  5
F4
  8
0
  6
CONTINUOUS
 62
     7
 10
6306.4597778347
 20
7378.8189322177
 30
0.0
 11
6306.4597778347
 21
7381.6859643727
 31
0.0
  0
LINE
  5
F5
  8
0
  6
CONTINUOUS
 62
     7
 10
6282.6597778347
 20
7381.6859643727
 30
0.0
 11
6282.6597778347
 21
7378.8189322177
 31
0.0
  0
ARC
  5
F6
  8
0
  6
CONTINUOUS
 62
     7
 10
6297.0143859473
 20
7379.0286973773
 30
0.0
 40
11.93481367902111
 50
181.9312293625
 51
198.7898089523
  0
ARC
  5
F7
  8
0
  6
CONTINUOUS
 62
     7
 10
6292.7432119025
 20
7378.990395219
 30
0.0
 40
11.31584181710637
 50
340.3797881276
 51
358.1663012171
  0
LINE
  5
F8
  8
0
  6
CONTINUOUS
 62
     7
 10
6304.0597778347
 20
7378.8189322177
 30
0.0
 11
6304.0597778347
 21
7379.7876647785
 31
0.0
  0
LINE
  5
F9
  8
0
  6
CONTINUOUS
 62
     7
 10
6285.0597778347
 20
7380.175762134
 30
0.0
 11
6285.0597778347
 21
7378.8189322177
 31
0.0
  0
LINE
  5
FA
  8
0
  6
CONTINUOUS
 62
     7
 10
6299.9941951766
 20
7373.8221047476
 30
0.0
 11
6299.9941951766
 21
7376.1425094277
 31
0.0
  0
LINE
  5
FB
  8
0
  6
CONTINUOUS
 62
     7
 10
6298.4565224444
 20
7373.8221047476
 30
0.0
 11
6298.4565224444
 21
7375.7971375058
 31
0.0
  0
LINE
  5
FC
  8
0
  6
CONTINUOUS
 62
     7
 10
6289.1253604929
 20
7374.7615367216
 30
0.0
 11
6289.1253604929
 21
7373.8221047476
 31
0.0
  0
LINE
  5
FD
  8
0
  6
CONTINUOUS
 62
     7
 10
6296.7780072259
 20
7373.8221047476
 30
0.0
 11
6296.7780072259
 21
7374.9338701634
 31
0.0
  0
LINE
  5
FE
  8
0
  6
CONTINUOUS
 62
     7
 10
6290.6630332251
 20
7374.4851391484
 30
0.0
 11
6290.6630332251
 21
7373.8221047476
 31
0.0
  0
LINE
  5
FF
  8
0
  6
CONTINUOUS
 62
     7
 10
6292.3415484435
 20
7374.1834250559
 30
0.0
 11
6292.3415484435
 21
7373.8221047476
 31
0.0
  0
LINE
  5
100
  8
0
  6
CONTINUOUS
 62
     7
 10
6294.9810021359
 20
7373.8221047476
 30
0.0
 11
6294.9810021359
 21
7374.0107139141
 31
0.0
  0
LINE
  5
101
  8
0
  6
CONTINUOUS
 62
     7
 10
6294.1385535336
 20
7373.8604123396
 30
0.0
 11
6294.1385535336
 21
7373.8221047476
 31
0.0
  0
POLYLINE
  5
102
  8
0
  6
CONTINUOUS
 62
     7
 66
     1
 10
0.0
 20
0.0
 30
0.0
 70
   128
  0
VERTEX
  5
42B
  8
0
  6
CONTINUOUS
 62
     7
 10
6261.8211412632
 20
7372.0657268972
 30
0.0
  0
VERTEX
  5
42C
  8
0
  6
CONTINUOUS
 62
     7
 10
6261.8213505026
 20
7372.0694081003
 30
0.0
  0
VERTEX
  5
42D
  8
0
  6
CONTINUOUS
 62
     7
 10
6261.8162564837
 20
7372.0129417653
 30
0.0
  0
VERTEX
  5
42E
  8
0
  6
CONTINUOUS
 62
     7
 10
6261.7897083285
 20
7371.69481209
 30
0.0
  0
VERTEX
  5
42F
  8
0
  6
CONTINUOUS
 62
     7
 10
6261.7459232432
 20
7371.0974288041
 30
0.0
  0
VERTEX
  5
430
  8
0
  6
CONTINUOUS
 62
     7
 10
6261.7067252246
 20
7370.4427031682
 30
0.0
  0
VERTEX
  5
431
  8
0
  6
CONTINUOUS
 62
     7
 10
6261.6918792789
 20
7370.1421924903
 30
0.0
  0
VERTEX
  5
432
  8
0
  6
CONTINUOUS
 62
     7
 10
6261.6798728591
 20
7369.8608778961
 30
0.0
  0
VERTEX
  5
433
  8
0
  6
CONTINUOUS
 62
     7
 10
6261.6704658952
 20
7369.5988151024
 30
0.0
  0
VERTEX
  5
434
  8
0
  6
CONTINUOUS
 62
     7
 10
6261.663428325
 20
7369.3553152728
 30
0.0
  0
VERTEX
  5
435
  8
0
  6
CONTINUOUS
 62
     7
 10
6261.6555157513
 20
7368.9176795449
 30
0.0
  0
VERTEX
  5
436
  8
0
  6
CONTINUOUS
 62
     7
 10
6261.6538948295
 20
7368.5572423554
 30
0.0
  0
VERTEX
  5
437
  8
0
  6
CONTINUOUS
 62
     7
 10
6261.6554766779
 20
7368.4200842837
 30
0.0
  0
VERTEX
  5
438
  8
0
  6
CONTINUOUS
 62
     7
 10
6261.6555455906
 20
7368.4214678687
 30
0.0
  0
SEQEND
  5
A00
  8
0
  6
CONTINUOUS
 62
     7
  0
ARC
  5
103
  8
0
  6
CONTINUOUS
 62
     7
 10
6337.5638009029
 20
7360.2934247873
 30
0.0
 40
76.82454051571811
 50
161.6415112582
 51
171.7045325085
  0
POLYLINE
  5
104
  8
0
  6
CONTINUOUS
 62
     7
 66
     1
 10
0.0
 20
0.0
 30
0.0
 70
   128
  0
VERTEX
  5
439
  8
0
  6
CONTINUOUS
 62
     7
 10
6260.859799391
 20
7365.6164467396
 30
0.0
  0
VERTEX
  5
43A
  8
0
  6
CONTINUOUS
 62
     7
 10
6260.7243895157
 20
7363.7562592718
 30
0.0
  0
VERTEX
  5
43B
  8
0
  6
CONTINUOUS
 62
     7
 10
6260.5902607788
 20
7361.1503969933
 30
0.0
  0
VERTEX
  5
43C
  8
0
  6
CONTINUOUS
 62
     7
 10
6260.4783965423
 20
7358.1935767393
 30
0.0
  0
VERTEX
  5
43D
  8
0
  6
CONTINUOUS
 62
     7
 10
6260.378133264
 20
7354.829427829
 30
0.0
  0
VERTEX
  5
43E
  8
0
  6
CONTINUOUS
 62
     7
 10
6260.2959071326
 20
7351.2551015738
 30
0.0
  0
VERTEX
  5
43F
  8
0
  6
CONTINUOUS
 62
     7
 10
6260.2195325622
 20
7346.4895216313
 30
0.0
  0
VERTEX
  5
440
  8
0
  6
CONTINUOUS
 62
     7
 10
6260.1725507653
 20
7341.6791901768
 30
0.0
  0
VERTEX
  5
441
  8
0
  6
CONTINUOUS
 62
     7
 10
6260.1492052428
 20
7336.8772051423
 30
0.0
  0
VERTEX
  5
442
  8
0
  6
CONTINUOUS
 62
     7
 10
6260.1431898736
 20
7331.4613721362
 30
0.0
  0
VERTEX
  5
443
  8
0
  6
CONTINUOUS
 62
     7
 10
6260.1483695951
 20
7326.0538708939
 30
0.0
  0
VERTEX
  5
444
  8
0
  6
CONTINUOUS
 62
     7
 10
6260.1582556982
 20
7320.6668794118
 30
0.0
  0
VERTEX
  5
445
  8
0
  6
CONTINUOUS
 62
     7
 10
6260.1659927419
 20
7316.6642826335
 30
0.0
  0
VERTEX
  5
446
  8
0
  6
CONTINUOUS
 62
     7
 10
6260.1723144288
 20
7312.8206422635
 30
0.0
  0
VERTEX
  5
447
  8
0
  6
CONTINUOUS
 62
     7
 10
6260.176656277
 20
7309.1640246325
 30
0.0
  0
VERTEX
  5
448
  8
0
  6
CONTINUOUS
 62
     7
 10
6260.1781997093
 20
7307.4193540237
 30
0.0
  0
VERTEX
  5
449
  8
0
  6
CONTINUOUS
 62
     7
 10
6260.1794407317
 20
7305.8926616365
 30
0.0
  0
VERTEX
  5
44A
  8
0
  6
CONTINUOUS
 62
     7
 10
6260.1793689589
 20
7305.236362009
 30
0.0
  0
VERTEX
  5
44B
  8
0
  6
CONTINUOUS
 62
     7
 10
6260.1781981329
 20
7304.3890020086
 30
0.0
  0
VERTEX
  5
44C
  8
0
  6
CONTINUOUS
 62
     7
 10
6260.1754437514
 20
7303.483787959
 30
0.0
  0
VERTEX
  5
44D
  8
0
  6
CONTINUOUS
 62
     7
 10
6260.1709065883
 20
7302.5408575057
 30
0.0
  0
VERTEX
  5
44E
  8
0
  6
CONTINUOUS
 62
     7
 10
6260.1650409951
 20
7301.701472173
 30
0.0
  0
VERTEX
  5
44F
  8
0
  6
CONTINUOUS
 62
     7
 10
6260.1594389281
 20
7301.0793980133
 30
0.0
  0
VERTEX
  5
450
  8
0
  6
CONTINUOUS
 62
     7
 10
6260.1561108884
 20
7300.748986935
 30
0.0
  0
VERTEX
  5
451
  8
0
  6
CONTINUOUS
 62
     7
 10
6260.1527076591
 20
7300.4463964464
 30
0.0
  0
VERTEX
  5
452
  8
0
  6
CONTINUOUS
 62
     7
 10
6260.1479127396
 20
7300.0836417938
 30
0.0
  0
VERTEX
  5
453
  8
0
  6
CONTINUOUS
 62
     7
 10
6260.1417064681
 20
7299.6574096292
 30
0.0
  0
VERTEX
  5
454
  8
0
  6
CONTINUOUS
 62
     7
 10
6260.1342285329
 20
7299.1634617355
 30
0.0
  0
VERTEX
  5
455
  8
0
  6
CONTINUOUS
 62
     7
 10
6260.1196839108
 20
7298.176353143
 30
0.0
  0
VERTEX
  5
456
  8
0
  6
CONTINUOUS
 62
     7
 10
6260.1033946112
 20
7296.983183532
 30
0.0
  0
VERTEX
  5
457
  8
0
  6
CONTINUOUS
 62
     7
 10
6260.0762569818
 20
7294.6761169404
 30
0.0
  0
VERTEX
  5
458
  8
0
  6
CONTINUOUS
 62
     7
 10
6260.0638903788
 20
7293.2748880898
 30
0.0
  0
SEQEND
  5
A01
  8
0
  6
CONTINUOUS
 62
     7
  0
POLYLINE
  5
105
  8
0
  6
CONTINUOUS
 62
     7
 66
     1
 10
0.0
 20
0.0
 30
0.0
 70
   128
  0
VERTEX
  5
459
  8
0
  6
CONTINUOUS
 62
     7
 10
6260.0361201343
 20
7286.3011056631
 30
0.0
  0
VERTEX
  5
45A
  8
0
  6
CONTINUOUS
 62
     7
 10
6260.0358408123
 20
7285.9436903071
 30
0.0
  0
VERTEX
  5
45B
  8
0
  6
CONTINUOUS
 62
     7
 10
6260.0476137069
 20
7282.8079806774
 30
0.0
  0
VERTEX
  5
45C
  8
0
  6
CONTINUOUS
 62
     7
 10
6260.0700978094
 20
7280.0139389409
 30
0.0
  0
VERTEX
  5
45D
  8
0
  6
CONTINUOUS
 62
     7
 10
6260.0984966799
 20
7277.6013683309
 30
0.0
  0
VERTEX
  5
45E
  8
0
  6
CONTINUOUS
 62
     7
 10
6260.1268610019
 20
7275.6839442338
 30
0.0
  0
VERTEX
  5
45F
  8
0
  6
CONTINUOUS
 62
     7
 10
6260.1526111235
 20
7274.1777205381
 30
0.0
  0
VERTEX
  5
460
  8
0
  6
CONTINUOUS
 62
     7
 10
6260.174345363
 20
7273.0133816488
 30
0.0
  0
VERTEX
  5
461
  8
0
  6
CONTINUOUS
 62
     7
 10
6260.1949454612
 20
7271.9290639414
 30
0.0
  0
VERTEX
  5
462
  8
0
  6
CONTINUOUS
 62
     7
 10
6260.2138624073
 20
7270.9147179878
 30
0.0
  0
VERTEX
  5
463
  8
0
  6
CONTINUOUS
 62
     7
 10
6260.2360212738
 20
7269.7341747872
 30
0.0
  0
VERTEX
  5
464
  8
0
  6
CONTINUOUS
 62
     7
 10
6260.2667466166
 20
7268.1200930166
 30
0.0
  0
VERTEX
  5
465
  8
0
  6
CONTINUOUS
 62
     7
 10
6260.3044959491
 20
7266.0886951934
 30
0.0
  0
VERTEX
  5
466
  8
0
  6
CONTINUOUS
 62
     7
 10
6260.3271835092
 20
7264.7963346059
 30
0.0
  0
VERTEX
  5
467
  8
0
  6
CONTINUOUS
 62
     7
 10
6260.3451576793
 20
7263.7089225915
 30
0.0
  0
VERTEX
  5
468
  8
0
  6
CONTINUOUS
 62
     7
 10
6260.3588334954
 20
7262.8259719443
 30
0.0
  0
VERTEX
  5
469
  8
0
  6
CONTINUOUS
 62
     7
 10
6260.3686988346
 20
7262.1447157045
 30
0.0
  0
VERTEX
  5
46A
  8
0
  6
CONTINUOUS
 62
     7
 10
6260.3796282201
 20
7261.3255964387
 30
0.0
  0
VERTEX
  5
46B
  8
0
  6
CONTINUOUS
 62
     7
 10
6260.3944673373
 20
7260.1112421253
 30
0.0
  0
VERTEX
  5
46C
  8
0
  6
CONTINUOUS
 62
     7
 10
6260.4162268187
 20
7258.1289359409
 30
0.0
  0
VERTEX
  5
46D
  8
0
  6
CONTINUOUS
 62
     7
 10
6260.4407399984
 20
7255.5681645861
 30
0.0
  0
VERTEX
  5
46E
  8
0
  6
CONTINUOUS
 62
     7
 10
6260.4660705907
 20
7252.4223647538
 30
0.0
  0
VERTEX
  5
46F
  8
0
  6
CONTINUOUS
 62
     7
 10
6260.4897061014
 20
7248.6858907966
 30
0.0
  0
VERTEX
  5
470
  8
0
  6
CONTINUOUS
 62
     7
 10
6260.5078652049
 20
7244.3557292346
 30
0.0
  0
SEQEND
  5
A02
  8
0
  6
CONTINUOUS
 62
     7
  0
POLYLINE
  5
106
  8
0
  6
CONTINUOUS
 62
     7
 66
     1
 10
0.0
 20
0.0
 30
0.0
 70
   128
  0
VERTEX
  5
471
  8
0
  6
CONTINUOUS
 62
     7
 10
6328.6791266612
 20
7244.3557292346
 30
0.0
  0
VERTEX
  5
472
  8
0
  6
CONTINUOUS
 62
     7
 10
6328.7041825149
 20
7255.2635020841
 30
0.0
  0
VERTEX
  5
473
  8
0
  6
CONTINUOUS
 62
     7
 10
6328.7167656362
 20
7260.128737487
 30
0.0
  0
SEQEND
  5
A03
  8
0
  6
CONTINUOUS
 62
     7
  0
POLYLINE
  5
107
  8
0
  6
CONTINUOUS
 62
     7
 66
     1
 10
0.0
 20
0.0
 30
0.0
 70
   128
  0
VERTEX
  5
474
  8
0
  6
CONTINUOUS
 62
     7
 10
6328.8158006042
 20
7297.813968986
 30
0.0
  0
VERTEX
  5
475
  8
0
  6
CONTINUOUS
 62
     7
 10
6328.8332248297
 20
7306.2315278862
 30
0.0
  0
VERTEX
  5
476
  8
0
  6
CONTINUOUS
 62
     7
 10
6328.8460279739
 20
7315.7966704057
 30
0.0
  0
VERTEX
  5
477
  8
0
  6
CONTINUOUS
 62
     7
 10
6328.8488140744
 20
7322.3599685062
 30
0.0
  0
VERTEX
  5
478
  8
0
  6
CONTINUOUS
 62
     7
 10
6328.8447859728
 20
7328.7946624911
 30
0.0
  0
VERTEX
  5
479
  8
0
  6
CONTINUOUS
 62
     7
 10
6328.8322290845
 20
7335.0791727078
 30
0.0
  0
VERTEX
  5
47A
  8
0
  6
CONTINUOUS
 62
     7
 10
6328.809481661
 20
7341.1888632257
 30
0.0
  0
VERTEX
  5
47B
  8
0
  6
CONTINUOUS
 62
     7
 10
6328.7756887803
 20
7347.040824235
 30
0.0
  0
VERTEX
  5
47C
  8
0
  6
CONTINUOUS
 62
     7
 10
6328.7396609144
 20
7351.5959922466
 30
0.0
  0
VERTEX
  5
47D
  8
0
  6
CONTINUOUS
 62
     7
 10
6328.6976779325
 20
7355.7737097491
 30
0.0
  0
VERTEX
  5
47E
  8
0
  6
CONTINUOUS
 62
     7
 10
6328.6485160977
 20
7359.5245864203
 30
0.0
  0
VERTEX
  5
47F
  8
0
  6
CONTINUOUS
 62
     7
 10
6328.5763248235
 20
7362.8323400446
 30
0.0
  0
VERTEX
  5
480
  8
0
  6
CONTINUOUS
 62
     7
 10
6328.4656665444
 20
7365.7366584275
 30
0.0
  0
VERTEX
  5
481
  8
0
  6
CONTINUOUS
 62
     7
 10
6328.3689701445
 20
7367.3702020511
 30
0.0
  0
SEQEND
  5
A04
  8
0
  6
CONTINUOUS
 62
     7
  0
ARC
  5
108
  8
0
  6
CONTINUOUS
 62
     7
 10
6300.1357170397
 20
7378.3034294982
 30
0.0
 40
35.46858347362067
 50
146.7689541225
 51
158.6815801158
  0
POLYLINE
  5
109
  8
0
  6
CONTINUOUS
 62
     7
 66
     1
 10
0.0
 20
0.0
 30
0.0
 70
   128
  0
VERTEX
  5
482
  8
0
  6
CONTINUOUS
 62
     7
 10
6325.5452747857
 20
7384.4823203572
 30
0.0
  0
VERTEX
  5
483
  8
0
  6
CONTINUOUS
 62
     7
 10
6325.3027440855
 20
7385.3135637024
 30
0.0
  0
VERTEX
  5
484
  8
0
  6
CONTINUOUS
 62
     7
 10
6324.8313163659
 20
7386.7794574883
 30
0.0
  0
VERTEX
  5
485
  8
0
  6
CONTINUOUS
 62
     7
 10
6324.3429901016
 20
7388.1565179963
 30
0.0
  0
VERTEX
  5
486
  8
0
  6
CONTINUOUS
 62
     7
 10
6323.8385415336
 20
7389.4468355539
 30
0.0
  0
VERTEX
  5
487
  8
0
  6
CONTINUOUS
 62
     7
 10
6323.319803759
 20
7390.6522204603
 30
0.0
  0
VERTEX
  5
488
  8
0
  6
CONTINUOUS
 62
     7
 10
6322.7905729035
 20
7391.7739735028
 30
0.0
  0
VERTEX
  5
489
  8
0
  6
CONTINUOUS
 62
     7
 10
6322.2581014369
 20
7392.8125397672
 30
0.0
  0
VERTEX
  5
48A
  8
0
  6
CONTINUOUS
 62
     7
 10
6321.7281293269
 20
7393.7759382748
 30
0.0
  0
VERTEX
  5
48B
  8
0
  6
CONTINUOUS
 62
     7
 10
6321.159390557
 20
7394.7318885125
 30
0.0
  0
VERTEX
  5
48C
  8
0
  6
CONTINUOUS
 62
     7
 10
6320.5807793941
 20
7395.6138626171
 30
0.0
  0
VERTEX
  5
48D
  8
0
  6
CONTINUOUS
 62
     7
 10
6319.9908588692
 20
7396.412646313
 30
0.0
  0
VERTEX
  5
48E
  8
0
  6
CONTINUOUS
 62
     7
 10
6319.3792453153
 20
7397.1310435604
 30
0.0
  0
VERTEX
  5
48F
  8
0
  6
CONTINUOUS
 62
     7
 10
6318.7433260927
 20
7397.7639104483
 30
0.0
  0
VERTEX
  5
490
  8
0
  6
CONTINUOUS
 62
     7
 10
6318.6039023546
 20
7397.8803068421
 30
0.0
  0
SEQEND
  5
A05
  8
0
  6
CONTINUOUS
 62
     7
  0
ARC
  5
10A
  8
0
  6
CONTINUOUS
 62
     7
 10
6292.7383136256
 20
7410.7040940285
 30
0.0
 40
54.51207894557859
 50
235.9508274441
 51
241.1478509283
  0
LINE
  5
10B
  8
0
  6
CONTINUOUS
 62
     7
 10
6321.859777843
 20
7243.5557292346
 30
0.0
 11
6267.259777843
 21
7243.5557292346
 31
0.0
  0
POLYLINE
  5
10C
  8
0
  6
CONTINUOUS
 62
     7
 66
     1
 10
0.0
 20
0.0
 30
0.0
 70
   128
  0
VERTEX
  5
491
  8
0
  6
CONTINUOUS
 62
     7
 10
6336.9360103857
 20
7268.3438487538
 30
0.0
  0
VERTEX
  5
492
  8
0
  6
CONTINUOUS
 62
     7
 10
6336.4314911659
 20
7270.1236265335
 30
0.0
  0
VERTEX
  5
493
  8
0
  6
CONTINUOUS
 62
     7
 10
6335.559777843
 20
7271.7566366417
 30
0.0
  0
SEQEND
  5
A06
  8
0
  6
CONTINUOUS
 62
     7
  0
ARC
  5
10D
  8
0
  6
CONTINUOUS
 62
     7
 10
6328.4152922733
 20
7266.8891446096
 30
0.0
 40
8.644003777126493
 50
0.0002201393
 51
9.6884428367
  0
LINE
  5
10E
  8
0
  6
CONTINUOUS
 62
     7
 10
6335.5516460667
 20
7270.2734595939
 30
0.0
 11
6335.559777843
 21
7270.2734595939
 31
0.0
  0
ARC
  5
10F
  8
0
  6
CONTINUOUS
 62
     7
 10
6328.3951163474
 20
7266.8809939288
 30
0.0
 40
8.665264866807691
 50
359.3238523434
 51
9.719116557
  0
ARC
  5
110
  8
0
  6
CONTINUOUS
 62
     7
 10
6328.3957122124
 20
7266.6764589228
 30
0.0
 40
8.664669304474183
 50
354.467997788
 51
0.6763404292
  0
LINE
  5
111
  8
0
  6
CONTINUOUS
 62
     7
 10
6335.5516460667
 20
7270.7148794358
 30
0.0
 11
6335.559777843
 21
7270.7148794358
 31
0.0
  0
LINE
  5
112
  8
0
  6
CONTINUOUS
 62
     7
 10
6335.059777843
 20
7266.6717972669
 30
0.0
 11
6335.059777843
 21
7297.7044372607
 31
0.0
  0
LINE
  5
113
  8
0
  6
CONTINUOUS
 62
     7
 10
6335.059777843
 20
7266.6717972669
 30
0.0
 11
6327.9597827403
 21
7266.6717972669
 31
0.0
  0
LINE
  5
114
  8
0
  6
CONTINUOUS
 62
     7
 10
6335.559777843
 20
7297.2616909881
 30
0.0
 11
6335.559777843
 21
7266.6899129361
 31
0.0
  0
ARC
  5
115
  8
0
  6
CONTINUOUS
 62
     7
 10
6335.2118225822
 20
7269.3844610145
 30
0.0
 40
2.716921458212616
 50
266.7919295883
 51
277.3580606916
  0
ARC
  5
116
  8
0
  6
CONTINUOUS
 62
     7
 10
6335.0873997681
 20
7297.2319292322
 30
0.0
 40
0.4733147026142503
 50
3.6051039423
 51
93.3455952773
  0
LINE
  5
117
  8
0
  6
CONTINUOUS
 62
     7
 10
6335.059777843
 20
7266.1796019022
 30
0.0
 11
6327.952857915
 21
7266.1796019022
 31
0.0
  0
LINE
  5
118
  8
0
  6
CONTINUOUS
 62
     7
 10
6335.059777843
 20
7266.1796019022
 30
0.0
 11
6335.059777843
 21
7266.6717972669
 31
0.0
  0
ARC
  5
119
  8
0
  6
CONTINUOUS
 62
     7
 10
6335.2126521329
 20
7267.9311836915
 30
0.0
 40
1.758240402531472
 50
265.0119872833
 51
281.3865897682
  0
LINE
  5
11A
  8
0
  6
CONTINUOUS
 62
     7
 10
6335.559777843
 20
7266.6899129361
 30
0.0
 11
6335.559777843
 21
7266.207550014
 31
0.0
  0
LINE
  5
11B
  8
0
  6
CONTINUOUS
 62
     7
 10
6335.559777843
 20
7266.207550014
 30
0.0
 11
6335.559777843
 21
7260.628737487
 31
0.0
  0
POLYLINE
  5
11C
  8
0
  6
CONTINUOUS
 62
     7
 66
     1
 10
0.0
 20
0.0
 30
0.0
 70
   128
  0
VERTEX
  5
494
  8
0
  6
CONTINUOUS
 62
     7
 10
6302.1836532219
 20
7373.3723482492
 30
0.0
  0
VERTEX
  5
495
  8
0
  6
CONTINUOUS
 62
     7
 10
6302.5668444733
 20
7373.7586953199
 30
0.0
  0
VERTEX
  5
496
  8
0
  6
CONTINUOUS
 62
     7
 10
6303.0798445096
 20
7374.4525107263
 30
0.0
  0
VERTEX
  5
497
  8
0
  6
CONTINUOUS
 62
     7
 10
6303.4112541169
 20
7375.181774774
 30
0.0
  0
VERTEX
  5
498
  8
0
  6
CONTINUOUS
 62
     7
 10
6303.5540098748
 20
7375.9309444658
 30
0.0
  0
VERTEX
  5
499
  8
0
  6
CONTINUOUS
 62
     7
 10
6303.505069192
 20
7376.6840525506
 30
0.0
  0
VERTEX
  5
49A
  8
0
  6
CONTINUOUS
 62
     7
 10
6303.2654751543
 20
7377.425047837
 30
0.0
  0
VERTEX
  5
49B
  8
0
  6
CONTINUOUS
 62
     7
 10
6302.8403342927
 20
7378.1381372968
 30
0.0
  0
VERTEX
  5
49C
  8
0
  6
CONTINUOUS
 62
     7
 10
6302.2387077464
 20
7378.8081226664
 30
0.0
  0
VERTEX
  5
49D
  8
0
  6
CONTINUOUS
 62
     7
 10
6301.4734181409
 20
7379.4207243708
 30
0.0
  0
VERTEX
  5
49E
  8
0
  6
CONTINUOUS
 62
     7
 10
6300.5607762953
 20
7379.9628858682
 30
0.0
  0
VERTEX
  5
49F
  8
0
  6
CONTINUOUS
 62
     7
 10
6299.5202335862
 20
7380.4230519275
 30
0.0
  0
VERTEX
  5
4A0
  8
0
  6
CONTINUOUS
 62
     7
 10
6298.3739673748
 20
7380.7914149081
 30
0.0
  0
VERTEX
  5
4A1
  8
0
  6
CONTINUOUS
 62
     7
 10
6297.1464083355
 20
7381.0601237927
 30
0.0
  0
VERTEX
  5
4A2
  8
0
  6
CONTINUOUS
 62
     7
 10
6295.8637197577
 20
7381.2234515179
 30
0.0
  0
VERTEX
  5
4A3
  8
0
  6
CONTINUOUS
 62
     7
 10
6294.5532399217
 20
7381.2779170367
 30
0.0
  0
VERTEX
  5
4A4
  8
0
  6
CONTINUOUS
 62
     7
 10
6293.24289943
 20
7381.2223595112
 30
0.0
  0
VERTEX
  5
4A5
  8
0
  6
CONTINUOUS
 62
     7
 10
6291.9606259152
 20
7381.0579630536
 30
0.0
  0
VERTEX
  5
4A6
  8
0
  6
CONTINUOUS
 62
     7
 10
6290.733748811
 20
7380.788231489
 30
0.0
  0
VERTEX
  5
4A7
  8
0
  6
CONTINUOUS
 62
     7
 10
6289.5884168729
 20
7380.4189136773
 30
0.0
  0
VERTEX
  5
4A8
  8
0
  6
CONTINUOUS
 62
     7
 10
6288.5490408627
 20
7379.9578809866
 30
0.0
  0
VERTEX
  5
4A9
  8
0
  6
CONTINUOUS
 62
     7
 10
6287.6377732754
 20
7379.4149595282
 30
0.0
  0
VERTEX
  5
4AA
  8
0
  6
CONTINUOUS
 62
     7
 10
6286.8740361978
 20
7378.8017207305
 30
0.0
  0
VERTEX
  5
4AB
  8
0
  6
CONTINUOUS
 62
     7
 10
6286.2741073595
 20
7378.1312347136
 30
0.0
  0
VERTEX
  5
4AC
  8
0
  6
CONTINUOUS
 62
     7
 10
6285.8507732022
 20
7377.4177917231
 30
0.0
  0
VERTEX
  5
4AD
  8
0
  6
CONTINUOUS
 62
     7
 10
6285.6130563586
 20
7376.6765975575
 30
0.0
  0
VERTEX
  5
4AE
  8
0
  6
CONTINUOUS
 62
     7
 10
6285.5660233503
 20
7375.9234494838
 30
0.0
  0
VERTEX
  5
4AF
  8
0
  6
CONTINUOUS
 62
     7
 10
6285.7106766044
 20
7375.1743995455
 30
0.0
  0
VERTEX
  5
4B0
  8
0
  6
CONTINUOUS
 62
     7
 10
6286.0439330878
 20
7374.4454124416
 30
0.0
  0
VERTEX
  5
4B1
  8
0
  6
CONTINUOUS
 62
     7
 10
6286.5586900172
 20
7373.7520252665
 30
0.0
  0
VERTEX
  5
4B2
  8
0
  6
CONTINUOUS
 62
     7
 10
6286.9359024475
 20
7373.3723482492
 30
0.0
  0
SEQEND
  5
A07
  8
0
  6
CONTINUOUS
 62
     7
  0
POLYLINE
  5
11D
  8
0
  6
CONTINUOUS
 62
     7
 66
     1
 10
0.0
 20
0.0
 30
0.0
 70
   128
  0
VERTEX
  5
4B3
  8
0
  6
CONTINUOUS
 62
     7
 10
6296.0594581567
 20
7369.9737995035
 30
0.0
  0
VERTEX
  5
4B4
  8
0
  6
CONTINUOUS
 62
     7
 10
6297.1433214988
 20
7370.1678665589
 30
0.0
  0
VERTEX
  5
4B5
  8
0
  6
CONTINUOUS
 62
     7
 10
6298.1567125045
 20
7370.4616117063
 30
0.0
  0
VERTEX
  5
4B6
  8
0
  6
CONTINUOUS
 62
     7
 10
6299.0719885089
 20
7370.8470223436
 30
0.0
  0
VERTEX
  5
4B7
  8
0
  6
CONTINUOUS
 62
     7
 10
6299.8641831685
 20
7371.3135854734
 30
0.0
  0
VERTEX
  5
4B8
  8
0
  6
CONTINUOUS
 62
     7
 10
6300.5116874782
 20
7371.8485744699
 30
0.0
  0
VERTEX
  5
4B9
  8
0
  6
CONTINUOUS
 62
     7
 10
6300.9968392083
 20
7372.4373962277
 30
0.0
  0
VERTEX
  5
4BA
  8
0
  6
CONTINUOUS
 62
     7
 10
6301.3064046843
 20
7373.0639892242
 30
0.0
  0
VERTEX
  5
4BB
  8
0
  6
CONTINUOUS
 62
     7
 10
6301.431939767
 20
7373.711261636
 30
0.0
  0
VERTEX
  5
4BC
  8
0
  6
CONTINUOUS
 62
     7
 10
6301.3700201866
 20
7374.3615575589
 30
0.0
  0
VERTEX
  5
4BD
  8
0
  6
CONTINUOUS
 62
     7
 10
6301.1223349478
 20
7374.9971386153
 30
0.0
  0
VERTEX
  5
4BE
  8
0
  6
CONTINUOUS
 62
     7
 10
6300.6956402582
 20
7375.600667811
 30
0.0
  0
VERTEX
  5
4BF
  8
0
  6
CONTINUOUS
 62
     7
 10
6300.1015752367
 20
7376.1556824426
 30
0.0
  0
VERTEX
  5
4C0
  8
0
  6
CONTINUOUS
 62
     7
 10
6299.3563444285
 20
7376.6470431579
 30
0.0
  0
VERTEX
  5
4C1
  8
0
  6
CONTINUOUS
 62
     7
 10
6298.4802757874
 20
7377.0613469174
 30
0.0
  0
VERTEX
  5
4C2
  8
0
  6
CONTINUOUS
 62
     7
 10
6297.497266182
 20
7377.3872925946
 30
0.0
  0
VERTEX
  5
4C3
  8
0
  6
CONTINUOUS
 62
     7
 10
6296.434129552
 20
7377.6159892411
 30
0.0
  0
VERTEX
  5
4C4
  8
0
  6
CONTINUOUS
 62
     7
 10
6295.3198654932
 20
7377.7411986085
 30
0.0
  0
VERTEX
  5
4C5
  8
0
  6
CONTINUOUS
 62
     7
 10
6294.1848682245
 20
7377.7595053117
 30
0.0
  0
VERTEX
  5
4C6
  8
0
  6
CONTINUOUS
 62
     7
 10
6293.0600975127
 20
7377.6704099916
 30
0.0
  0
VERTEX
  5
4C7
  8
0
  6
CONTINUOUS
 62
     7
 10
6291.9762341707
 20
7377.4763429362
 30
0.0
  0
VERTEX
  5
4C8
  8
0
  6
CONTINUOUS
 62
     7
 10
6290.962843165
 20
7377.1825977889
 30
0.0
  0
VERTEX
  5
4C9
  8
0
  6
CONTINUOUS
 62
     7
 10
6290.0475671606
 20
7376.7971871515
 30
0.0
  0
VERTEX
  5
4CA
  8
0
  6
CONTINUOUS
 62
     7
 10
6289.2553725009
 20
7376.3306240217
 30
0.0
  0
VERTEX
  5
4CB
  8
0
  6
CONTINUOUS
 62
     7
 10
6288.6078681912
 20
7375.7956350253
 30
0.0
  0
VERTEX
  5
4CC
  8
0
  6
CONTINUOUS
 62
     7
 10
6288.1227164611
 20
7375.2068132675
 30
0.0
  0
VERTEX
  5
4CD
  8
0
  6
CONTINUOUS
 62
     7
 10
6287.8131509851
 20
7374.5802202709
 30
0.0
  0
VERTEX
  5
4CE
  8
0
  6
CONTINUOUS
 62
     7
 10
6287.6876159024
 20
7373.9329478591
 30
0.0
  0
VERTEX
  5
4CF
  8
0
  6
CONTINUOUS
 62
     7
 10
6287.7495354829
 20
7373.2826519362
 30
0.0
  0
VERTEX
  5
4D0
  8
0
  6
CONTINUOUS
 62
     7
 10
6287.9972207217
 20
7372.6470708798
 30
0.0
  0
VERTEX
  5
4D1
  8
0
  6
CONTINUOUS
 62
     7
 10
6288.4239154112
 20
7372.0435416842
 30
0.0
  0
VERTEX
  5
4D2
  8
0
  6
CONTINUOUS
 62
     7
 10
6289.0179804327
 20
7371.4885270525
 30
0.0
  0
VERTEX
  5
4D3
  8
0
  6
CONTINUOUS
 62
     7
 10
6289.7632112409
 20
7370.9971663372
 30
0.0
  0
VERTEX
  5
4D4
  8
0
  6
CONTINUOUS
 62
     7
 10
6290.6392798821
 20
7370.5828625777
 30
0.0
  0
VERTEX
  5
4D5
  8
0
  6
CONTINUOUS
 62
     7
 10
6291.6222894874
 20
7370.2569169005
 30
0.0
  0
VERTEX
  5
4D6
  8
0
  6
CONTINUOUS
 62
     7
 10
6292.6854261174
 20
7370.028220254
 30
0.0
  0
VERTEX
  5
4D7
  8
0
  6
CONTINUOUS
 62
     7
 10
6293.7996901762
 20
7369.9030108866
 30
0.0
  0
VERTEX
  5
4D8
  8
0
  6
CONTINUOUS
 62
     7
 10
6294.9346874449
 20
7369.8847041834
 30
0.0
  0
VERTEX
  5
4D9
  8
0
  6
CONTINUOUS
 62
     7
 10
6296.0594581567
 20
7369.9737995035
 30
0.0
  0
SEQEND
  5
A08
  8
0
  6
CONTINUOUS
 62
     7
  0
ARC
  5
11E
  8
0
  6
CONTINUOUS
 62
     7
 10
6301.8164018913
 20
7381.5490180013
 30
0.0
 40
4.645394973563505
 50
1.6893259052
 51
40.5767193051
  0
ARC
  5
11F
  8
0
  6
CONTINUOUS
 62
     7
 10
6287.2431121298
 20
7381.5722259118
 30
0.0
 40
4.584745325326579
 50
139.1554955616
 51
178.5784592282
  0
POLYLINE
  5
120
  8
0
  6
CONTINUOUS
 62
     7
 66
     1
 10
0.0
 20
0.0
 30
0.0
 70
   128
  0
VERTEX
  5
4DA
  8
0
  6
CONTINUOUS
 62
     7
 10
6302.5850002103
 20
7373.7790976446
 30
0.0
  0
VERTEX
  5
4DB
  8
0
  6
CONTINUOUS
 62
     7
 10
6303.4860667619
 20
7374.3050873313
 30
0.0
  0
VERTEX
  5
4DC
  8
0
  6
CONTINUOUS
 62
     7
 10
6304.4020087889
 20
7374.9823750961
 30
0.0
  0
VERTEX
  5
4DD
  8
0
  6
CONTINUOUS
 62
     7
 10
6305.1627329544
 20
7375.7201676585
 30
0.0
  0
VERTEX
  5
4DE
  8
0
  6
CONTINUOUS
 62
     7
 10
6305.7562421836
 20
7376.5068295891
 30
0.0
  0
VERTEX
  5
4DF
  8
0
  6
CONTINUOUS
 62
     7
 10
6306.1731764817
 20
7377.3299547594
 30
0.0
  0
VERTEX
  5
4E0
  8
0
  6
CONTINUOUS
 62
     7
 10
6306.4069605456
 20
7378.1765619937
 30
0.0
  0
VERTEX
  5
4E1
  8
0
  6
CONTINUOUS
 62
     7
 10
6306.453907461
 20
7379.0332997901
 30
0.0
  0
VERTEX
  5
4E2
  8
0
  6
CONTINUOUS
 62
     7
 10
6306.3132768469
 20
7379.8866568818
 30
0.0
  0
VERTEX
  5
4E3
  8
0
  6
CONTINUOUS
 62
     7
 10
6305.9872865322
 20
7380.7231753178
 30
0.0
  0
VERTEX
  5
4E4
  8
0
  6
CONTINUOUS
 62
     7
 10
6305.481077579
 20
7381.5296627025
 30
0.0
  0
VERTEX
  5
4E5
  8
0
  6
CONTINUOUS
 62
     7
 10
6304.8026332046
 20
7382.2934002482
 30
0.0
  0
VERTEX
  5
4E6
  8
0
  6
CONTINUOUS
 62
     7
 10
6303.9626528823
 20
7383.0023433575
 30
0.0
  0
VERTEX
  5
4E7
  8
0
  6
CONTINUOUS
 62
     7
 10
6302.9743836035
 20
7383.6453115741
 30
0.0
  0
VERTEX
  5
4E8
  8
0
  6
CONTINUOUS
 62
     7
 10
6301.8534109651
 20
7384.212164905
 30
0.0
  0
VERTEX
  5
4E9
  8
0
  6
CONTINUOUS
 62
     7
 10
6300.6174133752
 20
7384.6939637348
 30
0.0
  0
VERTEX
  5
4EA
  8
0
  6
CONTINUOUS
 62
     7
 10
6299.2858832542
 20
7385.0831098079
 30
0.0
  0
VERTEX
  5
4EB
  8
0
  6
CONTINUOUS
 62
     7
 10
6297.8798196275
 20
7385.3734660584
 30
0.0
  0
VERTEX
  5
4EC
  8
0
  6
CONTINUOUS
 62
     7
 10
6296.4213969584
 20
7385.5604533948
 30
0.0
  0
VERTEX
  5
4ED
  8
0
  6
CONTINUOUS
 62
     7
 10
6294.9336154437
 20
7385.641122915
 30
0.0
  0
VERTEX
  5
4EE
  8
0
  6
CONTINUOUS
 62
     7
 10
6293.4399382865
 20
7385.6142024125
 30
0.0
  0
VERTEX
  5
4EF
  8
0
  6
CONTINUOUS
 62
     7
 10
6291.963921668
 20
7385.4801164398
 30
0.0
  0
VERTEX
  5
4F0
  8
0
  6
CONTINUOUS
 62
     7
 10
6290.5288432519
 20
7385.2409796126
 30
0.0
  0
VERTEX
  5
4F1
  8
0
  6
CONTINUOUS
 62
     7
 10
6289.1573350821
 20
7384.9005632618
 30
0.0
  0
VERTEX
  5
4F2
  8
0
  6
CONTINUOUS
 62
     7
 10
6287.8710266619
 20
7384.4642359563
 30
0.0
  0
VERTEX
  5
4F3
  8
0
  6
CONTINUOUS
 62
     7
 10
6286.6902038432
 20
7383.9388788386
 30
0.0
  0
VERTEX
  5
4F4
  8
0
  6
CONTINUOUS
 62
     7
 10
6285.6334889075
 20
7383.3327771041
 30
0.0
  0
VERTEX
  5
4F5
  8
0
  6
CONTINUOUS
 62
     7
 10
6284.7175468805
 20
7382.6554893393
 30
0.0
  0
VERTEX
  5
4F6
  8
0
  6
CONTINUOUS
 62
     7
 10
6283.9568227151
 20
7381.9176967769
 30
0.0
  0
VERTEX
  5
4F7
  8
0
  6
CONTINUOUS
 62
     7
 10
6283.3633134858
 20
7381.1310348463
 30
0.0
  0
VERTEX
  5
4F8
  8
0
  6
CONTINUOUS
 62
     7
 10
6282.9463791877
 20
7380.307909676
 30
0.0
  0
VERTEX
  5
4F9
  8
0
  6
CONTINUOUS
 62
     7
 10
6282.7125951239
 20
7379.4613024418
 30
0.0
  0
VERTEX
  5
4FA
  8
0
  6
CONTINUOUS
 62
     7
 10
6282.6656482085
 20
7378.6045646454
 30
0.0
  0
VERTEX
  5
4FB
  8
0
  6
CONTINUOUS
 62
     7
 10
6282.8062788225
 20
7377.7512075536
 30
0.0
  0
VERTEX
  5
4FC
  8
0
  6
CONTINUOUS
 62
     7
 10
6283.1322691372
 20
7376.9146891177
 30
0.0
  0
VERTEX
  5
4FD
  8
0
  6
CONTINUOUS
 62
     7
 10
6283.6384780905
 20
7376.1082017329
 30
0.0
  0
VERTEX
  5
4FE
  8
0
  6
CONTINUOUS
 62
     7
 10
6284.3169224648
 20
7375.3444641872
 30
0.0
  0
VERTEX
  5
4FF
  8
0
  6
CONTINUOUS
 62
     7
 10
6285.1569027871
 20
7374.635521078
 30
0.0
  0
VERTEX
  5
500
  8
0
  6
CONTINUOUS
 62
     7
 10
6286.1451720659
 20
7373.9925528614
 30
0.0
  0
VERTEX
  5
501
  8
0
  6
CONTINUOUS
 62
     7
 10
6286.5345554591
 20
7373.7790976446
 30
0.0
  0
SEQEND
  5
A09
  8
0
  6
CONTINUOUS
 62
     7
  0
POLYLINE
  5
121
  8
0
  6
CONTINUOUS
 62
     7
 66
     1
 10
0.0
 20
0.0
 30
0.0
 70
   128
  0
VERTEX
  5
502
  8
0
  6
CONTINUOUS
 62
     7
 10
6303.4063205726
 20
7375.16652098
 30
0.0
  0
VERTEX
  5
503
  8
0
  6
CONTINUOUS
 62
     7
 10
6303.859237501
 20
7375.5576041439
 30
0.0
  0
VERTEX
  5
504
  8
0
  6
CONTINUOUS
 62
     7
 10
6304.5341261897
 20
7376.2976494626
 30
0.0
  0
VERTEX
  5
505
  8
0
  6
CONTINUOUS
 62
     7
 10
6305.0310223958
 20
7377.0826871318
 30
0.0
  0
VERTEX
  5
506
  8
0
  6
CONTINUOUS
 62
     7
 10
6305.3410589946
 20
7377.8987081356
 30
0.0
  0
VERTEX
  5
507
  8
0
  6
CONTINUOUS
 62
     7
 10
6305.4587033757
 20
7378.73115056
 30
0.0
  0
VERTEX
  5
508
  8
0
  6
CONTINUOUS
 62
     7
 10
6305.3818561723
 20
7379.5651594501
 30
0.0
  0
VERTEX
  5
509
  8
0
  6
CONTINUOUS
 62
     7
 10
6305.1118887246
 20
7380.3858518977
 30
0.0
  0
VERTEX
  5
50A
  8
0
  6
CONTINUOUS
 62
     7
 10
6304.6536186081
 20
7381.1785826264
 30
0.0
  0
VERTEX
  5
50B
  8
0
  6
CONTINUOUS
 62
     7
 10
6304.0152236638
 20
7381.9292053376
 30
0.0
  0
VERTEX
  5
50C
  8
0
  6
CONTINUOUS
 62
     7
 10
6303.2080960647
 20
7382.6243251514
 30
0.0
  0
VERTEX
  5
50D
  8
0
  6
CONTINUOUS
 62
     7
 10
6302.246639022
 20
7383.2515376381
 30
0.0
  0
VERTEX
  5
50E
  8
0
  6
CONTINUOUS
 62
     7
 10
6301.1480097592
 20
7383.799650176
 30
0.0
  0
VERTEX
  5
50F
  8
0
  6
CONTINUOUS
 62
     7
 10
6299.9318133417
 20
7384.258881684
 30
0.0
  0
VERTEX
  5
510
  8
0
  6
CONTINUOUS
 62
     7
 10
6298.6197528233
 20
7384.6210371649
 30
0.0
  0
VERTEX
  5
511
  8
0
  6
CONTINUOUS
 62
     7
 10
6297.235241955
 20
7384.8796539456
 30
0.0
  0
VERTEX
  5
512
  8
0
  6
CONTINUOUS
 62
     7
 10
6295.8029873661
 20
7385.0301170034
 30
0.0
  0
VERTEX
  5
513
  8
0
  6
CONTINUOUS
 62
     7
 10
6294.3485476737
 20
7385.0697413216
 30
0.0
  0
VERTEX
  5
514
  8
0
  6
CONTINUOUS
 62
     7
 10
6292.8978773885
 20
7384.9978198033
 30
0.0
  0
VERTEX
  5
515
  8
0
  6
CONTINUOUS
 62
     7
 10
6291.4768637561
 20
7384.8156358896
 30
0.0
  0
VERTEX
  5
516
  8
0
  6
CONTINUOUS
 62
     7
 10
6290.1108647985
 20
7384.5264406568
 30
0.0
  0
VERTEX
  5
517
  8
0
  6
CONTINUOUS
 62
     7
 10
6288.8242567995
 20
7384.1353948007
 30
0.0
  0
VERTEX
  5
518
  8
0
  6
CONTINUOUS
 62
     7
 10
6287.6399993092
 20
7383.6494765439
 30
0.0
  0
VERTEX
  5
519
  8
0
  6
CONTINUOUS
 62
     7
 10
6286.5792254306
 20
7383.0773571091
 30
0.0
  0
VERTEX
  5
51A
  8
0
  6
CONTINUOUS
 62
     7
 10
6285.6608646987
 20
7382.4292459813
 30
0.0
  0
VERTEX
  5
51B
  8
0
  6
CONTINUOUS
 62
     7
 10
6284.9013052826
 20
7381.7167087188
 30
0.0
  0
VERTEX
  5
51C
  8
0
  6
CONTINUOUS
 62
     7
 10
6284.3141015379
 20
7380.952460566
 30
0.0
  0
VERTEX
  5
51D
  8
0
  6
CONTINUOUS
 62
     7
 10
6283.9097321295
 20
7380.1501395493
 30
0.0
  0
VERTEX
  5
51E
  8
0
  6
CONTINUOUS
 62
     7
 10
6283.695413039
 20
7379.3240631062
 30
0.0
  0
VERTEX
  5
51F
  8
0
  6
CONTINUOUS
 62
     7
 10
6283.6749687957
 20
7378.4889725905
 30
0.0
  0
VERTEX
  5
520
  8
0
  6
CONTINUOUS
 62
     7
 10
6283.8487642276
 20
7377.6597702121
 30
0.0
  0
VERTEX
  5
521
  8
0
  6
CONTINUOUS
 62
     7
 10
6284.213697951
 20
7376.8512531072
 30
0.0
  0
VERTEX
  5
522
  8
0
  6
CONTINUOUS
 62
     7
 10
6284.763257715
 20
7376.0778492826
 30
0.0
  0
VERTEX
  5
523
  8
0
  6
CONTINUOUS
 62
     7
 10
6285.4876366127
 20
7375.3533601479
 30
0.0
  0
VERTEX
  5
524
  8
0
  6
CONTINUOUS
 62
     7
 10
6285.7132350968
 20
7375.16652098
 30
0.0
  0
SEQEND
  5
A0A
  8
0
  6
CONTINUOUS
 62
     7
  0
POLYLINE
  5
122
  8
0
  6
CONTINUOUS
 62
     7
 66
     1
 10
0.0
 20
0.0
 30
0.0
 70
   128
  0
VERTEX
  5
525
  8
0
  6
CONTINUOUS
 62
     7
 10
6304.0539027607
 20
7378.6273268741
 30
0.0
  0
VERTEX
  5
526
  8
0
  6
CONTINUOUS
 62
     7
 10
6304.0315502725
 20
7379.2386737479
 30
0.0
  0
VERTEX
  5
527
  8
0
  6
CONTINUOUS
 62
     7
 10
6303.8309957109
 20
7380.0075673714
 30
0.0
  0
VERTEX
  5
528
  8
0
  6
CONTINUOUS
 62
     7
 10
6303.4417058893
 20
7380.752263811
 30
0.0
  0
VERTEX
  5
529
  8
0
  6
CONTINUOUS
 62
     7
 10
6302.8716056258
 20
7381.4576031945
 30
0.0
  0
VERTEX
  5
52A
  8
0
  6
CONTINUOUS
 62
     7
 10
6302.1323005179
 20
7382.1092268463
 30
0.0
  0
VERTEX
  5
52B
  8
0
  6
CONTINUOUS
 62
     7
 10
6301.2388406855
 20
7382.6938695878
 30
0.0
  0
VERTEX
  5
52C
  8
0
  6
CONTINUOUS
 62
     7
 10
6300.2094143943
 20
7383.1996297789
 30
0.0
  0
VERTEX
  5
52D
  8
0
  6
CONTINUOUS
 62
     7
 10
6299.0649777949
 20
7383.6162116006
 30
0.0
  0
VERTEX
  5
52E
  8
0
  6
CONTINUOUS
 62
     7
 10
6297.8288283163
 20
7383.9351346482
 30
0.0
  0
VERTEX
  5
52F
  8
0
  6
CONTINUOUS
 62
     7
 10
6296.526130397
 20
7384.1499065682
 30
0.0
  0
VERTEX
  5
530
  8
0
  6
CONTINUOUS
 62
     7
 10
6295.1834032101
 20
7384.2561552237
 30
0.0
  0
VERTEX
  5
531
  8
0
  6
CONTINUOUS
 62
     7
 10
6293.8279808089
 20
7384.2517176985
 30
0.0
  0
VERTEX
  5
532
  8
0
  6
CONTINUOUS
 62
     7
 10
6292.4874556848
 20
7384.1366843278
 30
0.0
  0
VERTEX
  5
533
  8
0
  6
CONTINUOUS
 62
     7
 10
6291.1891170636
 20
7383.9133968592
 30
0.0
  0
VERTEX
  5
534
  8
0
  6
CONTINUOUS
 62
     7
 10
6289.9593953755
 20
7383.5864007817
 30
0.0
  0
VERTEX
  5
535
  8
0
  6
CONTINUOUS
 62
     7
 10
6288.8233242079
 20
7383.1623527925
 30
0.0
  0
VERTEX
  5
536
  8
0
  6
CONTINUOUS
 62
     7
 10
6287.8040306936
 20
7382.6498852858
 30
0.0
  0
VERTEX
  5
537
  8
0
  6
CONTINUOUS
 62
     7
 10
6286.9222647091
 20
7382.0594306222
 30
0.0
  0
VERTEX
  5
538
  8
0
  6
CONTINUOUS
 62
     7
 10
6286.195976467
 20
7381.403008756
 30
0.0
  0
VERTEX
  5
539
  8
0
  6
CONTINUOUS
 62
     7
 10
6285.6399511016
 20
7380.6939825432
 30
0.0
  0
VERTEX
  5
53A
  8
0
  6
CONTINUOUS
 62
     7
 10
6285.2655076858
 20
7379.946785713
 30
0.0
  0
VERTEX
  5
53B
  8
0
  6
CONTINUOUS
 62
     7
 10
6285.0802688078
 20
7379.1766290381
 30
0.0
  0
VERTEX
  5
53C
  8
0
  6
CONTINUOUS
 62
     7
 10
6285.0657637762
 20
7378.625528012
 30
0.0
  0
SEQEND
  5
A0B
  8
0
  6
CONTINUOUS
 62
     7
  0
ARC
  5
123
  8
0
  6
CONTINUOUS
 62
     7
 10
6299.0612556985
 20
7380.7715396618
 30
0.0
 40
6.966768724750613
 50
309.4387559081
 51
316.3834539947
  0
ARC
  5
124
  8
0
  6
CONTINUOUS
 62
     7
 10
6301.2980399616
 20
7378.9729462284
 30
0.0
 40
4.113734325095534
 50
313.0267799848
 51
10.9912089372
  0
ARC
  5
125
  8
0
  6
CONTINUOUS
 62
     7
 10
6287.3118381087
 20
7378.9464697443
 30
0.0
 40
3.620549530308156
 50
167.05930713
 51
195.2109507614
  0
ARC
  5
126
  8
0
  6
CONTINUOUS
 62
     7
 10
6287.7902122275
 20
7379.0763871906
 30
0.0
 40
4.11625137766364
 50
195.2089076618
 51
207.3727081909
  0
ARC
  5
127
  8
0
  6
CONTINUOUS
 62
     7
 10
6289.2494772155
 20
7379.9374141346
 30
0.0
 40
5.808764807021805
 50
208.2968306143
 51
231.0590280043
  0
ARC
  5
128
  8
0
  6
CONTINUOUS
 62
     7
 10
6294.6114035903
 20
7367.5126109038
 30
0.0
 40
10.21418354483324
 50
61.3771226748
 51
97.9088871184
  0
LINE
  5
129
  8
0
  6
CONTINUOUS
 62
     7
 10
6293.205950506
 20
7377.6296384868
 30
0.0
 11
6293.4738155288
 21
7376.8762890087
 31
0.0
  0
ARC
  5
12A
  8
0
  6
CONTINUOUS
 62
     7
 10
6294.6005971279
 20
7368.7533798527
 30
0.0
 40
8.200688381375812
 50
61.4678945578
 51
97.8974727381
  0
LINE
  5
12B
  8
0
  6
CONTINUOUS
 62
     7
 10
6298.5176651729
 20
7375.9580913569
 30
0.0
 11
6299.5044304354
 21
7376.4785371683
 31
0.0
  0
ARC
  5
12C
  8
0
  6
CONTINUOUS
 62
     7
 10
6290.6466222337
 20
7373.8082589806
 30
0.0
 40
2.812255920953722
 50
156.0457541013
 51
245.6659049276
  0
LINE
  5
12D
  8
0
  6
CONTINUOUS
 62
     7
 10
6289.4878135205
 20
7371.2458488396
 30
0.0
 11
6290.4913401945
 21
7371.7555806442
 31
0.0
  0
ARC
  5
12E
  8
0
  6
CONTINUOUS
 62
     7
 10
6291.4221628783
 20
7373.8118910819
 30
0.0
 40
2.25717599778039
 50
156.2733330443
 51
245.6453340484
  0
LINE
  5
12F
  8
0
  6
CONTINUOUS
 62
     7
 10
6289.3557737402
 20
7374.7201198056
 30
0.0
 11
6288.0765860001
 21
7374.9500545503
 31
0.0
  0
ARC
  5
130
  8
0
  6
CONTINUOUS
 62
     7
 10
6294.5564805938
 20
7374.2384217309
 30
0.0
 40
0.6583802424510763
 50
246.622344196
 51
274.6864396132
  0
LINE
  5
131
  8
0
  6
CONTINUOUS
 62
     7
 10
6294.2952419272
 20
7373.6340882942
 30
0.0
 11
6293.0433469322
 21
7372.9738061265
 31
0.0
  0
ARC
  5
132
  8
0
  6
CONTINUOUS
 62
     7
 10
6294.5439770784
 20
7375.8152517116
 30
0.0
 40
3.213363323520445
 50
242.1604766565
 51
277.5178791532
  0
LINE
  5
133
  8
0
  6
CONTINUOUS
 62
     7
 10
6294.9643992886
 20
7372.6295101945
 30
0.0
 11
6294.6102719904
 21
7373.5822426171
 31
0.0
  0
ARC
  5
134
  8
0
  6
CONTINUOUS
 62
     7
 10
6294.5309710638
 20
7377.4661955948
 30
0.0
 40
5.889621754844282
 50
241.6458904244
 51
277.8400459714
  0
LINE
  5
135
  8
0
  6
CONTINUOUS
 62
     7
 10
6291.7338747757
 20
7372.2831562577
 30
0.0
 11
6290.6755054051
 21
7371.7249445666
 31
0.0
  0
ARC
  5
136
  8
0
  6
CONTINUOUS
 62
     7
 10
6294.5192459749
 20
7378.7964993997
 30
0.0
 40
8.048678731619134
 50
241.473727514
 51
277.8615270354
  0
LINE
  5
137
  8
0
  6
CONTINUOUS
 62
     7
 10
6295.6201394862
 20
7370.8234659242
 30
0.0
 11
6295.3343626272
 21
7371.6316256525
 31
0.0
  0
ARC
  5
138
  8
0
  6
CONTINUOUS
 62
     7
 10
6294.5435522411
 20
7375.909155385
 30
0.0
 40
3.364935508327707
 50
242.1136398414
 51
277.6007140856
  0
LINE
  5
139
  8
0
  6
CONTINUOUS
 62
     7
 10
6292.969706585
 20
7372.934966281
 30
0.0
 11
6291.8074944033
 21
7372.3219851751
 31
0.0
  0
ARC
  5
13A
  8
0
  6
CONTINUOUS
 62
     7
 10
6294.5298841873
 20
7377.3671501555
 30
0.0
 40
5.732808719653764
 50
241.6485357898
 51
277.6576535152
  0
LINE
  5
13B
  8
0
  6
CONTINUOUS
 62
     7
 10
6295.2938023182
 20
7371.6854668746
 30
0.0
 11
6294.9886280342
 21
7372.573784564
 31
0.0
  0
ARC
  5
13C
  8
0
  6
CONTINUOUS
 62
     7
 10
6294.3139551902
 20
7373.8250730119
 30
0.0
 40
0.1737699889687283
 50
168.5730957187
 51
238.3854046749
  0
LINE
  5
13D
  8
0
  6
CONTINUOUS
 62
     7
 10
6294.143629626
 20
7373.8594999091
 30
0.0
 11
6292.5207424103
 21
7374.1512148355
 31
0.0
  0
ARC
  5
13E
  8
0
  6
CONTINUOUS
 62
     7
 10
6293.3353937682
 20
7373.8205309778
 30
0.0
 40
0.8792091041305241
 50
157.9067477523
 51
244.8275107988
  0
LINE
  5
13F
  8
0
  6
CONTINUOUS
 62
     7
 10
6292.9614267598
 20
7373.0248191421
 30
0.0
 11
6294.2228644659
 21
7373.6770916313
 31
0.0
  0
ARC
  5
140
  8
0
  6
CONTINUOUS
 62
     7
 10
6292.3106141094
 20
7373.8159879194
 30
0.0
 40
1.6193868983392
 50
156.7070420707
 51
245.5259694978
  0
LINE
  5
141
  8
0
  6
CONTINUOUS
 62
     7
 10
6290.8232153566
 20
7374.4563463166
 30
0.0
 11
6289.4512040235
 21
7374.7029661564
 31
0.0
  0
ARC
  5
142
  8
0
  6
CONTINUOUS
 62
     7
 10
6291.4783579325
 20
7373.8120399795
 30
0.0
 40
2.2142950172759
 50
156.2746998836
 51
245.5654267232
  0
LINE
  5
143
  8
0
  6
CONTINUOUS
 62
     7
 10
6290.5624062136
 20
7371.7960700213
 30
0.0
 11
6291.639733279
 21
7372.342104329
 31
0.0
  0
ARC
  5
144
  8
0
  6
CONTINUOUS
 62
     7
 10
6293.2787879257
 20
7373.8203652104
 30
0.0
 40
0.9217307825351831
 50
157.8173394629
 51
245.0106342503
  0
LINE
  5
145
  8
0
  6
CONTINUOUS
 62
     7
 10
6292.4252791497
 20
7374.1683744125
 30
0.0
 11
6290.9186517574
 21
7374.4391915677
 31
0.0
  0
ARC
  5
146
  8
0
  6
CONTINUOUS
 62
     7
 10
6292.3623903504
 20
7373.8157901055
 30
0.0
 40
1.572580843033945
 50
156.6454758049
 51
245.1188306535
  0
LINE
  5
147
  8
0
  6
CONTINUOUS
 62
     7
 10
6291.7007463281
 20
7372.3891725339
 30
0.0
 11
6292.8894027186
 21
7372.9849211393
 31
0.0
  0
ARC
  5
148
  8
0
  6
CONTINUOUS
 62
     7
 10
6298.4729334357
 20
7373.8359505145
 30
0.0
 40
2.812255920950028
 50
336.0457541013
 51
65.6659049276
  0
LINE
  5
149
  8
0
  6
CONTINUOUS
 62
     7
 10
6299.631742149
 20
7376.3983606555
 30
0.0
 11
6298.628215475
 21
7375.8886288509
 31
0.0
  0
ARC
  5
14A
  8
0
  6
CONTINUOUS
 62
     7
 10
6297.6973927911
 20
7373.8323184133
 30
0.0
 40
2.257175997782888
 50
336.2733330444
 51
65.6453340483
  0
LINE
  5
14B
  8
0
  6
CONTINUOUS
 62
     7
 10
6299.7637819293
 20
7372.9240896895
 30
0.0
 11
6301.0429696693
 21
7372.6941549449
 31
0.0
  0
ARC
  5
14C
  8
0
  6
CONTINUOUS
 62
     7
 10
6294.5630750756
 20
7373.4057877642
 30
0.0
 40
0.6583802424503545
 50
66.6223441961
 51
94.6864396133
  0
LINE
  5
14D
  8
0
  6
CONTINUOUS
 62
     7
 10
6294.8243137422
 20
7374.010121201
 30
0.0
 11
6296.0762087372
 21
7374.6704033686
 31
0.0
  0
ARC
  5
14E
  8
0
  6
CONTINUOUS
 62
     7
 10
6294.5755785911
 20
7371.8289577835
 30
0.0
 40
3.213363323494938
 50
62.1604766563
 51
97.5178791534
  0
LINE
  5
14F
  8
0
  6
CONTINUOUS
 62
     7
 10
6294.1551563808
 20
7375.0146993006
 30
0.0
 11
6294.5092836791
 21
7374.061966878
 31
0.0
  0
ARC
  5
150
  8
0
  6
CONTINUOUS
 62
     7
 10
6294.1563197292
 20
7372.907874082
 30
0.0
 40
2.152260382521952
 50
93.7554628298
 51
141.9897482804
  0
LINE
  5
151
  8
0
  6
CONTINUOUS
 62
     7
 10
6294.0153503994
 20
7375.055512879
 30
0.0
 11
6293.6709351888
 21
7375.9393111402
 31
0.0
  0
ARC
  5
152
  8
0
  6
CONTINUOUS
 62
     7
 10
6293.8857247743
 20
7372.2348815583
 30
0.0
 40
3.710651303121696
 50
93.3183984549
 51
141.8740188926
  0
LINE
  5
153
  8
0
  6
CONTINUOUS
 62
     7
 10
6290.9667218446
 20
7374.5258104069
 30
0.0
 11
6292.4605525191
 21
7374.2332413229
 31
0.0
  0
ARC
  5
154
  8
0
  6
CONTINUOUS
 62
     7
 10
6294.4727682354
 20
7373.6526406612
 30
0.0
 40
0.4001253910098946
 50
99.29142601
 51
138.6562081227
  0
LINE
  5
155
  8
0
  6
CONTINUOUS
 62
     7
 10
6294.4081655335
 20
7374.0475163625
 30
0.0
 11
6294.0371733127
 21
7374.9995134566
 31
0.0
  0
ARC
  5
156
  8
0
  6
CONTINUOUS
 62
     7
 10
6294.1747918221
 20
7372.9469482294
 30
0.0
 40
2.05717351389147
 50
93.8357740419
 51
141.8605050804
  0
LINE
  5
157
  8
0
  6
CONTINUOUS
 62
     7
 10
6292.5568053059
 20
7374.2174136952
 30
0.0
 11
6294.1723703103
 21
7373.9169537617
 31
0.0
  0
ARC
  5
158
  8
0
  6
CONTINUOUS
 62
     7
 10
6293.3632943771
 20
7370.9974732379
 30
0.0
 40
6.617859524013664
 50
92.9627538959
 51
142.2024482126
  0
LINE
  5
159
  8
0
  6
CONTINUOUS
 62
     7
 10
6288.1339861918
 20
7375.0533825789
 30
0.0
 11
6289.4053778885
 21
7374.8097649053
 31
0.0
  0
ARC
  5
15A
  8
0
  6
CONTINUOUS
 62
     7
 10
6293.5954524557
 20
7371.562554002
 30
0.0
 40
5.301047399227165
 50
93.0471468942
 51
142.2251434052
  0
LINE
  5
15B
  8
0
  6
CONTINUOUS
 62
     7
 10
6293.3136610784
 20
7376.856106415
 30
0.0
 11
6293.0212386008
 21
7377.606486971
 31
0.0
  0
ARC
  5
15C
  8
0
  6
CONTINUOUS
 62
     7
 10
6293.8628590568
 20
7372.2077710599
 30
0.0
 40
3.793549945904433
 50
93.2299364954
 51
142.2053739827
  0
LINE
  5
15D
  8
0
  6
CONTINUOUS
 62
     7
 10
6293.6491184157
 20
7375.9952948064
 30
0.0
 11
6293.3354764531
 21
7376.8001263373
 31
0.0
  0
ARC
  5
15E
  8
0
  6
CONTINUOUS
 62
     7
 10
6293.6142815112
 20
7371.600595601
 30
0.0
 40
5.207000301375358
 50
93.0693288121
 51
142.1623065149
  0
LINE
  5
15F
  8
0
  6
CONTINUOUS
 62
     7
 10
6289.5020445621
 20
7374.7947088447
 30
0.0
 11
6290.8651484865
 21
7374.532583424
 31
0.0
  0
ARC
  5
160
  8
0
  6
CONTINUOUS
 62
     7
 10
6294.5885846056
 20
7370.1780139003
 30
0.0
 40
5.889621754849511
 50
61.6458904244
 51
97.8400459714
  0
LINE
  5
161
  8
0
  6
CONTINUOUS
 62
     7
 10
6297.3856808938
 20
7375.3610532374
 30
0.0
 11
6298.4440502643
 21
7375.9192649285
 31
0.0
  0
ARC
  5
162
  8
0
  6
CONTINUOUS
 62
     7
 10
6294.6003096945
 20
7368.8477100954
 30
0.0
 40
8.048678731638644
 50
61.4737275141
 51
97.8615270354
  0
LINE
  5
163
  8
0
  6
CONTINUOUS
 62
     7
 10
6293.4994161832
 20
7376.820743571
 30
0.0
 11
6293.7851930422
 21
7376.0125838426
 31
0.0
  0
ARC
  5
164
  8
0
  6
CONTINUOUS
 62
     7
 10
6294.5760034283
 20
7371.7350541102
 30
0.0
 40
3.364935508328394
 50
62.1136398414
 51
97.6007140856
  0
LINE
  5
165
  8
0
  6
CONTINUOUS
 62
     7
 10
6296.1498490844
 20
7374.7092432141
 30
0.0
 11
6297.3120612661
 21
7375.3222243201
 31
0.0
  0
ARC
  5
166
  8
0
  6
CONTINUOUS
 62
     7
 10
6294.5896714822
 20
7370.2770593396
 30
0.0
 40
5.732808719660967
 50
61.6485357898
 51
97.6576535152
  0
LINE
  5
167
  8
0
  6
CONTINUOUS
 62
     7
 10
6293.8257533513
 20
7375.9587426206
 30
0.0
 11
6294.1309276353
 21
7375.0704249312
 31
0.0
  0
ARC
  5
168
  8
0
  6
CONTINUOUS
 62
     7
 10
6294.9632359402
 20
7374.7363354131
 30
0.0
 40
2.152260382515986
 50
273.7554628297
 51
321.9897482804
  0
LINE
  5
169
  8
0
  6
CONTINUOUS
 62
     7
 10
6295.10420527
 20
7372.5886966161
 30
0.0
 11
6295.4486204806
 21
7371.7048983549
 31
0.0
  0
ARC
  5
16A
  8
0
  6
CONTINUOUS
 62
     7
 10
6295.2338308951
 20
7375.4093279368
 30
0.0
 40
3.710651303110511
 50
273.3183984548
 51
321.8740188927
  0
LINE
  5
16B
  8
0
  6
CONTINUOUS
 62
     7
 10
6298.1528338248
 20
7373.1183990882
 30
0.0
 11
6296.6590031503
 21
7373.4109681722
 31
0.0
  0
ARC
  5
16C
  8
0
  6
CONTINUOUS
 62
     7
 10
6295.2566966126
 20
7375.4364384352
 30
0.0
 40
3.793549945919807
 50
273.2299364954
 51
322.2053739826
  0
LINE
  5
16D
  8
0
  6
CONTINUOUS
 62
     7
 10
6295.4704372538
 20
7371.6489146887
 30
0.0
 11
6295.7840792164
 21
7370.8440831578
 31
0.0
  0
ARC
  5
16E
  8
0
  6
CONTINUOUS
 62
     7
 10
6295.5052741583
 20
7376.0436138941
 30
0.0
 40
5.207000301377223
 50
273.0693288122
 51
322.1623065149
  0
LINE
  5
16F
  8
0
  6
CONTINUOUS
 62
     7
 10
6299.6175111073
 20
7372.8495006504
 30
0.0
 11
6298.254407183
 21
7373.1116260711
 31
0.0
  0
ARC
  5
170
  8
0
  6
CONTINUOUS
 62
     7
 10
6294.646787434
 20
7373.9915688339
 30
0.0
 40
0.4001253910126258
 50
279.2914260107
 51
318.6562081231
  0
LINE
  5
171
  8
0
  6
CONTINUOUS
 62
     7
 10
6294.7113901359
 20
7373.5966931327
 30
0.0
 11
6295.0823823567
 21
7372.6446960385
 31
0.0
  0
ARC
  5
172
  8
0
  6
CONTINUOUS
 62
     7
 10
6294.9447638474
 20
7374.6972612658
 30
0.0
 40
2.057173513893285
 50
273.8357740419
 51
321.8605050803
  0
LINE
  5
173
  8
0
  6
CONTINUOUS
 62
     7
 10
6296.5627503635
 20
7373.4267957999
 30
0.0
 11
6294.9471853591
 21
7373.7272557334
 31
0.0
  0
ARC
  5
174
  8
0
  6
CONTINUOUS
 62
     7
 10
6294.5081520792
 20
7380.1315985913
 30
0.0
 40
10.21418354482616
 50
241.3771226747
 51
277.9088871184
  0
LINE
  5
175
  8
0
  6
CONTINUOUS
 62
     7
 10
6295.9136051634
 20
7370.0145710083
 30
0.0
 11
6295.6457401407
 21
7370.7679204865
 31
0.0
  0
ARC
  5
176
  8
0
  6
CONTINUOUS
 62
     7
 10
6294.5189585415
 20
7378.8908296424
 30
0.0
 40
8.200688381363962
 50
241.4678945578
 51
277.8974727381
  0
LINE
  5
177
  8
0
  6
CONTINUOUS
 62
     7
 10
6290.6018904965
 20
7371.6861181382
 30
0.0
 11
6289.6151252341
 21
7371.1656723268
 31
0.0
  0
ARC
  5
178
  8
0
  6
CONTINUOUS
 62
     7
 10
6295.8407677437
 20
7373.8238442847
 30
0.0
 40
0.9217307825359942
 50
337.817339463
 51
65.0106342503
  0
LINE
  5
179
  8
0
  6
CONTINUOUS
 62
     7
 10
6296.6942765198
 20
7373.4758350826
 30
0.0
 11
6298.200903912
 21
7373.2050179274
 31
0.0
  0
ARC
  5
17A
  8
0
  6
CONTINUOUS
 62
     7
 10
6296.757165319
 20
7373.8284193896
 30
0.0
 40
1.57258084303477
 50
336.645475805
 51
65.1188306535
  0
LINE
  5
17B
  8
0
  6
CONTINUOUS
 62
     7
 10
6297.4188093414
 20
7375.2550369612
 30
0.0
 11
6296.2301529509
 21
7374.6592883558
 31
0.0
  0
ARC
  5
17C
  8
0
  6
CONTINUOUS
 62
     7
 10
6296.8089415601
 20
7373.8282215758
 30
0.0
 40
1.619386898340152
 50
336.7070420708
 51
65.5259694978
  0
LINE
  5
17D
  8
0
  6
CONTINUOUS
 62
     7
 10
6298.2963403128
 20
7373.1878631786
 30
0.0
 11
6299.668351646
 21
7372.9412433387
 31
0.0
  0
ARC
  5
17E
  8
0
  6
CONTINUOUS
 62
     7
 10
6297.641197737
 20
7373.8321695157
 30
0.0
 40
2.214295017275242
 50
336.2746998836
 51
65.5654267231
  0
LINE
  5
17F
  8
0
  6
CONTINUOUS
 62
     7
 10
6298.5571494558
 20
7375.8481394738
 30
0.0
 11
6297.4798223905
 21
7375.3021051661
 31
0.0
  0
ARC
  5
180
  8
0
  6
CONTINUOUS
 62
     7
 10
6294.8056004792
 20
7373.8191364832
 30
0.0
 40
0.1737699889678406
 50
348.5730957187
 51
58.3854046749
  0
LINE
  5
181
  8
0
  6
CONTINUOUS
 62
     7
 10
6294.9759260434
 20
7373.7847095861
 30
0.0
 11
6296.5988132592
 21
7373.4929946596
 31
0.0
  0
ARC
  5
182
  8
0
  6
CONTINUOUS
 62
     7
 10
6295.7841619012
 20
7373.8236785173
 30
0.0
 40
0.8792091041344068
 50
337.9067477524
 51
64.8275107987
  0
LINE
  5
183
  8
0
  6
CONTINUOUS
 62
     7
 10
6296.1581289096
 20
7374.619390353
 30
0.0
 11
6294.8966912035
 21
7373.9671178638
 31
0.0
  0
ARC
  5
184
  8
0
  6
CONTINUOUS
 62
     7
 10
6295.7562612923
 20
7376.6467362573
 30
0.0
 40
6.61785952400344
 50
272.9627538959
 51
322.2024482126
  0
LINE
  5
185
  8
0
  6
CONTINUOUS
 62
     7
 10
6300.9855694777
 20
7372.5908269163
 30
0.0
 11
6299.7141777809
 21
7372.8344445899
 31
0.0
  0
ARC
  5
186
  8
0
  6
CONTINUOUS
 62
     7
 10
6295.5241032137
 20
7376.0816554931
 30
0.0
 40
5.301047399215447
 50
273.0471468941
 51
322.2251434052
  0
LINE
  5
187
  8
0
  6
CONTINUOUS
 62
     7
 10
6295.8058945911
 20
7370.7881030801
 30
0.0
 11
6296.0983170687
 21
7370.0377225241
 31
0.0
  0
ARC
  5
188
  8
0
  6
CONTINUOUS
 62
     7
 10
6288.443660915
 20
7380.1450626977
 30
0.0
 40
3.384022333911655
 50
151.0638632869
 51
179.4802125732
  0
ARC
  5
189
  8
0
  6
CONTINUOUS
 62
     7
 10
6290.7292944687
 20
7377.2434194271
 30
0.0
 40
6.239910328544684
 50
127.8956025958
 51
136.3191690061
  0
LINE
  5
18A
  8
0
  6
CONTINUOUS
 62
     7
 10
6286.8965878139
 20
7383.2650013234
 30
0.0
 11
6286.8965878139
 21
7382.1675275297
 31
0.0
  0
ARC
  5
18B
  8
0
  6
CONTINUOUS
 62
     7
 10
6294.4949273401
 20
7368.6309571203
 30
0.0
 40
15.76218890234536
 50
95.0359196028
 51
99.5758119886
  0
LINE
  5
18C
  8
0
  6
CONTINUOUS
 62
     7
 10
6293.111318374
 20
7385.0154684327
 30
0.0
 11
6293.111318374
 21
7384.332301815
 31
0.0
  0
LINE
  5
18D
  8
0
  6
CONTINUOUS
 62
     7
 10
6299.103060912
 20
7384.5019308743
 30
0.0
 11
6299.103060912
 21
7383.7324829888
 31
0.0
  0
ARC
  5
18E
  8
0
  6
CONTINUOUS
 62
     7
 10
6295.5369310492
 20
7372.2687901176
 30
0.0
 40
12.00556272912614
 50
67.2762707666
 51
72.7201073473
  0
ARC
  5
18F
  8
0
  6
CONTINUOUS
 62
     7
 10
6299.3573706561
 20
7379.4153089885
 30
0.0
 40
4.890032036871625
 50
28.0780801865
 51
46.4557506689
  0
LINE
  5
190
  8
0
  6
CONTINUOUS
 62
     7
 10
6303.6718801419
 20
7381.7169217314
 30
0.0
 11
6303.6718801419
 21
7380.488193665
 31
0.0
  0
ARC
  5
191
  8
0
  6
CONTINUOUS
 62
     7
 10
6300.4768364877
 20
7378.8339706807
 30
0.0
 40
3.597882381838225
 50
15.2089076617
 51
27.3727081912
  0
LINE
  5
192
  8
0
  6
CONTINUOUS
 62
     7
 10
6293.4738155288
 20
7377.6577688857
 30
0.0
 11
6293.4738155288
 21
7376.8762890087
 31
0.0
  0
LINE
  5
193
  8
0
  6
CONTINUOUS
 62
     7
 10
6292.9315234973
 20
7385.0007661914
 30
0.0
 11
6293.111318374
 21
7384.332301815
 31
0.0
  0
LINE
  5
194
  8
0
  6
CONTINUOUS
 62
     7
 10
6291.8728480732
 20
7384.1735212366
 30
0.0
 11
6291.537519968
 21
7384.8257854173
 31
0.0
  0
LINE
  5
195
  8
0
  6
CONTINUOUS
 62
     7
 10
6298.5176651729
 20
7376.9759463217
 30
0.0
 11
6298.5176651729
 21
7375.9580913569
 31
0.0
  0
LINE
  5
196
  8
0
  6
CONTINUOUS
 62
     7
 10
6299.103060912
 20
7383.7324829888
 30
0.0
 11
6299.6785437988
 21
7384.3386402352
 31
0.0
  0
LINE
  5
197
  8
0
  6
CONTINUOUS
 62
     7
 10
6300.8950251698
 20
7383.9064821754
 30
0.0
 11
6300.1745368416
 21
7383.3424592908
 31
0.0
  0
LINE
  5
198
  8
0
  6
CONTINUOUS
 62
     7
 10
6289.4053778885
 20
7376.3439593165
 30
0.0
 11
6289.4053778885
 21
7374.8097649053
 31
0.0
  0
LINE
  5
199
  8
0
  6
CONTINUOUS
 62
     7
 10
6293.7851930422
 20
7376.8493728647
 30
0.0
 11
6293.7851930422
 21
7376.0125838426
 31
0.0
  0
LINE
  5
19A
  8
0
  6
CONTINUOUS
 62
     7
 10
6301.0429696693
 20
7374.9500545503
 30
0.0
 11
6301.0429696693
 21
7372.6941549449
 31
0.0
  0
LINE
  5
19B
  8
0
  6
CONTINUOUS
 62
     7
 10
6297.3856808938
 20
7376.4171993589
 30
0.0
 11
6297.3856808938
 21
7375.3610532374
 31
0.0
  0
LINE
  5
19C
  8
0
  6
CONTINUOUS
 62
     7
 10
6303.6718801419
 20
7381.7169217314
 30
0.0
 11
6304.1439489871
 21
7381.7967642756
 31
0.0
  0
LINE
  5
19D
  8
0
  6
CONTINUOUS
 62
     7
 10
6290.8651484865
 20
7376.0291238995
 30
0.0
 11
6290.8651484865
 21
7374.532583424
 31
0.0
  0
LINE
  5
19E
  8
0
  6
CONTINUOUS
 62
     7
 10
6294.1309276353
 20
7375.9858915127
 30
0.0
 11
6294.1309276353
 21
7375.0704249312
 31
0.0
  0
LINE
  5
19F
  8
0
  6
CONTINUOUS
 62
     7
 10
6299.668351646
 20
7374.7029661564
 30
0.0
 11
6299.668351646
 21
7372.9412433387
 31
0.0
  0
LINE
  5
1A0
  8
0
  6
CONTINUOUS
 62
     7
 10
6296.1498490844
 20
7375.7996498274
 30
0.0
 11
6296.1498490844
 21
7374.7092432141
 31
0.0
  0
LINE
  5
1A1
  8
0
  6
CONTINUOUS
 62
     7
 10
6298.200903912
 20
7374.4391915677
 30
0.0
 11
6298.200903912
 21
7373.2050179274
 31
0.0
  0
LINE
  5
1A2
  8
0
  6
CONTINUOUS
 62
     7
 10
6285.8749540864
 20
7382.5968741506
 30
0.0
 11
6286.8965878139
 21
7382.1675275297
 31
0.0
  0
LINE
  5
1A3
  8
0
  6
CONTINUOUS
 62
     7
 10
6286.2166022475
 20
7381.5529541844
 30
0.0
 11
6285.0824349192
 21
7381.9072017279
 31
0.0
  0
LINE
  5
1A4
  8
0
  6
CONTINUOUS
 62
     7
 10
6299.9941951766
 20
7375.7497049285
 30
0.0
 11
6300.5362077247
 21
7375.6522778559
 31
0.0
  0
LINE
  5
1A5
  8
0
  6
CONTINUOUS
 62
     7
 10
6292.4605525191
 20
7375.6366854616
 30
0.0
 11
6292.4605525191
 21
7374.2332413229
 31
0.0
  0
LINE
  5
1A6
  8
0
  6
CONTINUOUS
 62
     7
 10
6294.5092836791
 20
7375.0367259643
 30
0.0
 11
6294.5092836791
 21
7374.061966878
 31
0.0
  0
POLYLINE
  5
1A7
  8
0
  6
CONTINUOUS
 62
     7
 66
     1
 10
0.0
 20
0.0
 30
0.0
 70
   128
  0
VERTEX
  5
53D
  8
0
  6
CONTINUOUS
 62
     7
 10
6288.5833479447
 20
7374.8589637943
 30
0.0
  0
VERTEX
  5
53E
  8
0
  6
CONTINUOUS
 62
     7
 10
6288.9581976721
 20
7374.5034208935
 30
0.0
  0
VERTEX
  5
53F
  8
0
  6
CONTINUOUS
 62
     7
 10
6289.1253604929
 20
7374.3687322225
 30
0.0
  0
SEQEND
  5
A0C
  8
0
  6
CONTINUOUS
 62
     7
  0
LINE
  5
1A8
  8
0
  6
CONTINUOUS
 62
     7
 10
6289.4878135205
 20
7372.7028118351
 30
0.0
 11
6289.4878135205
 21
7371.2458488396
 31
0.0
  0
LINE
  5
1A9
  8
0
  6
CONTINUOUS
 62
     7
 10
6290.5624062136
 20
7374.5032269126
 30
0.0
 11
6290.5624062136
 21
7371.7960700213
 31
0.0
  0
LINE
  5
1AA
  8
0
  6
CONTINUOUS
 62
     7
 10
6294.8243137422
 20
7375.0275594523
 30
0.0
 11
6294.8243137422
 21
7374.010121201
 31
0.0
  0
LINE
  5
1AB
  8
0
  6
CONTINUOUS
 62
     7
 10
6296.5988132592
 20
7374.1512148355
 30
0.0
 11
6296.5988132592
 21
7373.4929946596
 31
0.0
  0
LINE
  5
1AC
  8
0
  6
CONTINUOUS
 62
     7
 10
6291.7007463281
 20
7374.2986096111
 30
0.0
 11
6291.7007463281
 21
7372.3891725339
 31
0.0
  0
LINE
  5
1AD
  8
0
  6
CONTINUOUS
 62
     7
 10
6294.1723703103
 20
7374.6525866436
 30
0.0
 11
6294.1723703103
 21
7373.9169537617
 31
0.0
  0
LINE
  5
1AE
  8
0
  6
CONTINUOUS
 62
     7
 10
6283.7439622178
 20
7379.5613981008
 30
0.0
 11
6283.8181295875
 21
7379.2252611443
 31
0.0
  0
LINE
  5
1AF
  8
0
  6
CONTINUOUS
 62
     7
 10
6283.8181295875
 20
7379.2252611443
 30
0.0
 11
6283.8181295875
 21
7377.9965330779
 31
0.0
  0
LINE
  5
1B0
  8
0
  6
CONTINUOUS
 62
     7
 10
6292.9614267598
 20
7374.0720015659
 30
0.0
 11
6292.9614267598
 21
7373.0248191421
 31
0.0
  0
LINE
  5
1B1
  8
0
  6
CONTINUOUS
 62
     7
 10
6283.8181295875
 20
7379.2252611443
 30
0.0
 11
6285.0597778347
 21
7379.3351314231
 31
0.0
  0
LINE
  5
1B2
  8
0
  6
CONTINUOUS
 62
     7
 10
6295.0823823567
 20
7373.702112034
 30
0.0
 11
6295.0823823567
 21
7372.6446960385
 31
0.0
  0
LINE
  5
1B3
  8
0
  6
CONTINUOUS
 62
     7
 10
6295.4486204806
 20
7372.6563890768
 30
0.0
 11
6295.4486204806
 21
7371.7048983549
 31
0.0
  0
LINE
  5
1B4
  8
0
  6
CONTINUOUS
 62
     7
 10
6305.296473912
 20
7379.8970968525
 30
0.0
 11
6303.9487056324
 21
7379.7778362833
 31
0.0
  0
LINE
  5
1B5
  8
0
  6
CONTINUOUS
 62
     7
 10
6303.6718801419
 20
7380.488193665
 30
0.0
 11
6304.9521082601
 21
7380.7047228242
 31
0.0
  0
LINE
  5
1B6
  8
0
  6
CONTINUOUS
 62
     7
 10
6295.7840792164
 20
7371.7002048909
 30
0.0
 11
6295.7840792164
 21
7370.8440831578
 31
0.0
  0
LINE
  5
1B7
  8
0
  6
CONTINUOUS
 62
     7
 10
6296.0983170687
 20
7370.832577873
 30
0.0
 11
6296.0983170687
 21
7370.0377225241
 31
0.0
  0
LINE
  5
1B8
  8
0
  6
CONTINUOUS
 62
     7
 10
6304.1050059325
 20
7377.1943911129
 30
0.0
 11
6304.1050059325
 21
7375.9656630465
 31
0.0
  0
ARC
  5
1B9
  8
0
  6
CONTINUOUS
 62
     7
 10
6300.8754472158
 20
7380.4525117689
 30
0.0
 40
4.587526535455986
 50
314.7477575708
 51
348.7992560994
  0
LINE
  5
1BA
  8
0
  6
CONTINUOUS
 62
     7
 10
6303.8922460947
 20
7377.2608448434
 30
0.0
 11
6304.1050059325
 21
7377.1943911129
 31
0.0
  0
LINE
  5
1BB
  8
0
  6
CONTINUOUS
 62
     7
 10
6283.8181295875
 20
7377.9965330779
 30
0.0
 11
6285.170850037
 21
7378.1162318519
 31
0.0
  0
LINE
  5
1BC
  8
0
  6
CONTINUOUS
 62
     7
 10
6285.2192650857
 20
7377.3672426669
 30
0.0
 11
6284.1348390254
 21
7377.1838301487
 31
0.0
  0
POLYLINE
  5
1BD
  8
0
  6
CONTINUOUS
 62
     7
 66
     1
 10
0.0
 20
0.0
 30
0.0
 70
   128
  0
VERTEX
  5
540
  8
0
  6
CONTINUOUS
 62
     7
 10
6284.9039860862
 20
7377.3139185009
 30
0.0
  0
VERTEX
  5
541
  8
0
  6
CONTINUOUS
 62
     7
 10
6285.1884465425
 20
7377.0181055413
 30
0.0
  0
VERTEX
  5
542
  8
0
  6
CONTINUOUS
 62
     7
 10
6285.2917167507
 20
7376.919373663
 30
0.0
  0
SEQEND
  5
A0D
  8
0
  6
CONTINUOUS
 62
     7
  0
LINE
  5
1BE
  8
0
  6
CONTINUOUS
 62
     7
 10
6303.6484777043
 20
7376.1082557657
 30
0.0
 11
6304.1050059325
 21
7375.9656630465
 31
0.0
  0
ARC
  5
1BF
  8
0
  6
CONTINUOUS
 62
     7
 10
6295.7443617701
 20
7330.623629615
 30
0.0
 40
67.65376265107909
 50
72.6515498654
 51
90.9260813716
  0
ARC
  5
1C0
  8
0
  6
CONTINUOUS
 62
     7
 10
6300.0556189132
 20
7348.4745515143
 30
0.0
 40
49.34413860410558
 50
67.7106682829
 51
71.2491021791
  0
ARC
  5
1C1
  8
0
  6
CONTINUOUS
 62
     7
 10
6235.9746895677
 20
7362.2066601591
 30
0.0
 40
88.73808217197325
 50
3.2451064646
 51
21.0859011409
  0
POLYLINE
  5
1C2
  8
0
  6
CONTINUOUS
 62
     7
 66
     1
 10
0.0
 20
0.0
 30
0.0
 70
   128
  0
VERTEX
  5
543
  8
0
  6
CONTINUOUS
 62
     7
 10
6322.149350547
 20
7367.0564284872
 30
0.0
  0
VERTEX
  5
544
  8
0
  6
CONTINUOUS
 62
     7
 10
6323.5059061074
 20
7367.1493711207
 30
0.0
  0
VERTEX
  5
545
  8
0
  6
CONTINUOUS
 62
     7
 10
6324.5704926216
 20
7367.2298542347
 30
0.0
  0
SEQEND
  5
A0E
  8
0
  6
CONTINUOUS
 62
     7
  0
POLYLINE
  5
1C3
  8
0
  6
CONTINUOUS
 62
     7
 66
     1
 10
0.0
 20
0.0
 30
0.0
 70
   128
  0
VERTEX
  5
546
  8
0
  6
CONTINUOUS
 62
     7
 10
6294.3370600748
 20
7368.9583268029
 30
0.0
  0
VERTEX
  5
547
  8
0
  6
CONTINUOUS
 62
     7
 10
6299.7611830122
 20
7369.0719841856
 30
0.0
  0
VERTEX
  5
548
  8
0
  6
CONTINUOUS
 62
     7
 10
6304.7254376956
 20
7368.9844474108
 30
0.0
  0
VERTEX
  5
549
  8
0
  6
CONTINUOUS
 62
     7
 10
6309.670430369
 20
7368.7192733182
 30
0.0
  0
VERTEX
  5
54A
  8
0
  6
CONTINUOUS
 62
     7
 10
6313.3489051025
 20
7368.400900785
 30
0.0
  0
VERTEX
  5
54B
  8
0
  6
CONTINUOUS
 62
     7
 10
6316.9898827308
 20
7367.9648574044
 30
0.0
  0
VERTEX
  5
54C
  8
0
  6
CONTINUOUS
 62
     7
 10
6319.3174184938
 20
7367.6087578475
 30
0.0
  0
VERTEX
  5
54D
  8
0
  6
CONTINUOUS
 62
     7
 10
6320.5691213499
 20
7367.3844774249
 30
0.0
  0
VERTEX
  5
54E
  8
0
  6
CONTINUOUS
 62
     7
 10
6321.2659490578
 20
7367.2470185777
 30
0.0
  0
VERTEX
  5
54F
  8
0
  6
CONTINUOUS
 62
     7
 10
6321.6592291816
 20
7367.16467252
 30
0.0
  0
VERTEX
  5
550
  8
0
  6
CONTINUOUS
 62
     7
 10
6322.1180851759
 20
7367.0635382703
 30
0.0
  0
VERTEX
  5
551
  8
0
  6
CONTINUOUS
 62
     7
 10
6322.1493504969
 20
7367.0564286153
 30
0.0
  0
SEQEND
  5
A0F
  8
0
  6
CONTINUOUS
 62
     7
  0
POLYLINE
  5
1C4
  8
0
  6
CONTINUOUS
 62
     7
 66
     1
 10
0.0
 20
0.0
 30
0.0
 70
   128
  0
VERTEX
  5
552
  8
0
  6
CONTINUOUS
 62
     7
 10
6269.1928361792
 20
7366.9255861226
 30
0.0
  0
VERTEX
  5
553
  8
0
  6
CONTINUOUS
 62
     7
 10
6269.2190979029
 20
7366.9320772796
 30
0.0
  0
VERTEX
  5
554
  8
0
  6
CONTINUOUS
 62
     7
 10
6269.5937580489
 20
7367.0215549034
 30
0.0
  0
VERTEX
  5
555
  8
0
  6
CONTINUOUS
 62
     7
 10
6269.9713248669
 20
7367.1066777823
 30
0.0
  0
VERTEX
  5
556
  8
0
  6
CONTINUOUS
 62
     7
 10
6270.7327420423
 20
7367.2661779707
 30
0.0
  0
VERTEX
  5
557
  8
0
  6
CONTINUOUS
 62
     7
 10
6272.2720547334
 20
7367.5510465292
 30
0.0
  0
VERTEX
  5
558
  8
0
  6
CONTINUOUS
 62
     7
 10
6273.8518750273
 20
7367.8037001259
 30
0.0
  0
VERTEX
  5
559
  8
0
  6
CONTINUOUS
 62
     7
 10
6279.0933005591
 20
7368.4336725667
 30
0.0
  0
VERTEX
  5
55A
  8
0
  6
CONTINUOUS
 62
     7
 10
6284.1101248487
 20
7368.8067860955
 30
0.0
  0
VERTEX
  5
55B
  8
0
  6
CONTINUOUS
 62
     7
 10
6289.1656036202
 20
7368.9828322325
 30
0.0
  0
VERTEX
  5
55C
  8
0
  6
CONTINUOUS
 62
     7
 10
6294.2243532775
 20
7368.9610788934
 30
0.0
  0
VERTEX
  5
55D
  8
0
  6
CONTINUOUS
 62
     7
 10
6294.3370600748
 20
7368.9583268029
 30
0.0
  0
SEQEND
  5
A10
  8
0
  6
CONTINUOUS
 62
     7
  0
POLYLINE
  5
1C5
  8
0
  6
CONTINUOUS
 62
     7
 66
     1
 10
0.0
 20
0.0
 30
0.0
 70
   128
  0
VERTEX
  5
55E
  8
0
  6
CONTINUOUS
 62
     7
 10
6264.389753649
 20
7367.2424942352
 30
0.0
  0
VERTEX
  5
55F
  8
0
  6
CONTINUOUS
 62
     7
 10
6267.0769975067
 20
7367.0495493112
 30
0.0
  0
VERTEX
  5
560
  8
0
  6
CONTINUOUS
 62
     7
 10
6269.1930841806
 20
7366.9255729055
 30
0.0
  0
SEQEND
  5
A11
  8
0
  6
CONTINUOUS
 62
     7
  0
ARC
  5
1C6
  8
0
  6
CONTINUOUS
 62
     7
 10
6362.3797058805
 20
7359.4437200422
 30
0.0
 40
98.29979885319102
 50
159.2696712293
 51
175.4495428603
  0
ARC
  5
1C7
  8
0
  6
CONTINUOUS
 62
     7
 10
6288.8633348137
 20
7348.4933574687
 30
0.0
 40
49.31450701501009
 50
108.25787238
 51
111.9319034452
  0
ARC
  5
1C8
  8
0
  6
CONTINUOUS
 62
     7
 10
6293.1956530989
 20
7330.6788255892
 30
0.0
 40
67.60539423063393
 50
88.7665698848
 51
107.014505834
  0
POLYLINE
  5
1C9
  8
0
  6
CONTINUOUS
 62
     7
 66
     1
 10
0.0
 20
0.0
 30
0.0
 70
   128
  0
VERTEX
  5
561
  8
0
  6
CONTINUOUS
 62
     7
 10
6300.447927784
 20
7371.7854353141
 30
0.0
  0
VERTEX
  5
562
  8
0
  6
CONTINUOUS
 62
     7
 10
6300.9551661526
 20
7371.9244338301
 30
0.0
  0
VERTEX
  5
563
  8
0
  6
CONTINUOUS
 62
     7
 10
6302.3902807722
 20
7372.3996785087
 30
0.0
  0
VERTEX
  5
564
  8
0
  6
CONTINUOUS
 62
     7
 10
6303.7195012728
 20
7372.9672713946
 30
0.0
  0
VERTEX
  5
565
  8
0
  6
CONTINUOUS
 62
     7
 10
6304.9248522271
 20
7373.6195367678
 30
0.0
  0
VERTEX
  5
566
  8
0
  6
CONTINUOUS
 62
     7
 10
6305.9900333315
 20
7374.3476538581
 30
0.0
  0
VERTEX
  5
567
  8
0
  6
CONTINUOUS
 62
     7
 10
6306.9006398386
 20
7375.1417761309
 30
0.0
  0
VERTEX
  5
568
  8
0
  6
CONTINUOUS
 62
     7
 10
6307.6443573578
 20
7375.9911644447
 30
0.0
  0
VERTEX
  5
569
  8
0
  6
CONTINUOUS
 62
     7
 10
6308.2111283852
 20
7376.8843322797
 30
0.0
  0
VERTEX
  5
56A
  8
0
  6
CONTINUOUS
 62
     7
 10
6308.5932883151
 20
7377.8092010732
 30
0.0
  0
VERTEX
  5
56B
  8
0
  6
CONTINUOUS
 62
     7
 10
6308.7856690901
 20
7378.7532635613
 30
0.0
  0
VERTEX
  5
56C
  8
0
  6
CONTINUOUS
 62
     7
 10
6308.7856690901
 20
7379.7037529184
 30
0.0
  0
VERTEX
  5
56D
  8
0
  6
CONTINUOUS
 62
     7
 10
6308.5932883151
 20
7380.6478154065
 30
0.0
  0
VERTEX
  5
56E
  8
0
  6
CONTINUOUS
 62
     7
 10
6308.2111283852
 20
7381.5726842
 30
0.0
  0
VERTEX
  5
56F
  8
0
  6
CONTINUOUS
 62
     7
 10
6307.6443573578
 20
7382.4658520351
 30
0.0
  0
VERTEX
  5
570
  8
0
  6
CONTINUOUS
 62
     7
 10
6306.9006398386
 20
7383.3152403489
 30
0.0
  0
VERTEX
  5
571
  8
0
  6
CONTINUOUS
 62
     7
 10
6305.9900333315
 20
7384.1093626216
 30
0.0
  0
VERTEX
  5
572
  8
0
  6
CONTINUOUS
 62
     7
 10
6304.9248522271
 20
7384.8374797119
 30
0.0
  0
VERTEX
  5
573
  8
0
  6
CONTINUOUS
 62
     7
 10
6303.7195012728
 20
7385.4897450851
 30
0.0
  0
VERTEX
  5
574
  8
0
  6
CONTINUOUS
 62
     7
 10
6302.3902807722
 20
7386.057337971
 30
0.0
  0
VERTEX
  5
575
  8
0
  6
CONTINUOUS
 62
     7
 10
6300.9551661526
 20
7386.5325826496
 30
0.0
  0
VERTEX
  5
576
  8
0
  6
CONTINUOUS
 62
     7
 10
6299.4335648771
 20
7386.9090522518
 30
0.0
  0
VERTEX
  5
577
  8
0
  6
CONTINUOUS
 62
     7
 10
6297.8460539928
 20
7387.1816556721
 30
0.0
  0
VERTEX
  5
578
  8
0
  6
CONTINUOUS
 62
     7
 10
6296.214101861
 20
7387.3467064168
 30
0.0
  0
VERTEX
  5
579
  8
0
  6
CONTINUOUS
 62
     7
 10
6294.5597778347
 20
7387.4019724579
 30
0.0
  0
VERTEX
  5
57A
  8
0
  6
CONTINUOUS
 62
     7
 10
6292.9054538084
 20
7387.3467064168
 30
0.0
  0
VERTEX
  5
57B
  8
0
  6
CONTINUOUS
 62
     7
 10
6291.2735016766
 20
7387.1816556721
 30
0.0
  0
VERTEX
  5
57C
  8
0
  6
CONTINUOUS
 62
     7
 10
6289.6859907923
 20
7386.9090522518
 30
0.0
  0
VERTEX
  5
57D
  8
0
  6
CONTINUOUS
 62
     7
 10
6288.1643895169
 20
7386.5325826496
 30
0.0
  0
VERTEX
  5
57E
  8
0
  6
CONTINUOUS
 62
     7
 10
6286.7292748972
 20
7386.057337971
 30
0.0
  0
VERTEX
  5
57F
  8
0
  6
CONTINUOUS
 62
     7
 10
6285.4000543967
 20
7385.4897450851
 30
0.0
  0
VERTEX
  5
580
  8
0
  6
CONTINUOUS
 62
     7
 10
6284.1947034423
 20
7384.8374797119
 30
0.0
  0
VERTEX
  5
581
  8
0
  6
CONTINUOUS
 62
     7
 10
6283.129522338
 20
7384.1093626216
 30
0.0
  0
VERTEX
  5
582
  8
0
  6
CONTINUOUS
 62
     7
 10
6282.2189158308
 20
7383.3152403489
 30
0.0
  0
VERTEX
  5
583
  8
0
  6
CONTINUOUS
 62
     7
 10
6281.4751983117
 20
7382.4658520351
 30
0.0
  0
VERTEX
  5
584
  8
0
  6
CONTINUOUS
 62
     7
 10
6280.9084272842
 20
7381.5726842
 30
0.0
  0
VERTEX
  5
585
  8
0
  6
CONTINUOUS
 62
     7
 10
6280.5262673543
 20
7380.6478154065
 30
0.0
  0
VERTEX
  5
586
  8
0
  6
CONTINUOUS
 62
     7
 10
6280.3338865794
 20
7379.7037529184
 30
0.0
  0
VERTEX
  5
587
  8
0
  6
CONTINUOUS
 62
     7
 10
6280.3338865794
 20
7378.7532635613
 30
0.0
  0
VERTEX
  5
588
  8
0
  6
CONTINUOUS
 62
     7
 10
6280.5262673543
 20
7377.8092010732
 30
0.0
  0
VERTEX
  5
589
  8
0
  6
CONTINUOUS
 62
     7
 10
6280.9084272842
 20
7376.8843322797
 30
0.0
  0
VERTEX
  5
58A
  8
0
  6
CONTINUOUS
 62
     7
 10
6281.4751983117
 20
7375.9911644447
 30
0.0
  0
VERTEX
  5
58B
  8
0
  6
CONTINUOUS
 62
     7
 10
6282.2189158308
 20
7375.1417761309
 30
0.0
  0
VERTEX
  5
58C
  8
0
  6
CONTINUOUS
 62
     7
 10
6283.129522338
 20
7374.3476538581
 30
0.0
  0
VERTEX
  5
58D
  8
0
  6
CONTINUOUS
 62
     7
 10
6284.1947034423
 20
7373.6195367678
 30
0.0
  0
VERTEX
  5
58E
  8
0
  6
CONTINUOUS
 62
     7
 10
6285.4000543967
 20
7372.9672713946
 30
0.0
  0
VERTEX
  5
58F
  8
0
  6
CONTINUOUS
 62
     7
 10
6286.7292748972
 20
7372.3996785087
 30
0.0
  0
VERTEX
  5
590
  8
0
  6
CONTINUOUS
 62
     7
 10
6288.1643895169
 20
7371.9244338301
 30
0.0
  0
VERTEX
  5
591
  8
0
  6
CONTINUOUS
 62
     7
 10
6288.6716278855
 20
7371.7854353141
 30
0.0
  0
SEQEND
  5
A12
  8
0
  6
CONTINUOUS
 62
     7
  0
POLYLINE
  5
1CA
  8
0
  6
CONTINUOUS
 62
     7
 66
     1
 10
0.0
 20
0.0
 30
0.0
 70
   128
  0
VERTEX
  5
592
  8
0
  6
CONTINUOUS
 62
     7
 10
6316.5188810458
 20
7398.7450298039
 30
0.0
  0
VERTEX
  5
593
  8
0
  6
CONTINUOUS
 62
     7
 10
6316.519161065
 20
7398.7450061127
 30
0.0
  0
VERTEX
  5
594
  8
0
  6
CONTINUOUS
 62
     7
 10
6316.5195859025
 20
7398.7448974709
 30
0.0
  0
SEQEND
  5
A13
  8
0
  6
CONTINUOUS
 62
     7
  0
POLYLINE
  5
1CB
  8
0
  6
CONTINUOUS
 62
     7
 66
     1
 10
0.0
 20
0.0
 30
0.0
 70
   128
  0
VERTEX
  5
595
  8
0
  6
CONTINUOUS
 62
     7
 10
6315.9175046246
 20
7395.1997545236
 30
0.0
  0
VERTEX
  5
596
  8
0
  6
CONTINUOUS
 62
     7
 10
6315.9699393029
 20
7395.2551258044
 30
0.0
  0
VERTEX
  5
597
  8
0
  6
CONTINUOUS
 62
     7
 10
6316.038859912
 20
7395.3349941279
 30
0.0
  0
VERTEX
  5
598
  8
0
  6
CONTINUOUS
 62
     7
 10
6316.1991760286
 20
7395.5529971344
 30
0.0
  0
VERTEX
  5
599
  8
0
  6
CONTINUOUS
 62
     7
 10
6316.3559931665
 20
7395.8142748639
 30
0.0
  0
VERTEX
  5
59A
  8
0
  6
CONTINUOUS
 62
     7
 10
6316.4961466784
 20
7396.096890744
 30
0.0
  0
VERTEX
  5
59B
  8
0
  6
CONTINUOUS
 62
     7
 10
6316.6236737426
 20
7396.4089820682
 30
0.0
  0
VERTEX
  5
59C
  8
0
  6
CONTINUOUS
 62
     7
 10
6316.7278693979
 20
7396.7243464947
 30
0.0
  0
VERTEX
  5
59D
  8
0
  6
CONTINUOUS
 62
     7
 10
6316.8117362428
 20
7397.0520636984
 30
0.0
  0
VERTEX
  5
59E
  8
0
  6
CONTINUOUS
 62
     7
 10
6316.8682337679
 20
7397.3646207623
 30
0.0
  0
VERTEX
  5
59F
  8
0
  6
CONTINUOUS
 62
     7
 10
6316.8989885662
 20
7397.6710163969
 30
0.0
  0
VERTEX
  5
5A0
  8
0
  6
CONTINUOUS
 62
     7
 10
6316.9014186483
 20
7397.9455285844
 30
0.0
  0
VERTEX
  5
5A1
  8
0
  6
CONTINUOUS
 62
     7
 10
6316.8755938522
 20
7398.1960596715
 30
0.0
  0
VERTEX
  5
5A2
  8
0
  6
CONTINUOUS
 62
     7
 10
6316.8236820439
 20
7398.4015774885
 30
0.0
  0
VERTEX
  5
5A3
  8
0
  6
CONTINUOUS
 62
     7
 10
6316.7441887579
 20
7398.5679980364
 30
0.0
  0
VERTEX
  5
5A4
  8
0
  6
CONTINUOUS
 62
     7
 10
6316.6437875918
 20
7398.6813499439
 30
0.0
  0
VERTEX
  5
5A5
  8
0
  6
CONTINUOUS
 62
     7
 10
6316.5195859025
 20
7398.7448974709
 30
0.0
  0
SEQEND
  5
A14
  8
0
  6
CONTINUOUS
 62
     7
  0
ARC
  5
1CC
  8
0
  6
CONTINUOUS
 62
     7
 10
6017.2676329395
 20
7400.4625225046
 30
0.0
 40
277.3919537110189
 50
359.5468276101
 51
0.2983612949
  0
ARC
  5
1CD
  8
0
  6
CONTINUOUS
 62
     7
 10
6295.7677562059
 20
7332.429553532
 30
0.0
 40
69.4863409260643
 50
72.6243017973
 51
90.9168828767
  0
LINE
  5
1CE
  8
0
  6
CONTINUOUS
 62
     7
 10
6294.655825657
 20
7401.9070032181
 30
0.0
 11
6294.6558398045
 21
7401.9069974776
 31
0.0
  0
POLYLINE
  5
1CF
  8
0
  6
CONTINUOUS
 62
     7
 66
     1
 10
0.0
 20
0.0
 30
0.0
 70
   128
  0
VERTEX
  5
5A6
  8
0
  6
CONTINUOUS
 62
     7
 10
6273.413381293
 20
7395.3251793245
 30
0.0
  0
VERTEX
  5
5A7
  8
0
  6
CONTINUOUS
 62
     7
 10
6273.3599426781
 20
7395.3830184808
 30
0.0
  0
VERTEX
  5
5A8
  8
0
  6
CONTINUOUS
 62
     7
 10
6273.2993219998
 20
7395.4547004085
 30
0.0
  0
VERTEX
  5
5A9
  8
0
  6
CONTINUOUS
 62
     7
 10
6273.1416500045
 20
7395.6723603943
 30
0.0
  0
VERTEX
  5
5AA
  8
0
  6
CONTINUOUS
 62
     7
 10
6272.9872664294
 20
7395.9334595349
 30
0.0
  0
VERTEX
  5
5AB
  8
0
  6
CONTINUOUS
 62
     7
 10
6272.8491316583
 20
7396.2160764738
 30
0.0
  0
VERTEX
  5
5AC
  8
0
  6
CONTINUOUS
 62
     7
 10
6272.7232669014
 20
7396.528348416
 30
0.0
  0
VERTEX
  5
5AD
  8
0
  6
CONTINUOUS
 62
     7
 10
6272.6202374643
 20
7396.8440579533
 30
0.0
  0
VERTEX
  5
5AE
  8
0
  6
CONTINUOUS
 62
     7
 10
6272.5370747098
 20
7397.1722946861
 30
0.0
  0
VERTEX
  5
5AF
  8
0
  6
CONTINUOUS
 62
     7
 10
6272.4807602728
 20
7397.4855021609
 30
0.0
  0
VERTEX
  5
5B0
  8
0
  6
CONTINUOUS
 62
     7
 10
6272.4496728337
 20
7397.7926977981
 30
0.0
  0
VERTEX
  5
5B1
  8
0
  6
CONTINUOUS
 62
     7
 10
6272.4464222998
 20
7398.0680923214
 30
0.0
  0
VERTEX
  5
5B2
  8
0
  6
CONTINUOUS
 62
     7
 10
6272.4709151952
 20
7398.3196135978
 30
0.0
  0
VERTEX
  5
5B3
  8
0
  6
CONTINUOUS
 62
     7
 10
6272.5210954404
 20
7398.5261462593
 30
0.0
  0
VERTEX
  5
5B4
  8
0
  6
CONTINUOUS
 62
     7
 10
6272.5984076607
 20
7398.693635627
 30
0.0
  0
VERTEX
  5
5B5
  8
0
  6
CONTINUOUS
 62
     7
 10
6272.6963612236
 20
7398.8080205471
 30
0.0
  0
VERTEX
  5
5B6
  8
0
  6
CONTINUOUS
 62
     7
 10
6272.8177777008
 20
7398.8725947885
 30
0.0
  0
SEQEND
  5
A15
  8
0
  6
CONTINUOUS
 62
     7
  0
ARC
  5
1D0
  8
0
  6
CONTINUOUS
 62
     7
 10
6293.2522874203
 20
7331.9096352655
 30
0.0
 40
70.01143792169745
 50
88.8512990562
 51
106.9696267569
  0
ARC
  5
1D1
  8
0
  6
CONTINUOUS
 62
     7
 10
6166.3164876099
 20
7433.898129929
 30
0.0
 40
110.1357034481099
 50
339.5384131274
 51
340.5165304694
  0
ARC
  5
1D2
  8
0
  6
CONTINUOUS
 62
     7
 10
6358.0949402315
 20
7361.3502186636
 30
0.0
 40
94.9086222976988
 50
158.9776644684
 51
175.6202575314
  0
POLYLINE
  5
1D3
  8
0
  6
CONTINUOUS
 62
     7
 66
     1
 10
0.0
 20
0.0
 30
0.0
 70
   128
  0
VERTEX
  5
5B7
  8
0
  6
CONTINUOUS
 62
     7
 10
6261.715213862
 20
7244.3557292346
 30
0.0
  0
VERTEX
  5
5B8
  8
0
  6
CONTINUOUS
 62
     7
 10
6261.2217156747
 20
7252.0127143401
 30
0.0
  0
VERTEX
  5
5B9
  8
0
  6
CONTINUOUS
 62
     7
 10
6260.8272965026
 20
7259.0807913951
 30
0.0
  0
VERTEX
  5
5BA
  8
0
  6
CONTINUOUS
 62
     7
 10
6260.5230899174
 20
7265.6018152292
 30
0.0
  0
VERTEX
  5
5BB
  8
0
  6
CONTINUOUS
 62
     7
 10
6260.3002294903
 20
7271.6176406721
 30
0.0
  0
VERTEX
  5
5BC
  8
0
  6
CONTINUOUS
 62
     7
 10
6260.1498487929
 20
7277.1701225535
 30
0.0
  0
VERTEX
  5
5BD
  8
0
  6
CONTINUOUS
 62
     7
 10
6260.0630811312
 20
7282.3011352007
 30
0.0
  0
VERTEX
  5
5BE
  8
0
  6
CONTINUOUS
 62
     7
 10
6260.0310505925
 20
7287.0532298329
 30
0.0
  0
VERTEX
  5
5BF
  8
0
  6
CONTINUOUS
 62
     7
 10
6260.0600587381
 20
7293.0483653135
 30
0.0
  0
VERTEX
  5
5C0
  8
0
  6
CONTINUOUS
 62
     7
 10
6260.1526464374
 20
7298.5220576532
 30
0.0
  0
VERTEX
  5
5C1
  8
0
  6
CONTINUOUS
 62
     7
 10
6260.2857083946
 20
7303.5872283582
 30
0.0
  0
VERTEX
  5
5C2
  8
0
  6
CONTINUOUS
 62
     7
 10
6260.4361393137
 20
7308.3567989345
 30
0.0
  0
VERTEX
  5
5C3
  8
0
  6
CONTINUOUS
 62
     7
 10
6260.6433300103
 20
7314.8523656478
 30
0.0
  0
VERTEX
  5
5C4
  8
0
  6
CONTINUOUS
 62
     7
 10
6260.8324456987
 20
7321.0779373631
 30
0.0
  0
VERTEX
  5
5C5
  8
0
  6
CONTINUOUS
 62
     7
 10
6261.0188031256
 20
7327.051314552
 30
0.0
  0
VERTEX
  5
5C6
  8
0
  6
CONTINUOUS
 62
     7
 10
6261.2189284173
 20
7332.7835688159
 30
0.0
  0
VERTEX
  5
5C7
  8
0
  6
CONTINUOUS
 62
     7
 10
6261.4465248336
 20
7338.2915511632
 30
0.0
  0
VERTEX
  5
5C8
  8
0
  6
CONTINUOUS
 62
     7
 10
6261.6559750926
 20
7342.5245947686
 30
0.0
  0
VERTEX
  5
5C9
  8
0
  6
CONTINUOUS
 62
     7
 10
6261.875803346
 20
7346.6334881237
 30
0.0
  0
VERTEX
  5
5CA
  8
0
  6
CONTINUOUS
 62
     7
 10
6261.9455600721
 20
7350.726118422
 30
0.0
  0
VERTEX
  5
5CB
  8
0
  6
CONTINUOUS
 62
     7
 10
6261.9112841799
 20
7351.8355399533
 30
0.0
  0
VERTEX
  5
5CC
  8
0
  6
CONTINUOUS
 62
     7
 10
6261.8581381334
 20
7352.9987973066
 30
0.0
  0
VERTEX
  5
5CD
  8
0
  6
CONTINUOUS
 62
     7
 10
6261.801012701
 20
7354.2783050234
 30
0.0
  0
VERTEX
  5
5CE
  8
0
  6
CONTINUOUS
 62
     7
 10
6261.7587728496
 20
7355.7618873676
 30
0.0
  0
VERTEX
  5
5CF
  8
0
  6
CONTINUOUS
 62
     7
 10
6261.7452280539
 20
7357.5038282359
 30
0.0
  0
VERTEX
  5
5D0
  8
0
  6
CONTINUOUS
 62
     7
 10
6261.7562319599
 20
7359.4056865943
 30
0.0
  0
VERTEX
  5
5D1
  8
0
  6
CONTINUOUS
 62
     7
 10
6261.7718478284
 20
7361.3297739752
 30
0.0
  0
VERTEX
  5
5D2
  8
0
  6
CONTINUOUS
 62
     7
 10
6261.7703411726
 20
7363.0951866788
 30
0.0
  0
VERTEX
  5
5D3
  8
0
  6
CONTINUOUS
 62
     7
 10
6261.7388937177
 20
7364.5598183573
 30
0.0
  0
VERTEX
  5
5D4
  8
0
  6
CONTINUOUS
 62
     7
 10
6261.6842807833
 20
7365.9383793351
 30
0.0
  0
VERTEX
  5
5D5
  8
0
  6
CONTINUOUS
 62
     7
 10
6261.6719005077
 20
7366.7322889792
 30
0.0
  0
VERTEX
  5
5D6
  8
0
  6
CONTINUOUS
 62
     7
 10
6261.7203843291
 20
7367.011547283
 30
0.0
  0
VERTEX
  5
5D7
  8
0
  6
CONTINUOUS
 62
     7
 10
6261.8083294491
 20
7366.9207043616
 30
0.0
  0
VERTEX
  5
5D8
  8
0
  6
CONTINUOUS
 62
     7
 10
6261.9104851938
 20
7366.613857702
 30
0.0
  0
VERTEX
  5
5D9
  8
0
  6
CONTINUOUS
 62
     7
 10
6262.0009253502
 20
7366.2461184827
 30
0.0
  0
VERTEX
  5
5DA
  8
0
  6
CONTINUOUS
 62
     7
 10
6262.0603505976
 20
7365.9476655185
 30
0.0
  0
VERTEX
  5
5DB
  8
0
  6
CONTINUOUS
 62
     7
 10
6262.0949291143
 20
7365.7695073755
 30
0.0
  0
VERTEX
  5
5DC
  8
0
  6
CONTINUOUS
 62
     7
 10
6262.1385881709
 20
7365.6416404555
 30
0.0
  0
VERTEX
  5
5DD
  8
0
  6
CONTINUOUS
 62
     7
 10
6262.348700978
 20
7365.5358928117
 30
0.0
  0
VERTEX
  5
5DE
  8
0
  6
CONTINUOUS
 62
     7
 10
6262.6252388165
 20
7365.8187858131
 30
0.0
  0
VERTEX
  5
5DF
  8
0
  6
CONTINUOUS
 62
     7
 10
6262.8422791612
 20
7366.1567191475
 30
0.0
  0
VERTEX
  5
5E0
  8
0
  6
CONTINUOUS
 62
     7
 10
6263.0667364744
 20
7366.5437558634
 30
0.0
  0
VERTEX
  5
5E1
  8
0
  6
CONTINUOUS
 62
     7
 10
6263.2883937497
 20
7366.9221405655
 30
0.0
  0
SEQEND
  5
A16
  8
0
  6
CONTINUOUS
 62
     7
  0
LINE
  5
1D4
  8
0
  6
CONTINUOUS
 62
     7
 10
6260.516152115
 20
7244.3557292346
 30
0.0
 11
6261.715213862
 21
7244.3557292346
 31
0.0
  0
ARC
  5
1D5
  8
0
  6
CONTINUOUS
 62
     7
 10
6330.0629951443
 20
7364.1596461375
 30
0.0
 40
68.49963926524372
 50
156.912859311
 51
162.7347796564
  0
POLYLINE
  5
1D6
  8
0
  6
CONTINUOUS
 62
     7
 66
     1
 10
0.0
 20
0.0
 30
0.0
 70
   128
  0
VERTEX
  5
5E2
  8
0
  6
CONTINUOUS
 62
     7
 10
6261.5831054185
 20
7371.3728679647
 30
0.0
  0
VERTEX
  5
5E3
  8
0
  6
CONTINUOUS
 62
     7
 10
6261.0796022022
 20
7367.9349981637
 30
0.0
  0
VERTEX
  5
5E4
  8
0
  6
CONTINUOUS
 62
     7
 10
6260.8635965297
 20
7365.6163293678
 30
0.0
  0
SEQEND
  5
A17
  8
0
  6
CONTINUOUS
 62
     7
  0
POLYLINE
  5
1D7
  8
0
  6
CONTINUOUS
 62
     7
 66
     1
 10
0.0
 20
0.0
 30
0.0
 70
   128
  0
VERTEX
  5
5E5
  8
0
  6
CONTINUOUS
 62
     7
 10
6327.4043418074
 20
7244.3557292346
 30
0.0
  0
VERTEX
  5
5E6
  8
0
  6
CONTINUOUS
 62
     7
 10
6327.5567013028
 20
7251.4610321888
 30
0.0
  0
VERTEX
  5
5E7
  8
0
  6
CONTINUOUS
 62
     7
 10
6327.6826040389
 20
7258.0120240593
 30
0.0
  0
VERTEX
  5
5E8
  8
0
  6
CONTINUOUS
 62
     7
 10
6327.7839487972
 20
7264.0485058245
 30
0.0
  0
VERTEX
  5
5E9
  8
0
  6
CONTINUOUS
 62
     7
 10
6327.8626343593
 20
7269.6102784627
 30
0.0
  0
VERTEX
  5
5EA
  8
0
  6
CONTINUOUS
 62
     7
 10
6327.9205595065
 20
7274.7371429522
 30
0.0
  0
VERTEX
  5
5EB
  8
0
  6
CONTINUOUS
 62
     7
 10
6327.9596230205
 20
7279.4689002714
 30
0.0
  0
VERTEX
  5
5EC
  8
0
  6
CONTINUOUS
 62
     7
 10
6327.9817243042
 20
7283.8453771968
 30
0.0
  0
VERTEX
  5
5ED
  8
0
  6
CONTINUOUS
 62
     7
 10
6327.9887712813
 20
7287.9067541801
 30
0.0
  0
VERTEX
  5
5EE
  8
0
  6
CONTINUOUS
 62
     7
 10
6327.9740332107
 20
7293.7495508912
 30
0.0
  0
VERTEX
  5
5EF
  8
0
  6
CONTINUOUS
 62
     7
 10
6327.9342750511
 20
7299.0710354658
 30
0.0
  0
VERTEX
  5
5F0
  8
0
  6
CONTINUOUS
 62
     7
 10
6327.8769249643
 20
7304.0281449154
 30
0.0
  0
VERTEX
  5
5F1
  8
0
  6
CONTINUOUS
 62
     7
 10
6327.809411112
 20
7308.7778162515
 30
0.0
  0
VERTEX
  5
5F2
  8
0
  6
CONTINUOUS
 62
     7
 10
6327.7252876734
 20
7314.3451636846
 30
0.0
  0
VERTEX
  5
5F3
  8
0
  6
CONTINUOUS
 62
     7
 10
6327.6438519935
 20
7319.8509601494
 30
0.0
  0
VERTEX
  5
5F4
  8
0
  6
CONTINUOUS
 62
     7
 10
6327.5690889238
 20
7325.1970539965
 30
0.0
  0
VERTEX
  5
5F5
  8
0
  6
CONTINUOUS
 62
     7
 10
6327.5045457167
 20
7330.2684685267
 30
0.0
  0
VERTEX
  5
5F6
  8
0
  6
CONTINUOUS
 62
     7
 10
6327.4535557325
 20
7334.9679428657
 30
0.0
  0
VERTEX
  5
5F7
  8
0
  6
CONTINUOUS
 62
     7
 10
6327.4192679309
 20
7339.2134893261
 30
0.0
  0
VERTEX
  5
5F8
  8
0
  6
CONTINUOUS
 62
     7
 10
6327.4097062556
 20
7341.0560278044
 30
0.0
  0
VERTEX
  5
5F9
  8
0
  6
CONTINUOUS
 62
     7
 10
6327.4049993482
 20
7342.7677981206
 30
0.0
  0
VERTEX
  5
5FA
  8
0
  6
CONTINUOUS
 62
     7
 10
6327.4040753079
 20
7344.3503143364
 30
0.0
  0
VERTEX
  5
5FB
  8
0
  6
CONTINUOUS
 62
     7
 10
6327.3974652127
 20
7345.8855545818
 30
0.0
  0
VERTEX
  5
5FC
  8
0
  6
CONTINUOUS
 62
     7
 10
6327.3664298261
 20
7347.5546124972
 30
0.0
  0
VERTEX
  5
5FD
  8
0
  6
CONTINUOUS
 62
     7
 10
6327.2914914782
 20
7349.5457812214
 30
0.0
  0
VERTEX
  5
5FE
  8
0
  6
CONTINUOUS
 62
     7
 10
6327.2282412801
 20
7350.7852151581
 30
0.0
  0
VERTEX
  5
5FF
  8
0
  6
CONTINUOUS
 62
     7
 10
6327.1542101879
 20
7352.1778130967
 30
0.0
  0
VERTEX
  5
600
  8
0
  6
CONTINUOUS
 62
     7
 10
6327.0836694078
 20
7353.7340165177
 30
0.0
  0
VERTEX
  5
601
  8
0
  6
CONTINUOUS
 62
     7
 10
6327.0316538779
 20
7355.4649532173
 30
0.0
  0
VERTEX
  5
602
  8
0
  6
CONTINUOUS
 62
     7
 10
6327.0111404182
 20
7357.3747090885
 30
0.0
  0
VERTEX
  5
603
  8
0
  6
CONTINUOUS
 62
     7
 10
6327.0161514801
 20
7359.3582154375
 30
0.0
  0
VERTEX
  5
604
  8
0
  6
CONTINUOUS
 62
     7
 10
6327.021415188
 20
7361.3058912807
 30
0.0
  0
VERTEX
  5
605
  8
0
  6
CONTINUOUS
 62
     7
 10
6327.0028690271
 20
7363.0794970788
 30
0.0
  0
VERTEX
  5
606
  8
0
  6
CONTINUOUS
 62
     7
 10
6326.941992305
 20
7364.5613657022
 30
0.0
  0
VERTEX
  5
607
  8
0
  6
CONTINUOUS
 62
     7
 10
6326.8074216344
 20
7365.9816315697
 30
0.0
  0
VERTEX
  5
608
  8
0
  6
CONTINUOUS
 62
     7
 10
6326.6329571878
 20
7366.8095866232
 30
0.0
  0
VERTEX
  5
609
  8
0
  6
CONTINUOUS
 62
     7
 10
6326.4424616467
 20
7367.107706428
 30
0.0
  0
VERTEX
  5
60A
  8
0
  6
CONTINUOUS
 62
     7
 10
6326.2586195386
 20
7367.0257074623
 30
0.0
  0
VERTEX
  5
60B
  8
0
  6
CONTINUOUS
 62
     7
 10
6326.1039232503
 20
7366.7221960645
 30
0.0
  0
VERTEX
  5
60C
  8
0
  6
CONTINUOUS
 62
     7
 10
6326.0006222845
 20
7366.3550114924
 30
0.0
  0
VERTEX
  5
60D
  8
0
  6
CONTINUOUS
 62
     7
 10
6325.9675251208
 20
7366.0615890516
 30
0.0
  0
VERTEX
  5
60E
  8
0
  6
CONTINUOUS
 62
     7
 10
6325.9819040221
 20
7365.8931249721
 30
0.0
  0
VERTEX
  5
60F
  8
0
  6
CONTINUOUS
 62
     7
 10
6325.9885181253
 20
7365.7783421355
 30
0.0
  0
VERTEX
  5
610
  8
0
  6
CONTINUOUS
 62
     7
 10
6325.9532275084
 20
7365.7172148975
 30
0.0
  0
VERTEX
  5
611
  8
0
  6
CONTINUOUS
 62
     7
 10
6325.8549196062
 20
7366.0314466085
 30
0.0
  0
VERTEX
  5
612
  8
0
  6
CONTINUOUS
 62
     7
 10
6325.780858152
 20
7366.3219958259
 30
0.0
  0
VERTEX
  5
613
  8
0
  6
CONTINUOUS
 62
     7
 10
6325.7059807975
 20
7366.6371318864
 30
0.0
  0
VERTEX
  5
614
  8
0
  6
CONTINUOUS
 62
     7
 10
6325.6386258595
 20
7366.9349086312
 30
0.0
  0
SEQEND
  5
A18
  8
0
  6
CONTINUOUS
 62
     7
  0
ARC
  5
1D8
  8
0
  6
CONTINUOUS
 62
     7
 10
6234.5053700362
 20
7362.6773096542
 30
0.0
 40
91.23265569963864
 50
2.6748216684
 51
20.9228838293
  0
ARC
  5
1D9
  8
0
  6
CONTINUOUS
 62
     7
 10
6349.7162286852
 20
7406.3004021875
 30
0.0
 40
31.96216847241899
 50
196.9427822386
 51
200.2122636202
  0
ARC
  5
1DA
  8
0
  6
CONTINUOUS
 62
     7
 10
6255.580011962
 20
7364.0787611654
 30
0.0
 40
72.86325870812243
 50
2.589085476
 51
16.1211835486
  0
LINE
  5
1DB
  8
0
  6
CONTINUOUS
 62
     7
 10
6328.6567124961
 20
7253.7585697488
 30
0.0
 11
6328.6668409698
 21
7260.128737487
 31
0.0
  0
LINE
  5
1DC
  8
0
  6
CONTINUOUS
 62
     7
 10
6327.4043418074
 20
7244.3557292346
 30
0.0
 11
6328.6611540283
 21
7244.3557292346
 31
0.0
  0
ARC
  5
1DD
  8
0
  6
CONTINUOUS
 62
     7
 10
6285.2648994119
 20
7360.4737090172
 30
0.0
 40
40.36589237676994
 50
107.9602677732
 51
110.165835207
  0
POLYLINE
  5
1DE
  8
0
  6
CONTINUOUS
 62
     7
 66
     1
 10
0.0
 20
0.0
 30
0.0
 70
   128
  0
VERTEX
  5
615
  8
0
  6
CONTINUOUS
 62
     7
 10
6260.4713079063
 20
7357.993069572
 30
0.0
  0
VERTEX
  5
616
  8
0
  6
CONTINUOUS
 62
     7
 10
6260.4739810624
 20
7358.0792127499
 30
0.0
  0
VERTEX
  5
617
  8
0
  6
CONTINUOUS
 62
     7
 10
6260.4777920212
 20
7358.1732931509
 30
0.0
  0
SEQEND
  5
A19
  8
0
  6
CONTINUOUS
 62
     7
  0
ARC
  5
1DF
  8
0
  6
CONTINUOUS
 62
     7
 10
6304.9283766933
 20
7363.6853494371
 30
0.0
 40
36.92598054581201
 50
69.3739534038
 51
71.7053442352
  0
ARC
  5
1E0
  8
0
  6
CONTINUOUS
 62
     7
 10
6271.785868162
 20
7397.1903227877
 30
0.0
 40
1.253320960999008
 50
110.3889926024
 51
174.1422428285
  0
ARC
  5
1E1
  8
0
  6
CONTINUOUS
 62
     7
 10
6279.7412151624
 20
7395.4933879186
 30
0.0
 40
9.381319033803866
 50
168.7833554761
 51
187.6847463913
  0
ARC
  5
1E2
  8
0
  6
CONTINUOUS
 62
     7
 10
6308.9640362832
 20
7395.5550880668
 30
0.0
 40
9.909773855337615
 50
351.7418500804
 51
9.2470014352
  0
ARC
  5
1E3
  8
0
  6
CONTINUOUS
 62
     7
 10
6317.4981112502
 20
7397.074653335
 30
0.0
 40
1.249045181914012
 50
3.3434331979
 51
69.4681498478
  0
ARC
  5
1E4
  8
0
  6
CONTINUOUS
 62
     7
 10
6270.466587125
 20
7396.9240461943
 30
0.0
 40
0.4008019776279081
 50
79.5778972775
 51
143.218751937
  0
ARC
  5
1E5
  8
0
  6
CONTINUOUS
 62
     7
 10
6270.4676096004
 20
7395.2191156199
 30
0.0
 40
0.9805004381073961
 50
169.5494714189
 51
268.6290778274
  0
ARC
  5
1E6
  8
0
  6
CONTINUOUS
 62
     7
 10
6318.7410594861
 20
7395.1218514124
 30
0.0
 40
0.9905920259103114
 50
271.7352244752
 51
7.8707997863
  0
ARC
  5
1E7
  8
0
  6
CONTINUOUS
 62
     7
 10
6318.8032916028
 20
7396.7233034382
 30
0.0
 40
0.4281774726823602
 50
37.8611068326
 51
97.8203717684
  0
ARC
  5
1E8
  8
0
  6
CONTINUOUS
 62
     7
 10
6271.9984340824
 20
7396.5108770787
 30
0.0
 40
1.964612195305466
 50
109.2963005782
 51
160.5818771483
  0
ARC
  5
1E9
  8
0
  6
CONTINUOUS
 62
     7
 10
6317.2976027477
 20
7396.4264523512
 30
0.0
 40
1.926801053675748
 50
16.8850664487
 51
70.6449117123
  0
ARC
  5
1EA
  8
0
  6
CONTINUOUS
 62
     7
 10
6264.1737882647
 20
7365.9315854629
 30
0.0
 40
1.328579263148893
 50
80.6448502933
 51
131.791513817
  0
POLYLINE
  5
1EB
  8
0
  6
CONTINUOUS
 62
     7
 66
     1
 10
0.0
 20
0.0
 30
0.0
 70
   128
  0
VERTEX
  5
618
  8
0
  6
CONTINUOUS
 62
     7
 10
6325.6386258595
 20
7366.9349086312
 30
0.0
  0
VERTEX
  5
619
  8
0
  6
CONTINUOUS
 62
     7
 10
6325.5557417022
 20
7367.049853324
 30
0.0
  0
VERTEX
  5
61A
  8
0
  6
CONTINUOUS
 62
     7
 10
6325.4640953303
 20
7367.1024192938
 30
0.0
  0
VERTEX
  5
61B
  8
0
  6
CONTINUOUS
 62
     7
 10
6325.328163934
 20
7367.1513677263
 30
0.0
  0
VERTEX
  5
61C
  8
0
  6
CONTINUOUS
 62
     7
 10
6325.1713006695
 20
7367.1884720208
 30
0.0
  0
VERTEX
  5
61D
  8
0
  6
CONTINUOUS
 62
     7
 10
6325.0476741842
 20
7367.2089109634
 30
0.0
  0
VERTEX
  5
61E
  8
0
  6
CONTINUOUS
 62
     7
 10
6324.8928688141
 20
7367.226093786
 30
0.0
  0
VERTEX
  5
61F
  8
0
  6
CONTINUOUS
 62
     7
 10
6324.751300371
 20
7367.2338720485
 30
0.0
  0
VERTEX
  5
620
  8
0
  6
CONTINUOUS
 62
     7
 10
6324.6175070646
 20
7367.2327766909
 30
0.0
  0
VERTEX
  5
621
  8
0
  6
CONTINUOUS
 62
     7
 10
6324.5704926094
 20
7367.2298542337
 30
0.0
  0
SEQEND
  5
A1A
  8
0
  6
CONTINUOUS
 62
     7
  0
ARC
  5
1EC
  8
0
  6
CONTINUOUS
 62
     7
 10
6301.8072078106
 20
7382.6328879723
 30
0.0
 40
7.178276615203207
 50
304.6343562699
 51
342.3568115565
  0
ARC
  5
1ED
  8
0
  6
CONTINUOUS
 62
     7
 10
6287.3123478588
 20
7382.6328879722
 30
0.0
 40
7.178276615170257
 50
197.6431884434
 51
235.3656437302
  0
ARC
  5
1EE
  8
0
  6
CONTINUOUS
 62
     7
 10
5872.1950600474
 20
7357.9050711808
 30
0.0
 40
422.286683009196
 50
0.8566331558
 51
1.4998749892
  0
ARC
  5
1EF
  8
0
  6
CONTINUOUS
 62
     7
 10
6293.6887396286
 20
7476.2975703894
 30
0.0
 40
112.0815784461082
 50
257.375869652
 51
270.381256941
  0
POLYLINE
  5
1F0
  8
0
  6
CONTINUOUS
 62
     7
 66
     1
 10
0.0
 20
0.0
 30
0.0
 70
   128
  0
VERTEX
  5
622
  8
0
  6
CONTINUOUS
 62
     7
 10
6322.1493505327
 20
7367.0564284893
 30
0.0
  0
VERTEX
  5
623
  8
0
  6
CONTINUOUS
 62
     7
 10
6322.1085817126
 20
7367.0508079364
 30
0.0
  0
VERTEX
  5
624
  8
0
  6
CONTINUOUS
 62
     7
 10
6321.5819662966
 20
7366.9751552606
 30
0.0
  0
VERTEX
  5
625
  8
0
  6
CONTINUOUS
 62
     7
 10
6321.5334167325
 20
7366.9679231798
 30
0.0
  0
VERTEX
  5
626
  8
0
  6
CONTINUOUS
 62
     7
 10
6321.0533449812
 20
7366.8944524217
 30
0.0
  0
VERTEX
  5
627
  8
0
  6
CONTINUOUS
 62
     7
 10
6320.227532113
 20
7366.7614750212
 30
0.0
  0
VERTEX
  5
628
  8
0
  6
CONTINUOUS
 62
     7
 10
6318.8050147815
 20
7366.5209242281
 30
0.0
  0
VERTEX
  5
629
  8
0
  6
CONTINUOUS
 62
     7
 10
6316.3011525751
 20
7366.0911632187
 30
0.0
  0
VERTEX
  5
62A
  8
0
  6
CONTINUOUS
 62
     7
 10
6312.6753804946
 20
7365.5149173629
 30
0.0
  0
VERTEX
  5
62B
  8
0
  6
CONTINUOUS
 62
     7
 10
6309.0284708898
 20
7365.0301966185
 30
0.0
  0
VERTEX
  5
62C
  8
0
  6
CONTINUOUS
 62
     7
 10
6304.4033499445
 20
7364.5836198394
 30
0.0
  0
VERTEX
  5
62D
  8
0
  6
CONTINUOUS
 62
     7
 10
6299.7639163477
 20
7364.3154713147
 30
0.0
  0
VERTEX
  5
62E
  8
0
  6
CONTINUOUS
 62
     7
 10
6294.4343721121
 20
7364.2053032359
 30
0.0
  0
VERTEX
  5
62F
  8
0
  6
CONTINUOUS
 62
     7
 10
6294.4343121625
 20
7364.2053030471
 30
0.0
  0
SEQEND
  5
A1B
  8
0
  6
CONTINUOUS
 62
     7
  0
LINE
  5
1F1
  8
0
  6
CONTINUOUS
 62
     7
 10
6294.4343121625
 20
7364.2053030471
 30
0.0
 11
6294.4345461218
 21
7364.2184733211
 31
0.0
  0
LINE
  5
1F2
  8
0
  6
CONTINUOUS
 62
     7
 10
6261.715213862
 20
7244.3557292346
 30
0.0
 11
6294.5597778347
 21
7244.3557292346
 31
0.0
  0
POLYLINE
  5
1F3
  8
0
  6
CONTINUOUS
 62
     7
 66
     1
 10
0.0
 20
0.0
 30
0.0
 70
   128
  0
VERTEX
  5
630
  8
0
  6
CONTINUOUS
 62
     7
 10
6294.0410630839
 20
7290.3434922011
 30
0.0
  0
VERTEX
  5
631
  8
0
  6
CONTINUOUS
 62
     7
 10
6294.091395181
 20
7295.6362784853
 30
0.0
  0
VERTEX
  5
632
  8
0
  6
CONTINUOUS
 62
     7
 10
6294.1448276656
 20
7300.6715139048
 30
0.0
  0
VERTEX
  5
633
  8
0
  6
CONTINUOUS
 62
     7
 10
6294.1908810898
 20
7305.6744525659
 30
0.0
  0
VERTEX
  5
634
  8
0
  6
CONTINUOUS
 62
     7
 10
6294.2338980747
 20
7310.6614356578
 30
0.0
  0
VERTEX
  5
635
  8
0
  6
CONTINUOUS
 62
     7
 10
6294.2830552881
 20
7315.5785907151
 30
0.0
  0
VERTEX
  5
636
  8
0
  6
CONTINUOUS
 62
     7
 10
6294.3469184058
 20
7320.38021326
 30
0.0
  0
VERTEX
  5
637
  8
0
  6
CONTINUOUS
 62
     7
 10
6294.4328963823
 20
7325.0362576958
 30
0.0
  0
VERTEX
  5
638
  8
0
  6
CONTINUOUS
 62
     7
 10
6294.4885260416
 20
7327.3809868474
 30
0.0
  0
VERTEX
  5
639
  8
0
  6
CONTINUOUS
 62
     7
 10
6294.5528342318
 20
7329.6754951909
 30
0.0
  0
VERTEX
  5
63A
  8
0
  6
CONTINUOUS
 62
     7
 10
6294.6191512224
 20
7331.938610505
 30
0.0
  0
VERTEX
  5
63B
  8
0
  6
CONTINUOUS
 62
     7
 10
6294.6551996778
 20
7334.3007419729
 30
0.0
  0
VERTEX
  5
63C
  8
0
  6
CONTINUOUS
 62
     7
 10
6294.6185257751
 20
7336.9431102454
 30
0.0
  0
VERTEX
  5
63D
  8
0
  6
CONTINUOUS
 62
     7
 10
6294.56976273
 20
7338.2415918011
 30
0.0
  0
VERTEX
  5
63E
  8
0
  6
CONTINUOUS
 62
     7
 10
6294.5061741607
 20
7339.6550916946
 30
0.0
  0
VERTEX
  5
63F
  8
0
  6
CONTINUOUS
 62
     7
 10
6294.4423410544
 20
7341.2197620391
 30
0.0
  0
VERTEX
  5
640
  8
0
  6
CONTINUOUS
 62
     7
 10
6294.3952133637
 20
7342.9848029673
 30
0.0
  0
VERTEX
  5
641
  8
0
  6
CONTINUOUS
 62
     7
 10
6294.3781842361
 20
7344.9791234763
 30
0.0
  0
VERTEX
  5
642
  8
0
  6
CONTINUOUS
 62
     7
 10
6294.38619172
 20
7347.0974086639
 30
0.0
  0
VERTEX
  5
643
  8
0
  6
CONTINUOUS
 62
     7
 10
6294.3966315082
 20
7349.2186779281
 30
0.0
  0
VERTEX
  5
644
  8
0
  6
CONTINUOUS
 62
     7
 10
6294.3866050999
 20
7351.1830982699
 30
0.0
  0
VERTEX
  5
645
  8
0
  6
CONTINUOUS
 62
     7
 10
6294.3404430114
 20
7352.8605215706
 30
0.0
  0
VERTEX
  5
646
  8
0
  6
CONTINUOUS
 62
     7
 10
6294.2458512089
 20
7354.5378671957
 30
0.0
  0
VERTEX
  5
647
  8
0
  6
CONTINUOUS
 62
     7
 10
6294.1524288478
 20
7355.6412775544
 30
0.0
  0
VERTEX
  5
648
  8
0
  6
CONTINUOUS
 62
     7
 10
6294.0814229879
 20
7356.2364216332
 30
0.0
  0
VERTEX
  5
649
  8
0
  6
CONTINUOUS
 62
     7
 10
6294.0334744939
 20
7356.4698639364
 30
0.0
  0
VERTEX
  5
64A
  8
0
  6
CONTINUOUS
 62
     7
 10
6294.007204222
 20
7356.4973875839
 30
0.0
  0
VERTEX
  5
64B
  8
0
  6
CONTINUOUS
 62
     7
 10
6294.0007738174
 20
7356.4686344561
 30
0.0
  0
VERTEX
  5
64C
  8
0
  6
CONTINUOUS
 62
     7
 10
6294.0139378592
 20
7356.5227029718
 30
0.0
  0
VERTEX
  5
64D
  8
0
  6
CONTINUOUS
 62
     7
 10
6294.0384165682
 20
7356.7101566664
 30
0.0
  0
VERTEX
  5
64E
  8
0
  6
CONTINUOUS
 62
     7
 10
6294.0635531481
 20
7356.9598163192
 30
0.0
  0
VERTEX
  5
64F
  8
0
  6
CONTINUOUS
 62
     7
 10
6294.1509642432
 20
7358.2765806166
 30
0.0
  0
VERTEX
  5
650
  8
0
  6
CONTINUOUS
 62
     7
 10
6294.2400792114
 20
7360.0742777964
 30
0.0
  0
VERTEX
  5
651
  8
0
  6
CONTINUOUS
 62
     7
 10
6294.3010209888
 20
7361.4098198177
 30
0.0
  0
VERTEX
  5
652
  8
0
  6
CONTINUOUS
 62
     7
 10
6294.3653968274
 20
7362.8057023613
 30
0.0
  0
VERTEX
  5
653
  8
0
  6
CONTINUOUS
 62
     7
 10
6294.4343121625
 20
7364.2053030471
 30
0.0
  0
SEQEND
  5
A1C
  8
0
  6
CONTINUOUS
 62
     7
  0
ARC
  5
1F4
  8
0
  6
CONTINUOUS
 62
     7
 10
6294.5597778347
 20
7279.3557292346
 30
0.0
 40
11.00000000000005
 50
92.70283561
 51
267.6144779079
  0
POLYLINE
  5
1F5
  8
0
  6
CONTINUOUS
 62
     7
 66
     1
 10
0.0
 20
0.0
 30
0.0
 70
   128
  0
VERTEX
  5
654
  8
0
  6
CONTINUOUS
 62
     7
 10
6294.5597778347
 20
7244.3557292346
 30
0.0
  0
VERTEX
  5
655
  8
0
  6
CONTINUOUS
 62
     7
 10
6294.4006076434
 20
7251.2593018594
 30
0.0
  0
VERTEX
  5
656
  8
0
  6
CONTINUOUS
 62
     7
 10
6294.2731855171
 20
7257.5273271004
 30
0.0
  0
VERTEX
  5
657
  8
0
  6
CONTINUOUS
 62
     7
 10
6294.1745957857
 20
7263.2119366145
 30
0.0
  0
VERTEX
  5
658
  8
0
  6
CONTINUOUS
 62
     7
 10
6294.101922779
 20
7268.3652620585
 30
0.0
  0
SEQEND
  5
A1D
  8
0
  6
CONTINUOUS
 62
     7
  0
LINE
  5
1F6
  8
0
  6
CONTINUOUS
 62
     7
 10
6294.5597778347
 20
7244.3557292346
 30
0.0
 11
6327.4043418074
 21
7244.3557292346
 31
0.0
  0
ARC
  5
1F7
  8
0
  6
CONTINUOUS
 62
     7
 10
6294.5597778347
 20
7279.3557292346
 30
0.0
 40
11.00000000000005
 50
267.6144779079
 51
92.70283561
  0
LINE
  5
1F8
  8
0
  6
CONTINUOUS
 62
     8
 10
6335.059777843
 20
7297.7044372607
 30
0.0
 11
6335.059777843
 21
7297.8119279499
 31
0.0
  0
LINE
  5
1F9
  8
0
  6
CONTINUOUS
 62
     8
 10
6335.059777843
 20
7260.128737487
 30
0.0
 11
6335.059777843
 21
7266.1796019022
 31
0.0
  0
POLYLINE
  5
1FA
  8
0
  6
CONTINUOUS
 62
     8
 66
     1
 10
0.0
 20
0.0
 30
0.0
 70
   128
  0
VERTEX
  5
659
  8
0
  6
CONTINUOUS
 62
     8
 10
6263.2883937497
 20
7366.9221405655
 30
0.0
  0
VERTEX
  5
65A
  8
0
  6
CONTINUOUS
 62
     8
 10
6263.2883973117
 20
7366.9221756735
 30
0.0
  0
VERTEX
  5
65B
  8
0
  6
CONTINUOUS
 62
     8
 10
6263.4634686941
 20
7368.5980584189
 30
0.0
  0
SEQEND
  5
A1E
  8
0
  6
CONTINUOUS
 62
     8
  0
ARC
  5
1FB
  8
0
  6
CONTINUOUS
 62
     8
 10
6298.7937094972
 20
7378.8749146029
 30
0.0
 40
33.98834291829732
 50
147.4456308336
 51
159.0628103309
  0
POLYLINE
  5
1FC
  8
0
  6
CONTINUOUS
 62
     8
 66
     1
 10
0.0
 20
0.0
 30
0.0
 70
   128
  0
VERTEX
  5
65C
  8
0
  6
CONTINUOUS
 62
     8
 10
6325.5780366137
 20
7384.3106917314
 30
0.0
  0
VERTEX
  5
65D
  8
0
  6
CONTINUOUS
 62
     8
 10
6325.2863134974
 20
7385.3005199935
 30
0.0
  0
VERTEX
  5
65E
  8
0
  6
CONTINUOUS
 62
     8
 10
6324.9362357214
 20
7386.3807930391
 30
0.0
  0
VERTEX
  5
65F
  8
0
  6
CONTINUOUS
 62
     8
 10
6324.2472244529
 20
7388.3012086841
 30
0.0
  0
VERTEX
  5
660
  8
0
  6
CONTINUOUS
 62
     8
 10
6323.5802208916
 20
7389.9431870989
 30
0.0
  0
VERTEX
  5
661
  8
0
  6
CONTINUOUS
 62
     8
 10
6322.9455310669
 20
7391.338674
 30
0.0
  0
VERTEX
  5
662
  8
0
  6
CONTINUOUS
 62
     8
 10
6322.3441306946
 20
7392.528862457
 30
0.0
  0
VERTEX
  5
663
  8
0
  6
CONTINUOUS
 62
     8
 10
6321.245909631
 20
7394.4050676089
 30
0.0
  0
VERTEX
  5
664
  8
0
  6
CONTINUOUS
 62
     8
 10
6320.2937943082
 20
7395.7404033366
 30
0.0
  0
VERTEX
  5
665
  8
0
  6
CONTINUOUS
 62
     8
 10
6319.6845169198
 20
7396.4523325434
 30
0.0
  0
VERTEX
  5
666
  8
0
  6
CONTINUOUS
 62
     8
 10
6319.1413380978
 20
7396.9860971126
 30
0.0
  0
SEQEND
  5
A1F
  8
0
  6
CONTINUOUS
 62
     8
  0
LINE
  5
1FD
  8
0
  6
CONTINUOUS
 62
     7
 10
6526.6376739674
 20
7262.7557292346
 30
0.0
 11
6526.4376739674
 21
7262.5557292346
 31
0.0
  0
LINE
  5
1FE
  8
0
  6
CONTINUOUS
 62
     7
 10
6584.2178115347
 20
7243.5557292346
 30
0.0
 11
6584.2178115347
 21
7244.3557292346
 31
0.0
  0
LINE
  5
1FF
  8
0
  6
CONTINUOUS
 62
     7
 10
6529.6178115347
 20
7244.3557292346
 30
0.0
 11
6529.6178115347
 21
7243.5557292346
 31
0.0
  0
LINE
  5
200
  8
0
  6
CONTINUOUS
 62
     7
 10
6676.3418003029
 20
7385.6444918103
 30
0.0
 11
6676.0550120847
 21
7386.0540678324
 31
0.0
  0
LINE
  5
201
  8
0
  6
CONTINUOUS
 62
     7
 10
6656.5591934306
 20
7372.4029486473
 30
0.0
 11
6656.8459816488
 21
7371.9933726251
 31
0.0
  0
ARC
  5
202
  8
0
  6
CONTINUOUS
 62
     7
 10
6672.0210817306
 20
7383.6506573686
 30
0.0
 40
16.73840109532683
 50
217.8937068895
 51
229.3375894789
  0
ARC
  5
203
  8
0
  6
CONTINUOUS
 62
     7
 10
6660.1973459461
 20
7375.3715884425
 30
0.0
 40
16.73840109532617
 50
20.6624105211
 51
32.1062931105
  0
LINE
  5
204
  8
0
  6
CONTINUOUS
 62
     7
 10
6661.1143248172
 20
7370.9535425444
 30
0.0
 11
6664.4611364341
 21
7369.878836419
 31
0.0
  0
LINE
  5
205
  8
0
  6
CONTINUOUS
 62
     7
 10
6675.7242780411
 20
7377.7653730761
 30
0.0
 11
6675.8590616144
 21
7381.2779183987
 31
0.0
  0
POLYLINE
  5
206
  8
0
  6
CONTINUOUS
 62
     7
 66
     1
 10
0.0
 20
0.0
 30
0.0
 70
   128
  0
VERTEX
  5
667
  8
0
  6
CONTINUOUS
 62
     7
 10
6585.1396543141
 20
7287.962493839
 30
0.0
  0
VERTEX
  5
668
  8
0
  6
CONTINUOUS
 62
     7
 10
6585.1366880127
 20
7288.1302555447
 30
0.0
  0
VERTEX
  5
669
  8
0
  6
CONTINUOUS
 62
     7
 10
6585.2110212213
 20
7292.2702250436
 30
0.0
  0
VERTEX
  5
66A
  8
0
  6
CONTINUOUS
 62
     7
 10
6585.4882026443
 20
7296.0333776537
 30
0.0
  0
VERTEX
  5
66B
  8
0
  6
CONTINUOUS
 62
     7
 10
6585.9806736613
 20
7299.5577225915
 30
0.0
  0
VERTEX
  5
66C
  8
0
  6
CONTINUOUS
 62
     7
 10
6586.6825197797
 20
7302.9369926548
 30
0.0
  0
VERTEX
  5
66D
  8
0
  6
CONTINUOUS
 62
     7
 10
6587.5568895357
 20
7306.1993992321
 30
0.0
  0
VERTEX
  5
66E
  8
0
  6
CONTINUOUS
 62
     7
 10
6588.5545547671
 20
7309.338146145
 30
0.0
  0
VERTEX
  5
66F
  8
0
  6
CONTINUOUS
 62
     7
 10
6590.4267598339
 20
7314.4053277926
 30
0.0
  0
VERTEX
  5
670
  8
0
  6
CONTINUOUS
 62
     7
 10
6592.3584790939
 20
7319.0550833944
 30
0.0
  0
VERTEX
  5
671
  8
0
  6
CONTINUOUS
 62
     7
 10
6594.2360992189
 20
7323.2871736017
 30
0.0
  0
VERTEX
  5
672
  8
0
  6
CONTINUOUS
 62
     7
 10
6595.9831620208
 20
7327.1100168682
 30
0.0
  0
VERTEX
  5
673
  8
0
  6
CONTINUOUS
 62
     7
 10
6597.5527817039
 20
7330.5377530907
 30
0.0
  0
VERTEX
  5
674
  8
0
  6
CONTINUOUS
 62
     7
 10
6599.0166707147
 20
7333.7136713012
 30
0.0
  0
VERTEX
  5
675
  8
0
  6
CONTINUOUS
 62
     7
 10
6600.6160683146
 20
7336.9774449884
 30
0.0
  0
VERTEX
  5
676
  8
0
  6
CONTINUOUS
 62
     7
 10
6601.4049395038
 20
7338.4911431548
 30
0.0
  0
VERTEX
  5
677
  8
0
  6
CONTINUOUS
 62
     7
 10
6602.3431674661
 20
7340.0915444131
 30
0.0
  0
VERTEX
  5
678
  8
0
  6
CONTINUOUS
 62
     7
 10
6603.5753356747
 20
7341.8193366577
 30
0.0
  0
VERTEX
  5
679
  8
0
  6
CONTINUOUS
 62
     7
 10
6605.2319196368
 20
7343.719295738
 30
0.0
  0
VERTEX
  5
67A
  8
0
  6
CONTINUOUS
 62
     7
 10
6607.3281621204
 20
7345.768382155
 30
0.0
  0
VERTEX
  5
67B
  8
0
  6
CONTINUOUS
 62
     7
 10
6609.7123848753
 20
7347.8463898876
 30
0.0
  0
VERTEX
  5
67C
  8
0
  6
CONTINUOUS
 62
     7
 10
6612.1543560575
 20
7349.7858137109
 30
0.0
  0
VERTEX
  5
67D
  8
0
  6
CONTINUOUS
 62
     7
 10
6614.5025383062
 20
7351.4826238526
 30
0.0
  0
VERTEX
  5
67E
  8
0
  6
CONTINUOUS
 62
     7
 10
6617.342455845
 20
7353.2738016012
 30
0.0
  0
VERTEX
  5
67F
  8
0
  6
CONTINUOUS
 62
     7
 10
6619.9025109918
 20
7354.5674936551
 30
0.0
  0
VERTEX
  5
680
  8
0
  6
CONTINUOUS
 62
     7
 10
6622.2578996127
 20
7355.4389779392
 30
0.0
  0
VERTEX
  5
681
  8
0
  6
CONTINUOUS
 62
     7
 10
6624.8135861403
 20
7356.0567879545
 30
0.0
  0
VERTEX
  5
682
  8
0
  6
CONTINUOUS
 62
     7
 10
6627.7741848439
 20
7356.4380428066
 30
0.0
  0
VERTEX
  5
683
  8
0
  6
CONTINUOUS
 62
     7
 10
6630.8909532583
 20
7356.5576328232
 30
0.0
  0
VERTEX
  5
684
  8
0
  6
CONTINUOUS
 62
     7
 10
6632.6604347521
 20
7356.5438919183
 30
0.0
  0
VERTEX
  5
685
  8
0
  6
CONTINUOUS
 62
     7
 10
6634.1943327433
 20
7356.5261155346
 30
0.0
  0
VERTEX
  5
686
  8
0
  6
CONTINUOUS
 62
     7
 10
6635.3194974292
 20
7356.5893517295
 30
0.0
  0
VERTEX
  5
687
  8
0
  6
CONTINUOUS
 62
     7
 10
6636.1546178426
 20
7356.7690993142
 30
0.0
  0
VERTEX
  5
688
  8
0
  6
CONTINUOUS
 62
     7
 10
6637.059998455
 20
7357.01927278
 30
0.0
  0
VERTEX
  5
689
  8
0
  6
CONTINUOUS
 62
     7
 10
6639.5065636084
 20
7357.9771622876
 30
0.0
  0
VERTEX
  5
68A
  8
0
  6
CONTINUOUS
 62
     7
 10
6642.0708595791
 20
7359.3768537806
 30
0.0
  0
VERTEX
  5
68B
  8
0
  6
CONTINUOUS
 62
     7
 10
6643.3319357182
 20
7360.2283307889
 30
0.0
  0
VERTEX
  5
68C
  8
0
  6
CONTINUOUS
 62
     7
 10
6644.535389738
 20
7361.1678037984
 30
0.0
  0
VERTEX
  5
68D
  8
0
  6
CONTINUOUS
 62
     7
 10
6645.089355751
 20
7361.6618987369
 30
0.0
  0
VERTEX
  5
68E
  8
0
  6
CONTINUOUS
 62
     7
 10
6645.5939668392
 20
7362.1646589206
 30
0.0
  0
VERTEX
  5
68F
  8
0
  6
CONTINUOUS
 62
     7
 10
6646.047355681
 20
7362.6738707518
 30
0.0
  0
VERTEX
  5
690
  8
0
  6
CONTINUOUS
 62
     7
 10
6646.4482390989
 20
7363.1877752637
 30
0.0
  0
VERTEX
  5
691
  8
0
  6
CONTINUOUS
 62
     7
 10
6646.9020449182
 20
7363.8764223654
 30
0.0
  0
VERTEX
  5
692
  8
0
  6
CONTINUOUS
 62
     7
 10
6647.2726443427
 20
7364.5609172194
 30
0.0
  0
VERTEX
  5
693
  8
0
  6
CONTINUOUS
 62
     7
 10
6647.4308084499
 20
7364.9002234196
 30
0.0
  0
SEQEND
  5
A20
  8
0
  6
CONTINUOUS
 62
     7
  0
POLYLINE
  5
207
  8
0
  6
CONTINUOUS
 62
     7
 66
     1
 10
0.0
 20
0.0
 30
0.0
 70
   128
  0
VERTEX
  5
694
  8
0
  6
CONTINUOUS
 62
     7
 10
6587.3759240608
 20
7244.3557292346
 30
0.0
  0
VERTEX
  5
695
  8
0
  6
CONTINUOUS
 62
     7
 10
6587.1195769537
 20
7250.6318821234
 30
0.0
  0
VERTEX
  5
696
  8
0
  6
CONTINUOUS
 62
     7
 10
6586.8421029585
 20
7256.3063184808
 30
0.0
  0
VERTEX
  5
697
  8
0
  6
CONTINUOUS
 62
     7
 10
6586.5561092773
 20
7261.4373275319
 30
0.0
  0
VERTEX
  5
698
  8
0
  6
CONTINUOUS
 62
     7
 10
6586.2731701529
 20
7266.0796928995
 30
0.0
  0
VERTEX
  5
699
  8
0
  6
CONTINUOUS
 62
     7
 10
6586.0038651363
 20
7270.2848121494
 30
0.0
  0
VERTEX
  5
69A
  8
0
  6
CONTINUOUS
 62
     7
 10
6585.9803078238
 20
7270.6501660911
 30
0.0
  0
SEQEND
  5
A21
  8
0
  6
CONTINUOUS
 62
     7
  0
POLYLINE
  5
208
  8
0
  6
CONTINUOUS
 62
     7
 66
     1
 10
0.0
 20
0.0
 30
0.0
 70
   128
  0
VERTEX
  5
69B
  8
0
  6
CONTINUOUS
 62
     7
 10
6526.461366127
 20
7258.2956072247
 30
0.0
  0
VERTEX
  5
69C
  8
0
  6
CONTINUOUS
 62
     7
 10
6526.3114377217
 20
7255.4466756077
 30
0.0
  0
VERTEX
  5
69D
  8
0
  6
CONTINUOUS
 62
     7
 10
6525.8991667083
 20
7244.3557292346
 30
0.0
  0
SEQEND
  5
A22
  8
0
  6
CONTINUOUS
 62
     7
  0
POLYLINE
  5
209
  8
0
  6
CONTINUOUS
 62
     7
 66
     1
 10
0.0
 20
0.0
 30
0.0
 70
   128
  0
VERTEX
  5
69E
  8
0
  6
CONTINUOUS
 62
     7
 10
6692.3136687107
 20
7401.8993868178
 30
0.0
  0
VERTEX
  5
69F
  8
0
  6
CONTINUOUS
 62
     7
 10
6685.0686201293
 20
7401.838297946
 30
0.0
  0
VERTEX
  5
6A0
  8
0
  6
CONTINUOUS
 62
     7
 10
6675.1653362329
 20
7401.5975686286
 30
0.0
  0
VERTEX
  5
6A1
  8
0
  6
CONTINUOUS
 62
     7
 10
6665.8333235714
 20
7401.2072385305
 30
0.0
  0
VERTEX
  5
6A2
  8
0
  6
CONTINUOUS
 62
     7
 10
6657.0464956284
 20
7400.6698736809
 30
0.0
  0
VERTEX
  5
6A3
  8
0
  6
CONTINUOUS
 62
     7
 10
6648.77877481
 20
7399.9880123145
 30
0.0
  0
VERTEX
  5
6A4
  8
0
  6
CONTINUOUS
 62
     7
 10
6641.0040963276
 20
7399.1641617359
 30
0.0
  0
VERTEX
  5
6A5
  8
0
  6
CONTINUOUS
 62
     7
 10
6633.696410955
 20
7398.200796716
 30
0.0
  0
VERTEX
  5
6A6
  8
0
  6
CONTINUOUS
 62
     7
 10
6626.1662655286
 20
7396.9828697314
 30
0.0
  0
VERTEX
  5
6A7
  8
0
  6
CONTINUOUS
 62
     7
 10
6619.1350603521
 20
7395.6022913786
 30
0.0
  0
VERTEX
  5
6A8
  8
0
  6
CONTINUOUS
 62
     7
 10
6612.5682024328
 20
7394.0622270283
 30
0.0
  0
VERTEX
  5
6A9
  8
0
  6
CONTINUOUS
 62
     7
 10
6606.4311540907
 20
7392.3658077268
 30
0.0
  0
VERTEX
  5
6AA
  8
0
  6
CONTINUOUS
 62
     7
 10
6600.689300587
 20
7390.5161401236
 30
0.0
  0
VERTEX
  5
6AB
  8
0
  6
CONTINUOUS
 62
     7
 10
6594.6003780563
 20
7388.232150925
 30
0.0
  0
VERTEX
  5
6AC
  8
0
  6
CONTINUOUS
 62
     7
 10
6588.9267045266
 20
7385.7588059454
 30
0.0
  0
VERTEX
  5
6AD
  8
0
  6
CONTINUOUS
 62
     7
 10
6583.6172648963
 20
7383.1006838686
 30
0.0
  0
VERTEX
  5
6AE
  8
0
  6
CONTINUOUS
 62
     7
 10
6578.6218602158
 20
7380.2623387317
 30
0.0
  0
VERTEX
  5
6AF
  8
0
  6
CONTINUOUS
 62
     7
 10
6573.8889237709
 20
7377.2483380349
 30
0.0
  0
VERTEX
  5
6B0
  8
0
  6
CONTINUOUS
 62
     7
 10
6568.2712686038
 20
7373.238844047
 30
0.0
  0
VERTEX
  5
6B1
  8
0
  6
CONTINUOUS
 62
     7
 10
6562.9927313934
 20
7368.9342967017
 30
0.0
  0
VERTEX
  5
6B2
  8
0
  6
CONTINUOUS
 62
     7
 10
6558.1325289278
 20
7364.2826874439
 30
0.0
  0
VERTEX
  5
6B3
  8
0
  6
CONTINUOUS
 62
     7
 10
6553.7210161259
 20
7359.2663251206
 30
0.0
  0
VERTEX
  5
6B4
  8
0
  6
CONTINUOUS
 62
     7
 10
6549.7379877235
 20
7353.9012384698
 30
0.0
  0
VERTEX
  5
6B5
  8
0
  6
CONTINUOUS
 62
     7
 10
6546.1604308289
 20
7348.205416154
 30
0.0
  0
VERTEX
  5
6B6
  8
0
  6
CONTINUOUS
 62
     7
 10
6542.9654057993
 20
7342.1969824122
 30
0.0
  0
VERTEX
  5
6B7
  8
0
  6
CONTINUOUS
 62
     7
 10
6540.1302823032
 20
7335.8947347715
 30
0.0
  0
VERTEX
  5
6B8
  8
0
  6
CONTINUOUS
 62
     7
 10
6537.6325647187
 20
7329.3177100373
 30
0.0
  0
VERTEX
  5
6B9
  8
0
  6
CONTINUOUS
 62
     7
 10
6535.4496755109
 20
7322.485082501
 30
0.0
  0
VERTEX
  5
6BA
  8
0
  6
CONTINUOUS
 62
     7
 10
6533.5589167706
 20
7315.4161625884
 30
0.0
  0
VERTEX
  5
6BB
  8
0
  6
CONTINUOUS
 62
     7
 10
6531.9374523147
 20
7308.1303809219
 30
0.0
  0
VERTEX
  5
6BC
  8
0
  6
CONTINUOUS
 62
     7
 10
6530.1547623597
 20
7298.112388303
 30
0.0
  0
VERTEX
  5
6BD
  8
0
  6
CONTINUOUS
 62
     7
 10
6528.7555133672
 20
7287.7898532114
 30
0.0
  0
VERTEX
  5
6BE
  8
0
  6
CONTINUOUS
 62
     7
 10
6527.6850024727
 20
7277.2082981309
 30
0.0
  0
VERTEX
  5
6BF
  8
0
  6
CONTINUOUS
 62
     7
 10
6526.8885210483
 20
7266.4123824156
 30
0.0
  0
VERTEX
  5
6C0
  8
0
  6
CONTINUOUS
 62
     7
 10
6526.6673204106
 20
7262.2091396137
 30
0.0
  0
SEQEND
  5
A23
  8
0
  6
CONTINUOUS
 62
     7
  0
ARC
  5
20A
  8
0
  6
CONTINUOUS
 62
     7
 10
6660.296537956
 20
7356.7087823677
 30
0.0
 40
14.99956114418661
 50
124.9775757509
 51
149.7560665397
  0
ARC
  5
20B
  8
0
  6
CONTINUOUS
 62
     7
 10
6692.3609296042
 20
7399.9131838608
 30
0.0
 40
2.000035493346397
 50
305.5164779403
 51
90.9252929367
  0
ARC
  5
20C
  8
0
  6
CONTINUOUS
 62
     7
 10
6660.4057357187
 20
7356.784707722
 30
0.0
 40
15.00000000000095
 50
124.9999994094
 51
149.859865166
  0
ARC
  5
20D
  8
0
  6
CONTINUOUS
 62
     7
 10
6638.3648825333
 20
7369.6846926575
 30
0.0
 40
10.50230560327043
 50
308.4028132342
 51
328.957346481
  0
LINE
  5
20E
  8
0
  6
CONTINUOUS
 62
     7
 10
6526.4376739674
 20
7260.7284081401
 30
0.0
 11
6526.4376739674
 21
7262.5557292346
 31
0.0
  0
LINE
  5
20F
  8
0
  6
CONTINUOUS
 62
     7
 10
6526.4376739674
 20
7257.9557292346
 30
0.0
 11
6526.4376739674
 21
7260.7284081401
 31
0.0
  0
LINE
  5
210
  8
0
  6
CONTINUOUS
 62
     7
 10
6526.6376739674
 20
7262.7557292346
 30
0.0
 11
6526.6376739674
 21
7260.7695106536
 31
0.0
  0
LINE
  5
211
  8
0
  6
CONTINUOUS
 62
     7
 10
6584.2178115347
 20
7243.5557292346
 30
0.0
 11
6529.6178115347
 21
7243.5557292346
 31
0.0
  0
LINE
  5
212
  8
0
  6
CONTINUOUS
 62
     7
 10
6676.3418003029
 20
7385.6444918103
 30
0.0
 11
6656.8459816488
 21
7371.9933726251
 31
0.0
  0
LINE
  5
213
  8
0
  6
CONTINUOUS
 62
     7
 10
6675.8590616144
 20
7381.2779183987
 30
0.0
 11
6661.1143248172
 21
7370.9535425444
 31
0.0
  0
LINE
  5
214
  8
0
  6
CONTINUOUS
 62
     7
 10
6675.7242780411
 20
7377.7653730761
 30
0.0
 11
6664.4611364341
 21
7369.878836419
 31
0.0
  0
POLYLINE
  5
215
  8
0
  6
CONTINUOUS
 62
     7
 66
     1
 10
0.0
 20
0.0
 30
0.0
 70
   128
  0
VERTEX
  5
6C1
  8
0
  6
CONTINUOUS
 62
     7
 10
6687.943827535
 20
7397.1640309879
 30
0.0
  0
VERTEX
  5
6C2
  8
0
  6
CONTINUOUS
 62
     7
 10
6678.2464377371
 20
7396.8219234494
 30
0.0
  0
VERTEX
  5
6C3
  8
0
  6
CONTINUOUS
 62
     7
 10
6668.5563802621
 20
7396.2679291779
 30
0.0
  0
VERTEX
  5
6C4
  8
0
  6
CONTINUOUS
 62
     7
 10
6658.8670726297
 20
7395.462935855
 30
0.0
  0
VERTEX
  5
6C5
  8
0
  6
CONTINUOUS
 62
     7
 10
6649.2032381009
 20
7394.3597563635
 30
0.0
  0
VERTEX
  5
6C6
  8
0
  6
CONTINUOUS
 62
     7
 10
6639.4508579943
 20
7392.8752788924
 30
0.0
  0
VERTEX
  5
6C7
  8
0
  6
CONTINUOUS
 62
     7
 10
6629.7666317967
 20
7390.9428705794
 30
0.0
  0
VERTEX
  5
6C8
  8
0
  6
CONTINUOUS
 62
     7
 10
6624.9306466537
 20
7389.7707082635
 30
0.0
  0
VERTEX
  5
6C9
  8
0
  6
CONTINUOUS
 62
     7
 10
6620.1322857801
 20
7388.4472518168
 30
0.0
  0
VERTEX
  5
6CA
  8
0
  6
CONTINUOUS
 62
     7
 10
6615.3693067426
 20
7386.9541009611
 30
0.0
  0
VERTEX
  5
6CB
  8
0
  6
CONTINUOUS
 62
     7
 10
6610.6629460813
 20
7385.2789850676
 30
0.0
  0
VERTEX
  5
6CC
  8
0
  6
CONTINUOUS
 62
     7
 10
6605.9488234616
 20
7383.381844133
 30
0.0
  0
VERTEX
  5
6CD
  8
0
  6
CONTINUOUS
 62
     7
 10
6601.3180870438
 20
7381.2764849963
 30
0.0
  0
VERTEX
  5
6CE
  8
0
  6
CONTINUOUS
 62
     7
 10
6596.7868345066
 20
7378.9381624031
 30
0.0
  0
VERTEX
  5
6CF
  8
0
  6
CONTINUOUS
 62
     7
 10
6592.3569127461
 20
7376.3259645729
 30
0.0
  0
VERTEX
  5
6D0
  8
0
  6
CONTINUOUS
 62
     7
 10
6588.0529418544
 20
7373.4750046069
 30
0.0
  0
VERTEX
  5
6D1
  8
0
  6
CONTINUOUS
 62
     7
 10
6584.2885014936
 20
7370.7653748149
 30
0.0
  0
VERTEX
  5
6D2
  8
0
  6
CONTINUOUS
 62
     7
 10
6576.9621156307
 20
7364.9995937965
 30
0.0
  0
VERTEX
  5
6D3
  8
0
  6
CONTINUOUS
 62
     7
 10
6573.4070071963
 20
7361.9517093155
 30
0.0
  0
VERTEX
  5
6D4
  8
0
  6
CONTINUOUS
 62
     7
 10
6570.704536959
 20
7359.4466852471
 30
0.0
  0
VERTEX
  5
6D5
  8
0
  6
CONTINUOUS
 62
     7
 10
6569.2900320304
 20
7358.0449433336
 30
0.0
  0
VERTEX
  5
6D6
  8
0
  6
CONTINUOUS
 62
     7
 10
6569.2390792348
 20
7357.993069572
 30
0.0
  0
SEQEND
  5
A24
  8
0
  6
CONTINUOUS
 62
     7
  0
POLYLINE
  5
216
  8
0
  6
CONTINUOUS
 62
     7
 66
     1
 10
0.0
 20
0.0
 30
0.0
 70
   128
  0
VERTEX
  5
6D7
  8
0
  6
CONTINUOUS
 62
     7
 10
6569.2390792348
 20
7357.993069572
 30
0.0
  0
VERTEX
  5
6D8
  8
0
  6
CONTINUOUS
 62
     7
 10
6569.3208141579
 20
7358.0792127499
 30
0.0
  0
VERTEX
  5
6D9
  8
0
  6
CONTINUOUS
 62
     7
 10
6573.8400560866
 20
7362.4911421628
 30
0.0
  0
VERTEX
  5
6DA
  8
0
  6
CONTINUOUS
 62
     7
 10
6578.6152483869
 20
7366.6284674634
 30
0.0
  0
VERTEX
  5
6DB
  8
0
  6
CONTINUOUS
 62
     7
 10
6583.5758664329
 20
7370.5263425211
 30
0.0
  0
VERTEX
  5
6DC
  8
0
  6
CONTINUOUS
 62
     7
 10
6588.779137752
 20
7374.2061366197
 30
0.0
  0
VERTEX
  5
6DD
  8
0
  6
CONTINUOUS
 62
     7
 10
6594.1614860426
 20
7377.5998543623
 30
0.0
  0
VERTEX
  5
6DE
  8
0
  6
CONTINUOUS
 62
     7
 10
6599.6127147649
 20
7380.6892288487
 30
0.0
  0
VERTEX
  5
6DF
  8
0
  6
CONTINUOUS
 62
     7
 10
6605.2211953986
 20
7383.5028995368
 30
0.0
  0
VERTEX
  5
6E0
  8
0
  6
CONTINUOUS
 62
     7
 10
6610.9661712648
 20
7385.9892517275
 30
0.0
  0
VERTEX
  5
6E1
  8
0
  6
CONTINUOUS
 62
     7
 10
6616.8574337871
 20
7388.1694436674
 30
0.0
  0
VERTEX
  5
6E2
  8
0
  6
CONTINUOUS
 62
     7
 10
6622.8362948699
 20
7390.0512353299
 30
0.0
  0
VERTEX
  5
6E3
  8
0
  6
CONTINUOUS
 62
     7
 10
6628.9130216076
 20
7391.6691536213
 30
0.0
  0
VERTEX
  5
6E4
  8
0
  6
CONTINUOUS
 62
     7
 10
6635.0452719553
 20
7393.0476304924
 30
0.0
  0
VERTEX
  5
6E5
  8
0
  6
CONTINUOUS
 62
     7
 10
6641.2273745565
 20
7394.217889073
 30
0.0
  0
VERTEX
  5
6E6
  8
0
  6
CONTINUOUS
 62
     7
 10
6647.4730540249
 20
7395.209139313
 30
0.0
  0
VERTEX
  5
6E7
  8
0
  6
CONTINUOUS
 62
     7
 10
6653.7474356756
 20
7396.0372138332
 30
0.0
  0
VERTEX
  5
6E8
  8
0
  6
CONTINUOUS
 62
     7
 10
6660.0116575617
 20
7396.7180254182
 30
0.0
  0
VERTEX
  5
6E9
  8
0
  6
CONTINUOUS
 62
     7
 10
6666.2948276594
 20
7397.272030422
 30
0.0
  0
VERTEX
  5
6EA
  8
0
  6
CONTINUOUS
 62
     7
 10
6676.8463286611
 20
7397.9517358945
 30
0.0
  0
VERTEX
  5
6EB
  8
0
  6
CONTINUOUS
 62
     7
 10
6687.4255644683
 20
7398.3651218598
 30
0.0
  0
SEQEND
  5
A25
  8
0
  6
CONTINUOUS
 62
     7
  0
ARC
  5
217
  8
0
  6
CONTINUOUS
 62
     7
 10
6685.6736267862
 20
7396.8968128571
 30
0.0
 40
2.285873349347865
 50
6.713214599
 51
39.9665660162
  0
POLYLINE
  5
218
  8
0
  6
CONTINUOUS
 62
     7
 66
     1
 10
0.0
 20
0.0
 30
0.0
 70
   128
  0
VERTEX
  5
6EC
  8
0
  6
CONTINUOUS
 62
     7
 10
6538.1983194745
 20
7244.3557292346
 30
0.0
  0
VERTEX
  5
6ED
  8
0
  6
CONTINUOUS
 62
     7
 10
6538.1999006283
 20
7244.4256607804
 30
0.0
  0
VERTEX
  5
6EE
  8
0
  6
CONTINUOUS
 62
     7
 10
6538.2001637306
 20
7244.4372700156
 30
0.0
  0
VERTEX
  5
6EF
  8
0
  6
CONTINUOUS
 62
     7
 10
6538.2013833301
 20
7244.4909830845
 30
0.0
  0
VERTEX
  5
6F0
  8
0
  6
CONTINUOUS
 62
     7
 10
6538.2414283985
 20
7246.1696619179
 30
0.0
  0
VERTEX
  5
6F1
  8
0
  6
CONTINUOUS
 62
     7
 10
6538.2921909967
 20
7248.0975800124
 30
0.0
  0
VERTEX
  5
6F2
  8
0
  6
CONTINUOUS
 62
     7
 10
6538.4252223687
 20
7252.3987283163
 30
0.0
  0
VERTEX
  5
6F3
  8
0
  6
CONTINUOUS
 62
     7
 10
6538.8289976727
 20
7261.8628245111
 30
0.0
  0
VERTEX
  5
6F4
  8
0
  6
CONTINUOUS
 62
     7
 10
6539.4195182062
 20
7271.3207871474
 30
0.0
  0
VERTEX
  5
6F5
  8
0
  6
CONTINUOUS
 62
     7
 10
6540.4446890488
 20
7282.6672003517
 30
0.0
  0
VERTEX
  5
6F6
  8
0
  6
CONTINUOUS
 62
     7
 10
6541.2802505553
 20
7289.5838971249
 30
0.0
  0
VERTEX
  5
6F7
  8
0
  6
CONTINUOUS
 62
     7
 10
6542.305775033
 20
7296.4799848163
 30
0.0
  0
VERTEX
  5
6F8
  8
0
  6
CONTINUOUS
 62
     7
 10
6543.5483682629
 20
7303.335045282
 30
0.0
  0
VERTEX
  5
6F9
  8
0
  6
CONTINUOUS
 62
     7
 10
6545.0421834086
 20
7310.1488585025
 30
0.0
  0
VERTEX
  5
6FA
  8
0
  6
CONTINUOUS
 62
     7
 10
6547.3211737732
 20
7318.5924645415
 30
0.0
  0
VERTEX
  5
6FB
  8
0
  6
CONTINUOUS
 62
     7
 10
6549.6918924248
 20
7325.7194149856
 30
0.0
  0
VERTEX
  5
6FC
  8
0
  6
CONTINUOUS
 62
     7
 10
6552.5090229877
 20
7332.7117951639
 30
0.0
  0
VERTEX
  5
6FD
  8
0
  6
CONTINUOUS
 62
     7
 10
6555.8657127515
 20
7339.5822256141
 30
0.0
  0
VERTEX
  5
6FE
  8
0
  6
CONTINUOUS
 62
     7
 10
6559.7973314221
 20
7346.1980860771
 30
0.0
  0
VERTEX
  5
6FF
  8
0
  6
CONTINUOUS
 62
     7
 10
6564.1829671045
 20
7352.2633655469
 30
0.0
  0
VERTEX
  5
700
  8
0
  6
CONTINUOUS
 62
     7
 10
6566.6062545639
 20
7355.1551930941
 30
0.0
  0
VERTEX
  5
701
  8
0
  6
CONTINUOUS
 62
     7
 10
6569.1768871857
 20
7357.9293252328
 30
0.0
  0
VERTEX
  5
702
  8
0
  6
CONTINUOUS
 62
     7
 10
6569.2390792348
 20
7357.993069572
 30
0.0
  0
SEQEND
  5
A26
  8
0
  6
CONTINUOUS
 62
     7
  0
POLYLINE
  5
219
  8
0
  6
CONTINUOUS
 62
     7
 66
     1
 10
0.0
 20
0.0
 30
0.0
 70
   128
  0
VERTEX
  5
703
  8
0
  6
CONTINUOUS
 62
     7
 10
6569.2390792348
 20
7357.993069572
 30
0.0
  0
VERTEX
  5
704
  8
0
  6
CONTINUOUS
 62
     7
 10
6569.1510610471
 20
7357.9004428045
 30
0.0
  0
VERTEX
  5
705
  8
0
  6
CONTINUOUS
 62
     7
 10
6564.286279078
 20
7352.2490070457
 30
0.0
  0
VERTEX
  5
706
  8
0
  6
CONTINUOUS
 62
     7
 10
6559.9345232977
 20
7346.1093561128
 30
0.0
  0
VERTEX
  5
707
  8
0
  6
CONTINUOUS
 62
     7
 10
6556.1612057817
 20
7339.6578784024
 30
0.0
  0
VERTEX
  5
708
  8
0
  6
CONTINUOUS
 62
     7
 10
6552.8869005069
 20
7332.8851731231
 30
0.0
  0
VERTEX
  5
709
  8
0
  6
CONTINUOUS
 62
     7
 10
6550.0532802626
 20
7325.7841089405
 30
0.0
  0
VERTEX
  5
70A
  8
0
  6
CONTINUOUS
 62
     7
 10
6547.6571382975
 20
7318.4909665031
 30
0.0
  0
VERTEX
  5
70B
  8
0
  6
CONTINUOUS
 62
     7
 10
6545.4111780722
 20
7310.0595876773
 30
0.0
  0
VERTEX
  5
70C
  8
0
  6
CONTINUOUS
 62
     7
 10
6543.9360444066
 20
7303.2651868338
 30
0.0
  0
VERTEX
  5
70D
  8
0
  6
CONTINUOUS
 62
     7
 10
6542.6986294169
 20
7296.4143333283
 30
0.0
  0
VERTEX
  5
70E
  8
0
  6
CONTINUOUS
 62
     7
 10
6541.6685689705
 20
7289.5345882758
 30
0.0
  0
VERTEX
  5
70F
  8
0
  6
CONTINUOUS
 62
     7
 10
6540.8146589612
 20
7282.6258504355
 30
0.0
  0
VERTEX
  5
710
  8
0
  6
CONTINUOUS
 62
     7
 10
6539.9453331296
 20
7273.8469134346
 30
0.0
  0
VERTEX
  5
711
  8
0
  6
CONTINUOUS
 62
     7
 10
6539.7312977554
 20
7271.2965875368
 30
0.0
  0
VERTEX
  5
712
  8
0
  6
CONTINUOUS
 62
     7
 10
6538.6832427251
 20
7255.1013059815
 30
0.0
  0
VERTEX
  5
713
  8
0
  6
CONTINUOUS
 62
     7
 10
6538.5492470507
 20
7252.3940279838
 30
0.0
  0
VERTEX
  5
714
  8
0
  6
CONTINUOUS
 62
     7
 10
6538.3539298648
 20
7248.0956440122
 30
0.0
  0
VERTEX
  5
715
  8
0
  6
CONTINUOUS
 62
     7
 10
6538.2722978993
 20
7246.1687762027
 30
0.0
  0
VERTEX
  5
716
  8
0
  6
CONTINUOUS
 62
     7
 10
6538.2025350726
 20
7244.4607277126
 30
0.0
  0
VERTEX
  5
717
  8
0
  6
CONTINUOUS
 62
     7
 10
6538.1983194745
 20
7244.3557292346
 30
0.0
  0
SEQEND
  5
A27
  8
0
  6
CONTINUOUS
 62
     7
  0
ARC
  5
21A
  8
0
  6
CONTINUOUS
 62
     7
 10
6686.4341437496
 20
7396.768358822
 30
0.0
 40
1.560673442778046
 50
298.5117576896
 51
14.6862943168
  0
POLYLINE
  5
21B
  8
0
  6
CONTINUOUS
 62
     7
 66
     1
 10
0.0
 20
0.0
 30
0.0
 70
   128
  0
VERTEX
  5
718
  8
0
  6
CONTINUOUS
 62
     7
 10
6647.2338447453
 20
7366.9221405655
 30
0.0
  0
VERTEX
  5
719
  8
0
  6
CONTINUOUS
 62
     7
 10
6647.2338932709
 20
7366.9221756735
 30
0.0
  0
VERTEX
  5
71A
  8
0
  6
CONTINUOUS
 62
     7
 10
6653.9594281196
 20
7371.7863619821
 30
0.0
  0
VERTEX
  5
71B
  8
0
  6
CONTINUOUS
 62
     7
 10
6657.329390868
 20
7374.2044527805
 30
0.0
  0
VERTEX
  5
71C
  8
0
  6
CONTINUOUS
 62
     7
 10
6660.7011589037
 20
7376.6144854821
 30
0.0
  0
VERTEX
  5
71D
  8
0
  6
CONTINUOUS
 62
     7
 10
6664.4698779136
 20
7379.3015771387
 30
0.0
  0
VERTEX
  5
71E
  8
0
  6
CONTINUOUS
 62
     7
 10
6668.2346519219
 20
7381.9815840923
 30
0.0
  0
VERTEX
  5
71F
  8
0
  6
CONTINUOUS
 62
     7
 10
6671.9926845601
 20
7384.6538152381
 30
0.0
  0
VERTEX
  5
720
  8
0
  6
CONTINUOUS
 62
     7
 10
6675.742557854
 20
7387.3172219625
 30
0.0
  0
VERTEX
  5
721
  8
0
  6
CONTINUOUS
 62
     7
 10
6678.6072389528
 20
7389.3490519074
 30
0.0
  0
VERTEX
  5
722
  8
0
  6
CONTINUOUS
 62
     7
 10
6681.4666841839
 20
7391.3733187785
 30
0.0
  0
VERTEX
  5
723
  8
0
  6
CONTINUOUS
 62
     7
 10
6687.1791141946
 20
7395.39696514
 30
0.0
  0
SEQEND
  5
A28
  8
0
  6
CONTINUOUS
 62
     7
  0
POLYLINE
  5
21C
  8
0
  6
CONTINUOUS
 62
     7
 66
     1
 10
0.0
 20
0.0
 30
0.0
 70
   128
  0
VERTEX
  5
724
  8
0
  6
CONTINUOUS
 62
     7
 10
6558.5446278102
 20
7244.3557292346
 30
0.0
  0
VERTEX
  5
725
  8
0
  6
CONTINUOUS
 62
     7
 10
6558.8526661989
 20
7252.0127143401
 30
0.0
  0
VERTEX
  5
726
  8
0
  6
CONTINUOUS
 62
     7
 10
6559.1395220785
 20
7259.0807913951
 30
0.0
  0
VERTEX
  5
727
  8
0
  6
CONTINUOUS
 62
     7
 10
6559.4201156771
 20
7265.6018152292
 30
0.0
  0
VERTEX
  5
728
  8
0
  6
CONTINUOUS
 62
     7
 10
6559.7093672229
 20
7271.6176406721
 30
0.0
  0
VERTEX
  5
729
  8
0
  6
CONTINUOUS
 62
     7
 10
6560.0221969438
 20
7277.1701225535
 30
0.0
  0
VERTEX
  5
72A
  8
0
  6
CONTINUOUS
 62
     7
 10
6560.3735026254
 20
7282.3011352007
 30
0.0
  0
VERTEX
  5
72B
  8
0
  6
CONTINUOUS
 62
     7
 10
6560.7774029143
 20
7287.0532298329
 30
0.0
  0
VERTEX
  5
72C
  8
0
  6
CONTINUOUS
 62
     7
 10
6561.4427998834
 20
7293.0483653135
 30
0.0
  0
VERTEX
  5
72D
  8
0
  6
CONTINUOUS
 62
     7
 10
6562.2665591232
 20
7298.5220576532
 30
0.0
  0
VERTEX
  5
72E
  8
0
  6
CONTINUOUS
 62
     7
 10
6563.2827304715
 20
7303.5872283582
 30
0.0
  0
VERTEX
  5
72F
  8
0
  6
CONTINUOUS
 62
     7
 10
6564.5253637658
 20
7308.3567989345
 30
0.0
  0
VERTEX
  5
730
  8
0
  6
CONTINUOUS
 62
     7
 10
6566.742696336
 20
7314.8523656478
 30
0.0
  0
VERTEX
  5
731
  8
0
  6
CONTINUOUS
 62
     7
 10
6569.4538111554
 20
7321.0779373631
 30
0.0
  0
VERTEX
  5
732
  8
0
  6
CONTINUOUS
 62
     7
 10
6572.5756503587
 20
7327.051314552
 30
0.0
  0
VERTEX
  5
733
  8
0
  6
CONTINUOUS
 62
     7
 10
6576.0246187652
 20
7332.7835688159
 30
0.0
  0
VERTEX
  5
734
  8
0
  6
CONTINUOUS
 62
     7
 10
6579.7283019243
 20
7338.2915511632
 30
0.0
  0
VERTEX
  5
735
  8
0
  6
CONTINUOUS
 62
     7
 10
6582.8093675056
 20
7342.5245947686
 30
0.0
  0
VERTEX
  5
736
  8
0
  6
CONTINUOUS
 62
     7
 10
6585.9757719429
 20
7346.6334881237
 30
0.0
  0
VERTEX
  5
737
  8
0
  6
CONTINUOUS
 62
     7
 10
6589.293648153
 20
7350.726118422
 30
0.0
  0
VERTEX
  5
738
  8
0
  6
CONTINUOUS
 62
     7
 10
6590.2209952899
 20
7351.8355399533
 30
0.0
  0
VERTEX
  5
739
  8
0
  6
CONTINUOUS
 62
     7
 10
6591.2457885053
 20
7352.9987973066
 30
0.0
  0
VERTEX
  5
73A
  8
0
  6
CONTINUOUS
 62
     7
 10
6592.4970692249
 20
7354.2783050234
 30
0.0
  0
VERTEX
  5
73B
  8
0
  6
CONTINUOUS
 62
     7
 10
6594.1371932905
 20
7355.7618873676
 30
0.0
  0
VERTEX
  5
73C
  8
0
  6
CONTINUOUS
 62
     7
 10
6596.2840160502
 20
7357.5038282359
 30
0.0
  0
VERTEX
  5
73D
  8
0
  6
CONTINUOUS
 62
     7
 10
6598.8512527945
 20
7359.4056865943
 30
0.0
  0
VERTEX
  5
73E
  8
0
  6
CONTINUOUS
 62
     7
 10
6601.6988455075
 20
7361.3297739752
 30
0.0
  0
VERTEX
  5
73F
  8
0
  6
CONTINUOUS
 62
     7
 10
6604.6334229452
 20
7363.0951866788
 30
0.0
  0
VERTEX
  5
740
  8
0
  6
CONTINUOUS
 62
     7
 10
6607.51088298
 20
7364.5598183573
 30
0.0
  0
VERTEX
  5
741
  8
0
  6
CONTINUOUS
 62
     7
 10
6611.1496548252
 20
7365.9383793351
 30
0.0
  0
VERTEX
  5
742
  8
0
  6
CONTINUOUS
 62
     7
 10
6614.7891130915
 20
7366.7322889792
 30
0.0
  0
VERTEX
  5
743
  8
0
  6
CONTINUOUS
 62
     7
 10
6618.3908411099
 20
7367.011547283
 30
0.0
  0
VERTEX
  5
744
  8
0
  6
CONTINUOUS
 62
     7
 10
6621.7885554904
 20
7366.9207043616
 30
0.0
  0
VERTEX
  5
745
  8
0
  6
CONTINUOUS
 62
     7
 10
6624.8051407674
 20
7366.613857702
 30
0.0
  0
VERTEX
  5
746
  8
0
  6
CONTINUOUS
 62
     7
 10
6627.2245955664
 20
7366.2461184827
 30
0.0
  0
VERTEX
  5
747
  8
0
  6
CONTINUOUS
 62
     7
 10
6628.9565765096
 20
7365.9476655185
 30
0.0
  0
VERTEX
  5
748
  8
0
  6
CONTINUOUS
 62
     7
 10
6630.2026699374
 20
7365.7695073755
 30
0.0
  0
VERTEX
  5
749
  8
0
  6
CONTINUOUS
 62
     7
 10
6631.4622748512
 20
7365.6416404555
 30
0.0
  0
VERTEX
  5
74A
  8
0
  6
CONTINUOUS
 62
     7
 10
6635.8655879773
 20
7365.5358928117
 30
0.0
  0
VERTEX
  5
74B
  8
0
  6
CONTINUOUS
 62
     7
 10
6640.0593436755
 20
7365.8187858131
 30
0.0
  0
VERTEX
  5
74C
  8
0
  6
CONTINUOUS
 62
     7
 10
6642.7579285597
 20
7366.1567191475
 30
0.0
  0
VERTEX
  5
74D
  8
0
  6
CONTINUOUS
 62
     7
 10
6645.173786034
 20
7366.5437558634
 30
0.0
  0
VERTEX
  5
74E
  8
0
  6
CONTINUOUS
 62
     7
 10
6647.2338447453
 20
7366.9221405655
 30
0.0
  0
SEQEND
  5
A29
  8
0
  6
CONTINUOUS
 62
     7
  0
LINE
  5
21D
  8
0
  6
CONTINUOUS
 62
     7
 10
6538.1983194745
 20
7244.3557292346
 30
0.0
 11
6558.5446278102
 21
7244.3557292346
 31
0.0
  0
LINE
  5
21E
  8
0
  6
CONTINUOUS
 62
     7
 10
6558.5446278102
 20
7244.3557292346
 30
0.0
 11
6587.9228690801
 21
7244.3557292346
 31
0.0
  0
ARC
  5
21F
  8
0
  6
CONTINUOUS
 62
     7
 10
6651.5812223082
 20
7346.5137954905
 30
0.0
 40
20.86624643711523
 50
96.5823500799
 51
102.0253810816
  0
LINE
  5
220
  8
0
  6
CONTINUOUS
 62
     7
 10
6649.1893007481
 20
7367.2424942352
 30
0.0
 11
6648.7366901828
 21
7366.9255729055
 31
0.0
  0
POLYLINE
  5
221
  8
0
  6
CONTINUOUS
 62
     7
 66
     1
 10
0.0
 20
0.0
 30
0.0
 70
   128
  0
VERTEX
  5
74F
  8
0
  6
CONTINUOUS
 62
     7
 10
6647.2750708601
 20
7364.2184733211
 30
0.0
  0
VERTEX
  5
750
  8
0
  6
CONTINUOUS
 62
     7
 10
6647.2859166974
 20
7364.2191636918
 30
0.0
  0
VERTEX
  5
751
  8
0
  6
CONTINUOUS
 62
     7
 10
6647.3119590127
 20
7364.2839221778
 30
0.0
  0
SEQEND
  5
A2A
  8
0
  6
CONTINUOUS
 62
     7
  0
LINE
  5
222
  8
0
  6
CONTINUOUS
 62
     7
 10
6647.2673720141
 20
7364.2053030471
 30
0.0
 11
6647.2750708601
 21
7364.2184733211
 31
0.0
  0
POLYLINE
  5
223
  8
0
  6
CONTINUOUS
 62
     7
 66
     1
 10
0.0
 20
0.0
 30
0.0
 70
   128
  0
VERTEX
  5
752
  8
0
  6
CONTINUOUS
 62
     7
 10
6585.4822695481
 20
7290.3434922011
 30
0.0
  0
VERTEX
  5
753
  8
0
  6
CONTINUOUS
 62
     7
 10
6585.7418059079
 20
7295.6362784853
 30
0.0
  0
VERTEX
  5
754
  8
0
  6
CONTINUOUS
 62
     7
 10
6586.4521821128
 20
7300.6715139048
 30
0.0
  0
VERTEX
  5
755
  8
0
  6
CONTINUOUS
 62
     7
 10
6587.6441440162
 20
7305.6744525659
 30
0.0
  0
VERTEX
  5
756
  8
0
  6
CONTINUOUS
 62
     7
 10
6589.2299340039
 20
7310.6614356578
 30
0.0
  0
VERTEX
  5
757
  8
0
  6
CONTINUOUS
 62
     7
 10
6591.0841085759
 20
7315.5785907151
 30
0.0
  0
VERTEX
  5
758
  8
0
  6
CONTINUOUS
 62
     7
 10
6593.0901912377
 20
7320.38021326
 30
0.0
  0
VERTEX
  5
759
  8
0
  6
CONTINUOUS
 62
     7
 10
6595.1476152896
 20
7325.0362576958
 30
0.0
  0
VERTEX
  5
75A
  8
0
  6
CONTINUOUS
 62
     7
 10
6596.2006538741
 20
7327.3809868474
 30
0.0
  0
VERTEX
  5
75B
  8
0
  6
CONTINUOUS
 62
     7
 10
6597.2275299363
 20
7329.6754951909
 30
0.0
  0
VERTEX
  5
75C
  8
0
  6
CONTINUOUS
 62
     7
 10
6598.233761864
 20
7331.938610505
 30
0.0
  0
VERTEX
  5
75D
  8
0
  6
CONTINUOUS
 62
     7
 10
6599.3150356816
 20
7334.3007419729
 30
0.0
  0
VERTEX
  5
75E
  8
0
  6
CONTINUOUS
 62
     7
 10
6600.6070980148
 20
7336.9431102454
 30
0.0
  0
VERTEX
  5
75F
  8
0
  6
CONTINUOUS
 62
     7
 10
6601.2791706169
 20
7338.2415918011
 30
0.0
  0
VERTEX
  5
760
  8
0
  6
CONTINUOUS
 62
     7
 10
6602.0416899062
 20
7339.5772929885
 30
0.0
  0
SEQEND
  5
A2B
  8
0
  6
CONTINUOUS
 62
     7
  0
ARC
  5
224
  8
0
  6
CONTINUOUS
 62
     7
 10
6635.6488035696
 20
7371.6935320917
 30
0.0
 40
13.82261577721022
 50
300.8533622282
 51
327.1980048257
  0
ARC
  5
225
  8
0
  6
CONTINUOUS
 62
     7
 10
6626.0355663075
 20
7281.1626285435
 30
0.0
 40
41.46344919861328
 50
170.5612056939
 51
197.9774168337
  0
POLYLINE
  5
226
  8
0
  6
CONTINUOUS
 62
     7
 66
     1
 10
0.0
 20
0.0
 30
0.0
 70
   128
  0
VERTEX
  5
761
  8
0
  6
CONTINUOUS
 62
     7
 10
6587.9228690801
 20
7244.3557292346
 30
0.0
  0
VERTEX
  5
762
  8
0
  6
CONTINUOUS
 62
     7
 10
6587.6209096748
 20
7251.2593018594
 30
0.0
  0
VERTEX
  5
763
  8
0
  6
CONTINUOUS
 62
     7
 10
6587.2880257344
 20
7257.5273271004
 30
0.0
  0
VERTEX
  5
764
  8
0
  6
CONTINUOUS
 62
     7
 10
6586.9409550982
 20
7263.2119366145
 30
0.0
  0
VERTEX
  5
765
  8
0
  6
CONTINUOUS
 62
     7
 10
6586.5964356059
 20
7268.3652620585
 30
0.0
  0
SEQEND
  5
A2C
  8
0
  6
CONTINUOUS
 62
     7
  0
POLYLINE
  5
227
  8
0
  6
CONTINUOUS
 62
     7
 66
     1
 10
0.0
 20
0.0
 30
0.0
 70
   128
  0
VERTEX
  5
766
  8
0
  6
CONTINUOUS
 62
     7
 10
6534.8006939756
 20
7244.3557292346
 30
0.0
  0
VERTEX
  5
767
  8
0
  6
CONTINUOUS
 62
     7
 10
6535.2248684121
 20
7255.5085502525
 30
0.0
  0
VERTEX
  5
768
  8
0
  6
CONTINUOUS
 62
     7
 10
6535.8280972776
 20
7266.5286066461
 30
0.0
  0
VERTEX
  5
769
  8
0
  6
CONTINUOUS
 62
     7
 10
6536.6707279488
 20
7277.3660680487
 30
0.0
  0
VERTEX
  5
76A
  8
0
  6
CONTINUOUS
 62
     7
 10
6537.8131079965
 20
7287.9711039267
 30
0.0
  0
VERTEX
  5
76B
  8
0
  6
CONTINUOUS
 62
     7
 10
6539.315585455
 20
7298.2938833483
 30
0.0
  0
VERTEX
  5
76C
  8
0
  6
CONTINUOUS
 62
     7
 10
6541.2385084268
 20
7308.2845753229
 30
0.0
  0
VERTEX
  5
76D
  8
0
  6
CONTINUOUS
 62
     7
 10
6543.642225399
 20
7317.8933486246
 30
0.0
  0
VERTEX
  5
76E
  8
0
  6
CONTINUOUS
 62
     7
 10
6545.9074616177
 20
7325.1427125763
 30
0.0
  0
VERTEX
  5
76F
  8
0
  6
CONTINUOUS
 62
     7
 10
6548.5360107624
 20
7332.1013907303
 30
0.0
  0
VERTEX
  5
770
  8
0
  6
CONTINUOUS
 62
     7
 10
6551.5571071354
 20
7338.7452407926
 30
0.0
  0
VERTEX
  5
771
  8
0
  6
CONTINUOUS
 62
     7
 10
6555.0000409986
 20
7345.0500781351
 30
0.0
  0
VERTEX
  5
772
  8
0
  6
CONTINUOUS
 62
     7
 10
6558.8942192074
 20
7350.9916299247
 30
0.0
  0
VERTEX
  5
773
  8
0
  6
CONTINUOUS
 62
     7
 10
6563.2690631863
 20
7356.5456123066
 30
0.0
  0
VERTEX
  5
774
  8
0
  6
CONTINUOUS
 62
     7
 10
6568.1528766898
 20
7361.6886718459
 30
0.0
  0
VERTEX
  5
775
  8
0
  6
CONTINUOUS
 62
     7
 10
6573.4063712372
 20
7366.3518208259
 30
0.0
  0
VERTEX
  5
776
  8
0
  6
CONTINUOUS
 62
     7
 10
6578.9944079049
 20
7370.7477179068
 30
0.0
  0
VERTEX
  5
777
  8
0
  6
CONTINUOUS
 62
     7
 10
6584.893487374
 20
7374.9326039658
 30
0.0
  0
VERTEX
  5
778
  8
0
  6
CONTINUOUS
 62
     7
 10
6591.2378418855
 20
7378.8825466206
 30
0.0
  0
VERTEX
  5
779
  8
0
  6
CONTINUOUS
 62
     7
 10
6596.6300117822
 20
7381.8018565715
 30
0.0
  0
VERTEX
  5
77A
  8
0
  6
CONTINUOUS
 62
     7
 10
6602.4578107588
 20
7384.5432990386
 30
0.0
  0
VERTEX
  5
77B
  8
0
  6
CONTINUOUS
 62
     7
 10
6608.791964921
 20
7387.0924272712
 30
0.0
  0
VERTEX
  5
77C
  8
0
  6
CONTINUOUS
 62
     7
 10
6615.7032044453
 20
7389.4347952457
 30
0.0
  0
VERTEX
  5
77D
  8
0
  6
CONTINUOUS
 62
     7
 10
6621.6952348241
 20
7391.1501150889
 30
0.0
  0
VERTEX
  5
77E
  8
0
  6
CONTINUOUS
 62
     7
 10
6628.1380865275
 20
7392.7164667823
 30
0.0
  0
VERTEX
  5
77F
  8
0
  6
CONTINUOUS
 62
     7
 10
6635.0679747435
 20
7394.1264542224
 30
0.0
  0
VERTEX
  5
780
  8
0
  6
CONTINUOUS
 62
     7
 10
6642.5211150186
 20
7395.3726811499
 30
0.0
  0
VERTEX
  5
781
  8
0
  6
CONTINUOUS
 62
     7
 10
6650.5337229121
 20
7396.447751299
 30
0.0
  0
VERTEX
  5
782
  8
0
  6
CONTINUOUS
 62
     7
 10
6658.9828610459
 20
7397.3298677784
 30
0.0
  0
VERTEX
  5
783
  8
0
  6
CONTINUOUS
 62
     7
 10
6668.0409077867
 20
7398.0327441007
 30
0.0
  0
VERTEX
  5
784
  8
0
  6
CONTINUOUS
 62
     7
 10
6677.7421730133
 20
7398.5493731954
 30
0.0
  0
VERTEX
  5
785
  8
0
  6
CONTINUOUS
 62
     7
 10
6688.1209666043
 20
7398.8727479916
 30
0.0
  0
SEQEND
  5
A2D
  8
0
  6
CONTINUOUS
 62
     7
  0
POLYLINE
  5
228
  8
0
  6
CONTINUOUS
 62
     7
 66
     1
 10
0.0
 20
0.0
 30
0.0
 70
   128
  0
VERTEX
  5
786
  8
0
  6
CONTINUOUS
 62
     7
 10
6688.1245948796
 20
7398.8725947885
 30
0.0
  0
VERTEX
  5
787
  8
0
  6
CONTINUOUS
 62
     7
 10
6688.1218177424
 20
7398.8727547553
 30
0.0
  0
VERTEX
  5
788
  8
0
  6
CONTINUOUS
 62
     7
 10
6688.1209666043
 20
7398.8727479916
 30
0.0
  0
SEQEND
  5
A2E
  8
0
  6
CONTINUOUS
 62
     7
  0
ARC
  5
229
  8
0
  6
CONTINUOUS
 62
     7
 10
6664.9426111185
 20
7430.0699741949
 30
0.0
 40
38.86747808805602
 50
305.3417071873
 51
306.615106956
  0
LINE
  5
22A
  8
0
  6
CONTINUOUS
 62
     7
 10
6534.8006939756
 20
7244.3557292346
 30
0.0
 11
6538.1983194745
 21
7244.3557292346
 31
0.0
  0
LINE
  5
22B
  8
0
  6
CONTINUOUS
 62
     7
 10
6690.8213770585
 20
7401.8868040983
 30
0.0
 11
6692.3402379539
 21
7401.9069974776
 31
0.0
  0
LINE
  5
22C
  8
0
  6
CONTINUOUS
 62
     7
 10
6692.3412093733
 20
7401.9070032181
 30
0.0
 11
6692.3402379539
 21
7401.9069974776
 31
0.0
  0
LINE
  5
22D
  8
0
  6
CONTINUOUS
 62
     7
 10
6692.3137767211
 20
7401.8870674862
 30
0.0
 11
6692.3288585126
 21
7401.8980276391
 31
0.0
  0
ARC
  5
22E
  8
0
  6
CONTINUOUS
 62
     7
 10
6756.8881697356
 20
7247.5414769715
 30
0.0
 40
230.6954930392115
 50
176.1971950891
 51
177.3278908448
  0
LINE
  5
22F
  8
0
  6
CONTINUOUS
 62
     7
 10
6525.8991409388
 20
7244.3557292346
 30
0.0
 11
6534.8006939756
 21
7244.3557292346
 31
0.0
  0
ARC
  5
230
  8
0
  6
CONTINUOUS
 62
     7
 10
6685.9496927767
 20
7394.0802250624
 30
0.0
 40
1.801466473421108
 50
5.053084192
 51
46.9641451387
  0
LINE
  5
231
  8
0
  6
CONTINUOUS
 62
     7
 10
6687.744157889
 20
7394.2388958398
 30
0.0
 11
6649.1893526291
 21
7367.2425305626
 31
0.0
  0
ARC
  5
232
  8
0
  6
CONTINUOUS
 62
     7
 10
6688.7263165122
 20
7395.2983936038
 30
0.0
 40
2.023089678790741
 50
93.2469229517
 51
112.7542387406
  0
ARC
  5
233
  8
0
  6
CONTINUOUS
 62
     7
 10
6686.4370656266
 20
7396.2690404636
 30
0.0
 40
2.414534608537141
 50
302.7751336463
 51
25.7555873037
  0
ARC
  5
234
  8
0
  6
CONTINUOUS
 62
     7
 10
6686.7737477116
 20
7396.4311552341
 30
0.0
 40
2.040855701333895
 50
25.7637256969
 51
71.3743211395
  0
ARC
  5
235
  8
0
  6
CONTINUOUS
 62
     7
 10
6687.9411063115
 20
7396.8450685361
 30
0.0
 40
2.035812063788644
 50
311.7053222582
 51
84.8288906988
  0
LINE
  5
236
  8
0
  6
CONTINUOUS
 62
     7
 10
6689.2955314824
 20
7395.3251793245
 30
0.0
 11
6687.744157889
 21
7394.2388958398
 31
0.0
  0
LINE
  5
237
  8
0
  6
CONTINUOUS
 62
     7
 10
6689.2955314824
 20
7395.3251793245
 30
0.0
 11
6693.5121505212
 21
7398.2776877612
 31
0.0
  0
LINE
  5
238
  8
0
  6
CONTINUOUS
 62
     7
 10
6585.4822695481
 20
7290.3434922011
 30
0.0
 11
6585.4839060195
 21
7290.3261887019
 31
0.0
  0
ARC
  5
239
  8
0
  6
CONTINUOUS
 62
     7
 10
6619.9895759367
 20
7281.2042321351
 30
0.0
 40
35.67655315458925
 50
165.2553376883
 51
167.562522775
  0
POLYLINE
  5
23A
  8
0
  6
CONTINUOUS
 62
     7
 66
     1
 10
0.0
 20
0.0
 30
0.0
 70
   128
  0
VERTEX
  5
789
  8
0
  6
CONTINUOUS
 62
     7
 10
6647.4337683208
 20
7364.3172824404
 30
0.0
  0
VERTEX
  5
78A
  8
0
  6
CONTINUOUS
 62
     7
 10
6647.4331613935
 20
7364.3154713147
 30
0.0
  0
VERTEX
  5
78B
  8
0
  6
CONTINUOUS
 62
     7
 10
6647.2673744648
 20
7364.2053032359
 30
0.0
  0
VERTEX
  5
78C
  8
0
  6
CONTINUOUS
 62
     7
 10
6647.2673720141
 20
7364.2053030471
 30
0.0
  0
VERTEX
  5
78D
  8
0
  6
CONTINUOUS
 62
     7
 10
6647.2673720141
 20
7364.2053030471
 30
0.0
  0
SEQEND
  5
A2F
  8
0
  6
CONTINUOUS
 62
     7
  0
ARC
  5
23B
  8
0
  6
CONTINUOUS
 62
     8
 10
6650.6914609663
 20
7364.1662709453
 30
0.0
 40
3.381549240670567
 50
125.3144900215
 51
178.0061565555
  0
POLYLINE
  5
23C
  8
0
  6
CONTINUOUS
 62
     8
 66
     1
 10
0.0
 20
0.0
 30
0.0
 70
   128
  0
VERTEX
  5
78E
  8
0
  6
CONTINUOUS
 62
     8
 10
6688.1209666043
 20
7398.8727479916
 30
0.0
  0
VERTEX
  5
78F
  8
0
  6
CONTINUOUS
 62
     8
 10
6688.1209897052
 20
7398.8727646338
 30
0.0
  0
VERTEX
  5
790
  8
0
  6
CONTINUOUS
 62
     8
 10
6689.9858683358
 20
7400.2144751827
 30
0.0
  0
VERTEX
  5
791
  8
0
  6
CONTINUOUS
 62
     8
 10
6690.9048765184
 20
7400.8745857274
 30
0.0
  0
VERTEX
  5
792
  8
0
  6
CONTINUOUS
 62
     8
 10
6691.6071076541
 20
7401.3786869309
 30
0.0
  0
VERTEX
  5
793
  8
0
  6
CONTINUOUS
 62
     8
 10
6692.2121705445
 20
7401.8132288298
 30
0.0
  0
VERTEX
  5
794
  8
0
  6
CONTINUOUS
 62
     8
 10
6692.3137767211
 20
7401.8870674862
 30
0.0
  0
SEQEND
  5
A30
  8
0
  6
CONTINUOUS
 62
     8
  0
POLYLINE
  5
23D
  8
0
  6
CONTINUOUS
 62
     8
 66
     1
 10
0.0
 20
0.0
 30
0.0
 70
   128
  0
VERTEX
  5
795
  8
0
  6
CONTINUOUS
 62
     8
 10
6692.3402379539
 20
7401.9069974776
 30
0.0
  0
VERTEX
  5
796
  8
0
  6
CONTINUOUS
 62
     8
 10
6692.3402388613
 20
7401.9069981367
 30
0.0
  0
VERTEX
  5
797
  8
0
  6
CONTINUOUS
 62
     8
 10
6692.329335523
 20
7401.899349976
 30
0.0
  0
SEQEND
  5
A31
  8
0
  6
CONTINUOUS
 62
     8
  0
LINE
  5
23E
  8
0
  6
CONTINUOUS
 62
     7
 10
6639.5691093957
 20
6962.5951208551
 30
0.0
 11
6634.9819109171
 21
6965.2432541697
 31
0.0
  0
POLYLINE
  5
23F
  8
0
  6
CONTINUOUS
 62
     7
 66
     1
 10
0.0
 20
0.0
 30
0.0
 70
   128
  0
VERTEX
  5
798
  8
0
  6
CONTINUOUS
 62
     7
 10
6643.6301811337
 20
6939.9069357511
 30
0.0
  0
VERTEX
  5
799
  8
0
  6
CONTINUOUS
 62
     7
 10
6643.0591546478
 20
6946.4386118139
 30
0.0
  0
VERTEX
  5
79A
  8
0
  6
CONTINUOUS
 62
     7
 10
6642.6097274391
 20
6950.6160727589
 30
0.0
  0
VERTEX
  5
79B
  8
0
  6
CONTINUOUS
 62
     7
 10
6642.1076320428
 20
6954.0360154118
 30
0.0
  0
VERTEX
  5
79C
  8
0
  6
CONTINUOUS
 62
     7
 10
6641.5271546684
 20
6956.9350087827
 30
0.0
  0
VERTEX
  5
79D
  8
0
  6
CONTINUOUS
 62
     7
 10
6640.7266766445
 20
6959.9108753479
 30
0.0
  0
VERTEX
  5
79E
  8
0
  6
CONTINUOUS
 62
     7
 10
6640.2565153609
 20
6961.3285992781
 30
0.0
  0
VERTEX
  5
79F
  8
0
  6
CONTINUOUS
 62
     7
 10
6640.0279391202
 20
6961.9821867634
 30
0.0
  0
VERTEX
  5
7A0
  8
0
  6
CONTINUOUS
 62
     7
 10
6639.7784006467
 20
6962.4102776797
 30
0.0
  0
VERTEX
  5
7A1
  8
0
  6
CONTINUOUS
 62
     7
 10
6639.6586301794
 20
6962.519711355
 30
0.0
  0
SEQEND
  5
A32
  8
0
  6
CONTINUOUS
 62
     7
  0
POLYLINE
  5
240
  8
0
  6
CONTINUOUS
 62
     7
 66
     1
 10
0.0
 20
0.0
 30
0.0
 70
   128
  0
VERTEX
  5
7A2
  8
0
  6
CONTINUOUS
 62
     7
 10
6639.7026178938
 20
6962.4889213565
 30
0.0
  0
VERTEX
  5
7A3
  8
0
  6
CONTINUOUS
 62
     7
 10
6639.633676556
 20
6962.5512007083
 30
0.0
  0
VERTEX
  5
7A4
  8
0
  6
CONTINUOUS
 62
     7
 10
6639.5546586226
 20
6962.6028050192
 30
0.0
  0
SEQEND
  5
A33
  8
0
  6
CONTINUOUS
 62
     7
  0
LINE
  5
241
  8
0
  6
CONTINUOUS
 62
     7
 10
6630.4874926269
 20
6934.0318232706
 30
0.0
 11
6635.47556515
 21
6931.152270296
 31
0.0
  0
POLYLINE
  5
242
  8
0
  6
CONTINUOUS
 62
     7
 66
     1
 10
0.0
 20
0.0
 30
0.0
 70
   128
  0
VERTEX
  5
7A5
  8
0
  6
CONTINUOUS
 62
     7
 10
6635.5437422377
 20
6931.1341388058
 30
0.0
  0
VERTEX
  5
7A6
  8
0
  6
CONTINUOUS
 62
     7
 10
6636.1799999415
 20
6930.8739735297
 30
0.0
  0
VERTEX
  5
7A7
  8
0
  6
CONTINUOUS
 62
     7
 10
6637.0154371196
 20
6930.8011521768
 30
0.0
  0
VERTEX
  5
7A8
  8
0
  6
CONTINUOUS
 62
     7
 10
6637.9119060503
 20
6930.9585252162
 30
0.0
  0
VERTEX
  5
7A9
  8
0
  6
CONTINUOUS
 62
     7
 10
6638.8516808403
 20
6931.3469136093
 30
0.0
  0
VERTEX
  5
7AA
  8
0
  6
CONTINUOUS
 62
     7
 10
6639.7970339484
 20
6931.9568343575
 30
0.0
  0
VERTEX
  5
7AB
  8
0
  6
CONTINUOUS
 62
     7
 10
6640.7042132601
 20
6932.7611691773
 30
0.0
  0
VERTEX
  5
7AC
  8
0
  6
CONTINUOUS
 62
     7
 10
6641.5364620788
 20
6933.7245452946
 30
0.0
  0
VERTEX
  5
7AD
  8
0
  6
CONTINUOUS
 62
     7
 10
6642.2634496961
 20
6934.8087741343
 30
0.0
  0
VERTEX
  5
7AE
  8
0
  6
CONTINUOUS
 62
     7
 10
6642.858581364
 20
6935.9727295385
 30
0.0
  0
VERTEX
  5
7AF
  8
0
  6
CONTINUOUS
 62
     7
 10
6643.2991571075
 20
6937.1730818585
 30
0.0
  0
VERTEX
  5
7B0
  8
0
  6
CONTINUOUS
 62
     7
 10
6643.5670052245
 20
6938.3660744119
 30
0.0
  0
VERTEX
  5
7B1
  8
0
  6
CONTINUOUS
 62
     7
 10
6643.6483866056
 20
6939.5096439387
 30
0.0
  0
VERTEX
  5
7B2
  8
0
  6
CONTINUOUS
 62
     7
 10
6643.6353259169
 20
6939.8294819949
 30
0.0
  0
SEQEND
  5
A34
  8
0
  6
CONTINUOUS
 62
     7
  0
LINE
  5
243
  8
0
  6
CONTINUOUS
 62
     7
 10
6643.6406926362
 20
6939.7369281202
 30
0.0
 11
6643.6240878798
 21
6939.9063332509
 31
0.0
  0
LINE
  5
244
  8
0
  6
CONTINUOUS
 62
     7
 10
6519.103796404
 20
6997.3772684205
 30
0.0
 11
6519.6856375725
 21
6994.9453545025
 31
0.0
  0
LINE
  5
245
  8
0
  6
CONTINUOUS
 62
     7
 10
6532.1540972739
 20
6989.3452278795
 30
0.0
 11
6534.5698189985
 21
6990.6389494096
 31
0.0
  0
LINE
  5
246
  8
0
  6
CONTINUOUS
 62
     7
 10
6637.8792152877
 20
6984.1254508787
 30
0.0
 11
6637.8401525043
 21
6984.2529612943
 31
0.0
  0
POLYLINE
  5
247
  8
0
  6
CONTINUOUS
 62
     7
 66
     1
 10
0.0
 20
0.0
 30
0.0
 70
   128
  0
VERTEX
  5
7B3
  8
0
  6
CONTINUOUS
 62
     7
 10
6637.7648175604
 20
6984.4988728547
 30
0.0
  0
VERTEX
  5
7B4
  8
0
  6
CONTINUOUS
 62
     7
 10
6636.5038239462
 20
6988.6150623808
 30
0.0
  0
VERTEX
  5
7B5
  8
0
  6
CONTINUOUS
 62
     7
 10
6635.2455100103
 20
6992.2317743679
 30
0.0
  0
VERTEX
  5
7B6
  8
0
  6
CONTINUOUS
 62
     7
 10
6634.172607714
 20
6995.0200220229
 30
0.0
  0
VERTEX
  5
7B7
  8
0
  6
CONTINUOUS
 62
     7
 10
6633.2300667582
 20
6997.2800248721
 30
0.0
  0
VERTEX
  5
7B8
  8
0
  6
CONTINUOUS
 62
     7
 10
6632.3933689832
 20
6999.156419085
 30
0.0
  0
VERTEX
  5
7B9
  8
0
  6
CONTINUOUS
 62
     7
 10
6631.6276367164
 20
7000.7790784946
 30
0.0
  0
VERTEX
  5
7BA
  8
0
  6
CONTINUOUS
 62
     7
 10
6630.8225738666
 20
7002.3967509683
 30
0.0
  0
VERTEX
  5
7BB
  8
0
  6
CONTINUOUS
 62
     7
 10
6629.856397265
 20
7004.229834631
 30
0.0
  0
VERTEX
  5
7BC
  8
0
  6
CONTINUOUS
 62
     7
 10
6628.7007180163
 20
7006.2833879375
 30
0.0
  0
VERTEX
  5
7BD
  8
0
  6
CONTINUOUS
 62
     7
 10
6627.3102887286
 20
7008.5761844991
 30
0.0
  0
VERTEX
  5
7BE
  8
0
  6
CONTINUOUS
 62
     7
 10
6625.7505825184
 20
7010.9451290442
 30
0.0
  0
VERTEX
  5
7BF
  8
0
  6
CONTINUOUS
 62
     7
 10
6624.245901199
 20
7013.0522941836
 30
0.0
  0
VERTEX
  5
7C0
  8
0
  6
CONTINUOUS
 62
     7
 10
6622.9154838839
 20
7014.7860494061
 30
0.0
  0
VERTEX
  5
7C1
  8
0
  6
CONTINUOUS
 62
     7
 10
6621.567561593
 20
7016.4307503065
 30
0.0
  0
VERTEX
  5
7C2
  8
0
  6
CONTINUOUS
 62
     7
 10
6620.1294666736
 20
7018.0728654217
 30
0.0
  0
VERTEX
  5
7C3
  8
0
  6
CONTINUOUS
 62
     7
 10
6618.3767610952
 20
7019.9318717131
 30
0.0
  0
VERTEX
  5
7C4
  8
0
  6
CONTINUOUS
 62
     7
 10
6616.923920956
 20
7021.364973045
 30
0.0
  0
VERTEX
  5
7C5
  8
0
  6
CONTINUOUS
 62
     7
 10
6615.4520804073
 20
7022.725578448
 30
0.0
  0
VERTEX
  5
7C6
  8
0
  6
CONTINUOUS
 62
     7
 10
6613.9943830565
 20
7023.9893252343
 30
0.0
  0
VERTEX
  5
7C7
  8
0
  6
CONTINUOUS
 62
     7
 10
6612.3907704957
 20
7025.2901908558
 30
0.0
  0
VERTEX
  5
7C8
  8
0
  6
CONTINUOUS
 62
     7
 10
6610.1526975738
 20
7026.9615622875
 30
0.0
  0
VERTEX
  5
7C9
  8
0
  6
CONTINUOUS
 62
     7
 10
6607.1971787016
 20
7028.9353479921
 30
0.0
  0
VERTEX
  5
7CA
  8
0
  6
CONTINUOUS
 62
     7
 10
6603.4615629969
 20
7031.0917500102
 30
0.0
  0
SEQEND
  5
A35
  8
0
  6
CONTINUOUS
 62
     7
  0
LINE
  5
248
  8
0
  6
CONTINUOUS
 62
     7
 10
6638.3970439488
 20
6982.2298524699
 30
0.0
 11
6638.3191774622
 21
6982.5295968777
 31
0.0
  0
POLYLINE
  5
249
  8
0
  6
CONTINUOUS
 62
     7
 66
     1
 10
0.0
 20
0.0
 30
0.0
 70
   128
  0
VERTEX
  5
7CB
  8
0
  6
CONTINUOUS
 62
     7
 10
6644.2631013255
 20
6928.0242578275
 30
0.0
  0
VERTEX
  5
7CC
  8
0
  6
CONTINUOUS
 62
     7
 10
6643.9698144763
 20
6936.4475289072
 30
0.0
  0
VERTEX
  5
7CD
  8
0
  6
CONTINUOUS
 62
     7
 10
6643.5951200416
 20
6944.0935151256
 30
0.0
  0
VERTEX
  5
7CE
  8
0
  6
CONTINUOUS
 62
     7
 10
6643.1374353203
 20
6950.9660589728
 30
0.0
  0
VERTEX
  5
7CF
  8
0
  6
CONTINUOUS
 62
     7
 10
6642.6055618193
 20
6957.0815459961
 30
0.0
  0
VERTEX
  5
7D0
  8
0
  6
CONTINUOUS
 62
     7
 10
6642.0160954951
 20
6962.4656383176
 30
0.0
  0
VERTEX
  5
7D1
  8
0
  6
CONTINUOUS
 62
     7
 10
6641.3910616383
 20
6967.1502910158
 30
0.0
  0
VERTEX
  5
7D2
  8
0
  6
CONTINUOUS
 62
     7
 10
6640.7557739835
 20
6971.1710491199
 30
0.0
  0
VERTEX
  5
7D3
  8
0
  6
CONTINUOUS
 62
     7
 10
6640.1369183074
 20
6974.5646230698
 30
0.0
  0
VERTEX
  5
7D4
  8
0
  6
CONTINUOUS
 62
     7
 10
6639.5608611787
 20
6977.3667413128
 30
0.0
  0
VERTEX
  5
7D5
  8
0
  6
CONTINUOUS
 62
     7
 10
6639.0521846861
 20
6979.6102801331
 30
0.0
  0
VERTEX
  5
7D6
  8
0
  6
CONTINUOUS
 62
     7
 10
6638.6324480867
 20
6981.3236721995
 30
0.0
  0
VERTEX
  5
7D7
  8
0
  6
CONTINUOUS
 62
     7
 10
6638.3970439488
 20
6982.2298524699
 30
0.0
  0
SEQEND
  5
A36
  8
0
  6
CONTINUOUS
 62
     7
  0
POLYLINE
  5
24A
  8
0
  6
CONTINUOUS
 62
     7
 66
     1
 10
0.0
 20
0.0
 30
0.0
 70
   128
  0
VERTEX
  5
7D8
  8
0
  6
CONTINUOUS
 62
     7
 10
6526.8657669084
 20
6993.5438485979
 30
0.0
  0
VERTEX
  5
7D9
  8
0
  6
CONTINUOUS
 62
     7
 10
6527.3186884122
 20
6993.3278859953
 30
0.0
  0
VERTEX
  5
7DA
  8
0
  6
CONTINUOUS
 62
     7
 10
6527.5762244642
 20
6993.2072613014
 30
0.0
  0
SEQEND
  5
A37
  8
0
  6
CONTINUOUS
 62
     7
  0
ARC
  5
24B
  8
0
  6
CONTINUOUS
 62
     7
 10
6584.3825579248
 20
7130.8803442645
 30
0.0
 40
148.5683569477755
 50
239.6413624897
 51
241.8059916371
  0
POLYLINE
  5
24C
  8
0
  6
CONTINUOUS
 62
     7
 66
     1
 10
0.0
 20
0.0
 30
0.0
 70
   128
  0
VERTEX
  5
7DB
  8
0
  6
CONTINUOUS
 62
     7
 10
6527.579153577
 20
6993.2087343467
 30
0.0
  0
VERTEX
  5
7DC
  8
0
  6
CONTINUOUS
 62
     7
 10
6528.3148842806
 20
6992.8663171298
 30
0.0
  0
VERTEX
  5
7DD
  8
0
  6
CONTINUOUS
 62
     7
 10
6530.5597341839
 20
6991.8462444226
 30
0.0
  0
SEQEND
  5
A38
  8
0
  6
CONTINUOUS
 62
     7
  0
LINE
  5
24D
  8
0
  6
CONTINUOUS
 62
     7
 10
6530.564888634
 20
6991.8708587926
 30
0.0
 11
6530.8329916751
 21
6991.7617558384
 31
0.0
  0
POLYLINE
  5
24E
  8
0
  6
CONTINUOUS
 62
     7
 66
     1
 10
0.0
 20
0.0
 30
0.0
 70
   128
  0
VERTEX
  5
7DE
  8
0
  6
CONTINUOUS
 62
     7
 10
6604.2435655973
 20
7030.6403352719
 30
0.0
  0
VERTEX
  5
7DF
  8
0
  6
CONTINUOUS
 62
     7
 10
6601.7826411321
 20
7032.0864056428
 30
0.0
  0
VERTEX
  5
7E0
  8
0
  6
CONTINUOUS
 62
     7
 10
6599.0346163256
 20
7033.4918558589
 30
0.0
  0
VERTEX
  5
7E1
  8
0
  6
CONTINUOUS
 62
     7
 10
6597.0500923733
 20
7034.4023375407
 30
0.0
  0
VERTEX
  5
7E2
  8
0
  6
CONTINUOUS
 62
     7
 10
6595.5831958016
 20
7035.0234262609
 30
0.0
  0
VERTEX
  5
7E3
  8
0
  6
CONTINUOUS
 62
     7
 10
6594.1391804182
 20
7035.5943189979
 30
0.0
  0
VERTEX
  5
7E4
  8
0
  6
CONTINUOUS
 62
     7
 10
6592.7105434561
 20
7036.121753845
 30
0.0
  0
VERTEX
  5
7E5
  8
0
  6
CONTINUOUS
 62
     7
 10
6590.4729851593
 20
7036.8779107969
 30
0.0
  0
VERTEX
  5
7E6
  8
0
  6
CONTINUOUS
 62
     7
 10
6588.0222007567
 20
7037.6156040031
 30
0.0
  0
VERTEX
  5
7E7
  8
0
  6
CONTINUOUS
 62
     7
 10
6585.2351297534
 20
7038.3499386374
 30
0.0
  0
VERTEX
  5
7E8
  8
0
  6
CONTINUOUS
 62
     7
 10
6582.0394637125
 20
7039.0675834523
 30
0.0
  0
VERTEX
  5
7E9
  8
0
  6
CONTINUOUS
 62
     7
 10
6579.1167698939
 20
7039.6140229702
 30
0.0
  0
VERTEX
  5
7EA
  8
0
  6
CONTINUOUS
 62
     7
 10
6576.8371679755
 20
7039.9688813798
 30
0.0
  0
VERTEX
  5
7EB
  8
0
  6
CONTINUOUS
 62
     7
 10
6574.7334457176
 20
7040.2416694218
 30
0.0
  0
VERTEX
  5
7EC
  8
0
  6
CONTINUOUS
 62
     7
 10
6572.6143678543
 20
7040.4640173333
 30
0.0
  0
VERTEX
  5
7ED
  8
0
  6
CONTINUOUS
 62
     7
 10
6571.5391652751
 20
7040.5568989672
 30
0.0
  0
VERTEX
  5
7EE
  8
0
  6
CONTINUOUS
 62
     7
 10
6570.4515445426
 20
7040.6373007856
 30
0.0
  0
VERTEX
  5
7EF
  8
0
  6
CONTINUOUS
 62
     7
 10
6569.3511784395
 20
7040.7048495266
 30
0.0
  0
VERTEX
  5
7F0
  8
0
  6
CONTINUOUS
 62
     7
 10
6567.9747828816
 20
7040.769926641
 30
0.0
  0
VERTEX
  5
7F1
  8
0
  6
CONTINUOUS
 62
     7
 10
6565.3810016111
 20
7040.8344314066
 30
0.0
  0
VERTEX
  5
7F2
  8
0
  6
CONTINUOUS
 62
     7
 10
6561.9378969425
 20
7040.8040320735
 30
0.0
  0
VERTEX
  5
7F3
  8
0
  6
CONTINUOUS
 62
     7
 10
6557.6764449196
 20
7040.5853834285
 30
0.0
  0
SEQEND
  5
A39
  8
0
  6
CONTINUOUS
 62
     7
  0
ARC
  5
24F
  8
0
  6
CONTINUOUS
 62
     7
 10
6550.2619867278
 20
7077.7816699068
 30
0.0
 40
85.5463508381023
 50
231.4598217115
 51
241.3866077663
  0
ARC
  5
250
  8
0
  6
CONTINUOUS
 62
     7
 10
6738.660856698
 20
6596.8600169488
 30
0.0
 40
482.7227375664582
 50
116.2408265363
 51
120.0991737648
  0
LINE
  5
251
  8
0
  6
CONTINUOUS
 62
     7
 10
6556.0984093741
 20
7040.4335485164
 30
0.0
 11
6555.3421081615
 21
7040.3156869312
 31
0.0
  0
ARC
  5
252
  8
0
  6
CONTINUOUS
 62
     7
 10
6569.4571934179
 20
6956.1665642576
 30
0.0
 40
85.34603492951837
 50
100.2999056632
 51
113.8861920106
  0
POLYLINE
  5
253
  8
0
  6
CONTINUOUS
 62
     7
 66
     1
 10
0.0
 20
0.0
 30
0.0
 70
   128
  0
VERTEX
  5
7F4
  8
0
  6
CONTINUOUS
 62
     7
 10
6495.9471054315
 20
7011.8261488225
 30
0.0
  0
VERTEX
  5
7F5
  8
0
  6
CONTINUOUS
 62
     7
 10
6496.4098930667
 20
7011.3650451819
 30
0.0
  0
VERTEX
  5
7F6
  8
0
  6
CONTINUOUS
 62
     7
 10
6496.9291765286
 20
7010.8979888114
 30
0.0
  0
SEQEND
  5
A3A
  8
0
  6
CONTINUOUS
 62
     7
  0
POLYLINE
  5
254
  8
0
  6
CONTINUOUS
 62
     7
 66
     1
 10
0.0
 20
0.0
 30
0.0
 70
   128
  0
VERTEX
  5
7F7
  8
0
  6
CONTINUOUS
 62
     7
 10
6496.594557193
 20
7014.4697694909
 30
0.0
  0
VERTEX
  5
7F8
  8
0
  6
CONTINUOUS
 62
     7
 10
6496.3398086905
 20
7014.333237811
 30
0.0
  0
VERTEX
  5
7F9
  8
0
  6
CONTINUOUS
 62
     7
 10
6495.9166720074
 20
7013.8718714668
 30
0.0
  0
SEQEND
  5
A3B
  8
0
  6
CONTINUOUS
 62
     7
  0
ARC
  5
255
  8
0
  6
CONTINUOUS
 62
     7
 10
6497.0738952171
 20
7012.8738838002
 30
0.0
 40
1.530248491443237
 50
139.1747496571
 51
206.1185457149
  0
POLYLINE
  5
256
  8
0
  6
CONTINUOUS
 62
     7
 66
     1
 10
0.0
 20
0.0
 30
0.0
 70
   128
  0
VERTEX
  5
7FA
  8
0
  6
CONTINUOUS
 62
     7
 10
6571.6491419266
 20
6986.437120019
 30
0.0
  0
VERTEX
  5
7FB
  8
0
  6
CONTINUOUS
 62
     7
 10
6571.8687383098
 20
6985.9089264258
 30
0.0
  0
VERTEX
  5
7FC
  8
0
  6
CONTINUOUS
 62
     7
 10
6572.2303206302
 20
6984.9730094766
 30
0.0
  0
VERTEX
  5
7FD
  8
0
  6
CONTINUOUS
 62
     7
 10
6572.6078946593
 20
6983.8860335727
 30
0.0
  0
VERTEX
  5
7FE
  8
0
  6
CONTINUOUS
 62
     7
 10
6572.9175625321
 20
6982.8585766307
 30
0.0
  0
VERTEX
  5
7FF
  8
0
  6
CONTINUOUS
 62
     7
 10
6573.1330644771
 20
6982.0223043732
 30
0.0
  0
VERTEX
  5
800
  8
0
  6
CONTINUOUS
 62
     7
 10
6573.4401787415
 20
6980.5038637917
 30
0.0
  0
VERTEX
  5
801
  8
0
  6
CONTINUOUS
 62
     7
 10
6573.7130251409
 20
6978.4677975204
 30
0.0
  0
VERTEX
  5
802
  8
0
  6
CONTINUOUS
 62
     7
 10
6573.9388449405
 20
6975.525413412
 30
0.0
  0
VERTEX
  5
803
  8
0
  6
CONTINUOUS
 62
     7
 10
6574.0752688612
 20
6971.6589725458
 30
0.0
  0
VERTEX
  5
804
  8
0
  6
CONTINUOUS
 62
     7
 10
6574.1210724401
 20
6967.6230545088
 30
0.0
  0
VERTEX
  5
805
  8
0
  6
CONTINUOUS
 62
     7
 10
6574.1253933162
 20
6963.6513174208
 30
0.0
  0
VERTEX
  5
806
  8
0
  6
CONTINUOUS
 62
     7
 10
6574.1159625395
 20
6959.3455094855
 30
0.0
  0
VERTEX
  5
807
  8
0
  6
CONTINUOUS
 62
     7
 10
6574.1095558569
 20
6954.7805052381
 30
0.0
  0
VERTEX
  5
808
  8
0
  6
CONTINUOUS
 62
     7
 10
6574.1210877585
 20
6949.9137922591
 30
0.0
  0
VERTEX
  5
809
  8
0
  6
CONTINUOUS
 62
     7
 10
6574.1435990132
 20
6946.6514128131
 30
0.0
  0
VERTEX
  5
80A
  8
0
  6
CONTINUOUS
 62
     7
 10
6574.1870720885
 20
6942.8391834831
 30
0.0
  0
VERTEX
  5
80B
  8
0
  6
CONTINUOUS
 62
     7
 10
6574.2622989595
 20
6938.4043599177
 30
0.0
  0
VERTEX
  5
80C
  8
0
  6
CONTINUOUS
 62
     7
 10
6574.3834950052
 20
6933.2611329129
 30
0.0
  0
SEQEND
  5
A3C
  8
0
  6
CONTINUOUS
 62
     7
  0
POLYLINE
  5
257
  8
0
  6
CONTINUOUS
 62
     7
 66
     1
 10
0.0
 20
0.0
 30
0.0
 70
   128
  0
VERTEX
  5
80D
  8
0
  6
CONTINUOUS
 62
     7
 10
6639.5472828041
 20
6932.8771713618
 30
0.0
  0
VERTEX
  5
80E
  8
0
  6
CONTINUOUS
 62
     7
 10
6640.0346102124
 20
6933.7778466407
 30
0.0
  0
VERTEX
  5
80F
  8
0
  6
CONTINUOUS
 62
     7
 10
6640.250692214
 20
6934.9413417585
 30
0.0
  0
SEQEND
  5
A3D
  8
0
  6
CONTINUOUS
 62
     7
  0
POLYLINE
  5
258
  8
0
  6
CONTINUOUS
 62
     7
 66
     1
 10
0.0
 20
0.0
 30
0.0
 70
   128
  0
VERTEX
  5
810
  8
0
  6
CONTINUOUS
 62
     7
 10
6639.5472828041
 20
6932.8771713618
 30
0.0
  0
VERTEX
  5
811
  8
0
  6
CONTINUOUS
 62
     7
 10
6638.6902906674
 20
6932.3923277207
 30
0.0
  0
VERTEX
  5
812
  8
0
  6
CONTINUOUS
 62
     7
 10
6637.8605375064
 20
6932.1610403771
 30
0.0
  0
VERTEX
  5
813
  8
0
  6
CONTINUOUS
 62
     7
 10
6637.1067802032
 20
6932.1968999389
 30
0.0
  0
VERTEX
  5
814
  8
0
  6
CONTINUOUS
 62
     7
 10
6636.4733100698
 20
6932.4977992728
 30
0.0
  0
VERTEX
  5
815
  8
0
  6
CONTINUOUS
 62
     7
 10
6635.997350259
 20
6933.0460573213
 30
0.0
  0
VERTEX
  5
816
  8
0
  6
CONTINUOUS
 62
     7
 10
6635.7068685055
 20
6933.809458054
 30
0.0
  0
VERTEX
  5
817
  8
0
  6
CONTINUOUS
 62
     7
 10
6635.6189337227
 20
6934.7431435043
 30
0.0
  0
VERTEX
  5
818
  8
0
  6
CONTINUOUS
 62
     7
 10
6635.7387130204
 20
6935.7922496552
 30
0.0
  0
VERTEX
  5
819
  8
0
  6
CONTINUOUS
 62
     7
 10
6636.0591680824
 20
6936.8951302877
 30
0.0
  0
VERTEX
  5
81A
  8
0
  6
CONTINUOUS
 62
     7
 10
6636.5614687429
 20
6937.9869793564
 30
0.0
  0
VERTEX
  5
81B
  8
0
  6
CONTINUOUS
 62
     7
 10
6637.2160994599
 20
6939.0036390384
 30
0.0
  0
VERTEX
  5
81C
  8
0
  6
CONTINUOUS
 62
     7
 10
6637.98459367
 20
6939.8853696921
 30
0.0
  0
VERTEX
  5
81D
  8
0
  6
CONTINUOUS
 62
     7
 10
6638.8217941101
 20
6940.5803602012
 30
0.0
  0
SEQEND
  5
A3E
  8
0
  6
CONTINUOUS
 62
     7
  0
POLYLINE
  5
259
  8
0
  6
CONTINUOUS
 62
     7
 66
     1
 10
0.0
 20
0.0
 30
0.0
 70
   128
  0
VERTEX
  5
81E
  8
0
  6
CONTINUOUS
 62
     7
 10
6640.0225898572
 20
6937.3633168263
 30
0.0
  0
VERTEX
  5
81F
  8
0
  6
CONTINUOUS
 62
     7
 10
6639.5471195841
 20
6938.9539884571
 30
0.0
  0
VERTEX
  5
820
  8
0
  6
CONTINUOUS
 62
     7
 10
6638.8217941101
 20
6940.5803602012
 30
0.0
  0
SEQEND
  5
A3F
  8
0
  6
CONTINUOUS
 62
     7
  0
ARC
  5
25A
  8
0
  6
CONTINUOUS
 62
     7
 10
6631.251210175
 20
6935.3929909141
 30
0.0
 40
8.989954712320733
 50
4.4823375622
 51
12.6602717071
  0
ARC
  5
25B
  8
0
  6
CONTINUOUS
 62
     7
 10
6633.4509883918
 20
6935.4089482757
 30
0.0
 40
6.797447984302423
 50
355.9418638103
 51
5.797446676
  0
ARC
  5
25C
  8
0
  6
CONTINUOUS
 62
     7
 10
6639.2612643027
 20
6936.3415430739
 30
0.0
 40
1.714506143322795
 50
304.4603616438
 51
305.246273664
  0
ARC
  5
25D
  8
0
  6
CONTINUOUS
 62
     7
 10
6631.2193631473
 20
6935.3825061173
 30
0.0
 40
9.023325970572328
 50
4.5294207758
 51
12.6809081929
  0
ARC
  5
25E
  8
0
  6
CONTINUOUS
 62
     7
 10
6633.444381711
 20
6935.4134327991
 30
0.0
 40
6.804356643242201
 50
355.908133706
 51
5.7494839013
  0
POLYLINE
  5
25F
  8
0
  6
CONTINUOUS
 62
     7
 66
     1
 10
0.0
 20
0.0
 30
0.0
 70
   128
  0
VERTEX
  5
821
  8
0
  6
CONTINUOUS
 62
     7
 10
6638.8217941101
 20
6940.5803602012
 30
0.0
  0
VERTEX
  5
822
  8
0
  6
CONTINUOUS
 62
     7
 10
6639.6691161805
 20
6941.0439638763
 30
0.0
  0
VERTEX
  5
823
  8
0
  6
CONTINUOUS
 62
     7
 10
6640.4868229612
 20
6941.258320881
 30
0.0
  0
VERTEX
  5
824
  8
0
  6
CONTINUOUS
 62
     7
 10
6641.2279163267
 20
6941.211110934
 30
0.0
  0
VERTEX
  5
825
  8
0
  6
CONTINUOUS
 62
     7
 10
6641.8498015478
 20
6940.9050474518
 30
0.0
  0
VERTEX
  5
826
  8
0
  6
CONTINUOUS
 62
     7
 10
6642.3167354455
 20
6940.3577215934
 30
0.0
  0
VERTEX
  5
827
  8
0
  6
CONTINUOUS
 62
     7
 10
6642.6018807498
 20
6939.6005911991
 30
0.0
  0
VERTEX
  5
828
  8
0
  6
CONTINUOUS
 62
     7
 10
6642.6888485847
 20
6938.6771727348
 30
0.0
  0
VERTEX
  5
829
  8
0
  6
CONTINUOUS
 62
     7
 10
6642.5726404286
 20
6937.6405401603
 30
0.0
  0
VERTEX
  5
82A
  8
0
  6
CONTINUOUS
 62
     7
 10
6642.259935406
 20
6936.5502744758
 30
0.0
  0
VERTEX
  5
82B
  8
0
  6
CONTINUOUS
 62
     7
 10
6641.7687064019
 20
6935.4690392724
 30
0.0
  0
VERTEX
  5
82C
  8
0
  6
CONTINUOUS
 62
     7
 10
6641.1271870605
 20
6934.4589791096
 30
0.0
  0
VERTEX
  5
82D
  8
0
  6
CONTINUOUS
 62
     7
 10
6640.3722490419
 20
6933.5781477244
 30
0.0
  0
VERTEX
  5
82E
  8
0
  6
CONTINUOUS
 62
     7
 10
6639.5472828041
 20
6932.8771713618
 30
0.0
  0
SEQEND
  5
A40
  8
0
  6
CONTINUOUS
 62
     7
  0
POLYLINE
  5
260
  8
0
  6
CONTINUOUS
 62
     7
 66
     1
 10
0.0
 20
0.0
 30
0.0
 70
   128
  0
VERTEX
  5
82F
  8
0
  6
CONTINUOUS
 62
     7
 10
6639.1890008264
 20
6962.3879863663
 30
0.0
  0
VERTEX
  5
830
  8
0
  6
CONTINUOUS
 62
     7
 10
6639.3077719576
 20
6962.5290548184
 30
0.0
  0
VERTEX
  5
831
  8
0
  6
CONTINUOUS
 62
     7
 10
6639.3644602617
 20
6962.577047477
 30
0.0
  0
VERTEX
  5
832
  8
0
  6
CONTINUOUS
 62
     7
 10
6639.4190616742
 20
6962.6075783116
 30
0.0
  0
VERTEX
  5
833
  8
0
  6
CONTINUOUS
 62
     7
 10
6639.471472562
 20
6962.6198069077
 30
0.0
  0
VERTEX
  5
834
  8
0
  6
CONTINUOUS
 62
     7
 10
6639.5218239818
 20
6962.6149406621
 30
0.0
  0
VERTEX
  5
835
  8
0
  6
CONTINUOUS
 62
     7
 10
6639.6169898508
 20
6962.5597759436
 30
0.0
  0
SEQEND
  5
A41
  8
0
  6
CONTINUOUS
 62
     7
  0
POLYLINE
  5
261
  8
0
  6
CONTINUOUS
 62
     7
 66
     1
 10
0.0
 20
0.0
 30
0.0
 70
   128
  0
VERTEX
  5
836
  8
0
  6
CONTINUOUS
 62
     7
 10
6634.1101296339
 20
6934.1165993802
 30
0.0
  0
VERTEX
  5
837
  8
0
  6
CONTINUOUS
 62
     7
 10
6634.110127417
 20
6934.1166470259
 30
0.0
  0
VERTEX
  5
838
  8
0
  6
CONTINUOUS
 62
     7
 10
6634.0611632411
 20
6934.9030798797
 30
0.0
  0
VERTEX
  5
839
  8
0
  6
CONTINUOUS
 62
     7
 10
6633.9182918713
 20
6936.4455748829
 30
0.0
  0
VERTEX
  5
83A
  8
0
  6
CONTINUOUS
 62
     7
 10
6633.7607465106
 20
6937.9775424743
 30
0.0
  0
VERTEX
  5
83B
  8
0
  6
CONTINUOUS
 62
     7
 10
6633.6328934012
 20
6939.5305065752
 30
0.0
  0
VERTEX
  5
83C
  8
0
  6
CONTINUOUS
 62
     7
 10
6633.5832667596
 20
6941.1417615274
 30
0.0
  0
VERTEX
  5
83D
  8
0
  6
CONTINUOUS
 62
     7
 10
6633.6532404031
 20
6942.8316424092
 30
0.0
  0
VERTEX
  5
83E
  8
0
  6
CONTINUOUS
 62
     7
 10
6633.8016222556
 20
6944.3378986252
 30
0.0
  0
VERTEX
  5
83F
  8
0
  6
CONTINUOUS
 62
     7
 10
6634.0116189947
 20
6945.8733400489
 30
0.0
  0
VERTEX
  5
840
  8
0
  6
CONTINUOUS
 62
     7
 10
6634.263076376
 20
6947.4308456398
 30
0.0
  0
VERTEX
  5
841
  8
0
  6
CONTINUOUS
 62
     7
 10
6634.5563275507
 20
6949.0032968583
 30
0.0
  0
VERTEX
  5
842
  8
0
  6
CONTINUOUS
 62
     7
 10
6634.9052717632
 20
6950.6211184632
 30
0.0
  0
VERTEX
  5
843
  8
0
  6
CONTINUOUS
 62
     7
 10
6635.3088374857
 20
6952.2539661621
 30
0.0
  0
VERTEX
  5
844
  8
0
  6
CONTINUOUS
 62
     7
 10
6635.7679818321
 20
6953.905359867
 30
0.0
  0
VERTEX
  5
845
  8
0
  6
CONTINUOUS
 62
     7
 10
6636.2857740166
 20
6955.5663740582
 30
0.0
  0
VERTEX
  5
846
  8
0
  6
CONTINUOUS
 62
     7
 10
6636.8870235794
 20
6957.2680899609
 30
0.0
  0
VERTEX
  5
847
  8
0
  6
CONTINUOUS
 62
     7
 10
6637.5552016476
 20
6958.9717870994
 30
0.0
  0
VERTEX
  5
848
  8
0
  6
CONTINUOUS
 62
     7
 10
6638.1588623112
 20
6960.3891339202
 30
0.0
  0
VERTEX
  5
849
  8
0
  6
CONTINUOUS
 62
     7
 10
6638.485043905
 20
6961.0956441738
 30
0.0
  0
VERTEX
  5
84A
  8
0
  6
CONTINUOUS
 62
     7
 10
6638.8377254003
 20
6961.7961802778
 30
0.0
  0
VERTEX
  5
84B
  8
0
  6
CONTINUOUS
 62
     7
 10
6639.0036857043
 20
6962.096447143
 30
0.0
  0
VERTEX
  5
84C
  8
0
  6
CONTINUOUS
 62
     7
 10
6639.1890008264
 20
6962.3879863663
 30
0.0
  0
SEQEND
  5
A42
  8
0
  6
CONTINUOUS
 62
     7
  0
LINE
  5
262
  8
0
  6
CONTINUOUS
 62
     7
 10
6634.1101296339
 20
6934.1165993802
 30
0.0
 11
6629.0896749504
 21
6937.014846178
 31
0.0
  0
POLYLINE
  5
263
  8
0
  6
CONTINUOUS
 62
     7
 66
     1
 10
0.0
 20
0.0
 30
0.0
 70
   128
  0
VERTEX
  5
84D
  8
0
  6
CONTINUOUS
 62
     7
 10
6639.713701036
 20
6961.9211648931
 30
0.0
  0
VERTEX
  5
84E
  8
0
  6
CONTINUOUS
 62
     7
 10
6639.5066829626
 20
6961.568244668
 30
0.0
  0
VERTEX
  5
84F
  8
0
  6
CONTINUOUS
 62
     7
 10
6639.1442895936
 20
6960.857366559
 30
0.0
  0
VERTEX
  5
850
  8
0
  6
CONTINUOUS
 62
     7
 10
6638.4726450063
 20
6959.3594380214
 30
0.0
  0
VERTEX
  5
851
  8
0
  6
CONTINUOUS
 62
     7
 10
6637.8560317793
 20
6957.8442515267
 30
0.0
  0
VERTEX
  5
852
  8
0
  6
CONTINUOUS
 62
     7
 10
6637.2815379503
 20
6956.3097521827
 30
0.0
  0
VERTEX
  5
853
  8
0
  6
CONTINUOUS
 62
     7
 10
6636.7635616227
 20
6954.7697370486
 30
0.0
  0
VERTEX
  5
854
  8
0
  6
CONTINUOUS
 62
     7
 10
6635.8900972567
 20
6951.6983353501
 30
0.0
  0
VERTEX
  5
855
  8
0
  6
CONTINUOUS
 62
     7
 10
6635.2013848902
 20
6948.6381315805
 30
0.0
  0
VERTEX
  5
856
  8
0
  6
CONTINUOUS
 62
     7
 10
6634.6788574875
 20
6945.5673687399
 30
0.0
  0
VERTEX
  5
857
  8
0
  6
CONTINUOUS
 62
     7
 10
6634.3417951973
 20
6942.5491103315
 30
0.0
  0
VERTEX
  5
858
  8
0
  6
CONTINUOUS
 62
     7
 10
6634.2941773134
 20
6941.4447868411
 30
0.0
  0
VERTEX
  5
859
  8
0
  6
CONTINUOUS
 62
     7
 10
6634.300677702
 20
6940.3668058754
 30
0.0
  0
VERTEX
  5
85A
  8
0
  6
CONTINUOUS
 62
     7
 10
6634.355556708
 20
6939.3103205437
 30
0.0
  0
VERTEX
  5
85B
  8
0
  6
CONTINUOUS
 62
     7
 10
6634.4416073144
 20
6938.2731143815
 30
0.0
  0
VERTEX
  5
85C
  8
0
  6
CONTINUOUS
 62
     7
 10
6634.6510335641
 20
6936.2173030085
 30
0.0
  0
VERTEX
  5
85D
  8
0
  6
CONTINUOUS
 62
     7
 10
6634.7473859395
 20
6935.1836945296
 30
0.0
  0
VERTEX
  5
85E
  8
0
  6
CONTINUOUS
 62
     7
 10
6634.8170498093
 20
6934.1312838382
 30
0.0
  0
SEQEND
  5
A43
  8
0
  6
CONTINUOUS
 62
     7
  0
ARC
  5
264
  8
0
  6
CONTINUOUS
 62
     7
 10
6634.4503564949
 20
6934.7609984862
 30
0.0
 40
0.728700572719109
 50
242.1670492975
 51
300.2129548836
  0
ARC
  5
265
  8
0
  6
CONTINUOUS
 62
     7
 10
6638.3032118601
 20
6960.8640848406
 30
0.0
 40
1.762639484616209
 50
36.8494365096
 51
59.8321084752
  0
LINE
  5
266
  8
0
  6
CONTINUOUS
 62
     7
 10
6634.8170498093
 20
6934.1312838382
 30
0.0
 11
6634.8239381156
 21
6933.7413913607
 31
0.0
  0
POLYLINE
  5
267
  8
0
  6
CONTINUOUS
 62
     7
 66
     1
 10
0.0
 20
0.0
 30
0.0
 70
   128
  0
VERTEX
  5
85F
  8
0
  6
CONTINUOUS
 62
     7
 10
6643.480316528
 20
6939.6504927048
 30
0.0
  0
VERTEX
  5
860
  8
0
  6
CONTINUOUS
 62
     7
 10
6643.0963691836
 20
6944.0889301774
 30
0.0
  0
VERTEX
  5
861
  8
0
  6
CONTINUOUS
 62
     7
 10
6642.6837051368
 20
6948.5072609301
 30
0.0
  0
VERTEX
  5
862
  8
0
  6
CONTINUOUS
 62
     7
 10
6642.1002861579
 20
6952.9118578345
 30
0.0
  0
VERTEX
  5
863
  8
0
  6
CONTINUOUS
 62
     7
 10
6641.2687620964
 20
6957.1389654444
 30
0.0
  0
VERTEX
  5
864
  8
0
  6
CONTINUOUS
 62
     7
 10
6640.1023021
 20
6961.0590358041
 30
0.0
  0
VERTEX
  5
865
  8
0
  6
CONTINUOUS
 62
     7
 10
6639.9288922838
 20
6961.5104881691
 30
0.0
  0
VERTEX
  5
866
  8
0
  6
CONTINUOUS
 62
     7
 10
6639.713701036
 20
6961.9211648931
 30
0.0
  0
SEQEND
  5
A44
  8
0
  6
CONTINUOUS
 62
     7
  0
LINE
  5
268
  8
0
  6
CONTINUOUS
 62
     7
 10
6643.4959211825
 20
6939.4912898794
 30
0.0
 11
6643.4803428073
 21
6939.6502236592
 31
0.0
  0
POLYLINE
  5
269
  8
0
  6
CONTINUOUS
 62
     7
 66
     1
 10
0.0
 20
0.0
 30
0.0
 70
   128
  0
VERTEX
  5
867
  8
0
  6
CONTINUOUS
 62
     7
 10
6634.8239381156
 20
6933.7413913607
 30
0.0
  0
VERTEX
  5
868
  8
0
  6
CONTINUOUS
 62
     7
 10
6635.0187256806
 20
6932.7658001809
 30
0.0
  0
VERTEX
  5
869
  8
0
  6
CONTINUOUS
 62
     7
 10
6635.4159303476
 20
6931.9831526946
 30
0.0
  0
VERTEX
  5
86A
  8
0
  6
CONTINUOUS
 62
     7
 10
6635.9961086744
 20
6931.4317600355
 30
0.0
  0
VERTEX
  5
86B
  8
0
  6
CONTINUOUS
 62
     7
 10
6636.7308605324
 20
6931.1386132539
 30
0.0
  0
VERTEX
  5
86C
  8
0
  6
CONTINUOUS
 62
     7
 10
6637.584219312
 20
6931.1180620868
 30
0.0
  0
VERTEX
  5
86D
  8
0
  6
CONTINUOUS
 62
     7
 10
6638.514412513
 20
6931.371112528
 30
0.0
  0
VERTEX
  5
86E
  8
0
  6
CONTINUOUS
 62
     7
 10
6639.4759065376
 20
6931.885377584
 30
0.0
  0
VERTEX
  5
86F
  8
0
  6
CONTINUOUS
 62
     7
 10
6640.4216355909
 20
6932.6356836262
 30
0.0
  0
VERTEX
  5
870
  8
0
  6
CONTINUOUS
 62
     7
 10
6641.3053055843
 20
6933.5853026569
 30
0.0
  0
VERTEX
  5
871
  8
0
  6
CONTINUOUS
 62
     7
 10
6642.083660263
 20
6934.6877501704
 30
0.0
  0
VERTEX
  5
872
  8
0
  6
CONTINUOUS
 62
     7
 10
6642.7185986292
 20
6935.8890606015
 30
0.0
  0
VERTEX
  5
873
  8
0
  6
CONTINUOUS
 62
     7
 10
6643.1790400125
 20
6937.1304289772
 30
0.0
  0
VERTEX
  5
874
  8
0
  6
CONTINUOUS
 62
     7
 10
6643.4424454902
 20
6938.3510894603
 30
0.0
  0
VERTEX
  5
875
  8
0
  6
CONTINUOUS
 62
     7
 10
6643.4959211825
 20
6939.4912898794
 30
0.0
  0
SEQEND
  5
A45
  8
0
  6
CONTINUOUS
 62
     7
  0
ARC
  5
26A
  8
0
  6
CONTINUOUS
 62
     7
 10
6639.3438860317
 20
6962.1917886414
 30
0.0
 40
0.4582579519843824
 50
323.8040275859
 51
53.4188375355
  0
LINE
  5
26B
  8
0
  6
CONTINUOUS
 62
     7
 10
6634.1171583508
 20
6933.7187593694
 30
0.0
 11
6629.0918070764
 21
6936.6198329091
 31
0.0
  0
ARC
  5
26C
  8
0
  6
CONTINUOUS
 62
     7
 10
6634.4505691945
 20
6934.3540054509
 30
0.0
 40
0.7174262155181383
 50
242.3071279502
 51
301.3609868366
  0
LINE
  5
26D
  8
0
  6
CONTINUOUS
 62
     7
 10
6634.1171583508
 20
6933.7187593694
 30
0.0
 11
6634.1101296339
 21
6934.1165993802
 31
0.0
  0
ARC
  5
26E
  8
0
  6
CONTINUOUS
 62
     7
 10
6643.3576316672
 20
6939.7331109936
 30
0.0
 40
0.2785703525738282
 50
299.7638144573
 51
358.6714945633
  0
LINE
  5
26F
  8
0
  6
CONTINUOUS
 62
     7
 10
6582.6011386107
 20
6959.7137836389
 30
0.0
 11
6582.6011386107
 21
6948.6783670439
 31
0.0
  0
LINE
  5
270
  8
0
  6
CONTINUOUS
 62
     7
 10
6582.6011386107
 20
6948.6783670439
 30
0.0
 11
6581.843168249
 21
6947.8648987581
 31
0.0
  0
LINE
  5
271
  8
0
  6
CONTINUOUS
 62
     7
 10
6586.3273721485
 20
6948.1614014345
 30
0.0
 11
6594.0923304937
 21
6943.6787863969
 31
0.0
  0
LINE
  5
272
  8
0
  6
CONTINUOUS
 62
     7
 10
6582.6011386107
 20
6948.6783670439
 30
0.0
 11
6583.5610545787
 21
6948.124219351
 31
0.0
  0
ARC
  5
273
  8
0
  6
CONTINUOUS
 62
     7
 10
6582.0183607588
 20
6944.8262031229
 30
0.0
 40
3.640990972569342
 50
10.1037469687
 51
64.9314913634
  0
LINE
  5
274
  8
0
  6
CONTINUOUS
 62
     7
 10
6585.603642968
 20
6945.4560475307
 30
0.0
 11
6585.6028861854
 21
6945.4649462079
 31
0.0
  0
ARC
  5
275
  8
0
  6
CONTINUOUS
 62
     7
 10
6586.1630514918
 20
6942.7780345295
 30
0.0
 40
2.735816428627758
 50
101.7988204044
 51
149.8041512984
  0
ARC
  5
276
  8
0
  6
CONTINUOUS
 62
     7
 10
6586.5477569799
 20
6948.6325466099
 30
0.0
 40
0.5201415675047733
 50
190.1037469682
 51
244.9314913635
  0
LINE
  5
277
  8
0
  6
CONTINUOUS
 62
     7
 10
6586.0356819189
 20
6948.5412975978
 30
0.0
 11
6585.603642968
 21
6953.6214556496
 31
0.0
  0
LINE
  5
278
  8
0
  6
CONTINUOUS
 62
     7
 10
6585.603642968
 20
6953.6214556496
 30
0.0
 11
6585.603642968
 21
6945.4560475307
 31
0.0
  0
POLYLINE
  5
279
  8
0
  6
CONTINUOUS
 62
     7
 66
     1
 10
0.0
 20
0.0
 30
0.0
 70
   128
  0
VERTEX
  5
876
  8
0
  6
CONTINUOUS
 62
     7
 10
6535.2034019524
 20
6990.9782599768
 30
0.0
  0
VERTEX
  5
877
  8
0
  6
CONTINUOUS
 62
     7
 10
6535.1030655247
 20
6990.9394469013
 30
0.0
  0
VERTEX
  5
878
  8
0
  6
CONTINUOUS
 62
     7
 10
6534.6352406475
 20
6990.9072804123
 30
0.0
  0
VERTEX
  5
879
  8
0
  6
CONTINUOUS
 62
     7
 10
6533.9251903654
 20
6990.9992737876
 30
0.0
  0
VERTEX
  5
87A
  8
0
  6
CONTINUOUS
 62
     7
 10
6532.9957362788
 20
6991.2124702843
 30
0.0
  0
VERTEX
  5
87B
  8
0
  6
CONTINUOUS
 62
     7
 10
6531.8767518067
 20
6991.5400175916
 30
0.0
  0
VERTEX
  5
87C
  8
0
  6
CONTINUOUS
 62
     7
 10
6530.6042020308
 20
6991.9713880697
 30
0.0
  0
VERTEX
  5
87D
  8
0
  6
CONTINUOUS
 62
     7
 10
6529.218987748
 20
6992.4927171163
 30
0.0
  0
VERTEX
  5
87E
  8
0
  6
CONTINUOUS
 62
     7
 10
6527.765630885
 20
6993.087248787
 30
0.0
  0
VERTEX
  5
87F
  8
0
  6
CONTINUOUS
 62
     7
 10
6526.2908435272
 20
6993.7358743448
 30
0.0
  0
VERTEX
  5
880
  8
0
  6
CONTINUOUS
 62
     7
 10
6524.8420265539
 20
6994.4177464304
 30
0.0
  0
VERTEX
  5
881
  8
0
  6
CONTINUOUS
 62
     7
 10
6523.4657461346
 20
6995.110949114
 30
0.0
  0
VERTEX
  5
882
  8
0
  6
CONTINUOUS
 62
     7
 10
6522.2062370544
 20
6995.793202291
 30
0.0
  0
VERTEX
  5
883
  8
0
  6
CONTINUOUS
 62
     7
 10
6522.0000042793
 20
6995.9103462189
 30
0.0
  0
SEQEND
  5
A46
  8
0
  6
CONTINUOUS
 62
     7
  0
POLYLINE
  5
27A
  8
0
  6
CONTINUOUS
 62
     7
 66
     1
 10
0.0
 20
0.0
 30
0.0
 70
   128
  0
VERTEX
  5
884
  8
0
  6
CONTINUOUS
 62
     7
 10
6532.1540972739
 20
6989.3452278795
 30
0.0
  0
VERTEX
  5
885
  8
0
  6
CONTINUOUS
 62
     7
 10
6532.1532902569
 20
6989.3447974203
 30
0.0
  0
VERTEX
  5
886
  8
0
  6
CONTINUOUS
 62
     7
 10
6531.7928884079
 20
6989.2885007223
 30
0.0
  0
VERTEX
  5
887
  8
0
  6
CONTINUOUS
 62
     7
 10
6531.1777028963
 20
6989.3612798125
 30
0.0
  0
VERTEX
  5
888
  8
0
  6
CONTINUOUS
 62
     7
 10
6530.3346202808
 20
6989.5599538952
 30
0.0
  0
VERTEX
  5
889
  8
0
  6
CONTINUOUS
 62
     7
 10
6529.3004873174
 20
6989.8758399599
 30
0.0
  0
VERTEX
  5
88A
  8
0
  6
CONTINUOUS
 62
     7
 10
6528.1205005788
 20
6990.2951322697
 30
0.0
  0
VERTEX
  5
88B
  8
0
  6
CONTINUOUS
 62
     7
 10
6526.8462311478
 20
6990.7995057385
 30
0.0
  0
VERTEX
  5
88C
  8
0
  6
CONTINUOUS
 62
     7
 10
6525.5333707131
 20
6991.3669168257
 30
0.0
  0
VERTEX
  5
88D
  8
0
  6
CONTINUOUS
 62
     7
 10
6524.2392975754
 20
6991.9725669439
 30
0.0
  0
VERTEX
  5
88E
  8
0
  6
CONTINUOUS
 62
     7
 10
6523.0205689406
 20
6992.5899862768
 30
0.0
  0
VERTEX
  5
88F
  8
0
  6
CONTINUOUS
 62
     7
 10
6521.9304490982
 20
6993.1921906368
 30
0.0
  0
VERTEX
  5
890
  8
0
  6
CONTINUOUS
 62
     7
 10
6521.0165815161
 20
6993.7528608036
 30
0.0
  0
VERTEX
  5
891
  8
0
  6
CONTINUOUS
 62
     7
 10
6520.318906593
 20
6994.2474928006
 30
0.0
  0
VERTEX
  5
892
  8
0
  6
CONTINUOUS
 62
     7
 10
6519.8679160708
 20
6994.6544688361
 30
0.0
  0
VERTEX
  5
893
  8
0
  6
CONTINUOUS
 62
     7
 10
6519.6856375725
 20
6994.9453545025
 30
0.0
  0
SEQEND
  5
A47
  8
0
  6
CONTINUOUS
 62
     7
  0
POLYLINE
  5
27B
  8
0
  6
CONTINUOUS
 62
     7
 66
     1
 10
0.0
 20
0.0
 30
0.0
 70
   128
  0
VERTEX
  5
894
  8
0
  6
CONTINUOUS
 62
     7
 10
6638.3397250005
 20
6982.2092406733
 30
0.0
  0
VERTEX
  5
895
  8
0
  6
CONTINUOUS
 62
     7
 10
6637.8251684571
 20
6984.3142601177
 30
0.0
  0
VERTEX
  5
896
  8
0
  6
CONTINUOUS
 62
     7
 10
6635.9338962748
 20
6990.0996411579
 30
0.0
  0
VERTEX
  5
897
  8
0
  6
CONTINUOUS
 62
     7
 10
6633.6939530852
 20
6995.4061430371
 30
0.0
  0
VERTEX
  5
898
  8
0
  6
CONTINUOUS
 62
     7
 10
6631.0734177674
 20
7000.1922530437
 30
0.0
  0
VERTEX
  5
899
  8
0
  6
CONTINUOUS
 62
     7
 10
6628.0404868114
 20
7004.4158209446
 30
0.0
  0
VERTEX
  5
89A
  8
0
  6
CONTINUOUS
 62
     7
 10
6624.5634437961
 20
7008.0342244272
 30
0.0
  0
VERTEX
  5
89B
  8
0
  6
CONTINUOUS
 62
     7
 10
6620.6104179482
 20
7011.0057102457
 30
0.0
  0
VERTEX
  5
89C
  8
0
  6
CONTINUOUS
 62
     7
 10
6616.8210336591
 20
7013.0420780274
 30
0.0
  0
VERTEX
  5
89D
  8
0
  6
CONTINUOUS
 62
     7
 10
6612.6481734844
 20
7014.6778618447
 30
0.0
  0
VERTEX
  5
89E
  8
0
  6
CONTINUOUS
 62
     7
 10
6608.0522914004
 20
7015.9285961546
 30
0.0
  0
VERTEX
  5
89F
  8
0
  6
CONTINUOUS
 62
     7
 10
6602.9595979417
 20
7016.7343077914
 30
0.0
  0
VERTEX
  5
8A0
  8
0
  6
CONTINUOUS
 62
     7
 10
6597.2944257185
 20
7017.0300386611
 30
0.0
  0
VERTEX
  5
8A1
  8
0
  6
CONTINUOUS
 62
     7
 10
6590.9805334537
 20
7016.7495615021
 30
0.0
  0
VERTEX
  5
8A2
  8
0
  6
CONTINUOUS
 62
     7
 10
6583.9420330576
 20
7015.8274571735
 30
0.0
  0
VERTEX
  5
8A3
  8
0
  6
CONTINUOUS
 62
     7
 10
6577.8538823643
 20
7014.6099104478
 30
0.0
  0
VERTEX
  5
8A4
  8
0
  6
CONTINUOUS
 62
     7
 10
6571.2345794249
 20
7012.9237755459
 30
0.0
  0
VERTEX
  5
8A5
  8
0
  6
CONTINUOUS
 62
     7
 10
6564.0472544476
 20
7010.7371834145
 30
0.0
  0
VERTEX
  5
8A6
  8
0
  6
CONTINUOUS
 62
     7
 10
6556.2550374824
 20
7008.0182646809
 30
0.0
  0
VERTEX
  5
8A7
  8
0
  6
CONTINUOUS
 62
     7
 10
6547.8210585806
 20
7004.7351499746
 30
0.0
  0
VERTEX
  5
8A8
  8
0
  6
CONTINUOUS
 62
     7
 10
6538.7084477933
 20
7000.855969925
 30
0.0
  0
VERTEX
  5
8A9
  8
0
  6
CONTINUOUS
 62
     7
 10
6528.8803351716
 20
6996.3488551616
 30
0.0
  0
SEQEND
  5
A48
  8
0
  6
CONTINUOUS
 62
     7
  0
ARC
  5
27C
  8
0
  6
CONTINUOUS
 62
     7
 10
6639.165575561
 20
7230.1392607274
 30
0.0
 40
258.4971720973902
 50
240.0979239724
 51
244.7454840159
  0
POLYLINE
  5
27D
  8
0
  6
CONTINUOUS
 62
     7
 66
     1
 10
0.0
 20
0.0
 30
0.0
 70
   128
  0
VERTEX
  5
8AA
  8
0
  6
CONTINUOUS
 62
     7
 10
6603.5160327449
 20
7031.0250993899
 30
0.0
  0
VERTEX
  5
8AB
  8
0
  6
CONTINUOUS
 62
     7
 10
6603.1815029072
 20
7031.2381466949
 30
0.0
  0
VERTEX
  5
8AC
  8
0
  6
CONTINUOUS
 62
     7
 10
6598.7950969569
 20
7033.0425519913
 30
0.0
  0
VERTEX
  5
8AD
  8
0
  6
CONTINUOUS
 62
     7
 10
6594.7476881844
 20
7034.1111821633
 30
0.0
  0
VERTEX
  5
8AE
  8
0
  6
CONTINUOUS
 62
     7
 10
6590.4581682717
 20
7034.7848708898
 30
0.0
  0
VERTEX
  5
8AF
  8
0
  6
CONTINUOUS
 62
     7
 10
6585.8536274455
 20
7035.0245756415
 30
0.0
  0
VERTEX
  5
8B0
  8
0
  6
CONTINUOUS
 62
     7
 10
6580.8498064667
 20
7034.7798803488
 30
0.0
  0
VERTEX
  5
8B1
  8
0
  6
CONTINUOUS
 62
     7
 10
6575.3625139377
 20
7034.0006174332
 30
0.0
  0
VERTEX
  5
8B2
  8
0
  6
CONTINUOUS
 62
     7
 10
6569.3075730819
 20
7032.6366428878
 30
0.0
  0
VERTEX
  5
8B3
  8
0
  6
CONTINUOUS
 62
     7
 10
6562.6007915276
 20
7030.6377758491
 30
0.0
  0
VERTEX
  5
8B4
  8
0
  6
CONTINUOUS
 62
     7
 10
6556.819048853
 20
7028.5891585852
 30
0.0
  0
VERTEX
  5
8B5
  8
0
  6
CONTINUOUS
 62
     7
 10
6550.5420890831
 20
7026.093294631
 30
0.0
  0
VERTEX
  5
8B6
  8
0
  6
CONTINUOUS
 62
     7
 10
6543.7290765472
 20
7023.1258496009
 30
0.0
  0
VERTEX
  5
8B7
  8
0
  6
CONTINUOUS
 62
     7
 10
6536.3391755589
 20
7019.6624891459
 30
0.0
  0
VERTEX
  5
8B8
  8
0
  6
CONTINUOUS
 62
     7
 10
6528.3315504313
 20
7015.6788789169
 30
0.0
  0
VERTEX
  5
8B9
  8
0
  6
CONTINUOUS
 62
     7
 10
6519.665365478
 20
7011.1506845649
 30
0.0
  0
VERTEX
  5
8BA
  8
0
  6
CONTINUOUS
 62
     7
 10
6510.2997850123
 20
7006.0535717408
 30
0.0
  0
SEQEND
  5
A49
  8
0
  6
CONTINUOUS
 62
     7
  0
POLYLINE
  5
27E
  8
0
  6
CONTINUOUS
 62
     7
 66
     1
 10
0.0
 20
0.0
 30
0.0
 70
   128
  0
VERTEX
  5
8BB
  8
0
  6
CONTINUOUS
 62
     7
 10
6628.0642560779
 20
6918.6543706372
 30
0.0
  0
VERTEX
  5
8BC
  8
0
  6
CONTINUOUS
 62
     7
 10
6627.9430447528
 20
6926.0569297704
 30
0.0
  0
VERTEX
  5
8BD
  8
0
  6
CONTINUOUS
 62
     7
 10
6627.8257435669
 20
6932.7138318762
 30
0.0
  0
VERTEX
  5
8BE
  8
0
  6
CONTINUOUS
 62
     7
 10
6627.692815749
 20
6938.6871590732
 30
0.0
  0
VERTEX
  5
8BF
  8
0
  6
CONTINUOUS
 62
     7
 10
6627.524724528
 20
6944.0389934798
 30
0.0
  0
VERTEX
  5
8C0
  8
0
  6
CONTINUOUS
 62
     7
 10
6627.3019372709
 20
6948.8314216635
 30
0.0
  0
VERTEX
  5
8C1
  8
0
  6
CONTINUOUS
 62
     7
 10
6627.0056360939
 20
6953.1272986329
 30
0.0
  0
VERTEX
  5
8C2
  8
0
  6
CONTINUOUS
 62
     7
 10
6626.5385347142
 20
6957.6405609966
 30
0.0
  0
VERTEX
  5
8C3
  8
0
  6
CONTINUOUS
 62
     7
 10
6625.9172986069
 20
6961.6595972446
 30
0.0
  0
VERTEX
  5
8C4
  8
0
  6
CONTINUOUS
 62
     7
 10
6625.1139314213
 20
6965.2903264907
 30
0.0
  0
VERTEX
  5
8C5
  8
0
  6
CONTINUOUS
 62
     7
 10
6624.1004368066
 20
6968.638667849
 30
0.0
  0
VERTEX
  5
8C6
  8
0
  6
CONTINUOUS
 62
     7
 10
6622.2563967909
 20
6973.1073934577
 30
0.0
  0
VERTEX
  5
8C7
  8
0
  6
CONTINUOUS
 62
     7
 10
6620.0257039496
 20
6977.255516453
 30
0.0
  0
VERTEX
  5
8C8
  8
0
  6
CONTINUOUS
 62
     7
 10
6617.56968879
 20
6981.0217390488
 30
0.0
  0
VERTEX
  5
8C9
  8
0
  6
CONTINUOUS
 62
     7
 10
6615.0471007434
 20
6984.3408620034
 30
0.0
  0
VERTEX
  5
8CA
  8
0
  6
CONTINUOUS
 62
     7
 10
6612.59225718
 20
6987.1656224225
 30
0.0
  0
VERTEX
  5
8CB
  8
0
  6
CONTINUOUS
 62
     7
 10
6611.4824130329
 20
6988.3266455326
 30
0.0
  0
VERTEX
  5
8CC
  8
0
  6
CONTINUOUS
 62
     7
 10
6610.4310369117
 20
6989.3608786822
 30
0.0
  0
VERTEX
  5
8CD
  8
0
  6
CONTINUOUS
 62
     7
 10
6609.4213723174
 20
6990.291395177
 30
0.0
  0
VERTEX
  5
8CE
  8
0
  6
CONTINUOUS
 62
     7
 10
6608.3120599784
 20
6991.2525440274
 30
0.0
  0
VERTEX
  5
8CF
  8
0
  6
CONTINUOUS
 62
     7
 10
6606.9093544015
 20
6992.4260082249
 30
0.0
  0
VERTEX
  5
8D0
  8
0
  6
CONTINUOUS
 62
     7
 10
6605.9245703229
 20
6993.2378787331
 30
0.0
  0
VERTEX
  5
8D1
  8
0
  6
CONTINUOUS
 62
     7
 10
6604.6983632855
 20
6994.1268261894
 30
0.0
  0
VERTEX
  5
8D2
  8
0
  6
CONTINUOUS
 62
     7
 10
6603.0945295892
 20
6995.0075847782
 30
0.0
  0
VERTEX
  5
8D3
  8
0
  6
CONTINUOUS
 62
     7
 10
6600.9875033848
 20
6995.7953205555
 30
0.0
  0
VERTEX
  5
8D4
  8
0
  6
CONTINUOUS
 62
     7
 10
6598.436695371
 20
6996.4190843706
 30
0.0
  0
VERTEX
  5
8D5
  8
0
  6
CONTINUOUS
 62
     7
 10
6595.6955538529
 20
6996.8200378011
 30
0.0
  0
VERTEX
  5
8D6
  8
0
  6
CONTINUOUS
 62
     7
 10
6592.9960872825
 20
6996.940221585
 30
0.0
  0
VERTEX
  5
8D7
  8
0
  6
CONTINUOUS
 62
     7
 10
6590.0760096992
 20
6996.6427964422
 30
0.0
  0
VERTEX
  5
8D8
  8
0
  6
CONTINUOUS
 62
     7
 10
6587.1583321518
 20
6995.7848227466
 30
0.0
  0
VERTEX
  5
8D9
  8
0
  6
CONTINUOUS
 62
     7
 10
6584.309227705
 20
6994.4715310801
 30
0.0
  0
VERTEX
  5
8DA
  8
0
  6
CONTINUOUS
 62
     7
 10
6581.6974814071
 20
6992.9501260281
 30
0.0
  0
VERTEX
  5
8DB
  8
0
  6
CONTINUOUS
 62
     7
 10
6579.4937381106
 20
6991.4721240349
 30
0.0
  0
VERTEX
  5
8DC
  8
0
  6
CONTINUOUS
 62
     7
 10
6577.8574204534
 20
6990.2732846819
 30
0.0
  0
VERTEX
  5
8DD
  8
0
  6
CONTINUOUS
 62
     7
 10
6576.779123975
 20
6989.4667447185
 30
0.0
  0
VERTEX
  5
8DE
  8
0
  6
CONTINUOUS
 62
     7
 10
6575.7230635771
 20
6988.740852229
 30
0.0
  0
VERTEX
  5
8DF
  8
0
  6
CONTINUOUS
 62
     7
 10
6572.3257869175
 20
6986.7585448202
 30
0.0
  0
VERTEX
  5
8E0
  8
0
  6
CONTINUOUS
 62
     7
 10
6569.0318222799
 20
6985.1938218962
 30
0.0
  0
VERTEX
  5
8E1
  8
0
  6
CONTINUOUS
 62
     7
 10
6566.3693287857
 20
6984.1137061066
 30
0.0
  0
VERTEX
  5
8E2
  8
0
  6
CONTINUOUS
 62
     7
 10
6564.2399049702
 20
6983.3418044987
 30
0.0
  0
SEQEND
  5
A4A
  8
0
  6
CONTINUOUS
 62
     7
  0
POLYLINE
  5
27F
  8
0
  6
CONTINUOUS
 62
     7
 66
     1
 10
0.0
 20
0.0
 30
0.0
 70
   128
  0
VERTEX
  5
8E3
  8
0
  6
CONTINUOUS
 62
     7
 10
6531.7650684829
 20
6992.5511549752
 30
0.0
  0
VERTEX
  5
8E4
  8
0
  6
CONTINUOUS
 62
     7
 10
6541.6312844521
 20
6989.5647089519
 30
0.0
  0
VERTEX
  5
8E5
  8
0
  6
CONTINUOUS
 62
     7
 10
6547.0542264315
 20
6987.979084316
 30
0.0
  0
VERTEX
  5
8E6
  8
0
  6
CONTINUOUS
 62
     7
 10
6552.3027459273
 20
6986.5014575442
 30
0.0
  0
VERTEX
  5
8E7
  8
0
  6
CONTINUOUS
 62
     7
 10
6557.3829881407
 20
6985.1261680895
 30
0.0
  0
VERTEX
  5
8E8
  8
0
  6
CONTINUOUS
 62
     7
 10
6564.2398690609
 20
6983.3418136613
 30
0.0
  0
VERTEX
  5
8E9
  8
0
  6
CONTINUOUS
 62
     7
 10
6564.2399049702
 20
6983.3418044987
 30
0.0
  0
SEQEND
  5
A4B
  8
0
  6
CONTINUOUS
 62
     7
  0
ARC
  5
280
  8
0
  6
CONTINUOUS
 62
     7
 10
6532.1429066473
 20
6993.8265887983
 30
0.0
 40
1.330222957065993
 50
177.3557331812
 51
253.4984532029
  0
POLYLINE
  5
281
  8
0
  6
CONTINUOUS
 62
     7
 66
     1
 10
0.0
 20
0.0
 30
0.0
 70
   128
  0
VERTEX
  5
8EA
  8
0
  6
CONTINUOUS
 62
     7
 10
6621.384750706
 20
7006.5677501578
 30
0.0
  0
VERTEX
  5
8EB
  8
0
  6
CONTINUOUS
 62
     7
 10
6621.3460403366
 20
7006.59528924
 30
0.0
  0
VERTEX
  5
8EC
  8
0
  6
CONTINUOUS
 62
     7
 10
6617.8056154179
 20
7008.7589540869
 30
0.0
  0
VERTEX
  5
8ED
  8
0
  6
CONTINUOUS
 62
     7
 10
6613.9603794301
 20
7010.5000318379
 30
0.0
  0
VERTEX
  5
8EE
  8
0
  6
CONTINUOUS
 62
     7
 10
6609.7649444781
 20
7011.903254281
 30
0.0
  0
VERTEX
  5
8EF
  8
0
  6
CONTINUOUS
 62
     7
 10
6605.3102250482
 20
7012.9449963906
 30
0.0
  0
VERTEX
  5
8F0
  8
0
  6
CONTINUOUS
 62
     7
 10
6601.5868656115
 20
7013.4457366646
 30
0.0
  0
VERTEX
  5
8F1
  8
0
  6
CONTINUOUS
 62
     7
 10
6597.7029592557
 20
7013.6462753596
 30
0.0
  0
VERTEX
  5
8F2
  8
0
  6
CONTINUOUS
 62
     7
 10
6593.6908596952
 20
7013.5741284572
 30
0.0
  0
VERTEX
  5
8F3
  8
0
  6
CONTINUOUS
 62
     7
 10
6589.5935849098
 20
7013.2620742669
 30
0.0
  0
VERTEX
  5
8F4
  8
0
  6
CONTINUOUS
 62
     7
 10
6587.0528311109
 20
7012.9632216852
 30
0.0
  0
VERTEX
  5
8F5
  8
0
  6
CONTINUOUS
 62
     7
 10
6581.9288023952
 20
7012.13579501
 30
0.0
  0
VERTEX
  5
8F6
  8
0
  6
CONTINUOUS
 62
     7
 10
6576.7558898445
 20
7011.0348256647
 30
0.0
  0
VERTEX
  5
8F7
  8
0
  6
CONTINUOUS
 62
     7
 10
6571.580047679
 20
7009.7045135113
 30
0.0
  0
VERTEX
  5
8F8
  8
0
  6
CONTINUOUS
 62
     7
 10
6566.3925334478
 20
7008.1726508808
 30
0.0
  0
VERTEX
  5
8F9
  8
0
  6
CONTINUOUS
 62
     7
 10
6556.0034051509
 20
7004.6037294387
 30
0.0
  0
VERTEX
  5
8FA
  8
0
  6
CONTINUOUS
 62
     7
 10
6545.7048047214
 20
7000.5261447512
 30
0.0
  0
VERTEX
  5
8FB
  8
0
  6
CONTINUOUS
 62
     7
 10
6538.2427486393
 20
6997.2971297228
 30
0.0
  0
VERTEX
  5
8FC
  8
0
  6
CONTINUOUS
 62
     7
 10
6530.8141000795
 20
6993.887958343
 30
0.0
  0
SEQEND
  5
A4C
  8
0
  6
CONTINUOUS
 62
     7
  0
ARC
  5
282
  8
0
  6
CONTINUOUS
 62
     7
 10
6514.2768685685
 20
7160.2748165777
 30
0.0
 40
267.0730414188196
 50
295.2173608394
 51
298.8956548348
  0
ARC
  5
283
  8
0
  6
CONTINUOUS
 62
     7
 10
6558.0153266944
 20
7055.8577695338
 30
0.0
 40
66.26135616459288
 50
243.9128985933
 51
245.3374228245
  0
POLYLINE
  5
284
  8
0
  6
CONTINUOUS
 62
     7
 66
     1
 10
0.0
 20
0.0
 30
0.0
 70
   128
  0
VERTEX
  5
8FD
  8
0
  6
CONTINUOUS
 62
     7
 10
6528.8803351716
 20
6996.3488551616
 30
0.0
  0
VERTEX
  5
8FE
  8
0
  6
CONTINUOUS
 62
     7
 10
6528.8783418207
 20
6996.3474564699
 30
0.0
  0
VERTEX
  5
8FF
  8
0
  6
CONTINUOUS
 62
     7
 10
6528.877757241
 20
6996.346683448
 30
0.0
  0
SEQEND
  5
A4D
  8
0
  6
CONTINUOUS
 62
     7
  0
ARC
  5
285
  8
0
  6
CONTINUOUS
 62
     7
 10
6642.6910397031
 20
6927.8848411477
 30
0.0
 40
1.569143426363467
 50
294.0625495568
 51
5.08140699
  0
POLYLINE
  5
286
  8
0
  6
CONTINUOUS
 62
     7
 66
     1
 10
0.0
 20
0.0
 30
0.0
 70
   128
  0
VERTEX
  5
900
  8
0
  6
CONTINUOUS
 62
     7
 10
6530.3662126479
 20
6995.6407137007
 30
0.0
  0
VERTEX
  5
901
  8
0
  6
CONTINUOUS
 62
     7
 10
6537.7042744319
 20
6998.9251596857
 30
0.0
  0
VERTEX
  5
902
  8
0
  6
CONTINUOUS
 62
     7
 10
6545.080978656
 20
7002.0315204105
 30
0.0
  0
VERTEX
  5
903
  8
0
  6
CONTINUOUS
 62
     7
 10
6550.2833334174
 20
7004.0887716531
 30
0.0
  0
VERTEX
  5
904
  8
0
  6
CONTINUOUS
 62
     7
 10
6555.5025781292
 20
7006.0276729855
 30
0.0
  0
VERTEX
  5
905
  8
0
  6
CONTINUOUS
 62
     7
 10
6565.9972581462
 20
7009.4839089494
 30
0.0
  0
VERTEX
  5
906
  8
0
  6
CONTINUOUS
 62
     7
 10
6576.5303938881
 20
7012.2151318686
 30
0.0
  0
VERTEX
  5
907
  8
0
  6
CONTINUOUS
 62
     7
 10
6581.7681983517
 20
7013.2244421631
 30
0.0
  0
VERTEX
  5
908
  8
0
  6
CONTINUOUS
 62
     7
 10
6586.9748983288
 20
7013.9426827695
 30
0.0
  0
VERTEX
  5
909
  8
0
  6
CONTINUOUS
 62
     7
 10
6589.5512320126
 20
7014.1761995011
 30
0.0
  0
VERTEX
  5
90A
  8
0
  6
CONTINUOUS
 62
     7
 10
6593.6887541312
 20
7014.3490399981
 30
0.0
  0
VERTEX
  5
90B
  8
0
  6
CONTINUOUS
 62
     7
 10
6597.7481858007
 20
7014.2530867613
 30
0.0
  0
VERTEX
  5
90C
  8
0
  6
CONTINUOUS
 62
     7
 10
6601.6360390301
 20
7013.9143736328
 30
0.0
  0
VERTEX
  5
90D
  8
0
  6
CONTINUOUS
 62
     7
 10
6605.3939736879
 20
7013.3510180061
 30
0.0
  0
VERTEX
  5
90E
  8
0
  6
CONTINUOUS
 62
     7
 10
6607.6751817947
 20
7012.8791295625
 30
0.0
  0
VERTEX
  5
90F
  8
0
  6
CONTINUOUS
 62
     7
 10
6609.8856630256
 20
7012.2938798636
 30
0.0
  0
VERTEX
  5
910
  8
0
  6
CONTINUOUS
 62
     7
 10
6614.038521373
 20
7010.7724397752
 30
0.0
  0
VERTEX
  5
911
  8
0
  6
CONTINUOUS
 62
     7
 10
6617.8597388607
 20
7008.8734099157
 30
0.0
  0
VERTEX
  5
912
  8
0
  6
CONTINUOUS
 62
     7
 10
6619.623586634
 20
7007.800687961
 30
0.0
  0
VERTEX
  5
913
  8
0
  6
CONTINUOUS
 62
     7
 10
6621.3097681224
 20
7006.6240188672
 30
0.0
  0
VERTEX
  5
914
  8
0
  6
CONTINUOUS
 62
     7
 10
6621.384750706
 20
7006.5677501578
 30
0.0
  0
SEQEND
  5
A4E
  8
0
  6
CONTINUOUS
 62
     7
  0
ARC
  5
287
  8
0
  6
CONTINUOUS
 62
     7
 10
6526.5975202205
 20
6993.7440843707
 30
0.0
 40
4.219033707815024
 50
1.9542318196
 51
26.7142494115
  0
POLYLINE
  5
288
  8
0
  6
CONTINUOUS
 62
     7
 66
     1
 10
0.0
 20
0.0
 30
0.0
 70
   128
  0
VERTEX
  5
915
  8
0
  6
CONTINUOUS
 62
     7
 10
6509.2940163324
 20
7002.6829725747
 30
0.0
  0
VERTEX
  5
916
  8
0
  6
CONTINUOUS
 62
     7
 10
6509.2885836207
 20
7002.6852087084
 30
0.0
  0
VERTEX
  5
917
  8
0
  6
CONTINUOUS
 62
     7
 10
6509.1378898462
 20
7002.8042296374
 30
0.0
  0
VERTEX
  5
918
  8
0
  6
CONTINUOUS
 62
     7
 10
6509.0159650458
 20
7002.9731245562
 30
0.0
  0
VERTEX
  5
919
  8
0
  6
CONTINUOUS
 62
     7
 10
6508.9330607348
 20
7003.1776669321
 30
0.0
  0
VERTEX
  5
91A
  8
0
  6
CONTINUOUS
 62
     7
 10
6508.8867595573
 20
7003.4237863977
 30
0.0
  0
VERTEX
  5
91B
  8
0
  6
CONTINUOUS
 62
     7
 10
6508.8809494187
 20
7003.6907870978
 30
0.0
  0
VERTEX
  5
91C
  8
0
  6
CONTINUOUS
 62
     7
 10
6508.915456986
 20
7003.9863953503
 30
0.0
  0
VERTEX
  5
91D
  8
0
  6
CONTINUOUS
 62
     7
 10
6508.9873882764
 20
7004.2857976409
 30
0.0
  0
VERTEX
  5
91E
  8
0
  6
CONTINUOUS
 62
     7
 10
6509.0988171082
 20
7004.5976177787
 30
0.0
  0
VERTEX
  5
91F
  8
0
  6
CONTINUOUS
 62
     7
 10
6509.2404119731
 20
7004.8957192797
 30
0.0
  0
VERTEX
  5
920
  8
0
  6
CONTINUOUS
 62
     7
 10
6509.4162364738
 20
7005.1886407672
 30
0.0
  0
VERTEX
  5
921
  8
0
  6
CONTINUOUS
 62
     7
 10
6509.6115609398
 20
7005.4518294065
 30
0.0
  0
VERTEX
  5
922
  8
0
  6
CONTINUOUS
 62
     7
 10
6509.831979505
 20
7005.6928125987
 30
0.0
  0
VERTEX
  5
923
  8
0
  6
CONTINUOUS
 62
     7
 10
6510.0589785878
 20
7005.8913553134
 30
0.0
  0
VERTEX
  5
924
  8
0
  6
CONTINUOUS
 62
     7
 10
6510.2990881112
 20
7006.0531856658
 30
0.0
  0
SEQEND
  5
A4F
  8
0
  6
CONTINUOUS
 62
     7
  0
LINE
  5
289
  8
0
  6
CONTINUOUS
 62
     7
 10
6510.2990881112
 20
7006.0531856658
 30
0.0
 11
6510.2997850123
 21
7006.0535717408
 31
0.0
  0
ARC
  5
28A
  8
0
  6
CONTINUOUS
 62
     7
 10
6633.5587656187
 20
7220.7307760091
 30
0.0
 40
250.9722036748275
 50
241.5816734405
 51
244.8524316457
  0
ARC
  5
28B
  8
0
  6
CONTINUOUS
 62
     7
 10
6562.8715587463
 20
6986.0252930778
 30
0.0
 40
3.012222160240381
 50
252.7383299353
 51
297.0176343052
  0
LINE
  5
28C
  8
0
  6
CONTINUOUS
 62
     7
 10
6530.8261009177
 20
6991.7452449456
 30
0.0
 11
6530.7099751213
 21
6991.7994295192
 31
0.0
  0
POLYLINE
  5
28D
  8
0
  6
CONTINUOUS
 62
     7
 66
     1
 10
0.0
 20
0.0
 30
0.0
 70
   128
  0
VERTEX
  5
925
  8
0
  6
CONTINUOUS
 62
     7
 10
6561.9776666847
 20
6983.1487588637
 30
0.0
  0
VERTEX
  5
926
  8
0
  6
CONTINUOUS
 62
     7
 10
6559.1558342528
 20
6983.8524568216
 30
0.0
  0
VERTEX
  5
927
  8
0
  6
CONTINUOUS
 62
     7
 10
6556.2922283955
 20
6984.580743522
 30
0.0
  0
VERTEX
  5
928
  8
0
  6
CONTINUOUS
 62
     7
 10
6553.7721320194
 20
6985.2344066128
 30
0.0
  0
VERTEX
  5
929
  8
0
  6
CONTINUOUS
 62
     7
 10
6551.2141042686
 20
6985.9107130855
 30
0.0
  0
VERTEX
  5
92A
  8
0
  6
CONTINUOUS
 62
     7
 10
6545.9761959635
 20
6987.3374288901
 30
0.0
  0
VERTEX
  5
92B
  8
0
  6
CONTINUOUS
 62
     7
 10
6540.5582567404
 20
6988.8732823021
 30
0.0
  0
VERTEX
  5
92C
  8
0
  6
CONTINUOUS
 62
     7
 10
6535.6867696639
 20
6990.3031329694
 30
0.0
  0
VERTEX
  5
92D
  8
0
  6
CONTINUOUS
 62
     7
 10
6530.7099751213
 20
6991.7994295192
 30
0.0
  0
SEQEND
  5
A50
  8
0
  6
CONTINUOUS
 62
     7
  0
ARC
  5
28E
  8
0
  6
CONTINUOUS
 62
     7
 10
6519.5034170352
 20
6996.6105619337
 30
0.0
 40
10.90600449834497
 50
345.6861312969
 51
354.8980662064
  0
ARC
  5
28F
  8
0
  6
CONTINUOUS
 62
     7
 10
6530.6505350517
 20
6999.7868464401
 30
0.0
 40
5.901155336031253
 50
264.3626478079
 51
271.5882968028
  0
ARC
  5
290
  8
0
  6
CONTINUOUS
 62
     7
 10
6557.76449808
 20
7092.1107344185
 30
0.0
 40
98.27953419112254
 50
232.4310134612
 51
241.1208794621
  0
POLYLINE
  5
291
  8
0
  6
CONTINUOUS
 62
     7
 66
     1
 10
0.0
 20
0.0
 30
0.0
 70
   128
  0
VERTEX
  5
92E
  8
0
  6
CONTINUOUS
 62
     7
 10
6557.7627462861
 20
7040.5501237732
 30
0.0
  0
VERTEX
  5
92F
  8
0
  6
CONTINUOUS
 62
     7
 10
6554.8656829097
 20
7040.2695455314
 30
0.0
  0
VERTEX
  5
930
  8
0
  6
CONTINUOUS
 62
     7
 10
6550.5143167796
 20
7039.4084705106
 30
0.0
  0
VERTEX
  5
931
  8
0
  6
CONTINUOUS
 62
     7
 10
6545.6649051769
 20
7038.0207561194
 30
0.0
  0
VERTEX
  5
932
  8
0
  6
CONTINUOUS
 62
     7
 10
6541.4441070247
 20
7036.5297768566
 30
0.0
  0
VERTEX
  5
933
  8
0
  6
CONTINUOUS
 62
     7
 10
6536.8123542904
 20
7034.6609199247
 30
0.0
  0
VERTEX
  5
934
  8
0
  6
CONTINUOUS
 62
     7
 10
6531.7241129441
 20
7032.3909726697
 30
0.0
  0
VERTEX
  5
935
  8
0
  6
CONTINUOUS
 62
     7
 10
6526.1338485641
 20
7029.6967222084
 30
0.0
  0
VERTEX
  5
936
  8
0
  6
CONTINUOUS
 62
     7
 10
6519.996026722
 20
7026.5549556547
 30
0.0
  0
VERTEX
  5
937
  8
0
  6
CONTINUOUS
 62
     7
 10
6513.2651129898
 20
7022.9424601222
 30
0.0
  0
VERTEX
  5
938
  8
0
  6
CONTINUOUS
 62
     7
 10
6505.8955729393
 20
7018.8360227247
 30
0.0
  0
VERTEX
  5
939
  8
0
  6
CONTINUOUS
 62
     7
 10
6497.8418721423
 20
7014.2124305759
 30
0.0
  0
SEQEND
  5
A51
  8
0
  6
CONTINUOUS
 62
     7
  0
POLYLINE
  5
292
  8
0
  6
CONTINUOUS
 62
     7
 66
     1
 10
0.0
 20
0.0
 30
0.0
 70
   128
  0
VERTEX
  5
93A
  8
0
  6
CONTINUOUS
 62
     7
 10
6497.8388530157
 20
7014.2110862307
 30
0.0
  0
VERTEX
  5
93B
  8
0
  6
CONTINUOUS
 62
     7
 10
6497.8412600969
 20
7014.212094549
 30
0.0
  0
VERTEX
  5
93C
  8
0
  6
CONTINUOUS
 62
     7
 10
6497.8418721423
 20
7014.2124305759
 30
0.0
  0
SEQEND
  5
A52
  8
0
  6
CONTINUOUS
 62
     7
  0
POLYLINE
  5
293
  8
0
  6
CONTINUOUS
 62
     7
 66
     1
 10
0.0
 20
0.0
 30
0.0
 70
   128
  0
VERTEX
  5
93D
  8
0
  6
CONTINUOUS
 62
     7
 10
6534.9016803119
 20
7034.1798489182
 30
0.0
  0
VERTEX
  5
93E
  8
0
  6
CONTINUOUS
 62
     7
 10
6528.1439516512
 20
7031.2028390844
 30
0.0
  0
VERTEX
  5
93F
  8
0
  6
CONTINUOUS
 62
     7
 10
6525.4311874695
 20
7029.8616838652
 30
0.0
  0
SEQEND
  5
A53
  8
0
  6
CONTINUOUS
 62
     7
  0
ARC
  5
294
  8
0
  6
CONTINUOUS
 62
     7
 10
6503.7059505407
 20
7021.5471288174
 30
0.0
 40
9.393633705983003
 50
226.9600232896
 51
231.3484626496
  0
ARC
  5
295
  8
0
  6
CONTINUOUS
 62
     7
 10
6497.7293154957
 20
7012.5808826184
 30
0.0
 40
2.145134759599909
 50
101.6889129748
 51
149.3887752862
  0
ARC
  5
296
  8
0
  6
CONTINUOUS
 62
     7
 10
6497.0396618595
 20
7012.7946539115
 30
0.0
 40
1.452391125629691
 50
142.7782815999
 51
221.5222418676
  0
POLYLINE
  5
297
  8
0
  6
CONTINUOUS
 62
     7
 66
     1
 10
0.0
 20
0.0
 30
0.0
 70
   128
  0
VERTEX
  5
940
  8
0
  6
CONTINUOUS
 62
     7
 10
6584.0660885464
 20
6920.0693376236
 30
0.0
  0
VERTEX
  5
941
  8
0
  6
CONTINUOUS
 62
     7
 10
6586.446086318
 20
6918.8217087613
 30
0.0
  0
VERTEX
  5
942
  8
0
  6
CONTINUOUS
 62
     7
 10
6589.0249167693
 20
6917.7135616767
 30
0.0
  0
VERTEX
  5
943
  8
0
  6
CONTINUOUS
 62
     7
 10
6591.7781486805
 20
6916.7553946888
 30
0.0
  0
VERTEX
  5
944
  8
0
  6
CONTINUOUS
 62
     7
 10
6594.6796985941
 20
6915.9562852414
 30
0.0
  0
VERTEX
  5
945
  8
0
  6
CONTINUOUS
 62
     7
 10
6597.7020779237
 20
6915.3238039053
 30
0.0
  0
VERTEX
  5
946
  8
0
  6
CONTINUOUS
 62
     7
 10
6600.8166533739
 20
6914.8639426567
 30
0.0
  0
VERTEX
  5
947
  8
0
  6
CONTINUOUS
 62
     7
 10
6603.9939182054
 20
6914.5810581106
 30
0.0
  0
VERTEX
  5
948
  8
0
  6
CONTINUOUS
 62
     7
 10
6607.2037717749
 20
6914.4778302471
 30
0.0
  0
VERTEX
  5
949
  8
0
  6
CONTINUOUS
 62
     7
 10
6610.4158047012
 20
6914.5552370222
 30
0.0
  0
VERTEX
  5
94A
  8
0
  6
CONTINUOUS
 62
     7
 10
6613.5995869562
 20
6914.8125451027
 30
0.0
  0
VERTEX
  5
94B
  8
0
  6
CONTINUOUS
 62
     7
 10
6616.7249561522
 20
6915.2473168138
 30
0.0
  0
VERTEX
  5
94C
  8
0
  6
CONTINUOUS
 62
     7
 10
6619.7623032925
 20
6915.8554332327
 30
0.0
  0
VERTEX
  5
94D
  8
0
  6
CONTINUOUS
 62
     7
 10
6622.6828532804
 20
6916.6311332106
 30
0.0
  0
VERTEX
  5
94E
  8
0
  6
CONTINUOUS
 62
     7
 10
6625.4589375271
 20
6917.5670679523
 30
0.0
  0
VERTEX
  5
94F
  8
0
  6
CONTINUOUS
 62
     7
 10
6628.0642560779
 20
6918.6543706372
 30
0.0
  0
SEQEND
  5
A54
  8
0
  6
CONTINUOUS
 62
     7
  0
POLYLINE
  5
298
  8
0
  6
CONTINUOUS
 62
     7
 66
     1
 10
0.0
 20
0.0
 30
0.0
 70
   128
  0
VERTEX
  5
950
  8
0
  6
CONTINUOUS
 62
     7
 10
6584.0660885464
 20
6920.0693376236
 30
0.0
  0
VERTEX
  5
951
  8
0
  6
CONTINUOUS
 62
     7
 10
6584.1670557678
 20
6925.8946213912
 30
0.0
  0
VERTEX
  5
952
  8
0
  6
CONTINUOUS
 62
     7
 10
6584.3123392098
 20
6931.2006186138
 30
0.0
  0
VERTEX
  5
953
  8
0
  6
CONTINUOUS
 62
     7
 10
6584.4880417426
 20
6936.0242546513
 30
0.0
  0
VERTEX
  5
954
  8
0
  6
CONTINUOUS
 62
     7
 10
6584.680266236
 20
6940.4024548634
 30
0.0
  0
SEQEND
  5
A55
  8
0
  6
CONTINUOUS
 62
     7
  0
POLYLINE
  5
299
  8
0
  6
CONTINUOUS
 62
     7
 66
     1
 10
0.0
 20
0.0
 30
0.0
 70
   128
  0
VERTEX
  5
955
  8
0
  6
CONTINUOUS
 62
     7
 10
6585.4250663077
 20
6958.828227026
 30
0.0
  0
VERTEX
  5
956
  8
0
  6
CONTINUOUS
 62
     7
 10
6586.6726321348
 20
6958.0551533355
 30
0.0
  0
VERTEX
  5
957
  8
0
  6
CONTINUOUS
 62
     7
 10
6587.9944252469
 20
6957.0688194998
 30
0.0
  0
VERTEX
  5
958
  8
0
  6
CONTINUOUS
 62
     7
 10
6589.2713772387
 20
6955.9509012081
 30
0.0
  0
VERTEX
  5
959
  8
0
  6
CONTINUOUS
 62
     7
 10
6590.5302883629
 20
6954.6628060855
 30
0.0
  0
VERTEX
  5
95A
  8
0
  6
CONTINUOUS
 62
     7
 10
6591.6839537822
 20
6953.262740213
 30
0.0
  0
VERTEX
  5
95B
  8
0
  6
CONTINUOUS
 62
     7
 10
6592.7155172915
 20
6951.728861369
 30
0.0
  0
VERTEX
  5
95C
  8
0
  6
CONTINUOUS
 62
     7
 10
6593.5413764797
 20
6950.1332057251
 30
0.0
  0
VERTEX
  5
95D
  8
0
  6
CONTINUOUS
 62
     7
 10
6594.1379395986
 20
6948.4526169042
 30
0.0
  0
VERTEX
  5
95E
  8
0
  6
CONTINUOUS
 62
     7
 10
6594.4312544246
 20
6946.8790902481
 30
0.0
  0
VERTEX
  5
95F
  8
0
  6
CONTINUOUS
 62
     7
 10
6594.4446130009
 20
6945.3073607062
 30
0.0
  0
VERTEX
  5
960
  8
0
  6
CONTINUOUS
 62
     7
 10
6594.1910466613
 20
6943.9264091107
 30
0.0
  0
VERTEX
  5
961
  8
0
  6
CONTINUOUS
 62
     7
 10
6593.6772001857
 20
6942.6374605842
 30
0.0
  0
VERTEX
  5
962
  8
0
  6
CONTINUOUS
 62
     7
 10
6592.9379720341
 20
6941.5229032959
 30
0.0
  0
VERTEX
  5
963
  8
0
  6
CONTINUOUS
 62
     7
 10
6591.9776944646
 20
6940.5851161993
 30
0.0
  0
VERTEX
  5
964
  8
0
  6
CONTINUOUS
 62
     7
 10
6590.8197869312
 20
6939.8694193499
 30
0.0
  0
VERTEX
  5
965
  8
0
  6
CONTINUOUS
 62
     7
 10
6589.4954022061
 20
6939.424658263
 30
0.0
  0
VERTEX
  5
966
  8
0
  6
CONTINUOUS
 62
     7
 10
6588.1131984831
 20
6939.3002638171
 30
0.0
  0
VERTEX
  5
967
  8
0
  6
CONTINUOUS
 62
     7
 10
6586.6567712471
 20
6939.5145750047
 30
0.0
  0
VERTEX
  5
968
  8
0
  6
CONTINUOUS
 62
     7
 10
6585.6607578398
 20
6939.8702377185
 30
0.0
  0
VERTEX
  5
969
  8
0
  6
CONTINUOUS
 62
     7
 10
6584.680266236
 20
6940.4024548634
 30
0.0
  0
SEQEND
  5
A56
  8
0
  6
CONTINUOUS
 62
     7
  0
POLYLINE
  5
29A
  8
0
  6
CONTINUOUS
 62
     7
 66
     1
 10
0.0
 20
0.0
 30
0.0
 70
   128
  0
VERTEX
  5
96A
  8
0
  6
CONTINUOUS
 62
     7
 10
6585.4250663077
 20
6958.828227026
 30
0.0
  0
VERTEX
  5
96B
  8
0
  6
CONTINUOUS
 62
     7
 10
6585.2236722785
 20
6963.6779891922
 30
0.0
  0
VERTEX
  5
96C
  8
0
  6
CONTINUOUS
 62
     7
 10
6584.5792905084
 20
6968.0362540297
 30
0.0
  0
VERTEX
  5
96D
  8
0
  6
CONTINUOUS
 62
     7
 10
6583.4860335188
 20
6972.1278360174
 30
0.0
  0
VERTEX
  5
96E
  8
0
  6
CONTINUOUS
 62
     7
 10
6582.0752725556
 20
6975.987465924
 30
0.0
  0
VERTEX
  5
96F
  8
0
  6
CONTINUOUS
 62
     7
 10
6580.4940852632
 20
6979.6220915725
 30
0.0
  0
VERTEX
  5
970
  8
0
  6
CONTINUOUS
 62
     7
 10
6578.8677027738
 20
6983.0509046546
 30
0.0
  0
VERTEX
  5
971
  8
0
  6
CONTINUOUS
 62
     7
 10
6577.9896209452
 20
6984.8729930591
 30
0.0
  0
VERTEX
  5
972
  8
0
  6
CONTINUOUS
 62
     7
 10
6577.1509690354
 20
6986.6450813401
 30
0.0
  0
VERTEX
  5
973
  8
0
  6
CONTINUOUS
 62
     7
 10
6576.2767349345
 20
6988.4437901364
 30
0.0
  0
VERTEX
  5
974
  8
0
  6
CONTINUOUS
 62
     7
 10
6576.0020151945
 20
6988.9325920996
 30
0.0
  0
SEQEND
  5
A57
  8
0
  6
CONTINUOUS
 62
     7
  0
POLYLINE
  5
29B
  8
0
  6
CONTINUOUS
 62
     7
 66
     1
 10
0.0
 20
0.0
 30
0.0
 70
   128
  0
VERTEX
  5
975
  8
0
  6
CONTINUOUS
 62
     7
 10
6574.383280289
 20
6933.2693597976
 30
0.0
  0
VERTEX
  5
976
  8
0
  6
CONTINUOUS
 62
     7
 10
6574.5590794794
 20
6931.5734288143
 30
0.0
  0
VERTEX
  5
977
  8
0
  6
CONTINUOUS
 62
     7
 10
6575.0491029811
 20
6929.739232869
 30
0.0
  0
VERTEX
  5
978
  8
0
  6
CONTINUOUS
 62
     7
 10
6575.8456923402
 20
6927.9412267333
 30
0.0
  0
VERTEX
  5
979
  8
0
  6
CONTINUOUS
 62
     7
 10
6576.9413008606
 20
6926.196444285
 30
0.0
  0
VERTEX
  5
97A
  8
0
  6
CONTINUOUS
 62
     7
 10
6578.3255490105
 20
6924.5214151739
 30
0.0
  0
VERTEX
  5
97B
  8
0
  6
CONTINUOUS
 62
     7
 10
6579.9853227556
 20
6922.932008223
 30
0.0
  0
VERTEX
  5
97C
  8
0
  6
CONTINUOUS
 62
     7
 10
6581.9048977984
 20
6921.4432810919
 30
0.0
  0
VERTEX
  5
97D
  8
0
  6
CONTINUOUS
 62
     7
 10
6584.0660885464
 20
6920.0693376236
 30
0.0
  0
SEQEND
  5
A58
  8
0
  6
CONTINUOUS
 62
     7
  0
POLYLINE
  5
29C
  8
0
  6
CONTINUOUS
 62
     7
 66
     1
 10
0.0
 20
0.0
 30
0.0
 70
   128
  0
VERTEX
  5
97E
  8
0
  6
CONTINUOUS
 62
     7
 10
6584.680266236
 20
6940.4024548634
 30
0.0
  0
VERTEX
  5
97F
  8
0
  6
CONTINUOUS
 62
     7
 10
6583.4718934938
 20
6941.3052446685
 30
0.0
  0
VERTEX
  5
980
  8
0
  6
CONTINUOUS
 62
     7
 10
6582.344029417
 20
6942.4844174682
 30
0.0
  0
VERTEX
  5
981
  8
0
  6
CONTINUOUS
 62
     7
 10
6581.3837138878
 20
6943.8308628958
 30
0.0
  0
VERTEX
  5
982
  8
0
  6
CONTINUOUS
 62
     7
 10
6580.5463824502
 20
6945.3755890554
 30
0.0
  0
VERTEX
  5
983
  8
0
  6
CONTINUOUS
 62
     7
 10
6579.8588126579
 20
6947.0515133203
 30
0.0
  0
VERTEX
  5
984
  8
0
  6
CONTINUOUS
 62
     7
 10
6579.3164076179
 20
6948.8435788502
 30
0.0
  0
VERTEX
  5
985
  8
0
  6
CONTINUOUS
 62
     7
 10
6578.936026943
 20
6950.6618974635
 30
0.0
  0
VERTEX
  5
986
  8
0
  6
CONTINUOUS
 62
     7
 10
6578.7140442987
 20
6952.4934857929
 30
0.0
  0
VERTEX
  5
987
  8
0
  6
CONTINUOUS
 62
     7
 10
6578.6611024502
 20
6954.1276774374
 30
0.0
  0
VERTEX
  5
988
  8
0
  6
CONTINUOUS
 62
     7
 10
6578.7650947683
 20
6955.6600615927
 30
0.0
  0
VERTEX
  5
989
  8
0
  6
CONTINUOUS
 62
     7
 10
6579.0064520408
 20
6956.9053261486
 30
0.0
  0
VERTEX
  5
98A
  8
0
  6
CONTINUOUS
 62
     7
 10
6579.3998333659
 20
6957.969889889
 30
0.0
  0
VERTEX
  5
98B
  8
0
  6
CONTINUOUS
 62
     7
 10
6579.9269672719
 20
6958.7783386805
 30
0.0
  0
VERTEX
  5
98C
  8
0
  6
CONTINUOUS
 62
     7
 10
6580.6148509989
 20
6959.3571383006
 30
0.0
  0
VERTEX
  5
98D
  8
0
  6
CONTINUOUS
 62
     7
 10
6581.455921505
 20
6959.6780564699
 30
0.0
  0
VERTEX
  5
98E
  8
0
  6
CONTINUOUS
 62
     7
 10
6582.4738341779
 20
6959.736441607
 30
0.0
  0
VERTEX
  5
98F
  8
0
  6
CONTINUOUS
 62
     7
 10
6583.6047002342
 20
6959.5351671782
 30
0.0
  0
VERTEX
  5
990
  8
0
  6
CONTINUOUS
 62
     7
 10
6584.895492662
 20
6959.0735225957
 30
0.0
  0
VERTEX
  5
991
  8
0
  6
CONTINUOUS
 62
     7
 10
6585.4250663077
 20
6958.828227026
 30
0.0
  0
SEQEND
  5
A59
  8
0
  6
CONTINUOUS
 62
     7
  0
POLYLINE
  5
29D
  8
0
  6
CONTINUOUS
 62
     7
 66
     1
 10
0.0
 20
0.0
 30
0.0
 70
   128
  0
VERTEX
  5
992
  8
0
  6
CONTINUOUS
 62
     7
 10
6580.4544447171
 20
6955.5437976666
 30
0.0
  0
VERTEX
  5
993
  8
0
  6
CONTINUOUS
 62
     7
 10
6580.4526366915
 20
6956.8116452358
 30
0.0
  0
VERTEX
  5
994
  8
0
  6
CONTINUOUS
 62
     7
 10
6580.5549352045
 20
6957.9173073361
 30
0.0
  0
VERTEX
  5
995
  8
0
  6
CONTINUOUS
 62
     7
 10
6580.7609857778
 20
6958.7839269845
 30
0.0
  0
VERTEX
  5
996
  8
0
  6
CONTINUOUS
 62
     7
 10
6581.0880101745
 20
6959.4492081339
 30
0.0
  0
VERTEX
  5
997
  8
0
  6
CONTINUOUS
 62
     7
 10
6581.2443537604
 20
6959.5973308556
 30
0.0
  0
SEQEND
  5
A5A
  8
0
  6
CONTINUOUS
 62
     7
  0
POLYLINE
  5
29E
  8
0
  6
CONTINUOUS
 62
     7
 66
     1
 10
0.0
 20
0.0
 30
0.0
 70
   128
  0
VERTEX
  5
998
  8
0
  6
CONTINUOUS
 62
     7
 10
6592.105809074
 20
6940.7102302615
 30
0.0
  0
VERTEX
  5
999
  8
0
  6
CONTINUOUS
 62
     7
 10
6590.8704314137
 20
6940.3983269406
 30
0.0
  0
VERTEX
  5
99A
  8
0
  6
CONTINUOUS
 62
     7
 10
6589.4770686558
 20
6940.3768258339
 30
0.0
  0
VERTEX
  5
99B
  8
0
  6
CONTINUOUS
 62
     7
 10
6588.026870549
 20
6940.6981786528
 30
0.0
  0
VERTEX
  5
99C
  8
0
  6
CONTINUOUS
 62
     7
 10
6586.7424618834
 20
6941.2971672208
 30
0.0
  0
VERTEX
  5
99D
  8
0
  6
CONTINUOUS
 62
     7
 10
6585.501718354
 20
6942.2046184093
 30
0.0
  0
VERTEX
  5
99E
  8
0
  6
CONTINUOUS
 62
     7
 10
6584.4495779779
 20
6943.290704521
 30
0.0
  0
VERTEX
  5
99F
  8
0
  6
CONTINUOUS
 62
     7
 10
6583.4963289132
 20
6944.6078427353
 30
0.0
  0
VERTEX
  5
9A0
  8
0
  6
CONTINUOUS
 62
     7
 10
6582.6733657985
 20
6946.1017830554
 30
0.0
  0
VERTEX
  5
9A1
  8
0
  6
CONTINUOUS
 62
     7
 10
6581.9748730732
 20
6947.7576927932
 30
0.0
  0
VERTEX
  5
9A2
  8
0
  6
CONTINUOUS
 62
     7
 10
6581.4024813435
 20
6949.5446665531
 30
0.0
  0
VERTEX
  5
9A3
  8
0
  6
CONTINUOUS
 62
     7
 10
6580.9604933349
 20
6951.4077928874
 30
0.0
  0
VERTEX
  5
9A4
  8
0
  6
CONTINUOUS
 62
     7
 10
6580.667759787
 20
6953.1526968002
 30
0.0
  0
VERTEX
  5
9A5
  8
0
  6
CONTINUOUS
 62
     7
 10
6580.4920520408
 20
6954.8477193239
 30
0.0
  0
VERTEX
  5
9A6
  8
0
  6
CONTINUOUS
 62
     7
 10
6580.4544447171
 20
6955.5437976666
 30
0.0
  0
SEQEND
  5
A5B
  8
0
  6
CONTINUOUS
 62
     7
  0
POLYLINE
  5
29F
  8
0
  6
CONTINUOUS
 62
     8
 66
     1
 10
0.0
 20
0.0
 30
0.0
 70
   128
  0
VERTEX
  5
9A7
  8
0
  6
CONTINUOUS
 62
     8
 10
6643.618758024
 20
6939.9048796158
 30
0.0
  0
VERTEX
  5
9A8
  8
0
  6
CONTINUOUS
 62
     8
 10
6643.6253539682
 20
6939.8843894856
 30
0.0
  0
VERTEX
  5
9A9
  8
0
  6
CONTINUOUS
 62
     8
 10
6643.5879397191
 20
6939.7602658632
 30
0.0
  0
VERTEX
  5
9AA
  8
0
  6
CONTINUOUS
 62
     8
 10
6643.480316528
 20
6939.6504927048
 30
0.0
  0
SEQEND
  5
A5C
  8
0
  6
CONTINUOUS
 62
     8
  0
ARC
  5
2A0
  8
0
  6
CONTINUOUS
 62
     8
 10
6637.1188269598
 20
6933.664763211
 30
0.0
 40
3.002154230423154
 50
178.969433755
 51
236.8138533278
  0
LINE
  5
2A1
  8
0
  6
CONTINUOUS
 62
     8
 10
6586.3273721485
 20
6958.2690990897
 30
0.0
 11
6586.3273721485
 21
6948.1614014345
 31
0.0
  0
LINE
  5
2A2
  8
0
  6
CONTINUOUS
 62
     8
 10
6586.0356819189
 20
6958.4498495057
 30
0.0
 11
6586.0356819189
 21
6948.5412975978
 31
0.0
  0
LINE
  5
2A3
  8
0
  6
CONTINUOUS
 62
     8
 10
6585.6028861854
 20
6958.7180381557
 30
0.0
 11
6585.6028861854
 21
6945.4649462079
 31
0.0
  0
LINE
  5
2A4
  8
0
  6
CONTINUOUS
 62
     8
 10
6583.5610545787
 20
6959.5429353434
 30
0.0
 11
6583.5610545787
 21
6948.124219351
 31
0.0
  0
LINE
  5
2A5
  8
0
  6
CONTINUOUS
 62
     8
 10
6589.6628343512
 20
6946.2358800907
 30
0.0
 11
6589.6628343512
 21
6940.3796924011
 31
0.0
  0
ARC
  5
2A6
  8
0
  6
CONTINUOUS
 62
     8
 10
6208.8002095613
 20
6911.0642363343
 30
0.0
 40
434.8029980666785
 50
2.0281396629
 51
3.2935994268
  0
POLYLINE
  5
2A7
  8
0
  6
CONTINUOUS
 62
     8
 66
     1
 10
0.0
 20
0.0
 30
0.0
 70
   128
  0
VERTEX
  5
9AB
  8
0
  6
CONTINUOUS
 62
     8
 10
6641.1158954113
 20
6958.4639110589
 30
0.0
  0
VERTEX
  5
9AC
  8
0
  6
CONTINUOUS
 62
     8
 10
6641.0826129449
 20
6958.785101819
 30
0.0
  0
VERTEX
  5
9AD
  8
0
  6
CONTINUOUS
 62
     8
 10
6639.7963230652
 20
6967.732124577
 30
0.0
  0
VERTEX
  5
9AE
  8
0
  6
CONTINUOUS
 62
     8
 10
6638.9915009437
 20
6972.0795682083
 30
0.0
  0
VERTEX
  5
9AF
  8
0
  6
CONTINUOUS
 62
     8
 10
6638.0596956279
 20
6976.3295264897
 30
0.0
  0
VERTEX
  5
9B0
  8
0
  6
CONTINUOUS
 62
     8
 10
6636.1918521356
 20
6983.1204438908
 30
0.0
  0
VERTEX
  5
9B1
  8
0
  6
CONTINUOUS
 62
     8
 10
6635.0850541548
 20
6986.3768871314
 30
0.0
  0
VERTEX
  5
9B2
  8
0
  6
CONTINUOUS
 62
     8
 10
6633.8509281469
 20
6989.5184855661
 30
0.0
  0
VERTEX
  5
9B3
  8
0
  6
CONTINUOUS
 62
     8
 10
6632.5300641699
 20
6992.4270743172
 30
0.0
  0
VERTEX
  5
9B4
  8
0
  6
CONTINUOUS
 62
     8
 10
6631.0725713642
 20
6995.2006007383
 30
0.0
  0
VERTEX
  5
9B5
  8
0
  6
CONTINUOUS
 62
     8
 10
6629.4638528887
 20
6997.8333086267
 30
0.0
  0
VERTEX
  5
9B6
  8
0
  6
CONTINUOUS
 62
     8
 10
6627.7018667957
 20
7000.2979826273
 30
0.0
  0
VERTEX
  5
9B7
  8
0
  6
CONTINUOUS
 62
     8
 10
6626.1003142622
 20
7002.2248096025
 30
0.0
  0
VERTEX
  5
9B8
  8
0
  6
CONTINUOUS
 62
     8
 10
6624.3848622476
 20
7004.0112397572
 30
0.0
  0
VERTEX
  5
9B9
  8
0
  6
CONTINUOUS
 62
     8
 10
6621.9609912919
 20
7006.1262807628
 30
0.0
  0
VERTEX
  5
9BA
  8
0
  6
CONTINUOUS
 62
     8
 10
6621.450033523
 20
7006.5188214064
 30
0.0
  0
VERTEX
  5
9BB
  8
0
  6
CONTINUOUS
 62
     8
 10
6621.384750706
 20
7006.5677501578
 30
0.0
  0
SEQEND
  5
A5D
  8
0
  6
CONTINUOUS
 62
     8
  0
POLYLINE
  5
2A8
  8
0
  6
CONTINUOUS
 62
     8
 66
     1
 10
0.0
 20
0.0
 30
0.0
 70
   128
  0
VERTEX
  5
9BC
  8
0
  6
CONTINUOUS
 62
     8
 10
6621.384750706
 20
7006.5677501578
 30
0.0
  0
VERTEX
  5
9BD
  8
0
  6
CONTINUOUS
 62
     8
 10
6621.4327249135
 20
7006.5332402397
 30
0.0
  0
VERTEX
  5
9BE
  8
0
  6
CONTINUOUS
 62
     8
 10
6621.4577534482
 20
7006.5151778135
 30
0.0
  0
VERTEX
  5
9BF
  8
0
  6
CONTINUOUS
 62
     8
 10
6624.7875546311
 20
7003.7195928323
 30
0.0
  0
VERTEX
  5
9C0
  8
0
  6
CONTINUOUS
 62
     8
 10
6627.7806387287
 20
7000.4050283338
 30
0.0
  0
VERTEX
  5
9C1
  8
0
  6
CONTINUOUS
 62
     8
 10
6629.547811935
 20
6997.9875360308
 30
0.0
  0
VERTEX
  5
9C2
  8
0
  6
CONTINUOUS
 62
     8
 10
6631.1695370054
 20
6995.38860131
 30
0.0
  0
VERTEX
  5
9C3
  8
0
  6
CONTINUOUS
 62
     8
 10
6632.6564206642
 20
6992.6119228845
 30
0.0
  0
VERTEX
  5
9C4
  8
0
  6
CONTINUOUS
 62
     8
 10
6634.0070449589
 20
6989.6844823297
 30
0.0
  0
VERTEX
  5
9C5
  8
0
  6
CONTINUOUS
 62
     8
 10
6635.248024384
 20
6986.5685879954
 30
0.0
  0
VERTEX
  5
9C6
  8
0
  6
CONTINUOUS
 62
     8
 10
6636.3634262535
 20
6983.327421577
 30
0.0
  0
VERTEX
  5
9C7
  8
0
  6
CONTINUOUS
 62
     8
 10
6638.2552524311
 20
6976.5055075337
 30
0.0
  0
VERTEX
  5
9C8
  8
0
  6
CONTINUOUS
 62
     8
 10
6639.1886688828
 20
6972.2554550564
 30
0.0
  0
VERTEX
  5
9C9
  8
0
  6
CONTINUOUS
 62
     8
 10
6639.99213109
 20
6967.8960379023
 30
0.0
  0
VERTEX
  5
9CA
  8
0
  6
CONTINUOUS
 62
     8
 10
6641.2600947236
 20
6958.9252750215
 30
0.0
  0
VERTEX
  5
9CB
  8
0
  6
CONTINUOUS
 62
     8
 10
6641.4177828847
 20
6957.3416106185
 30
0.0
  0
SEQEND
  5
A5E
  8
0
  6
CONTINUOUS
 62
     8
  0
ARC
  5
2A9
  8
0
  6
CONTINUOUS
 62
     8
 10
6149.9731065109
 20
6912.9391166806
 30
0.0
 40
493.5427490851288
 50
1.5689240603
 51
2.7085024504
  0
ARC
  5
2AA
  8
0
  6
CONTINUOUS
 62
     8
 10
6536.0710835785
 20
6991.5282323847
 30
0.0
 40
8.658026013349755
 50
146.1838390575
 51
168.7889527106
  0
POLYLINE
  5
2AB
  8
0
  6
CONTINUOUS
 62
     8
 66
     1
 10
0.0
 20
0.0
 30
0.0
 70
   128
  0
VERTEX
  5
9CC
  8
0
  6
CONTINUOUS
 62
     8
 10
6531.7650684829
 20
6992.5511549752
 30
0.0
  0
VERTEX
  5
9CD
  8
0
  6
CONTINUOUS
 62
     8
 10
6531.6900218069
 20
6992.3391563874
 30
0.0
  0
VERTEX
  5
9CE
  8
0
  6
CONTINUOUS
 62
     8
 10
6531.585843225
 20
6992.1455801864
 30
0.0
  0
VERTEX
  5
9CF
  8
0
  6
CONTINUOUS
 62
     8
 10
6531.4578157583
 20
6991.9802428536
 30
0.0
  0
VERTEX
  5
9D0
  8
0
  6
CONTINUOUS
 62
     8
 10
6531.3124318331
 20
6991.8515288437
 30
0.0
  0
VERTEX
  5
9D1
  8
0
  6
CONTINUOUS
 62
     8
 10
6531.1570640429
 20
6991.7659653985
 30
0.0
  0
VERTEX
  5
9D2
  8
0
  6
CONTINUOUS
 62
     8
 10
6530.9995912746
 20
6991.7278915431
 30
0.0
  0
VERTEX
  5
9D3
  8
0
  6
CONTINUOUS
 62
     8
 10
6530.8479991614
 20
6991.7392380482
 30
0.0
  0
VERTEX
  5
9D4
  8
0
  6
CONTINUOUS
 62
     8
 10
6530.8261009177
 20
6991.7452449456
 30
0.0
  0
SEQEND
  5
A5F
  8
0
  6
CONTINUOUS
 62
     8
  0
POLYLINE
  5
2AC
  8
0
  6
CONTINUOUS
 62
     8
 66
     1
 10
0.0
 20
0.0
 30
0.0
 70
   128
  0
VERTEX
  5
9D5
  8
0
  6
CONTINUOUS
 62
     8
 10
6530.5639727199
 20
6991.8555970295
 30
0.0
  0
VERTEX
  5
9D6
  8
0
  6
CONTINUOUS
 62
     8
 10
6530.47785074
 20
6991.8887283832
 30
0.0
  0
VERTEX
  5
9D7
  8
0
  6
CONTINUOUS
 62
     8
 10
6530.2745113528
 20
6992.0758117854
 30
0.0
  0
VERTEX
  5
9D8
  8
0
  6
CONTINUOUS
 62
     8
 10
6530.2357685396
 20
6992.1292042027
 30
0.0
  0
VERTEX
  5
9D9
  8
0
  6
CONTINUOUS
 62
     8
 10
6530.100256179
 20
6992.3955882533
 30
0.0
  0
VERTEX
  5
9DA
  8
0
  6
CONTINUOUS
 62
     8
 10
6530.0079102333
 20
6992.7432942676
 30
0.0
  0
VERTEX
  5
9DB
  8
0
  6
CONTINUOUS
 62
     8
 10
6529.9786298932
 20
6993.0166651482
 30
0.0
  0
VERTEX
  5
9DC
  8
0
  6
CONTINUOUS
 62
     8
 10
6529.980194623
 20
6993.3219115349
 30
0.0
  0
VERTEX
  5
9DD
  8
0
  6
CONTINUOUS
 62
     8
 10
6530.0061009533
 20
6993.5801850112
 30
0.0
  0
VERTEX
  5
9DE
  8
0
  6
CONTINUOUS
 62
     8
 10
6530.0559965466
 20
6993.8513386012
 30
0.0
  0
VERTEX
  5
9DF
  8
0
  6
CONTINUOUS
 62
     8
 10
6530.0708546115
 20
6993.9142316147
 30
0.0
  0
SEQEND
  5
A60
  8
0
  6
CONTINUOUS
 62
     8
  0
ARC
  5
2AD
  8
0
  6
CONTINUOUS
 62
     8
 10
6498.383175529
 20
7012.2816253435
 30
0.0
 40
2.004770888094103
 50
105.7543533206
 51
224.796569124
  0
ARC
  5
2AE
  8
0
  6
CONTINUOUS
 62
     8
 10
6721.9224186731
 20
6631.9988113709
 30
0.0
 40
443.7382891404811
 50
116.2832331353
 51
120.4121485396
  0
ARC
  5
2AF
  8
0
  6
CONTINUOUS
 62
     8
 10
6497.3018051013
 20
7013.3588802336
 30
0.0
 40
1.322670408162255
 50
90.3070934277
 51
122.7378448325
  0
ARC
  5
2B0
  8
0
  6
CONTINUOUS
 62
     8
 10
6496.1432684524
 20
7013.7363502144
 30
0.0
 40
0.267700148090854
 50
148.9459137174
 51
193.6431368302
  0
ENDSEC
  0
EOF
