  0
SECTION
  2
HEADER
  9
$ACADVER
  1
AC1015
  9
$ACADMAINTVER
 70
     6
  9
$DWGCODEPAGE
  3
ANSI_1250
  9
$INSBASE
 10
0.0
 20
0.0
 30
0.0
  9
$EXTMIN
 10
5374.018779178
 20
4149.0731746153
 30
0.0
  9
$EXTMAX
 10
7834.1077396675
 20
5614.1826664671
 30
0.0
  9
$LIMMIN
 10
0.0
 20
0.0
  9
$LIMMAX
 10
420.0
 20
297.0
  9
$ORTHOMODE
 70
     0
  9
$REGENMODE
 70
     1
  9
$FILLMODE
 70
     1
  9
$QTEXTMODE
 70
     0
  9
$MIRRTEXT
 70
     1
  9
$LTSCALE
 40
1.0
  9
$ATTMODE
 70
     1
  9
$TEXTSIZE
 40
3.5
  9
$TRACEWID
 40
1.0
  9
$TEXTSTYLE
  7
Standard
  9
$CLAYER
  8
0
  9
$CELTYPE
  6
ByLayer
  9
$CECOLOR
 62
   256
  9
$CELTSCALE
 40
1.0
  9
$DISPSILH
 70
     0
  9
$DIMSCALE
 40
1.0
  9
$DIMASZ
 40
3.302
  9
$DIMEXO
 40
0.0
  9
$DIMDLI
 40
3.75
  9
$DIMRND
 40
0.0
  9
$DIMDLE
 40
0.0
  9
$DIMEXE
 40
1.0
  9
$DIMTP
 40
0.0
  9
$DIMTM
 40
0.0
  9
$DIMTXT
 40
3.5
  9
$DIMCEN
 40
2.5
  9
$DIMTSZ
 40
0.0
  9
$DIMTOL
 70
     0
  9
$DIMLIM
 70
     0
  9
$DIMTIH
 70
     1
  9
$DIMTOH
 70
     1
  9
$DIMSE1
 70
     0
  9
$DIMSE2
 70
     0
  9
$DIMTAD
 70
     1
  9
$DIMZIN
 70
     0
  9
$DIMBLK
  1

  9
$DIMASO
 70
     1
  9
$DIMSHO
 70
     1
  9
$DIMPOST
  1

  9
$DIMAPOST
  1

  9
$DIMALT
 70
     0
  9
$DIMALTD
 70
     3
  9
$DIMALTF
 40
0.0393700787
  9
$DIMLFAC
 40
1.0
  9
$DIMTOFL
 70
     1
  9
$DIMTVP
 40
0.0
  9
$DIMTIX
 70
     0
  9
$DIMSOXD
 70
     0
  9
$DIMSAH
 70
     0
  9
$DIMBLK1
  1

  9
$DIMBLK2
  1

  9
$DIMSTYLE
  2
ISO-25
  9
$DIMCLRD
 70
     0
  9
$DIMCLRE
 70
     0
  9
$DIMCLRT
 70
     0
  9
$DIMTFAC
 40
1.0
  9
$DIMGAP
 40
1.524
  9
$DIMJUST
 70
     0
  9
$DIMSD1
 70
     0
  9
$DIMSD2
 70
     0
  9
$DIMTOLJ
 70
     0
  9
$DIMTZIN
 70
     0
  9
$DIMALTZ
 70
     0
  9
$DIMALTTZ
 70
     0
  9
$DIMUPT
 70
     0
  9
$DIMDEC
 70
     2
  9
$DIMTDEC
 70
     2
  9
$DIMALTU
 70
     2
  9
$DIMALTTD
 70
     3
  9
$DIMTXSTY
  7
Standard
  9
$DIMAUNIT
 70
     0
  9
$DIMADEC
 70
     2
  9
$DIMALTRND
 40
0.0
  9
$DIMAZIN
 70
     0
  9
$DIMDSEP
 70
    44
  9
$DIMATFIT
 70
     3
  9
$DIMFRAC
 70
     0
  9
$DIMLDRBLK
  1

  9
$DIMLUNIT
 70
     2
  9
$DIMLWD
 70
    -2
  9
$DIMLWE
 70
    -2
  9
$DIMTMOVE
 70
     0
  9
$LUNITS
 70
     2
  9
$LUPREC
 70
     2
  9
$SKETCHINC
 40
1.0
  9
$FILLETRAD
 40
10.0
  9
$AUNITS
 70
     0
  9
$AUPREC
 70
     2
  9
$MENU
  1
.
  9
$ELEVATION
 40
0.0
  9
$PELEVATION
 40
0.0
  9
$THICKNESS
 40
0.0
  9
$LIMCHECK
 70
     0
  9
$CHAMFERA
 40
0.0
  9
$CHAMFERB
 40
0.0
  9
$CHAMFERC
 40
0.0
  9
$CHAMFERD
 40
0.0
  9
$SKPOLY
 70
     0
  9
$TDCREATE
 40
2459094.333884063
  9
$TDUCREATE
 40
2459094.250550729
  9
$TDUPDATE
 40
2459094.333912986
  9
$TDUUPDATE
 40
2459094.250579653
  9
$TDINDWG
 40
0.0000000116
  9
$TDUSRTIMER
 40
0.0000000116
  9
$USRTIMER
 70
     1
  9
$ANGBASE
 50
0.0
  9
$ANGDIR
 70
     0
  9
$PDMODE
 70
     0
  9
$PDSIZE
 40
-1.0
  9
$PLINEWID
 40
0.0
  9
$SPLFRAME
 70
     0
  9
$SPLINETYPE
 70
     6
  9
$SPLINESEGS
 70
     8
  9
$HANDSEED
  5
293
  9
$SURFTAB1
 70
     6
  9
$SURFTAB2
 70
     6
  9
$SURFTYPE
 70
     6
  9
$SURFU
 70
     6
  9
$SURFV
 70
     6
  9
$UCSBASE
  2

  9
$UCSNAME
  2

  9
$UCSORG
 10
0.0
 20
0.0
 30
0.0
  9
$UCSXDIR
 10
1.0
 20
0.0
 30
0.0
  9
$UCSYDIR
 10
0.0
 20
1.0
 30
0.0
  9
$UCSORTHOREF
  2

  9
$UCSORTHOVIEW
 70
     0
  9
$UCSORGTOP
 10
0.0
 20
0.0
 30
0.0
  9
$UCSORGBOTTOM
 10
0.0
 20
0.0
 30
0.0
  9
$UCSORGLEFT
 10
0.0
 20
0.0
 30
0.0
  9
$UCSORGRIGHT
 10
0.0
 20
0.0
 30
0.0
  9
$UCSORGFRONT
 10
0.0
 20
0.0
 30
0.0
  9
$UCSORGBACK
 10
0.0
 20
0.0
 30
0.0
  9
$PUCSBASE
  2

  9
$PUCSNAME
  2

  9
$PUCSORG
 10
0.0
 20
0.0
 30
0.0
  9
$PUCSXDIR
 10
1.0
 20
0.0
 30
0.0
  9
$PUCSYDIR
 10
0.0
 20
1.0
 30
0.0
  9
$PUCSORTHOREF
  2

  9
$PUCSORTHOVIEW
 70
     0
  9
$PUCSORGTOP
 10
0.0
 20
0.0
 30
0.0
  9
$PUCSORGBOTTOM
 10
0.0
 20
0.0
 30
0.0
  9
$PUCSORGLEFT
 10
0.0
 20
0.0
 30
0.0
  9
$PUCSORGRIGHT
 10
0.0
 20
0.0
 30
0.0
  9
$PUCSORGFRONT
 10
0.0
 20
0.0
 30
0.0
  9
$PUCSORGBACK
 10
0.0
 20
0.0
 30
0.0
  9
$USERI1
 70
     0
  9
$USERI2
 70
     0
  9
$USERI3
 70
     0
  9
$USERI4
 70
     0
  9
$USERI5
 70
     0
  9
$USERR1
 40
0.0
  9
$USERR2
 40
0.0
  9
$USERR3
 40
0.0
  9
$USERR4
 40
0.0
  9
$USERR5
 40
0.0
  9
$WORLDVIEW
 70
     1
  9
$SHADEDGE
 70
     3
  9
$SHADEDIF
 70
    70
  9
$TILEMODE
 70
     1
  9
$MAXACTVP
 70
    64
  9
$PINSBASE
 10
0.0
 20
0.0
 30
0.0
  9
$PLIMCHECK
 70
     0
  9
$PEXTMIN
 10
1.0000000000E+20
 20
1.0000000000E+20
 30
1.0000000000E+20
  9
$PEXTMAX
 10
-1.0000000000E+20
 20
-1.0000000000E+20
 30
-1.0000000000E+20
  9
$PLIMMIN
 10
0.0
 20
0.0
  9
$PLIMMAX
 10
420.0
 20
297.0
  9
$UNITMODE
 70
     0
  9
$VISRETAIN
 70
     1
  9
$PLINEGEN
 70
     0
  9
$PSLTSCALE
 70
     1
  9
$TREEDEPTH
 70
  3020
  9
$CMLSTYLE
  2
Standard
  9
$CMLJUST
 70
     0
  9
$CMLSCALE
 40
20.0
  9
$PROXYGRAPHICS
 70
     1
  9
$MEASUREMENT
 70
     1
  9
$CELWEIGHT
370
    -1
  9
$ENDCAPS
280
     0
  9
$JOINSTYLE
280
     0
  9
$LWDISPLAY
290
     1
  9
$INSUNITS
 70
     4
  9
$HYPERLINKBASE
  1

  9
$STYLESHEET
  1

  9
$XEDIT
290
     1
  9
$CEPSNTYPE
380
     0
  9
$PSTYLEMODE
290
     1
  9
$FINGERPRINTGUID
  2
{b11e4eb9-e756-475e-89ee-f78648856aec}
  9
$VERSIONGUID
  2
{FAEB1C32-E019-11D5-929B-00C0DF256EC4}
  9
$EXTNAMES
290
     1
  9
$PSVPSCALE
 40
0.0
  9
$OLESTARTUP
290
     0
  0
ENDSEC
  0
SECTION
  2
CLASSES
  0
CLASS
  1
ACDBDICTIONARYWDFLT
  2
AcDbDictionaryWithDefault
  3
ObjectDBX Classes
 90
        0
280
     0
281
     0
  0
CLASS
  1
VISUALSTYLE
  2
AcDbVisualStyle
  3
ObjectDBX Classes
 90
     4095
280
     0
281
     0
  0
CLASS
  1
MATERIAL
  2
AcDbMaterial
  3
ObjectDBX Classes
 90
     1153
280
     0
281
     0
  0
CLASS
  1
SCALE
  2
AcDbScale
  3
ObjectDBX Classes
 90
     1153
280
     0
281
     0
  0
CLASS
  1
TABLESTYLE
  2
AcDbTableStyle
  3
ObjectDBX Classes
 90
     4095
280
     0
281
     0
  0
CLASS
  1
MLEADERSTYLE
  2
AcDbMLeaderStyle
  3
ACDB_MLEADERSTYLE_CLASS
 90
     4095
280
     0
281
     0
  0
CLASS
  1
SUN
  2
AcDbSun
  3
SCENEOE
 90
     1153
280
     0
281
     0
  0
CLASS
  1
ACDBPLACEHOLDER
  2
AcDbPlaceHolder
  3
ObjectDBX Classes
 90
        0
280
     0
281
     0
  0
CLASS
  1
LAYOUT
  2
AcDbLayout
  3
ObjectDBX Classes
 90
        0
280
     0
281
     0
  0
ENDSEC
  0
SECTION
  2
TABLES
  0
TABLE
  2
VPORT
  5
8
330
0
100
AcDbSymbolTable
 70
     1
  0
VPORT
  5
29
330
8
100
AcDbSymbolTableRecord
100
AcDbViewportTableRecord
  2
*Active
 70
     0
 10
0.0
 20
0.0
 11
1.0
 21
1.0
 12
6604.0632594227
 22
4881.6279205412
 13
0.0
 23
0.0
 14
10.0
 24
10.0
 15
10.0
 25
10.0
 16
0.0
 26
0.0
 36
1.0
 17
0.0
 27
0.0
 37
0.0
 40
1494.4116816888
 41
1.6791161167
 42
50.0
 43
0.0
 44
0.0
 50
0.0
 51
0.0
 71
     0
 72
   100
 73
     1
 74
     3
 75
     0
 76
     0
 77
     0
 78
     0
281
     0
 65
     1
110
0.0
120
0.0
130
0.0
111
1.0
121
0.0
131
0.0
112
0.0
122
1.0
132
0.0
 79
     0
146
0.0
  0
ENDTAB
  0
TABLE
  2
LTYPE
  5
5
330
0
100
AcDbSymbolTable
 70
     6
  0
LTYPE
  5
14
330
5
100
AcDbSymbolTableRecord
100
AcDbLinetypeTableRecord
  2
ByBlock
 70
     0
  3

 72
    65
 73
     0
 40
0.0
  0
LTYPE
  5
15
330
5
100
AcDbSymbolTableRecord
100
AcDbLinetypeTableRecord
  2
ByLayer
 70
     0
  3

 72
    65
 73
     0
 40
0.0
  0
LTYPE
  5
16
330
5
100
AcDbSymbolTableRecord
100
AcDbLinetypeTableRecord
  2
Continuous
 70
     0
  3
Solid line
 72
    65
 73
     0
 40
0.0
  0
LTYPE
  5
6E
330
5
100
AcDbSymbolTableRecord
100
AcDbLinetypeTableRecord
  2
HIDDEN
 70
     0
  3
Hidden __ __ __ __ __ __ __ __ __ __ __ __ __ __
 72
    65
 73
     2
 40
1.905
 49
1.27
 74
     0
 49
-0.635
 74
     0
  0
LTYPE
  5
6F
330
5
100
AcDbSymbolTableRecord
100
AcDbLinetypeTableRecord
  2
PHANTOM
 70
     0
  3
Phantom ______  __  __  ______  __  __  ______
 72
    65
 73
     6
 40
12.7
 49
6.35
 74
     0
 49
-1.27
 74
     0
 49
1.27
 74
     0
 49
-1.27
 74
     0
 49
1.27
 74
     0
 49
-1.27
 74
     0
  0
LTYPE
  5
70
330
5
100
AcDbSymbolTableRecord
100
AcDbLinetypeTableRecord
  2
CENTER
 70
     0
  3
Center ____ _ ____ _ ____ _ ____ _ ____ _ ____
 72
    65
 73
     4
 40
10.16
 49
6.35
 74
     0
 49
-1.27
 74
     0
 49
1.27
 74
     0
 49
-1.27
 74
     0
  0
LTYPE
  5
71
330
5
100
AcDbSymbolTableRecord
100
AcDbLinetypeTableRecord
  2
CENTERX2
 70
     0
  3
Center (2x) ________  __  ________  __  _____
 72
    65
 73
     4
 40
20.32
 49
12.7
 74
     0
 49
-2.54
 74
     0
 49
2.54
 74
     0
 49
-2.54
 74
     0
  0
LTYPE
  5
72
330
5
100
AcDbSymbolTableRecord
100
AcDbLinetypeTableRecord
  2
DOT2
 70
     0
  3
Dot (.5x) ........................................
 72
    65
 73
     2
 40
0.635
 49
0.0
 74
     0
 49
-0.635
 74
     0
  0
ENDTAB
  0
TABLE
  2
LAYER
  5
2
330
0
100
AcDbSymbolTable
 70
     1
  0
LAYER
  5
10
330
2
100
AcDbSymbolTableRecord
100
AcDbLayerTableRecord
  2
0
 70
     0
 62
     7
  6
Continuous
370
    -3
390
F
  0
ENDTAB
  0
TABLE
  2
STYLE
  5
3
330
0
100
AcDbSymbolTable
 70
     1
  0
STYLE
  5
11
330
3
100
AcDbSymbolTableRecord
100
AcDbTextStyleTableRecord
  2
Standard
 70
     0
 40
0.0
 41
1.0
 50
0.0
 71
     0
 42
3.5
  3
txt
  4

  0
ENDTAB
  0
TABLE
  2
VIEW
  5
6
330
0
100
AcDbSymbolTable
 70
     0
  0
ENDTAB
  0
TABLE
  2
UCS
  5
7
330
0
100
AcDbSymbolTable
 70
     0
  0
ENDTAB
  0
TABLE
  2
APPID
  5
9
330
0
100
AcDbSymbolTable
 70
     1
  0
APPID
  5
12
330
9
100
AcDbSymbolTableRecord
100
AcDbRegAppTableRecord
  2
ACAD
 70
     0
  0
ENDTAB
  0
TABLE
  2
DIMSTYLE
  5
A
330
0
100
AcDbSymbolTable
 70
     1
100
AcDbDimStyleTable
  0
DIMSTYLE
105
27
330
A
100
AcDbSymbolTableRecord
100
AcDbDimStyleTableRecord
  2
ISO-25
 70
     0
 41
2.5
 42
0.625
 43
3.75
 44
1.25
 73
     0
 74
     0
 77
     1
 78
     8
140
2.5
141
2.5
143
0.0393700787
147
0.625
171
     3
172
     1
178
     0
271
     2
272
     2
274
     3
278
    44
283
     0
284
     8
340
11
  0
ENDTAB
  0
TABLE
  2
BLOCK_RECORD
  5
1
330
0
100
AcDbSymbolTable
 70
     1
  0
BLOCK_RECORD
  5
1F
330
1
100
AcDbSymbolTableRecord
100
AcDbBlockTableRecord
  2
*Model_Space
340
22
  0
BLOCK_RECORD
  5
1B
330
1
100
AcDbSymbolTableRecord
100
AcDbBlockTableRecord
  2
*Paper_Space
340
1E
  0
BLOCK_RECORD
  5
23
330
1
100
AcDbSymbolTableRecord
100
AcDbBlockTableRecord
  2
*Paper_Space0
340
26
  0
ENDTAB
  0
ENDSEC
  0
SECTION
  2
BLOCKS
  0
BLOCK
  5
20
330
1F
100
AcDbEntity
  8
0
100
AcDbBlockBegin
  2
*Model_Space
 70
     0
 10
0.0
 20
0.0
 30
0.0
  3
*Model_Space
  1

  0
ENDBLK
  5
21
330
1F
100
AcDbEntity
  8
0
100
AcDbBlockEnd
  0
BLOCK
  5
1C
330
1B
100
AcDbEntity
 67
     1
  8
0
100
AcDbBlockBegin
  2
*Paper_Space
 70
     0
 10
0.0
 20
0.0
 30
0.0
  3
*Paper_Space
  1

  0
ENDBLK
  5
1D
330
1B
100
AcDbEntity
 67
     1
  8
0
100
AcDbBlockEnd
  0
BLOCK
  5
24
330
23
100
AcDbEntity
  8
0
100
AcDbBlockBegin
  2
*Paper_Space0
 70
     0
 10
0.0
 20
0.0
 30
0.0
  3
*Paper_Space0
  1

  0
ENDBLK
  5
25
330
23
100
AcDbEntity
  8
0
100
AcDbBlockEnd
  0
ENDSEC
  0
SECTION
  2
ENTITIES
  0
CIRCLE
  5
73
330
1F
100
AcDbEntity
  8
0
  6
Continuous
 62
     7
100
AcDbCircle
 10
6406.3187553361
 20
5063.2162663206
 30
0.0
 40
3.0
  0
CIRCLE
  5
74
330
1F
100
AcDbEntity
  8
0
  6
Continuous
 62
     7
100
AcDbCircle
 10
6406.3187553361
 20
4843.2162663206
 30
0.0
 40
3.0
  0
CIRCLE
  5
75
330
1F
100
AcDbEntity
  8
0
  6
Continuous
 62
     7
100
AcDbCircle
 10
6141.7187553361
 20
4843.2162663206
 30
0.0
 40
3.0
  0
CIRCLE
  5
76
330
1F
100
AcDbEntity
  8
0
  6
Continuous
 62
     7
100
AcDbCircle
 10
6141.7187553361
 20
5063.2162663206
 30
0.0
 40
3.0
  0
ARC
  5
77
330
1F
100
AcDbEntity
  8
0
  6
Continuous
 62
     7
100
AcDbCircle
 10
5674.0187612966
 20
5533.2162712821
 30
0.0
 40
25.00000000000122
100
AcDbArc
 50
197.2564007346
 51
342.7435992654
  0
ARC
  5
78
330
1F
100
AcDbEntity
  8
0
  6
Continuous
 62
     7
100
AcDbCircle
 10
5674.0187612966
 20
5533.2162712821
 30
0.0
 40
24.99999825868525
100
AcDbArc
 50
17.2563878872
 51
162.7436121128
  0
ARC
  5
79
330
1F
100
AcDbEntity
  8
0
  6
Continuous
 62
     7
100
AcDbCircle
 10
6874.0187493756
 20
5533.2162712821
 30
0.0
 40
25.00000000000122
100
AcDbArc
 50
197.2564007346
 51
342.7435992654
  0
ARC
  5
7A
330
1F
100
AcDbEntity
  8
0
  6
Continuous
 62
     7
100
AcDbCircle
 10
6874.0187493756
 20
5533.2162712821
 30
0.0
 40
24.99999825868525
100
AcDbArc
 50
17.2563878872
 51
162.7436121128
  0
ARC
  5
7B
330
1F
100
AcDbEntity
  8
0
  6
Continuous
 62
     7
100
AcDbCircle
 10
6274.0187553361
 20
5533.2162652856
 30
0.0
 40
25.00000000000071
100
AcDbArc
 50
197.2563863439
 51
342.7436136562
  0
ARC
  5
7C
330
1F
100
AcDbEntity
  8
0
  6
Continuous
 62
     7
100
AcDbCircle
 10
6274.0187553361
 20
5533.2162652856
 30
0.0
 40
25.00000181639324
100
AcDbArc
 50
17.2563997452
 51
162.7436002548
  0
ARC
  5
7D
330
1F
100
AcDbEntity
  8
0
  6
Continuous
 62
     7
100
AcDbCircle
 10
7795.2982374095
 20
5095.1662663076
 30
0.0
 40
1.950000000000012
100
AcDbArc
 50
270.0002666178
 51
314.9999999765
  0
ARC
  5
7E
330
1F
100
AcDbEntity
  8
0
  6
Continuous
 62
     7
100
AcDbCircle
 10
7576.0575070602
 20
5612.2326655009
 30
0.0
 40
1.950000000001646
100
AcDbArc
 50
70.0000336361
 51
180.000722583
  0
ARC
  5
7F
330
1F
100
AcDbEntity
  8
0
  6
Continuous
 62
     7
100
AcDbCircle
 10
7781.107748489
 20
5486.46670332
 30
0.0
 40
49.99999999999989
100
AcDbArc
 50
0.0000205157
 51
69.9999993492
  0
ARC
  5
80
330
1F
100
AcDbEntity
  8
0
  6
Continuous
 62
     7
100
AcDbCircle
 10
7829.157748489
 20
5129.025771741
 30
0.0
 40
1.949999999999048
100
AcDbArc
 50
314.9997992693
 51
359.9999198061
  0
ARC
  5
81
330
1F
100
AcDbEntity
  8
0
  6
Continuous
 62
     7
100
AcDbCircle
 10
7831.8577396675
 20
5230.9680500201
 30
0.0
 40
2.250000000000357
100
AcDbArc
 50
0.0002193091
 51
109.4710701868
  0
ARC
  5
82
330
1F
100
AcDbEntity
  8
0
  6
Continuous
 62
     7
100
AcDbCircle
 10
7831.8577396675
 20
5230.9680500201
 30
0.0
 40
0.7500044108336105
100
AcDbArc
 50
0.0006579235
 51
179.9998495516
  0
ARC
  5
83
330
1F
100
AcDbEntity
  8
0
  6
Continuous
 62
     7
100
AcDbCircle
 10
6274.0187553361
 20
4257.8234065038
 30
0.0
 40
15.0
100
AcDbArc
 50
270.0
 51
298.0052543395
  0
ARC
  5
84
330
1F
100
AcDbEntity
  8
0
  6
Continuous
 62
     7
100
AcDbCircle
 10
6274.0187553361
 20
4257.8234065038
 30
0.0
 40
15.00000000000135
100
AcDbArc
 50
335.7391704773
 51
28.0052543395
  0
ARC
  5
85
330
1F
100
AcDbEntity
  8
0
  6
Continuous
 62
     7
100
AcDbCircle
 10
6274.0187553361
 20
4257.8234065038
 30
0.0
 40
15.00000000000055
100
AcDbArc
 50
61.9947456605
 51
84.2608295227
  0
ARC
  5
86
330
1F
100
AcDbEntity
  8
0
  6
Continuous
 62
     7
100
AcDbCircle
 10
6274.0187553361
 20
4257.8234065038
 30
0.0
 40
15.00000000000055
100
AcDbArc
 50
95.7391704773
 51
118.0052543395
  0
ARC
  5
87
330
1F
100
AcDbEntity
  8
0
  6
Continuous
 62
     7
100
AcDbCircle
 10
6274.0187553361
 20
4257.8234065038
 30
0.0
 40
15.00000000000055
100
AcDbArc
 50
151.9947456605
 51
204.2608295227
  0
ARC
  5
88
330
1F
100
AcDbEntity
  8
0
  6
Continuous
 62
     7
100
AcDbCircle
 10
6274.0187553361
 20
4257.8234065038
 30
0.0
 40
15.0
100
AcDbArc
 50
241.9947456605
 51
270.0
  0
ARC
  5
89
330
1F
100
AcDbEntity
  8
0
  6
Continuous
 62
     7
100
AcDbCircle
 10
6274.0187553361
 20
4257.8234065038
 30
0.0
 40
5.250000000000289
100
AcDbArc
 50
286.1516182809
 51
89.7251968774
  0
ARC
  5
8A
330
1F
100
AcDbEntity
  8
0
  6
Continuous
 62
     7
100
AcDbCircle
 10
6274.0187553361
 20
4257.8234065038
 30
0.0
 40
5.250000000000284
100
AcDbArc
 50
106.1516182809
 51
269.7251968774
  0
ARC
  5
8B
330
1F
100
AcDbEntity
  8
0
  6
Continuous
 62
     7
100
AcDbCircle
 10
6274.0187553361
 20
4257.8234065038
 30
0.0
 40
5.250000000000289
100
AcDbArc
 50
89.7251968774
 51
106.1516182809
  0
ARC
  5
8C
330
1F
100
AcDbEntity
  8
0
  6
Continuous
 62
     7
100
AcDbCircle
 10
6274.0187553361
 20
4257.8234065038
 30
0.0
 40
5.250000000000284
100
AcDbArc
 50
269.7251968774
 51
286.1516182809
  0
CIRCLE
  5
8D
330
1F
100
AcDbEntity
  8
0
  6
Continuous
 62
     7
100
AcDbCircle
 10
6274.0187553361
 20
4257.8234065038
 30
0.0
 40
24.5
  0
CIRCLE
  5
8E
330
1F
100
AcDbEntity
  8
0
  6
Continuous
 62
     7
100
AcDbCircle
 10
6274.0187553361
 20
4257.8234065038
 30
0.0
 40
35.0
  0
CIRCLE
  5
8F
330
1F
100
AcDbEntity
  8
0
  6
Continuous
 62
     7
100
AcDbCircle
 10
6274.0187553361
 20
4257.8234065038
 30
0.0
 40
22.5
  0
CIRCLE
  5
90
330
1F
100
AcDbEntity
  8
0
  6
Continuous
 62
     7
100
AcDbCircle
 10
6274.0187553361
 20
4257.8234065038
 30
0.0
 40
21.5
  0
CIRCLE
  5
91
330
1F
100
AcDbEntity
  8
0
  6
Continuous
 62
     7
100
AcDbCircle
 10
6274.0187553361
 20
4257.8234065038
 30
0.0
 40
19.55298992456301
  0
CIRCLE
  5
92
330
1F
100
AcDbEntity
  8
0
  6
Continuous
 62
     7
100
AcDbCircle
 10
6274.0187553361
 20
4257.8234065038
 30
0.0
 40
6.182050807568885
  0
ARC
  5
93
330
1F
100
AcDbEntity
  8
0
  6
Continuous
 62
     7
100
AcDbCircle
 10
6274.0187553361
 20
4257.8234065038
 30
0.0
 40
19.49999999995991
100
AcDbArc
 50
166.9496950603
 51
193.0503049397
  0
ARC
  5
94
330
1F
100
AcDbEntity
  8
0
  6
Continuous
 62
     7
100
AcDbCircle
 10
6258.9190864656
 20
4254.3234065038
 30
0.0
 40
3.999999999980276
100
AcDbArc
 50
193.0503049397
 51
13.0503049397
  0
ARC
  5
95
330
1F
100
AcDbEntity
  8
0
  6
Continuous
 62
     7
100
AcDbCircle
 10
6274.0187553361
 20
4257.8234065038
 30
0.0
 40
11.49999999999983
100
AcDbArc
 50
166.9496950603
 51
193.0503049397
  0
ARC
  5
96
330
1F
100
AcDbEntity
  8
0
  6
Continuous
 62
     7
100
AcDbCircle
 10
6258.9190864656
 20
4261.3234065038
 30
0.0
 40
4.000000000000384
100
AcDbArc
 50
346.9496950603
 51
166.9496950603
  0
ARC
  5
97
330
1F
100
AcDbEntity
  8
0
  6
Continuous
 62
     7
100
AcDbCircle
 10
6274.0187553361
 20
4257.8234065038
 30
0.0
 40
19.49999999995991
100
AcDbArc
 50
256.9496950603
 51
283.0503049397
  0
ARC
  5
98
330
1F
100
AcDbEntity
  8
0
  6
Continuous
 62
     7
100
AcDbCircle
 10
6277.5187553361
 20
4242.7237376333
 30
0.0
 40
3.999999999980276
100
AcDbArc
 50
283.0503049397
 51
103.0503049397
  0
ARC
  5
99
330
1F
100
AcDbEntity
  8
0
  6
Continuous
 62
     7
100
AcDbCircle
 10
6274.0187553361
 20
4257.8234065038
 30
0.0
 40
11.50000000000025
100
AcDbArc
 50
256.9496950603
 51
283.0503049397
  0
ARC
  5
9A
330
1F
100
AcDbEntity
  8
0
  6
Continuous
 62
     7
100
AcDbCircle
 10
6270.5187553361
 20
4242.7237376333
 30
0.0
 40
4.000000000000384
100
AcDbArc
 50
76.9496950603
 51
256.9496950603
  0
ARC
  5
9B
330
1F
100
AcDbEntity
  8
0
  6
Continuous
 62
     7
100
AcDbCircle
 10
6274.0187553361
 20
4257.8234065038
 30
0.0
 40
19.49999999995991
100
AcDbArc
 50
346.9496950603
 51
13.0503049397
  0
ARC
  5
9C
330
1F
100
AcDbEntity
  8
0
  6
Continuous
 62
     7
100
AcDbCircle
 10
6289.1184242066
 20
4261.3234065038
 30
0.0
 40
3.999999999980276
100
AcDbArc
 50
13.0503049397
 51
193.0503049397
  0
ARC
  5
9D
330
1F
100
AcDbEntity
  8
0
  6
Continuous
 62
     7
100
AcDbCircle
 10
6274.0187553361
 20
4257.8234065038
 30
0.0
 40
11.50000000000004
100
AcDbArc
 50
346.9496950603
 51
13.0503049397
  0
ARC
  5
9E
330
1F
100
AcDbEntity
  8
0
  6
Continuous
 62
     7
100
AcDbCircle
 10
6289.1184242066
 20
4254.3234065038
 30
0.0
 40
4.000000000000384
100
AcDbArc
 50
166.9496950603
 51
346.9496950603
  0
ARC
  5
9F
330
1F
100
AcDbEntity
  8
0
  6
Continuous
 62
     7
100
AcDbCircle
 10
6274.0187553361
 20
4257.8234065038
 30
0.0
 40
19.50000000005846
100
AcDbArc
 50
76.9496950604
 51
103.0503049396
  0
ARC
  5
A0
330
1F
100
AcDbEntity
  8
0
  6
Continuous
 62
     7
100
AcDbCircle
 10
6270.5187553361
 20
4272.9230753744
 30
0.0
 40
4.000000000029211
100
AcDbArc
 50
103.0503049396
 51
283.0503049396
  0
ARC
  5
A1
330
1F
100
AcDbEntity
  8
0
  6
Continuous
 62
     7
100
AcDbCircle
 10
6274.0187553361
 20
4257.8234065038
 30
0.0
 40
11.50000000005551
100
AcDbArc
 50
76.9496950604
 51
103.0503049397
  0
ARC
  5
A2
330
1F
100
AcDbEntity
  8
0
  6
Continuous
 62
     7
100
AcDbCircle
 10
6277.5187553361
 20
4272.9230753744
 30
0.0
 40
4.000000000001475
100
AcDbArc
 50
256.9496950603
 51
76.9496950603
  0
CIRCLE
  5
A3
330
1F
100
AcDbEntity
  8
0
  6
Continuous
 62
     7
100
AcDbCircle
 10
6274.0187553361
 20
4257.8234065038
 30
0.0
 40
5.682050807568885
  0
ARC
  5
A4
330
1F
100
AcDbEntity
  8
0
  6
Continuous
 62
     7
100
AcDbCircle
 10
5674.0187612966
 20
4369.0737450941
 30
0.0
 40
27.00000000000187
100
AcDbArc
 50
207.8409954059
 51
332.1590045941
  0
ARC
  5
A5
330
1F
100
AcDbEntity
  8
0
  6
Continuous
 62
     7
100
AcDbCircle
 10
6874.0187493756
 20
4369.0737450941
 30
0.0
 40
27.00000000000187
100
AcDbArc
 50
207.8409954059
 51
332.1590045941
  0
ARC
  5
A6
330
1F
100
AcDbEntity
  8
0
  6
Continuous
 62
     7
100
AcDbCircle
 10
6274.0187553361
 20
4369.0737415673
 30
0.0
 40
27.00000000000115
100
AcDbArc
 50
207.840986942
 51
332.159013058
  0
LINE
  5
A7
330
1F
100
AcDbEntity
  8
0
  6
Continuous
 62
     7
100
AcDbLine
 10
7174.0187314942
 20
5614.1826664671
 30
0.0
 11
7172.5187806085
 21
5614.1826664671
 31
0.0
  0
LINE
  5
A8
330
1F
100
AcDbEntity
  8
0
  6
Continuous
 62
     7
100
AcDbLine
 10
5375.5187300637
 20
5614.1826664671
 30
0.0
 11
5374.018779178
 21
5614.1826664671
 31
0.0
  0
LINE
  5
A9
330
1F
100
AcDbEntity
  8
0
  6
Continuous
 62
     7
100
AcDbLine
 10
7172.5187806085
 20
5233.2180445656
 30
0.0
 11
5375.5187300637
 21
5233.2180445656
 31
0.0
  0
LINE
  5
AA
330
1F
100
AcDbEntity
  8
0
  6
Continuous
 62
     7
100
AcDbLine
 10
7172.5187806085
 20
5614.1826664671
 30
0.0
 11
5375.5187300637
 21
5614.1826664671
 31
0.0
  0
LINE
  5
AB
330
1F
100
AcDbEntity
  8
0
  6
Continuous
 62
     7
100
AcDbLine
 10
7174.0187314942
 20
5129.0257690117
 30
0.0
 11
7172.5187806085
 21
5129.0257690117
 31
0.0
  0
LINE
  5
AC
330
1F
100
AcDbEntity
  8
0
  6
Continuous
 62
     7
100
AcDbLine
 10
7174.0187314942
 20
5127.646908687
 30
0.0
 11
7174.0187314942
 21
5129.0257690117
 31
0.0
  0
LINE
  5
AD
330
1F
100
AcDbEntity
  8
0
  6
Continuous
 62
     7
100
AcDbLine
 10
7174.0187314942
 20
5127.646908687
 30
0.0
 11
7172.5187806085
 21
5127.646908687
 31
0.0
  0
LINE
  5
AE
330
1F
100
AcDbEntity
  8
0
  6
Continuous
 62
     7
100
AcDbLine
 10
7172.5187806085
 20
5127.646908687
 30
0.0
 11
7172.5187806085
 21
5129.0257690117
 31
0.0
  0
LINE
  5
AF
330
1F
100
AcDbEntity
  8
0
  6
Continuous
 62
     7
100
AcDbLine
 10
7174.0187314942
 20
5486.4667212233
 30
0.0
 11
7172.5187806085
 21
5486.4667212233
 31
0.0
  0
LINE
  5
B0
330
1F
100
AcDbEntity
  8
0
  6
Continuous
 62
     7
100
AcDbLine
 10
7174.0187314942
 20
5129.0257690117
 30
0.0
 11
7174.0187314942
 21
5486.4667212233
 31
0.0
  0
LINE
  5
B1
330
1F
100
AcDbEntity
  8
0
  6
Continuous
 62
     7
100
AcDbLine
 10
7172.5187806085
 20
5129.0257690117
 30
0.0
 11
7172.5187806085
 21
5217.8180520996
 31
0.0
  0
LINE
  5
B2
330
1F
100
AcDbEntity
  8
0
  6
Continuous
 62
     7
100
AcDbLine
 10
7172.5187806085
 20
5233.2180445656
 30
0.0
 11
7172.5187806085
 21
5486.4667212233
 31
0.0
  0
LINE
  5
B3
330
1F
100
AcDbEntity
  8
0
  6
Continuous
 62
     7
100
AcDbLine
 10
7174.0187314942
 20
5533.451334165
 30
0.0
 11
7172.5187806085
 21
5533.451334165
 31
0.0
  0
LINE
  5
B4
330
1F
100
AcDbEntity
  8
0
  6
Continuous
 62
     7
100
AcDbLine
 10
7174.0187314942
 20
5486.4667212233
 30
0.0
 11
7174.0187314942
 21
5533.451334165
 31
0.0
  0
LINE
  5
B5
330
1F
100
AcDbEntity
  8
0
  6
Continuous
 62
     7
100
AcDbLine
 10
7172.5187806085
 20
5486.4667212233
 30
0.0
 11
7172.5187806085
 21
5533.451334165
 31
0.0
  0
LINE
  5
B6
330
1F
100
AcDbEntity
  8
0
  6
Continuous
 62
     7
100
AcDbLine
 10
7174.0187314942
 20
5093.7874080837
 30
0.0
 11
7172.5187806085
 21
5093.7874080837
 31
0.0
  0
LINE
  5
B7
330
1F
100
AcDbEntity
  8
0
  6
Continuous
 62
     7
100
AcDbLine
 10
7174.0187314942
 20
5093.7874080837
 30
0.0
 11
7174.0187314942
 21
5127.646908687
 31
0.0
  0
LINE
  5
B8
330
1F
100
AcDbEntity
  8
0
  6
Continuous
 62
     7
100
AcDbLine
 10
7172.5187806085
 20
5093.7874080837
 30
0.0
 11
7172.5187806085
 21
5127.646908687
 31
0.0
  0
LINE
  5
B9
330
1F
100
AcDbEntity
  8
0
  6
Continuous
 62
     7
100
AcDbLine
 10
7174.0187314942
 20
5614.065066503
 30
0.0
 11
7172.5187806085
 21
5614.065066503
 31
0.0
  0
LINE
  5
BA
330
1F
100
AcDbEntity
  8
0
  6
Continuous
 62
     7
100
AcDbLine
 10
7174.0187314942
 20
5533.451334165
 30
0.0
 11
7174.0187314942
 21
5614.065066503
 31
0.0
  0
LINE
  5
BB
330
1F
100
AcDbEntity
  8
0
  6
Continuous
 62
     7
100
AcDbLine
 10
7172.5187806085
 20
5533.451334165
 30
0.0
 11
7172.5187806085
 21
5614.065066503
 31
0.0
  0
LINE
  5
BC
330
1F
100
AcDbEntity
  8
0
  6
Continuous
 62
     7
100
AcDbLine
 10
7174.0187314942
 20
5093.2162663076
 30
0.0
 11
7172.5187806085
 21
5093.2162663076
 31
0.0
  0
LINE
  5
BD
330
1F
100
AcDbEntity
  8
0
  6
Continuous
 62
     7
100
AcDbLine
 10
7174.0187314942
 20
5093.2162663076
 30
0.0
 11
7174.0187314942
 21
5093.7874080837
 31
0.0
  0
LINE
  5
BE
330
1F
100
AcDbEntity
  8
0
  6
Continuous
 62
     7
100
AcDbLine
 10
7172.5187806085
 20
5093.2162663076
 30
0.0
 11
7172.5187806085
 21
5093.7874080837
 31
0.0
  0
LINE
  5
BF
330
1F
100
AcDbEntity
  8
0
  6
Continuous
 62
     7
100
AcDbLine
 10
7174.0187314942
 20
5614.065066503
 30
0.0
 11
7174.0187314942
 21
5614.1826664671
 31
0.0
  0
LINE
  5
C0
330
1F
100
AcDbEntity
  8
0
  6
Continuous
 62
     7
100
AcDbLine
 10
7172.5187806085
 20
5614.065066503
 30
0.0
 11
7172.5187806085
 21
5614.1826664671
 31
0.0
  0
LINE
  5
C1
330
1F
100
AcDbEntity
  8
0
  6
Continuous
 62
     7
100
AcDbLine
 10
6390.2687562302
 20
4813.2162546381
 30
0.0
 11
6390.2687562302
 21
5093.2162663076
 31
0.0
  0
LINE
  5
C2
330
1F
100
AcDbEntity
  8
0
  6
Continuous
 62
     7
100
AcDbLine
 10
6157.768754442
 20
4813.2162546381
 30
0.0
 11
6390.2687562302
 21
4813.2162546381
 31
0.0
  0
LINE
  5
C3
330
1F
100
AcDbEntity
  8
0
  6
Continuous
 62
     7
100
AcDbLine
 10
6157.768754442
 20
4813.2162546381
 30
0.0
 11
6157.768754442
 21
5093.2162663076
 31
0.0
  0
LINE
  5
C4
330
1F
100
AcDbEntity
  8
0
  6
Continuous
 62
     7
100
AcDbLine
 10
6391.5187550381
 20
4813.2162546381
 30
0.0
 11
6391.5187550381
 21
5093.2162663076
 31
0.0
  0
LINE
  5
C5
330
1F
100
AcDbEntity
  8
0
  6
Continuous
 62
     7
100
AcDbLine
 10
6390.2687562302
 20
4813.2162546381
 30
0.0
 11
6391.5187550381
 21
4813.2162546381
 31
0.0
  0
LINE
  5
C6
330
1F
100
AcDbEntity
  8
0
  6
Continuous
 62
     7
100
AcDbLine
 10
6156.5187556341
 20
4813.2162546381
 30
0.0
 11
6157.768754442
 21
4813.2162546381
 31
0.0
  0
LINE
  5
C7
330
1F
100
AcDbEntity
  8
0
  6
Continuous
 62
     7
100
AcDbLine
 10
6156.5187556341
 20
4813.2162546381
 30
0.0
 11
6156.5187556341
 21
5093.2162663076
 31
0.0
  0
LINE
  5
C8
330
1F
100
AcDbEntity
  8
0
  6
Continuous
 62
     7
100
AcDbLine
 10
6391.968755205
 20
4813.2162546381
 30
0.0
 11
6391.968755205
 21
5093.2162663076
 31
0.0
  0
LINE
  5
C9
330
1F
100
AcDbEntity
  8
0
  6
Continuous
 62
     7
100
AcDbLine
 10
6391.5187550381
 20
4813.2162546381
 30
0.0
 11
6391.968755205
 21
4813.2162546381
 31
0.0
  0
LINE
  5
CA
330
1F
100
AcDbEntity
  8
0
  6
Continuous
 62
     7
100
AcDbLine
 10
6156.0687554672
 20
4813.2162546381
 30
0.0
 11
6156.0687554672
 21
5093.2162663076
 31
0.0
  0
LINE
  5
CB
330
1F
100
AcDbEntity
  8
0
  6
Continuous
 62
     7
100
AcDbLine
 10
6156.0687554672
 20
4813.2162546381
 30
0.0
 11
6156.5187556341
 21
4813.2162546381
 31
0.0
  0
LINE
  5
CC
330
1F
100
AcDbEntity
  8
0
  6
Continuous
 62
     7
100
AcDbLine
 10
6421.7187521651
 20
4813.2162546381
 30
0.0
 11
6421.7187521651
 21
5093.2162663076
 31
0.0
  0
LINE
  5
CD
330
1F
100
AcDbEntity
  8
0
  6
Continuous
 62
     7
100
AcDbLine
 10
6391.968755205
 20
4813.2162546381
 30
0.0
 11
6421.7187521651
 21
4813.2162546381
 31
0.0
  0
LINE
  5
CE
330
1F
100
AcDbEntity
  8
0
  6
Continuous
 62
     7
100
AcDbLine
 10
6126.3187585071
 20
4813.2162546381
 30
0.0
 11
6156.0687554672
 21
4813.2162546381
 31
0.0
  0
LINE
  5
CF
330
1F
100
AcDbEntity
  8
0
  6
Continuous
 62
     7
100
AcDbLine
 10
6126.3187585071
 20
4813.2162546381
 30
0.0
 11
6126.3187585071
 21
5093.2162663076
 31
0.0
  0
LINE
  5
D0
330
1F
100
AcDbEntity
  8
0
  6
Continuous
 62
     7
100
AcDbLine
 10
5374.018779178
 20
5127.646908687
 30
0.0
 11
5375.5187300637
 21
5127.646908687
 31
0.0
  0
LINE
  5
D1
330
1F
100
AcDbEntity
  8
0
  6
Continuous
 62
     7
100
AcDbLine
 10
5374.018779178
 20
5127.646908687
 30
0.0
 11
5374.018779178
 21
5129.0257690117
 31
0.0
  0
LINE
  5
D2
330
1F
100
AcDbEntity
  8
0
  6
Continuous
 62
     7
100
AcDbLine
 10
5374.018779178
 20
5129.0257690117
 30
0.0
 11
5375.5187300637
 21
5129.0257690117
 31
0.0
  0
LINE
  5
D3
330
1F
100
AcDbEntity
  8
0
  6
Continuous
 62
     7
100
AcDbLine
 10
5375.5187300637
 20
5127.646908687
 30
0.0
 11
5375.5187300637
 21
5129.0257690117
 31
0.0
  0
LINE
  5
D4
330
1F
100
AcDbEntity
  8
0
  6
Continuous
 62
     7
100
AcDbLine
 10
5374.018779178
 20
5129.0257690117
 30
0.0
 11
5374.018779178
 21
5486.4667212233
 31
0.0
  0
LINE
  5
D5
330
1F
100
AcDbEntity
  8
0
  6
Continuous
 62
     7
100
AcDbLine
 10
5374.018779178
 20
5486.4667212233
 30
0.0
 11
5375.5187300637
 21
5486.4667212233
 31
0.0
  0
LINE
  5
D6
330
1F
100
AcDbEntity
  8
0
  6
Continuous
 62
     7
100
AcDbLine
 10
5375.5187300637
 20
5129.0257690117
 30
0.0
 11
5375.5187300637
 21
5217.8180520996
 31
0.0
  0
LINE
  5
D7
330
1F
100
AcDbEntity
  8
0
  6
Continuous
 62
     7
100
AcDbLine
 10
5375.5187300637
 20
5233.2180445656
 30
0.0
 11
5375.5187300637
 21
5486.4667212233
 31
0.0
  0
LINE
  5
D8
330
1F
100
AcDbEntity
  8
0
  6
Continuous
 62
     7
100
AcDbLine
 10
5374.018779178
 20
5533.451334165
 30
0.0
 11
5375.5187300637
 21
5533.451334165
 31
0.0
  0
LINE
  5
D9
330
1F
100
AcDbEntity
  8
0
  6
Continuous
 62
     7
100
AcDbLine
 10
5374.018779178
 20
5486.4667212233
 30
0.0
 11
5374.018779178
 21
5533.451334165
 31
0.0
  0
LINE
  5
DA
330
1F
100
AcDbEntity
  8
0
  6
Continuous
 62
     7
100
AcDbLine
 10
5375.5187300637
 20
5486.4667212233
 30
0.0
 11
5375.5187300637
 21
5533.451334165
 31
0.0
  0
LINE
  5
DB
330
1F
100
AcDbEntity
  8
0
  6
Continuous
 62
     7
100
AcDbLine
 10
5374.018779178
 20
5093.7874080837
 30
0.0
 11
5375.5187300637
 21
5093.7874080837
 31
0.0
  0
LINE
  5
DC
330
1F
100
AcDbEntity
  8
0
  6
Continuous
 62
     7
100
AcDbLine
 10
5374.018779178
 20
5093.7874080837
 30
0.0
 11
5374.018779178
 21
5127.646908687
 31
0.0
  0
LINE
  5
DD
330
1F
100
AcDbEntity
  8
0
  6
Continuous
 62
     7
100
AcDbLine
 10
5375.5187300637
 20
5093.7874080837
 30
0.0
 11
5375.5187300637
 21
5127.646908687
 31
0.0
  0
LINE
  5
DE
330
1F
100
AcDbEntity
  8
0
  6
Continuous
 62
     7
100
AcDbLine
 10
5374.018779178
 20
5614.065066503
 30
0.0
 11
5375.5187300637
 21
5614.065066503
 31
0.0
  0
LINE
  5
DF
330
1F
100
AcDbEntity
  8
0
  6
Continuous
 62
     7
100
AcDbLine
 10
5374.018779178
 20
5533.451334165
 30
0.0
 11
5374.018779178
 21
5614.065066503
 31
0.0
  0
LINE
  5
E0
330
1F
100
AcDbEntity
  8
0
  6
Continuous
 62
     7
100
AcDbLine
 10
5375.5187300637
 20
5533.451334165
 30
0.0
 11
5375.5187300637
 21
5614.065066503
 31
0.0
  0
LINE
  5
E1
330
1F
100
AcDbEntity
  8
0
  6
Continuous
 62
     7
100
AcDbLine
 10
5374.018779178
 20
5093.2162663076
 30
0.0
 11
5375.5187300637
 21
5093.2162663076
 31
0.0
  0
LINE
  5
E2
330
1F
100
AcDbEntity
  8
0
  6
Continuous
 62
     7
100
AcDbLine
 10
5374.018779178
 20
5093.2162663076
 30
0.0
 11
5374.018779178
 21
5093.7874080837
 31
0.0
  0
LINE
  5
E3
330
1F
100
AcDbEntity
  8
0
  6
Continuous
 62
     7
100
AcDbLine
 10
5375.5187300637
 20
5093.2162663076
 30
0.0
 11
5375.5187300637
 21
5093.7874080837
 31
0.0
  0
LINE
  5
E4
330
1F
100
AcDbEntity
  8
0
  6
Continuous
 62
     7
100
AcDbLine
 10
5374.018779178
 20
5614.065066503
 30
0.0
 11
5374.018779178
 21
5614.1826664671
 31
0.0
  0
LINE
  5
E5
330
1F
100
AcDbEntity
  8
0
  6
Continuous
 62
     7
100
AcDbLine
 10
5375.5187300637
 20
5614.065066503
 30
0.0
 11
5375.5187300637
 21
5614.1826664671
 31
0.0
  0
LINE
  5
E6
330
1F
100
AcDbEntity
  8
0
  6
Continuous
 62
     7
100
AcDbLine
 10
7172.5187806085
 20
5230.9680586323
 30
0.0
 11
5375.5187300637
 21
5230.9680586323
 31
0.0
  0
LINE
  5
E7
330
1F
100
AcDbEntity
  8
0
  6
Continuous
 62
     7
100
AcDbLine
 10
7172.5187806085
 20
5217.8180520996
 30
0.0
 11
5375.5187300637
 21
5217.8180520996
 31
0.0
  0
LINE
  5
E8
330
1F
100
AcDbEntity
  8
0
  6
Continuous
 62
     7
100
AcDbLine
 10
7172.5187806085
 20
5217.8180520996
 30
0.0
 11
7172.5187806085
 21
5230.9680586323
 31
0.0
  0
LINE
  5
E9
330
1F
100
AcDbEntity
  8
0
  6
Continuous
 62
     7
100
AcDbLine
 10
5375.5187300637
 20
5217.8180520996
 30
0.0
 11
5375.5187300637
 21
5230.9680586323
 31
0.0
  0
LINE
  5
EA
330
1F
100
AcDbEntity
  8
0
  6
Continuous
 62
     7
100
AcDbLine
 10
5375.5187300637
 20
5230.9680586323
 30
0.0
 11
5375.5187300637
 21
5233.2180445656
 31
0.0
  0
LINE
  5
EB
330
1F
100
AcDbEntity
  8
0
  6
Continuous
 62
     7
100
AcDbLine
 10
7172.5187806085
 20
5230.9680586323
 30
0.0
 11
7172.5187806085
 21
5233.2180445656
 31
0.0
  0
LINE
  5
EC
330
1F
100
AcDbEntity
  8
0
  6
Continuous
 62
     7
100
AcDbLine
 10
7172.5187806085
 20
5129.0257690117
 30
0.0
 11
5375.5187300637
 21
5129.0257690117
 31
0.0
  0
LINE
  5
ED
330
1F
100
AcDbEntity
  8
0
  6
Continuous
 62
     7
100
AcDbLine
 10
7172.5187806085
 20
5127.646908687
 30
0.0
 11
5375.5187300637
 21
5127.646908687
 31
0.0
  0
LINE
  5
EE
330
1F
100
AcDbEntity
  8
0
  6
Continuous
 62
     7
100
AcDbLine
 10
7172.5187806085
 20
5093.7874080837
 30
0.0
 11
5375.5187300637
 21
5093.7874080837
 31
0.0
  0
LINE
  5
EF
330
1F
100
AcDbEntity
  8
0
  6
Continuous
 62
     7
100
AcDbLine
 10
7172.5187806085
 20
5093.2162663076
 30
0.0
 11
5375.5187300637
 21
5093.2162663076
 31
0.0
  0
LINE
  5
F0
330
1F
100
AcDbEntity
  8
0
  6
Continuous
 62
     7
100
AcDbLine
 10
7172.5187806085
 20
5596.5456520781
 30
0.0
 11
5375.5187300637
 21
5596.5456520781
 31
0.0
  0
LINE
  5
F1
330
1F
100
AcDbEntity
  8
0
  6
Continuous
 62
     7
100
AcDbLine
 10
7172.5187806085
 20
5598.3780776724
 30
0.0
 11
5375.5187300637
 21
5598.3780776724
 31
0.0
  0
LINE
  5
F2
330
1F
100
AcDbEntity
  8
0
  6
Continuous
 62
     7
100
AcDbLine
 10
7172.5187806085
 20
5614.065066503
 30
0.0
 11
5375.5187300637
 21
5614.065066503
 31
0.0
  0
LINE
  5
F3
330
1F
100
AcDbEntity
  8
0
  6
Continuous
 62
     7
100
AcDbLine
 10
7172.5187806085
 20
5598.3780776724
 30
0.0
 11
7172.5187806085
 21
5614.065066503
 31
0.0
  0
LINE
  5
F4
330
1F
100
AcDbEntity
  8
0
  6
Continuous
 62
     7
100
AcDbLine
 10
5375.5187300637
 20
5598.3780776724
 30
0.0
 11
5375.5187300637
 21
5614.065066503
 31
0.0
  0
LINE
  5
F5
330
1F
100
AcDbEntity
  8
0
  6
Continuous
 62
     7
100
AcDbLine
 10
6262.0187552318
 20
5104.3232991934
 30
0.0
 11
6286.0187554404
 21
5104.3232991934
 31
0.0
  0
LINE
  5
F6
330
1F
100
AcDbEntity
  8
0
  6
Continuous
 62
     7
100
AcDbLine
 10
6262.0187552318
 20
5107.8588334486
 30
0.0
 11
6262.0187552318
 21
5104.3232991934
 31
0.0
  0
LINE
  5
F7
330
1F
100
AcDbEntity
  8
0
  6
Continuous
 62
     7
100
AcDbLine
 10
6286.0187554404
 20
5107.8588334486
 30
0.0
 11
6262.0187552318
 21
5107.8588334486
 31
0.0
  0
LINE
  5
F8
330
1F
100
AcDbEntity
  8
0
  6
Continuous
 62
     7
100
AcDbLine
 10
6286.0187554404
 20
5104.3232991934
 30
0.0
 11
6286.0187554404
 21
5107.8588334486
 31
0.0
  0
LINE
  5
F9
330
1F
100
AcDbEntity
  8
0
  6
Continuous
 62
     7
100
AcDbLine
 10
6266.1377453849
 20
5106.7981725201
 30
0.0
 11
6266.4033706903
 21
5105.3839591905
 31
0.0
  0
LINE
  5
FA
330
1F
100
AcDbEntity
  8
0
  6
Continuous
 62
     7
100
AcDbLine
 10
6266.111703743
 20
5106.7981725201
 30
0.0
 11
6266.1377453849
 21
5106.7981725201
 31
0.0
  0
LINE
  5
FB
330
1F
100
AcDbEntity
  8
0
  6
Continuous
 62
     7
100
AcDbLine
 10
6265.2879861787
 20
5105.6377920896
 30
0.0
 11
6266.111703743
 21
5106.7981725201
 31
0.0
  0
LINE
  5
FC
330
1F
100
AcDbEntity
  8
0
  6
Continuous
 62
     7
100
AcDbLine
 10
6264.4622653395
 20
5106.7981725201
 30
0.0
 11
6265.2879861787
 21
5105.6377920896
 31
0.0
  0
LINE
  5
FD
330
1F
100
AcDbEntity
  8
0
  6
Continuous
 62
     7
100
AcDbLine
 10
6264.4366241664
 20
5106.7981725201
 30
0.0
 11
6264.4622653395
 21
5106.7981725201
 31
0.0
  0
LINE
  5
FE
330
1F
100
AcDbEntity
  8
0
  6
Continuous
 62
     7
100
AcDbLine
 10
6264.172601667
 20
5105.3839591905
 30
0.0
 11
6264.4366241664
 21
5106.7981725201
 31
0.0
  0
LINE
  5
FF
330
1F
100
AcDbEntity
  8
0
  6
Continuous
 62
     7
100
AcDbLine
 10
6268.6762070887
 20
5106.7981725201
 30
0.0
 11
6268.9418323941
 21
5105.3839591905
 31
0.0
  0
LINE
  5
100
330
1F
100
AcDbEntity
  8
0
  6
Continuous
 62
     7
100
AcDbLine
 10
6268.6501654468
 20
5106.7981725201
 30
0.0
 11
6268.6762070887
 21
5106.7981725201
 31
0.0
  0
LINE
  5
101
330
1F
100
AcDbEntity
  8
0
  6
Continuous
 62
     7
100
AcDbLine
 10
6267.8264474168
 20
5105.6377920896
 30
0.0
 11
6268.6501654468
 21
5106.7981725201
 31
0.0
  0
LINE
  5
102
330
1F
100
AcDbEntity
  8
0
  6
Continuous
 62
     7
100
AcDbLine
 10
6267.0007265776
 20
5106.7981725201
 30
0.0
 11
6267.8264474168
 21
5105.6377920896
 31
0.0
  0
LINE
  5
103
330
1F
100
AcDbEntity
  8
0
  6
Continuous
 62
     7
100
AcDbLine
 10
6266.9750854045
 20
5106.7981725201
 30
0.0
 11
6267.0007265776
 21
5106.7981725201
 31
0.0
  0
LINE
  5
104
330
1F
100
AcDbEntity
  8
0
  6
Continuous
 62
     7
100
AcDbLine
 10
6266.7110629052
 20
5105.3839591905
 30
0.0
 11
6266.9750854045
 21
5106.7981725201
 31
0.0
  0
LINE
  5
105
330
1F
100
AcDbEntity
  8
0
  6
Continuous
 62
     7
100
AcDbLine
 10
6269.1982427284
 20
5105.1845192551
 30
0.0
 11
6270.0347808793
 21
5106.8344344958
 31
0.0
  0
LINE
  5
106
330
1F
100
AcDbEntity
  8
0
  6
Continuous
 62
     7
100
AcDbLine
 10
6270.0347808793
 20
5106.8344344958
 30
0.0
 11
6270.2238835998
 21
5106.8344344958
 31
0.0
  0
LINE
  5
107
330
1F
100
AcDbEntity
  8
0
  6
Continuous
 62
     7
100
AcDbLine
 10
6271.1114458878
 20
5106.0304963603
 30
0.0
 11
6271.8392681934
 21
5105.3839591905
 31
0.0
  0
LINE
  5
108
330
1F
100
AcDbEntity
  8
0
  6
Continuous
 62
     7
100
AcDbLine
 10
6270.5572169878
 20
5106.7981725201
 30
0.0
 11
6270.957457288
 21
5106.7981725201
 31
0.0
  0
LINE
  5
109
330
1F
100
AcDbEntity
  8
0
  6
Continuous
 62
     7
100
AcDbLine
 10
6272.8037536515
 20
5106.0304963603
 30
0.0
 11
6273.5315758407
 21
5105.3839591905
 31
0.0
  0
LINE
  5
10A
330
1F
100
AcDbEntity
  8
0
  6
Continuous
 62
     7
100
AcDbLine
 10
6272.2495245187
 20
5106.7981725201
 30
0.0
 11
6272.6497649353
 21
5106.7981725201
 31
0.0
  0
LINE
  5
10B
330
1F
100
AcDbEntity
  8
0
  6
Continuous
 62
     7
100
AcDbLine
 10
6274.53157583
 20
5106.0004109159
 30
0.0
 11
6275.3008066582
 21
5106.0004109159
 31
0.0
  0
LINE
  5
10C
330
1F
100
AcDbEntity
  8
0
  6
Continuous
 62
     7
100
AcDbLine
 10
6276.2367040057
 20
5105.3839591905
 30
0.0
 11
6276.8865478363
 21
5106.1016950398
 31
0.0
  0
LINE
  5
10D
330
1F
100
AcDbEntity
  8
0
  6
Continuous
 62
     7
100
AcDbLine
 10
6277.1000793807
 20
5106.1016950398
 30
0.0
 11
6277.7495246053
 21
5105.3839591905
 31
0.0
  0
LINE
  5
10E
330
1F
100
AcDbEntity
  8
0
  6
Continuous
 62
     7
100
AcDbLine
 10
6277.5167521693
 20
5106.7981725201
 30
0.0
 11
6277.7238834321
 21
5106.7981725201
 31
0.0
  0
LINE
  5
10F
330
1F
100
AcDbEntity
  8
0
  6
Continuous
 62
     7
100
AcDbLine
 10
6276.9931144219
 20
5106.2196824342
 30
0.0
 11
6277.5167521693
 21
5106.7981725201
 31
0.0
  0
LINE
  5
110
330
1F
100
AcDbEntity
  8
0
  6
Continuous
 62
     7
100
AcDbLine
 10
6276.4694764417
 20
5106.7981725201
 30
0.0
 11
6276.9931144219
 21
5106.2196824342
 31
0.0
  0
LINE
  5
111
330
1F
100
AcDbEntity
  8
0
  6
Continuous
 62
     7
100
AcDbLine
 10
6276.2623451788
 20
5106.7981725201
 30
0.0
 11
6276.4694764417
 21
5106.7981725201
 31
0.0
  0
LINE
  5
112
330
1F
100
AcDbEntity
  8
0
  6
Continuous
 62
     7
100
AcDbLine
 10
6277.9290118858
 20
5105.3839591905
 30
0.0
 11
6278.5788557164
 21
5106.1016950398
 31
0.0
  0
LINE
  5
113
330
1F
100
AcDbEntity
  8
0
  6
Continuous
 62
     7
100
AcDbLine
 10
6278.792387028
 20
5106.1016950398
 30
0.0
 11
6279.4418322526
 21
5105.3839591905
 31
0.0
  0
LINE
  5
114
330
1F
100
AcDbEntity
  8
0
  6
Continuous
 62
     7
100
AcDbLine
 10
6279.2090598166
 20
5106.7981725201
 30
0.0
 11
6279.4161910795
 21
5106.7981725201
 31
0.0
  0
LINE
  5
115
330
1F
100
AcDbEntity
  8
0
  6
Continuous
 62
     7
100
AcDbLine
 10
6278.6854218364
 20
5106.2196824342
 30
0.0
 11
6279.2090598166
 21
5106.7981725201
 31
0.0
  0
LINE
  5
116
330
1F
100
AcDbEntity
  8
0
  6
Continuous
 62
     7
100
AcDbLine
 10
6278.1617843218
 20
5106.7981725201
 30
0.0
 11
6278.6854218364
 21
5106.2196824342
 31
0.0
  0
LINE
  5
117
330
1F
100
AcDbEntity
  8
0
  6
Continuous
 62
     7
100
AcDbLine
 10
6277.9546525933
 20
5106.7981725201
 30
0.0
 11
6278.1617843218
 21
5106.7981725201
 31
0.0
  0
LINE
  5
118
330
1F
100
AcDbEntity
  8
0
  6
Continuous
 62
     7
100
AcDbLine
 10
6279.6213195331
 20
5105.3839591905
 30
0.0
 11
6280.2711633637
 21
5106.1016950398
 31
0.0
  0
LINE
  5
119
330
1F
100
AcDbEntity
  8
0
  6
Continuous
 62
     7
100
AcDbLine
 10
6280.4846946754
 20
5106.1016950398
 30
0.0
 11
6281.1341398999
 21
5105.3839591905
 31
0.0
  0
LINE
  5
11A
330
1F
100
AcDbEntity
  8
0
  6
Continuous
 62
     7
100
AcDbLine
 10
6280.9013674639
 20
5106.7981725201
 30
0.0
 11
6281.1084987268
 21
5106.7981725201
 31
0.0
  0
LINE
  5
11B
330
1F
100
AcDbEntity
  8
0
  6
Continuous
 62
     7
100
AcDbLine
 10
6280.3777294837
 20
5106.2196824342
 30
0.0
 11
6280.9013674639
 21
5106.7981725201
 31
0.0
  0
LINE
  5
11C
330
1F
100
AcDbEntity
  8
0
  6
Continuous
 62
     7
100
AcDbLine
 10
6279.8540919691
 20
5106.7981725201
 30
0.0
 11
6280.3777294837
 21
5106.2196824342
 31
0.0
  0
LINE
  5
11D
330
1F
100
AcDbEntity
  8
0
  6
Continuous
 62
     7
100
AcDbLine
 10
6279.6469602406
 20
5106.7981725201
 30
0.0
 11
6279.8540919691
 21
5106.7981725201
 31
0.0
  0
LINE
  5
11E
330
1F
100
AcDbEntity
  8
0
  6
Continuous
 62
     7
100
AcDbLine
 10
6281.3136271805
 20
5105.3839591905
 30
0.0
 11
6281.9634705454
 21
5106.1016950398
 31
0.0
  0
LINE
  5
11F
330
1F
100
AcDbEntity
  8
0
  6
Continuous
 62
     7
100
AcDbLine
 10
6282.1770023227
 20
5106.1016950398
 30
0.0
 11
6282.8264480129
 21
5105.3839591905
 31
0.0
  0
LINE
  5
120
330
1F
100
AcDbEntity
  8
0
  6
Continuous
 62
     7
100
AcDbLine
 10
6282.5936751112
 20
5106.7981725201
 30
0.0
 11
6282.8008068398
 21
5106.7981725201
 31
0.0
  0
LINE
  5
121
330
1F
100
AcDbEntity
  8
0
  6
Continuous
 62
     7
100
AcDbLine
 10
6282.070037131
 20
5106.2196824342
 30
0.0
 11
6282.5936751112
 21
5106.7981725201
 31
0.0
  0
LINE
  5
122
330
1F
100
AcDbEntity
  8
0
  6
Continuous
 62
     7
100
AcDbLine
 10
6281.5463996164
 20
5106.7981725201
 30
0.0
 11
6282.070037131
 21
5106.2196824342
 31
0.0
  0
LINE
  5
123
330
1F
100
AcDbEntity
  8
0
  6
Continuous
 62
     7
100
AcDbLine
 10
6281.3392683536
 20
5106.7981725201
 30
0.0
 11
6281.5463996164
 21
5106.7981725201
 31
0.0
  0
LINE
  5
124
330
1F
100
AcDbEntity
  8
0
  6
Continuous
 62
     7
100
AcDbLine
 10
6283.0059343621
 20
5105.3839591905
 30
0.0
 11
6283.6557786584
 21
5106.1016950398
 31
0.0
  0
LINE
  5
125
330
1F
100
AcDbEntity
  8
0
  6
Continuous
 62
     7
100
AcDbLine
 10
6283.8693104356
 20
5106.1016950398
 30
0.0
 11
6284.5187551945
 21
5105.3839591905
 31
0.0
  0
LINE
  5
126
330
1F
100
AcDbEntity
  8
0
  6
Continuous
 62
     7
100
AcDbLine
 10
6284.2859832242
 20
5106.7981725201
 30
0.0
 11
6284.4931140214
 21
5106.7981725201
 31
0.0
  0
LINE
  5
127
330
1F
100
AcDbEntity
  8
0
  6
Continuous
 62
     7
100
AcDbLine
 10
6283.762345244
 20
5106.2196824342
 30
0.0
 11
6284.2859832242
 21
5106.7981725201
 31
0.0
  0
LINE
  5
128
330
1F
100
AcDbEntity
  8
0
  6
Continuous
 62
     7
100
AcDbLine
 10
6283.2387072638
 20
5106.7981725201
 30
0.0
 11
6283.762345244
 21
5106.2196824342
 31
0.0
  0
LINE
  5
129
330
1F
100
AcDbEntity
  8
0
  6
Continuous
 62
     7
100
AcDbLine
 10
6283.0315755352
 20
5106.7981725201
 30
0.0
 11
6283.2387072638
 21
5106.7981725201
 31
0.0
  0
LINE
  5
12A
330
1F
100
AcDbEntity
  8
0
  6
Continuous
 62
     7
100
AcDbLine
 10
6286.0187554404
 20
5107.8588334486
 30
0.0
 11
6286.0187554404
 21
5107.929544115
 31
0.0
  0
LINE
  5
12B
330
1F
100
AcDbEntity
  8
0
  6
Continuous
 62
     7
100
AcDbLine
 10
6262.0187552318
 20
5107.8588334486
 30
0.0
 11
6262.0187552318
 21
5107.929544115
 31
0.0
  0
LINE
  5
12C
330
1F
100
AcDbEntity
  8
0
  6
Continuous
 62
     7
100
AcDbLine
 10
6286.0187554404
 20
5107.929544115
 30
0.0
 11
6262.0187552318
 21
5107.929544115
 31
0.0
  0
LINE
  5
12D
330
1F
100
AcDbEntity
  8
0
  6
Continuous
 62
     7
100
AcDbLine
 10
6270.2238835998
 20
5106.8273638949
 30
0.0
 11
6270.2238835998
 21
5106.8344344958
 31
0.0
  0
LINE
  5
12E
330
1F
100
AcDbEntity
  8
0
  6
Continuous
 62
     7
100
AcDbLine
 10
6270.0347808793
 20
5106.8273638949
 30
0.0
 11
6270.2238835998
 21
5106.8273638949
 31
0.0
  0
LINE
  5
12F
330
1F
100
AcDbEntity
  8
0
  6
Continuous
 62
     7
100
AcDbLine
 10
6270.0347808793
 20
5106.8273638949
 30
0.0
 11
6270.0347808793
 21
5106.8344344958
 31
0.0
  0
LINE
  5
130
330
1F
100
AcDbEntity
  8
0
  6
Continuous
 62
     7
100
AcDbLine
 10
6270.2238835998
 20
5106.8273638949
 30
0.0
 11
6269.3873449832
 21
5105.1774477228
 31
0.0
  0
LINE
  5
131
330
1F
100
AcDbEntity
  8
0
  6
Continuous
 62
     7
100
AcDbLine
 10
6269.3873449832
 20
5105.1774477228
 30
0.0
 11
6269.1982427284
 21
5105.1774477228
 31
0.0
  0
LINE
  5
132
330
1F
100
AcDbEntity
  8
0
  6
Continuous
 62
     7
100
AcDbLine
 10
6269.1982427284
 20
5105.1774477228
 30
0.0
 11
6270.0347808793
 21
5106.8273638949
 31
0.0
  0
LINE
  5
133
330
1F
100
AcDbEntity
  8
0
  6
Continuous
 62
     7
100
AcDbLine
 10
6269.1982427284
 20
5105.1774477228
 30
0.0
 11
6269.1982427284
 21
5105.1845192551
 31
0.0
  0
LINE
  5
134
330
1F
100
AcDbEntity
  8
0
  6
Continuous
 62
     7
100
AcDbLine
 10
6272.4290117992
 20
5106.1746501937
 30
0.0
 11
6272.795197591
 21
5106.1726664766
 31
0.0
  0
LINE
  5
135
330
1F
100
AcDbEntity
  8
0
  6
Continuous
 62
     7
100
AcDbLine
 10
6272.8040117443
 20
5106.646054016
 30
0.0
 11
6272.4290117992
 21
5106.646054016
 31
0.0
  0
LINE
  5
136
330
1F
100
AcDbEntity
  8
0
  6
Continuous
 62
     7
100
AcDbLine
 10
6272.4290117992
 20
5106.646054016
 30
0.0
 11
6272.4290117992
 21
5106.1746501937
 31
0.0
  0
LINE
  5
137
330
1F
100
AcDbEntity
  8
0
  6
Continuous
 62
     7
100
AcDbLine
 10
6272.2495245187
 20
5106.7911019191
 30
0.0
 11
6272.6497649353
 21
5106.7911019191
 31
0.0
  0
LINE
  5
138
330
1F
100
AcDbEntity
  8
0
  6
Continuous
 62
     7
100
AcDbLine
 10
6272.7968001643
 20
5106.0296022907
 30
0.0
 11
6273.5315758407
 21
5105.3768885895
 31
0.0
  0
LINE
  5
139
330
1F
100
AcDbEntity
  8
0
  6
Continuous
 62
     7
100
AcDbLine
 10
6273.5315758407
 20
5105.3768885895
 30
0.0
 11
6273.3096207164
 21
5105.3768885895
 31
0.0
  0
LINE
  5
13A
330
1F
100
AcDbEntity
  8
0
  6
Continuous
 62
     7
100
AcDbLine
 10
6273.3096207164
 20
5105.3768885895
 30
0.0
 11
6272.57484504
 21
5106.0296022907
 31
0.0
  0
LINE
  5
13B
330
1F
100
AcDbEntity
  8
0
  6
Continuous
 62
     7
100
AcDbLine
 10
6272.57484504
 20
5106.0296022907
 30
0.0
 11
6272.4290117992
 21
5106.0296022907
 31
0.0
  0
LINE
  5
13C
330
1F
100
AcDbEntity
  8
0
  6
Continuous
 62
     7
100
AcDbLine
 10
6272.4290117992
 20
5106.0296022907
 30
0.0
 11
6272.4290117992
 21
5105.3768885895
 31
0.0
  0
LINE
  5
13D
330
1F
100
AcDbEntity
  8
0
  6
Continuous
 62
     7
100
AcDbLine
 10
6272.4290117992
 20
5105.3768885895
 30
0.0
 11
6272.2495245187
 21
5105.3768885895
 31
0.0
  0
LINE
  5
13E
330
1F
100
AcDbEntity
  8
0
  6
Continuous
 62
     7
100
AcDbLine
 10
6272.2495245187
 20
5105.3768885895
 30
0.0
 11
6272.2495245187
 21
5106.7911019191
 31
0.0
  0
LINE
  5
13F
330
1F
100
AcDbEntity
  8
0
  6
Continuous
 62
     7
100
AcDbLine
 10
6270.957457288
 20
5106.7911019191
 30
0.0
 11
6270.957457288
 21
5106.7981725201
 31
0.0
  0
LINE
  5
140
330
1F
100
AcDbEntity
  8
0
  6
Continuous
 62
     7
100
AcDbLine
 10
6270.5572169878
 20
5106.7911019191
 30
0.0
 11
6270.957457288
 21
5106.7911019191
 31
0.0
  0
LINE
  5
141
330
1F
100
AcDbEntity
  8
0
  6
Continuous
 62
     7
100
AcDbLine
 10
6270.5572169878
 20
5106.7911019191
 30
0.0
 11
6270.5572169878
 21
5106.7981725201
 31
0.0
  0
LINE
  5
142
330
1F
100
AcDbEntity
  8
0
  6
Continuous
 62
     7
100
AcDbLine
 10
6273.1028899805
 20
5106.7718375116
 30
0.0
 11
6273.1028899805
 21
5106.7789090439
 31
0.0
  0
LINE
  5
143
330
1F
100
AcDbEntity
  8
0
  6
Continuous
 62
     7
100
AcDbLine
 10
6272.6497649353
 20
5106.7911019191
 30
0.0
 11
6272.6497649353
 21
5106.7981725201
 31
0.0
  0
LINE
  5
144
330
1F
100
AcDbEntity
  8
0
  6
Continuous
 62
     7
100
AcDbLine
 10
6266.7110629052
 20
5105.3768885895
 30
0.0
 11
6266.9750854045
 21
5106.7911019191
 31
0.0
  0
LINE
  5
145
330
1F
100
AcDbEntity
  8
0
  6
Continuous
 62
     7
100
AcDbLine
 10
6266.9750854045
 20
5106.7911019191
 30
0.0
 11
6267.0007265776
 21
5106.7911019191
 31
0.0
  0
LINE
  5
146
330
1F
100
AcDbEntity
  8
0
  6
Continuous
 62
     7
100
AcDbLine
 10
6267.0007265776
 20
5106.7911019191
 30
0.0
 11
6267.8264474168
 21
5105.6307214886
 31
0.0
  0
LINE
  5
147
330
1F
100
AcDbEntity
  8
0
  6
Continuous
 62
     7
100
AcDbLine
 10
6267.8264474168
 20
5105.6307214886
 30
0.0
 11
6268.6501654468
 21
5106.7911019191
 31
0.0
  0
LINE
  5
148
330
1F
100
AcDbEntity
  8
0
  6
Continuous
 62
     7
100
AcDbLine
 10
6268.6501654468
 20
5106.7911019191
 30
0.0
 11
6268.6762070887
 21
5106.7911019191
 31
0.0
  0
LINE
  5
149
330
1F
100
AcDbEntity
  8
0
  6
Continuous
 62
     7
100
AcDbLine
 10
6268.6762070887
 20
5106.7911019191
 30
0.0
 11
6268.9418323941
 21
5105.3768885895
 31
0.0
  0
LINE
  5
14A
330
1F
100
AcDbEntity
  8
0
  6
Continuous
 62
     7
100
AcDbLine
 10
6268.9418323941
 20
5105.3768885895
 30
0.0
 11
6268.7615437105
 21
5105.3768885895
 31
0.0
  0
LINE
  5
14B
330
1F
100
AcDbEntity
  8
0
  6
Continuous
 62
     7
100
AcDbLine
 10
6268.7615437105
 20
5105.3768885895
 30
0.0
 11
6268.5700372465
 21
5106.3944870248
 31
0.0
  0
LINE
  5
14C
330
1F
100
AcDbEntity
  8
0
  6
Continuous
 62
     7
100
AcDbLine
 10
6268.5700372465
 20
5106.3944870248
 30
0.0
 11
6267.8480820402
 21
5105.3768885895
 31
0.0
  0
LINE
  5
14D
330
1F
100
AcDbEntity
  8
0
  6
Continuous
 62
     7
100
AcDbLine
 10
6267.8480820402
 20
5105.3768885895
 30
0.0
 11
6267.8076174714
 21
5105.3768885895
 31
0.0
  0
LINE
  5
14E
330
1F
100
AcDbEntity
  8
0
  6
Continuous
 62
     7
100
AcDbLine
 10
6267.8076174714
 20
5105.3768885895
 30
0.0
 11
6267.0828580528
 21
5106.396753864
 31
0.0
  0
LINE
  5
14F
330
1F
100
AcDbEntity
  8
0
  6
Continuous
 62
     7
100
AcDbLine
 10
6267.0828580528
 20
5106.396753864
 30
0.0
 11
6266.8917520575
 21
5105.3768885895
 31
0.0
  0
LINE
  5
150
330
1F
100
AcDbEntity
  8
0
  6
Continuous
 62
     7
100
AcDbLine
 10
6266.8917520575
 20
5105.3768885895
 30
0.0
 11
6266.7110629052
 21
5105.3768885895
 31
0.0
  0
LINE
  5
151
330
1F
100
AcDbEntity
  8
0
  6
Continuous
 62
     7
100
AcDbLine
 10
6266.1377453849
 20
5106.7911019191
 30
0.0
 11
6266.1377453849
 21
5106.7981725201
 31
0.0
  0
LINE
  5
152
330
1F
100
AcDbEntity
  8
0
  6
Continuous
 62
     7
100
AcDbLine
 10
6266.111703743
 20
5106.7911019191
 30
0.0
 11
6266.1377453849
 21
5106.7911019191
 31
0.0
  0
LINE
  5
153
330
1F
100
AcDbEntity
  8
0
  6
Continuous
 62
     7
100
AcDbLine
 10
6266.111703743
 20
5106.7911019191
 30
0.0
 11
6266.111703743
 21
5106.7981725201
 31
0.0
  0
LINE
  5
154
330
1F
100
AcDbEntity
  8
0
  6
Continuous
 62
     7
100
AcDbLine
 10
6282.5936751112
 20
5106.7911019191
 30
0.0
 11
6282.5936751112
 21
5106.7981725201
 31
0.0
  0
LINE
  5
155
330
1F
100
AcDbEntity
  8
0
  6
Continuous
 62
     7
100
AcDbLine
 10
6282.070037131
 20
5106.2126118332
 30
0.0
 11
6282.5936751112
 21
5106.7911019191
 31
0.0
  0
LINE
  5
156
330
1F
100
AcDbEntity
  8
0
  6
Continuous
 62
     7
100
AcDbLine
 10
6282.070037131
 20
5106.2126118332
 30
0.0
 11
6282.070037131
 21
5106.2196824342
 31
0.0
  0
LINE
  5
157
330
1F
100
AcDbEntity
  8
0
  6
Continuous
 62
     7
100
AcDbLine
 10
6272.2495245187
 20
5106.7911019191
 30
0.0
 11
6272.2495245187
 21
5106.7981725201
 31
0.0
  0
LINE
  5
158
330
1F
100
AcDbEntity
  8
0
  6
Continuous
 62
     7
100
AcDbLine
 10
6279.6469602406
 20
5106.7911019191
 30
0.0
 11
6279.8540919691
 21
5106.7911019191
 31
0.0
  0
LINE
  5
159
330
1F
100
AcDbEntity
  8
0
  6
Continuous
 62
     7
100
AcDbLine
 10
6279.8540919691
 20
5106.7911019191
 30
0.0
 11
6280.3777294837
 21
5106.2126118332
 31
0.0
  0
LINE
  5
15A
330
1F
100
AcDbEntity
  8
0
  6
Continuous
 62
     7
100
AcDbLine
 10
6280.3777294837
 20
5106.2126118332
 30
0.0
 11
6280.9013674639
 21
5106.7911019191
 31
0.0
  0
LINE
  5
15B
330
1F
100
AcDbEntity
  8
0
  6
Continuous
 62
     7
100
AcDbLine
 10
6280.9013674639
 20
5106.7911019191
 30
0.0
 11
6281.1084987268
 21
5106.7911019191
 31
0.0
  0
LINE
  5
15C
330
1F
100
AcDbEntity
  8
0
  6
Continuous
 62
     7
100
AcDbLine
 10
6281.1084987268
 20
5106.7911019191
 30
0.0
 11
6280.4814955823
 21
5106.0981597394
 31
0.0
  0
LINE
  5
15D
330
1F
100
AcDbEntity
  8
0
  6
Continuous
 62
     7
100
AcDbLine
 10
6280.4814955823
 20
5106.0981597394
 30
0.0
 11
6281.1341398999
 21
5105.3768885895
 31
0.0
  0
LINE
  5
15E
330
1F
100
AcDbEntity
  8
0
  6
Continuous
 62
     7
100
AcDbLine
 10
6281.1341398999
 20
5105.3768885895
 30
0.0
 11
6280.927008637
 21
5105.3768885895
 31
0.0
  0
LINE
  5
15F
330
1F
100
AcDbEntity
  8
0
  6
Continuous
 62
     7
100
AcDbLine
 10
6280.927008637
 20
5105.3768885895
 30
0.0
 11
6280.3777294837
 21
5105.9837085768
 31
0.0
  0
LINE
  5
160
330
1F
100
AcDbEntity
  8
0
  6
Continuous
 62
     7
100
AcDbLine
 10
6280.3777294837
 20
5105.9837085768
 30
0.0
 11
6279.828450796
 21
5105.3768885895
 31
0.0
  0
LINE
  5
161
330
1F
100
AcDbEntity
  8
0
  6
Continuous
 62
     7
100
AcDbLine
 10
6279.828450796
 20
5105.3768885895
 30
0.0
 11
6279.6213195331
 21
5105.3768885895
 31
0.0
  0
LINE
  5
162
330
1F
100
AcDbEntity
  8
0
  6
Continuous
 62
     7
100
AcDbLine
 10
6279.6213195331
 20
5105.3768885895
 30
0.0
 11
6280.2743643194
 21
5106.0981597394
 31
0.0
  0
LINE
  5
163
330
1F
100
AcDbEntity
  8
0
  6
Continuous
 62
     7
100
AcDbLine
 10
6280.2743643194
 20
5106.0981597394
 30
0.0
 11
6279.6469602406
 21
5106.7911019191
 31
0.0
  0
LINE
  5
164
330
1F
100
AcDbEntity
  8
0
  6
Continuous
 62
     7
100
AcDbLine
 10
6264.172601667
 20
5105.3768885895
 30
0.0
 11
6264.4366241664
 21
5106.7911019191
 31
0.0
  0
LINE
  5
165
330
1F
100
AcDbEntity
  8
0
  6
Continuous
 62
     7
100
AcDbLine
 10
6264.4366241664
 20
5106.7911019191
 30
0.0
 11
6264.4622653395
 21
5106.7911019191
 31
0.0
  0
LINE
  5
166
330
1F
100
AcDbEntity
  8
0
  6
Continuous
 62
     7
100
AcDbLine
 10
6264.4622653395
 20
5106.7911019191
 30
0.0
 11
6265.2879861787
 21
5105.6307214886
 31
0.0
  0
LINE
  5
167
330
1F
100
AcDbEntity
  8
0
  6
Continuous
 62
     7
100
AcDbLine
 10
6265.2879861787
 20
5105.6307214886
 30
0.0
 11
6266.111703743
 21
5106.7911019191
 31
0.0
  0
LINE
  5
168
330
1F
100
AcDbEntity
  8
0
  6
Continuous
 62
     7
100
AcDbLine
 10
6266.1377453849
 20
5106.7911019191
 30
0.0
 11
6266.4033706903
 21
5105.3768885895
 31
0.0
  0
LINE
  5
169
330
1F
100
AcDbEntity
  8
0
  6
Continuous
 62
     7
100
AcDbLine
 10
6266.4033706903
 20
5105.3768885895
 30
0.0
 11
6266.2230824724
 21
5105.3768885895
 31
0.0
  0
LINE
  5
16A
330
1F
100
AcDbEntity
  8
0
  6
Continuous
 62
     7
100
AcDbLine
 10
6266.2230824724
 20
5105.3768885895
 30
0.0
 11
6266.0315755427
 21
5106.3944870248
 31
0.0
  0
LINE
  5
16B
330
1F
100
AcDbEntity
  8
0
  6
Continuous
 62
     7
100
AcDbLine
 10
6266.0315755427
 20
5106.3944870248
 30
0.0
 11
6265.3096208021
 21
5105.3768885895
 31
0.0
  0
LINE
  5
16C
330
1F
100
AcDbEntity
  8
0
  6
Continuous
 62
     7
100
AcDbLine
 10
6265.3096208021
 20
5105.3768885895
 30
0.0
 11
6265.2691557676
 21
5105.3768885895
 31
0.0
  0
LINE
  5
16D
330
1F
100
AcDbEntity
  8
0
  6
Continuous
 62
     7
100
AcDbLine
 10
6265.2691557676
 20
5105.3768885895
 30
0.0
 11
6264.5443968147
 21
5106.396753864
 31
0.0
  0
LINE
  5
16E
330
1F
100
AcDbEntity
  8
0
  6
Continuous
 62
     7
100
AcDbLine
 10
6264.5443968147
 20
5106.396753864
 30
0.0
 11
6264.3532903537
 21
5105.3768885895
 31
0.0
  0
LINE
  5
16F
330
1F
100
AcDbEntity
  8
0
  6
Continuous
 62
     7
100
AcDbLine
 10
6264.3532903537
 20
5105.3768885895
 30
0.0
 11
6264.172601667
 21
5105.3768885895
 31
0.0
  0
LINE
  5
170
330
1F
100
AcDbEntity
  8
0
  6
Continuous
 62
     7
100
AcDbLine
 10
6277.9546525933
 20
5106.7911019191
 30
0.0
 11
6278.1617843218
 21
5106.7911019191
 31
0.0
  0
LINE
  5
171
330
1F
100
AcDbEntity
  8
0
  6
Continuous
 62
     7
100
AcDbLine
 10
6278.1617843218
 20
5106.7911019191
 30
0.0
 11
6278.6854218364
 21
5106.2126118332
 31
0.0
  0
LINE
  5
172
330
1F
100
AcDbEntity
  8
0
  6
Continuous
 62
     7
100
AcDbLine
 10
6278.6854218364
 20
5106.2126118332
 30
0.0
 11
6279.2090598166
 21
5106.7911019191
 31
0.0
  0
LINE
  5
173
330
1F
100
AcDbEntity
  8
0
  6
Continuous
 62
     7
100
AcDbLine
 10
6279.2090598166
 20
5106.7911019191
 30
0.0
 11
6279.4161910795
 21
5106.7911019191
 31
0.0
  0
LINE
  5
174
330
1F
100
AcDbEntity
  8
0
  6
Continuous
 62
     7
100
AcDbLine
 10
6279.4161910795
 20
5106.7911019191
 30
0.0
 11
6278.789187935
 21
5106.0981597394
 31
0.0
  0
LINE
  5
175
330
1F
100
AcDbEntity
  8
0
  6
Continuous
 62
     7
100
AcDbLine
 10
6278.789187935
 20
5106.0981597394
 30
0.0
 11
6279.4418322526
 21
5105.3768885895
 31
0.0
  0
LINE
  5
176
330
1F
100
AcDbEntity
  8
0
  6
Continuous
 62
     7
100
AcDbLine
 10
6279.4418322526
 20
5105.3768885895
 30
0.0
 11
6279.2347009897
 21
5105.3768885895
 31
0.0
  0
LINE
  5
177
330
1F
100
AcDbEntity
  8
0
  6
Continuous
 62
     7
100
AcDbLine
 10
6279.2347009897
 20
5105.3768885895
 30
0.0
 11
6278.6854218364
 21
5105.9837085768
 31
0.0
  0
LINE
  5
178
330
1F
100
AcDbEntity
  8
0
  6
Continuous
 62
     7
100
AcDbLine
 10
6278.6854218364
 20
5105.9837085768
 30
0.0
 11
6278.1361431487
 21
5105.3768885895
 31
0.0
  0
LINE
  5
179
330
1F
100
AcDbEntity
  8
0
  6
Continuous
 62
     7
100
AcDbLine
 10
6278.1361431487
 20
5105.3768885895
 30
0.0
 11
6277.9290118858
 21
5105.3768885895
 31
0.0
  0
LINE
  5
17A
330
1F
100
AcDbEntity
  8
0
  6
Continuous
 62
     7
100
AcDbLine
 10
6277.9290118858
 20
5105.3768885895
 30
0.0
 11
6278.5820566721
 21
5106.0981597394
 31
0.0
  0
LINE
  5
17B
330
1F
100
AcDbEntity
  8
0
  6
Continuous
 62
     7
100
AcDbLine
 10
6278.5820566721
 20
5106.0981597394
 30
0.0
 11
6277.9546525933
 21
5106.7911019191
 31
0.0
  0
LINE
  5
17C
330
1F
100
AcDbEntity
  8
0
  6
Continuous
 62
     7
100
AcDbLine
 10
6282.8008068398
 20
5106.7911019191
 30
0.0
 11
6282.8008068398
 21
5106.7981725201
 31
0.0
  0
LINE
  5
17D
330
1F
100
AcDbEntity
  8
0
  6
Continuous
 62
     7
100
AcDbLine
 10
6282.5936751112
 20
5106.7911019191
 30
0.0
 11
6282.8008068398
 21
5106.7911019191
 31
0.0
  0
LINE
  5
17E
330
1F
100
AcDbEntity
  8
0
  6
Continuous
 62
     7
100
AcDbLine
 10
6276.9931144219
 20
5106.2126118332
 30
0.0
 11
6276.9931144219
 21
5106.2196824342
 31
0.0
  0
LINE
  5
17F
330
1F
100
AcDbEntity
  8
0
  6
Continuous
 62
     7
100
AcDbLine
 10
6276.4694764417
 20
5106.7911019191
 30
0.0
 11
6276.9931144219
 21
5106.2126118332
 31
0.0
  0
LINE
  5
180
330
1F
100
AcDbEntity
  8
0
  6
Continuous
 62
     7
100
AcDbLine
 10
6276.4694764417
 20
5106.7911019191
 30
0.0
 11
6276.4694764417
 21
5106.7981725201
 31
0.0
  0
LINE
  5
181
330
1F
100
AcDbEntity
  8
0
  6
Continuous
 62
     7
100
AcDbLine
 10
6268.6762070887
 20
5106.7911019191
 30
0.0
 11
6268.6762070887
 21
5106.7981725201
 31
0.0
  0
LINE
  5
182
330
1F
100
AcDbEntity
  8
0
  6
Continuous
 62
     7
100
AcDbLine
 10
6268.6501654468
 20
5106.7911019191
 30
0.0
 11
6268.6501654468
 21
5106.7981725201
 31
0.0
  0
LINE
  5
183
330
1F
100
AcDbEntity
  8
0
  6
Continuous
 62
     7
100
AcDbLine
 10
6281.3392683536
 20
5106.7911019191
 30
0.0
 11
6281.5463996164
 21
5106.7911019191
 31
0.0
  0
LINE
  5
184
330
1F
100
AcDbEntity
  8
0
  6
Continuous
 62
     7
100
AcDbLine
 10
6281.5463996164
 20
5106.7911019191
 30
0.0
 11
6282.070037131
 21
5106.2126118332
 31
0.0
  0
LINE
  5
185
330
1F
100
AcDbEntity
  8
0
  6
Continuous
 62
     7
100
AcDbLine
 10
6282.8008068398
 20
5106.7911019191
 30
0.0
 11
6282.1738032296
 21
5106.0981597394
 31
0.0
  0
LINE
  5
186
330
1F
100
AcDbEntity
  8
0
  6
Continuous
 62
     7
100
AcDbLine
 10
6282.1738032296
 20
5106.0981597394
 30
0.0
 11
6282.8264480129
 21
5105.3768885895
 31
0.0
  0
LINE
  5
187
330
1F
100
AcDbEntity
  8
0
  6
Continuous
 62
     7
100
AcDbLine
 10
6282.8264480129
 20
5105.3768885895
 30
0.0
 11
6282.6193162844
 21
5105.3768885895
 31
0.0
  0
LINE
  5
188
330
1F
100
AcDbEntity
  8
0
  6
Continuous
 62
     7
100
AcDbLine
 10
6282.6193162844
 20
5105.3768885895
 30
0.0
 11
6282.070037131
 21
5105.9837085768
 31
0.0
  0
LINE
  5
189
330
1F
100
AcDbEntity
  8
0
  6
Continuous
 62
     7
100
AcDbLine
 10
6282.070037131
 20
5105.9837085768
 30
0.0
 11
6281.5207584433
 21
5105.3768885895
 31
0.0
  0
LINE
  5
18A
330
1F
100
AcDbEntity
  8
0
  6
Continuous
 62
     7
100
AcDbLine
 10
6281.5207584433
 20
5105.3768885895
 30
0.0
 11
6281.3136271805
 21
5105.3768885895
 31
0.0
  0
LINE
  5
18B
330
1F
100
AcDbEntity
  8
0
  6
Continuous
 62
     7
100
AcDbLine
 10
6281.3136271805
 20
5105.3768885895
 30
0.0
 11
6281.9666724324
 21
5106.0981597394
 31
0.0
  0
LINE
  5
18C
330
1F
100
AcDbEntity
  8
0
  6
Continuous
 62
     7
100
AcDbLine
 10
6281.9666724324
 20
5106.0981597394
 30
0.0
 11
6281.3392683536
 21
5106.7911019191
 31
0.0
  0
LINE
  5
18D
330
1F
100
AcDbEntity
  8
0
  6
Continuous
 62
     7
100
AcDbLine
 10
6278.1617843218
 20
5106.7911019191
 30
0.0
 11
6278.1617843218
 21
5106.7981725201
 31
0.0
  0
LINE
  5
18E
330
1F
100
AcDbEntity
  8
0
  6
Continuous
 62
     7
100
AcDbLine
 10
6277.9546525933
 20
5106.7911019191
 30
0.0
 11
6277.9546525933
 21
5106.7981725201
 31
0.0
  0
LINE
  5
18F
330
1F
100
AcDbEntity
  8
0
  6
Continuous
 62
     7
100
AcDbLine
 10
6265.2879861787
 20
5105.6307214886
 30
0.0
 11
6265.2879861787
 21
5105.6377920896
 31
0.0
  0
LINE
  5
190
330
1F
100
AcDbEntity
  8
0
  6
Continuous
 62
     7
100
AcDbLine
 10
6267.8264474168
 20
5105.6307214886
 30
0.0
 11
6267.8264474168
 21
5105.6377920896
 31
0.0
  0
LINE
  5
191
330
1F
100
AcDbEntity
  8
0
  6
Continuous
 62
     7
100
AcDbLine
 10
6267.0007265776
 20
5106.7911019191
 30
0.0
 11
6267.0007265776
 21
5106.7981725201
 31
0.0
  0
LINE
  5
192
330
1F
100
AcDbEntity
  8
0
  6
Continuous
 62
     7
100
AcDbLine
 10
6281.1084987268
 20
5106.7911019191
 30
0.0
 11
6281.1084987268
 21
5106.7981725201
 31
0.0
  0
LINE
  5
193
330
1F
100
AcDbEntity
  8
0
  6
Continuous
 62
     7
100
AcDbLine
 10
6280.9013674639
 20
5106.7911019191
 30
0.0
 11
6280.9013674639
 21
5106.7981725201
 31
0.0
  0
LINE
  5
194
330
1F
100
AcDbEntity
  8
0
  6
Continuous
 62
     7
100
AcDbLine
 10
6270.7367040355
 20
5106.1746501937
 30
0.0
 11
6271.1028900601
 21
5106.1726664766
 31
0.0
  0
LINE
  5
195
330
1F
100
AcDbEntity
  8
0
  6
Continuous
 62
     7
100
AcDbLine
 10
6271.1117040969
 20
5106.646054016
 30
0.0
 11
6270.7367040355
 21
5106.646054016
 31
0.0
  0
LINE
  5
196
330
1F
100
AcDbEntity
  8
0
  6
Continuous
 62
     7
100
AcDbLine
 10
6270.7367040355
 20
5106.646054016
 30
0.0
 11
6270.7367040355
 21
5106.1746501937
 31
0.0
  0
LINE
  5
197
330
1F
100
AcDbEntity
  8
0
  6
Continuous
 62
     7
100
AcDbLine
 10
6271.1044924006
 20
5106.0296022907
 30
0.0
 11
6271.8392681934
 21
5105.3768885895
 31
0.0
  0
LINE
  5
198
330
1F
100
AcDbEntity
  8
0
  6
Continuous
 62
     7
100
AcDbLine
 10
6271.8392681934
 20
5105.3768885895
 30
0.0
 11
6271.6173130691
 21
5105.3768885895
 31
0.0
  0
LINE
  5
199
330
1F
100
AcDbEntity
  8
0
  6
Continuous
 62
     7
100
AcDbLine
 10
6271.6173130691
 20
5105.3768885895
 30
0.0
 11
6270.8825372763
 21
5106.0296022907
 31
0.0
  0
LINE
  5
19A
330
1F
100
AcDbEntity
  8
0
  6
Continuous
 62
     7
100
AcDbLine
 10
6270.8825372763
 20
5106.0296022907
 30
0.0
 11
6270.7367040355
 21
5106.0296022907
 31
0.0
  0
LINE
  5
19B
330
1F
100
AcDbEntity
  8
0
  6
Continuous
 62
     7
100
AcDbLine
 10
6270.7367040355
 20
5106.0296022907
 30
0.0
 11
6270.7367040355
 21
5105.3768885895
 31
0.0
  0
LINE
  5
19C
330
1F
100
AcDbEntity
  8
0
  6
Continuous
 62
     7
100
AcDbLine
 10
6270.7367040355
 20
5105.3768885895
 30
0.0
 11
6270.5572169878
 21
5105.3768885895
 31
0.0
  0
LINE
  5
19D
330
1F
100
AcDbEntity
  8
0
  6
Continuous
 62
     7
100
AcDbLine
 10
6270.5572169878
 20
5105.3768885895
 30
0.0
 11
6270.5572169878
 21
5106.7911019191
 31
0.0
  0
LINE
  5
19E
330
1F
100
AcDbEntity
  8
0
  6
Continuous
 62
     7
100
AcDbLine
 10
6266.9750854045
 20
5106.7911019191
 30
0.0
 11
6266.9750854045
 21
5106.7981725201
 31
0.0
  0
LINE
  5
19F
330
1F
100
AcDbEntity
  8
0
  6
Continuous
 62
     7
100
AcDbLine
 10
6264.4622653395
 20
5106.7911019191
 30
0.0
 11
6264.4622653395
 21
5106.7981725201
 31
0.0
  0
LINE
  5
1A0
330
1F
100
AcDbEntity
  8
0
  6
Continuous
 62
     7
100
AcDbLine
 10
6264.4366241664
 20
5106.7911019191
 30
0.0
 11
6264.4366241664
 21
5106.7981725201
 31
0.0
  0
LINE
  5
1A1
330
1F
100
AcDbEntity
  8
0
  6
Continuous
 62
     7
100
AcDbLine
 10
6276.2623451788
 20
5106.7911019191
 30
0.0
 11
6276.4694764417
 21
5106.7911019191
 31
0.0
  0
LINE
  5
1A2
330
1F
100
AcDbEntity
  8
0
  6
Continuous
 62
     7
100
AcDbLine
 10
6276.9931144219
 20
5106.2126118332
 30
0.0
 11
6277.5167521693
 21
5106.7911019191
 31
0.0
  0
LINE
  5
1A3
330
1F
100
AcDbEntity
  8
0
  6
Continuous
 62
     7
100
AcDbLine
 10
6277.5167521693
 20
5106.7911019191
 30
0.0
 11
6277.7238834321
 21
5106.7911019191
 31
0.0
  0
LINE
  5
1A4
330
1F
100
AcDbEntity
  8
0
  6
Continuous
 62
     7
100
AcDbLine
 10
6277.7238834321
 20
5106.7911019191
 30
0.0
 11
6277.0968802877
 21
5106.0981597394
 31
0.0
  0
LINE
  5
1A5
330
1F
100
AcDbEntity
  8
0
  6
Continuous
 62
     7
100
AcDbLine
 10
6277.0968802877
 20
5106.0981597394
 30
0.0
 11
6277.7495246053
 21
5105.3768885895
 31
0.0
  0
LINE
  5
1A6
330
1F
100
AcDbEntity
  8
0
  6
Continuous
 62
     7
100
AcDbLine
 10
6277.7495246053
 20
5105.3768885895
 30
0.0
 11
6277.5423931096
 21
5105.3768885895
 31
0.0
  0
LINE
  5
1A7
330
1F
100
AcDbEntity
  8
0
  6
Continuous
 62
     7
100
AcDbLine
 10
6277.5423931096
 20
5105.3768885895
 30
0.0
 11
6276.9931144219
 21
5105.9837085768
 31
0.0
  0
LINE
  5
1A8
330
1F
100
AcDbEntity
  8
0
  6
Continuous
 62
     7
100
AcDbLine
 10
6276.9931144219
 20
5105.9837085768
 30
0.0
 11
6276.4438355014
 21
5105.3768885895
 31
0.0
  0
LINE
  5
1A9
330
1F
100
AcDbEntity
  8
0
  6
Continuous
 62
     7
100
AcDbLine
 10
6276.4438355014
 20
5105.3768885895
 30
0.0
 11
6276.2367040057
 21
5105.3768885895
 31
0.0
  0
LINE
  5
1AA
330
1F
100
AcDbEntity
  8
0
  6
Continuous
 62
     7
100
AcDbLine
 10
6276.2367040057
 20
5105.3768885895
 30
0.0
 11
6276.8897490248
 21
5106.0981597394
 31
0.0
  0
LINE
  5
1AB
330
1F
100
AcDbEntity
  8
0
  6
Continuous
 62
     7
100
AcDbLine
 10
6276.8897490248
 20
5106.0981597394
 30
0.0
 11
6276.2623451788
 21
5106.7911019191
 31
0.0
  0
LINE
  5
1AC
330
1F
100
AcDbEntity
  8
0
  6
Continuous
 62
     7
100
AcDbLine
 10
6281.5463996164
 20
5106.7911019191
 30
0.0
 11
6281.5463996164
 21
5106.7981725201
 31
0.0
  0
LINE
  5
1AD
330
1F
100
AcDbEntity
  8
0
  6
Continuous
 62
     7
100
AcDbLine
 10
6279.2090598166
 20
5106.7911019191
 30
0.0
 11
6279.2090598166
 21
5106.7981725201
 31
0.0
  0
LINE
  5
1AE
330
1F
100
AcDbEntity
  8
0
  6
Continuous
 62
     7
100
AcDbLine
 10
6279.4161910795
 20
5106.7911019191
 30
0.0
 11
6279.4161910795
 21
5106.7981725201
 31
0.0
  0
LINE
  5
1AF
330
1F
100
AcDbEntity
  8
0
  6
Continuous
 62
     7
100
AcDbLine
 10
6271.4105822749
 20
5106.7718375116
 30
0.0
 11
6271.4105822749
 21
5106.7789090439
 31
0.0
  0
LINE
  5
1B0
330
1F
100
AcDbEntity
  8
0
  6
Continuous
 62
     7
100
AcDbLine
 10
6279.8540919691
 20
5106.7911019191
 30
0.0
 11
6279.8540919691
 21
5106.7981725201
 31
0.0
  0
LINE
  5
1B1
330
1F
100
AcDbEntity
  8
0
  6
Continuous
 62
     7
100
AcDbLine
 10
6279.6469602406
 20
5106.7911019191
 30
0.0
 11
6279.6469602406
 21
5106.7981725201
 31
0.0
  0
LINE
  5
1B2
330
1F
100
AcDbEntity
  8
0
  6
Continuous
 62
     7
100
AcDbLine
 10
6280.3777294837
 20
5106.2126118332
 30
0.0
 11
6280.3777294837
 21
5106.2196824342
 31
0.0
  0
LINE
  5
1B3
330
1F
100
AcDbEntity
  8
0
  6
Continuous
 62
     7
100
AcDbLine
 10
6276.2623451788
 20
5106.7911019191
 30
0.0
 11
6276.2623451788
 21
5106.7981725201
 31
0.0
  0
LINE
  5
1B4
330
1F
100
AcDbEntity
  8
0
  6
Continuous
 62
     7
100
AcDbLine
 10
6284.2859832242
 20
5106.7911019191
 30
0.0
 11
6284.2859832242
 21
5106.7981725201
 31
0.0
  0
LINE
  5
1B5
330
1F
100
AcDbEntity
  8
0
  6
Continuous
 62
     7
100
AcDbLine
 10
6283.762345244
 20
5106.2126118332
 30
0.0
 11
6284.2859832242
 21
5106.7911019191
 31
0.0
  0
LINE
  5
1B6
330
1F
100
AcDbEntity
  8
0
  6
Continuous
 62
     7
100
AcDbLine
 10
6283.762345244
 20
5106.2126118332
 30
0.0
 11
6283.762345244
 21
5106.2196824342
 31
0.0
  0
LINE
  5
1B7
330
1F
100
AcDbEntity
  8
0
  6
Continuous
 62
     7
100
AcDbLine
 10
6281.3392683536
 20
5106.7911019191
 30
0.0
 11
6281.3392683536
 21
5106.7981725201
 31
0.0
  0
LINE
  5
1B8
330
1F
100
AcDbEntity
  8
0
  6
Continuous
 62
     7
100
AcDbLine
 10
6283.0315755352
 20
5106.7911019191
 30
0.0
 11
6283.2387072638
 21
5106.7911019191
 31
0.0
  0
LINE
  5
1B9
330
1F
100
AcDbEntity
  8
0
  6
Continuous
 62
     7
100
AcDbLine
 10
6283.2387072638
 20
5106.7911019191
 30
0.0
 11
6283.762345244
 21
5106.2126118332
 31
0.0
  0
LINE
  5
1BA
330
1F
100
AcDbEntity
  8
0
  6
Continuous
 62
     7
100
AcDbLine
 10
6284.2859832242
 20
5106.7911019191
 30
0.0
 11
6284.4931140214
 21
5106.7911019191
 31
0.0
  0
LINE
  5
1BB
330
1F
100
AcDbEntity
  8
0
  6
Continuous
 62
     7
100
AcDbLine
 10
6284.4931140214
 20
5106.7911019191
 30
0.0
 11
6283.8661113426
 21
5106.0981597394
 31
0.0
  0
LINE
  5
1BC
330
1F
100
AcDbEntity
  8
0
  6
Continuous
 62
     7
100
AcDbLine
 10
6283.8661113426
 20
5106.0981597394
 30
0.0
 11
6284.5187551945
 21
5105.3768885895
 31
0.0
  0
LINE
  5
1BD
330
1F
100
AcDbEntity
  8
0
  6
Continuous
 62
     7
100
AcDbLine
 10
6284.5187551945
 20
5105.3768885895
 30
0.0
 11
6284.311623466
 21
5105.3768885895
 31
0.0
  0
LINE
  5
1BE
330
1F
100
AcDbEntity
  8
0
  6
Continuous
 62
     7
100
AcDbLine
 10
6284.311623466
 20
5105.3768885895
 30
0.0
 11
6283.762345244
 21
5105.9837085768
 31
0.0
  0
LINE
  5
1BF
330
1F
100
AcDbEntity
  8
0
  6
Continuous
 62
     7
100
AcDbLine
 10
6283.762345244
 20
5105.9837085768
 30
0.0
 11
6283.2130660906
 21
5105.3768885895
 31
0.0
  0
LINE
  5
1C0
330
1F
100
AcDbEntity
  8
0
  6
Continuous
 62
     7
100
AcDbLine
 10
6283.2130660906
 20
5105.3768885895
 30
0.0
 11
6283.0059343621
 21
5105.3768885895
 31
0.0
  0
LINE
  5
1C1
330
1F
100
AcDbEntity
  8
0
  6
Continuous
 62
     7
100
AcDbLine
 10
6283.0059343621
 20
5105.3768885895
 30
0.0
 11
6283.6589796141
 21
5106.0981597394
 31
0.0
  0
LINE
  5
1C2
330
1F
100
AcDbEntity
  8
0
  6
Continuous
 62
     7
100
AcDbLine
 10
6283.6589796141
 20
5106.0981597394
 30
0.0
 11
6283.0315755352
 21
5106.7911019191
 31
0.0
  0
LINE
  5
1C3
330
1F
100
AcDbEntity
  8
0
  6
Continuous
 62
     7
100
AcDbLine
 10
6284.4931140214
 20
5106.7911019191
 30
0.0
 11
6284.4931140214
 21
5106.7981725201
 31
0.0
  0
LINE
  5
1C4
330
1F
100
AcDbEntity
  8
0
  6
Continuous
 62
     7
100
AcDbLine
 10
6283.2387072638
 20
5106.7911019191
 30
0.0
 11
6283.2387072638
 21
5106.7981725201
 31
0.0
  0
LINE
  5
1C5
330
1F
100
AcDbEntity
  8
0
  6
Continuous
 62
     7
100
AcDbLine
 10
6283.0315755352
 20
5106.7911019191
 30
0.0
 11
6283.0315755352
 21
5106.7981725201
 31
0.0
  0
LINE
  5
1C6
330
1F
100
AcDbEntity
  8
0
  6
Continuous
 62
     7
100
AcDbLine
 10
6278.6854218364
 20
5106.2126118332
 30
0.0
 11
6278.6854218364
 21
5106.2196824342
 31
0.0
  0
LINE
  5
1C7
330
1F
100
AcDbEntity
  8
0
  6
Continuous
 62
     7
100
AcDbLine
 10
6264.172601667
 20
5105.3768885895
 30
0.0
 11
6264.172601667
 21
5105.3839591905
 31
0.0
  0
LINE
  5
1C8
330
1F
100
AcDbEntity
  8
0
  6
Continuous
 62
     7
100
AcDbLine
 10
6266.4033706903
 20
5105.3768885895
 30
0.0
 11
6266.4033706903
 21
5105.3839591905
 31
0.0
  0
LINE
  5
1C9
330
1F
100
AcDbEntity
  8
0
  6
Continuous
 62
     7
100
AcDbLine
 10
6277.5167521693
 20
5106.7911019191
 30
0.0
 11
6277.5167521693
 21
5106.7981725201
 31
0.0
  0
LINE
  5
1CA
330
1F
100
AcDbEntity
  8
0
  6
Continuous
 62
     7
100
AcDbLine
 10
6277.7238834321
 20
5106.7911019191
 30
0.0
 11
6277.7238834321
 21
5106.7981725201
 31
0.0
  0
LINE
  5
1CB
330
1F
100
AcDbEntity
  8
0
  6
Continuous
 62
     7
100
AcDbLine
 10
6266.7110629052
 20
5105.3768885895
 30
0.0
 11
6266.7110629052
 21
5105.3839591905
 31
0.0
  0
LINE
  5
1CC
330
1F
100
AcDbEntity
  8
0
  6
Continuous
 62
     7
100
AcDbLine
 10
6268.9418323941
 20
5105.3768885895
 30
0.0
 11
6268.9418323941
 21
5105.3839591905
 31
0.0
  0
LINE
  5
1CD
330
1F
100
AcDbEntity
  8
0
  6
Continuous
 62
     7
100
AcDbLine
 10
6273.5059348422
 20
5106.4129020661
 30
0.0
 11
6273.5059348422
 21
5106.4199726671
 31
0.0
  0
LINE
  5
1CE
330
1F
100
AcDbEntity
  8
0
  6
Continuous
 62
     7
100
AcDbLine
 10
6271.8136270203
 20
5106.4129020661
 30
0.0
 11
6271.8136270203
 21
5106.4199726671
 31
0.0
  0
LINE
  5
1CF
330
1F
100
AcDbEntity
  8
0
  6
Continuous
 62
     7
100
AcDbLine
 10
6272.4290117992
 20
5106.1817207947
 30
0.0
 11
6272.795197591
 21
5106.179738009
 31
0.0
  0
LINE
  5
1D0
330
1F
100
AcDbEntity
  8
0
  6
Continuous
 62
     7
100
AcDbLine
 10
6270.7367040355
 20
5106.1817207947
 30
0.0
 11
6271.1028900601
 21
5106.179738009
 31
0.0
  0
LINE
  5
1D1
330
1F
100
AcDbEntity
  8
0
  6
Continuous
 62
     7
100
AcDbLine
 10
6272.795197591
 20
5106.1726664766
 30
0.0
 11
6272.795197591
 21
5106.179738009
 31
0.0
  0
LINE
  5
1D2
330
1F
100
AcDbEntity
  8
0
  6
Continuous
 62
     7
100
AcDbLine
 10
6271.1028900601
 20
5106.1726664766
 30
0.0
 11
6271.1028900601
 21
5106.179738009
 31
0.0
  0
LINE
  5
1D3
330
1F
100
AcDbEntity
  8
0
  6
Continuous
 62
     7
100
AcDbLine
 10
6281.1341398999
 20
5105.3768885895
 30
0.0
 11
6281.1341398999
 21
5105.3839591905
 31
0.0
  0
LINE
  5
1D4
330
1F
100
AcDbEntity
  8
0
  6
Continuous
 62
     7
100
AcDbLine
 10
6277.7495246053
 20
5105.3768885895
 30
0.0
 11
6277.7495246053
 21
5105.3839591905
 31
0.0
  0
LINE
  5
1D5
330
1F
100
AcDbEntity
  8
0
  6
Continuous
 62
     7
100
AcDbLine
 10
6279.4418322526
 20
5105.3768885895
 30
0.0
 11
6279.4418322526
 21
5105.3839591905
 31
0.0
  0
LINE
  5
1D6
330
1F
100
AcDbEntity
  8
0
  6
Continuous
 62
     7
100
AcDbLine
 10
6281.3136271805
 20
5105.3768885895
 30
0.0
 11
6281.3136271805
 21
5105.3839591905
 31
0.0
  0
LINE
  5
1D7
330
1F
100
AcDbEntity
  8
0
  6
Continuous
 62
     7
100
AcDbLine
 10
6282.8264480129
 20
5105.3768885895
 30
0.0
 11
6282.8264480129
 21
5105.3839591905
 31
0.0
  0
LINE
  5
1D8
330
1F
100
AcDbEntity
  8
0
  6
Continuous
 62
     7
100
AcDbLine
 10
6284.5187551945
 20
5105.3768885895
 30
0.0
 11
6284.5187551945
 21
5105.3839591905
 31
0.0
  0
LINE
  5
1D9
330
1F
100
AcDbEntity
  8
0
  6
Continuous
 62
     7
100
AcDbLine
 10
6277.9290118858
 20
5105.3768885895
 30
0.0
 11
6277.9290118858
 21
5105.3839591905
 31
0.0
  0
LINE
  5
1DA
330
1F
100
AcDbEntity
  8
0
  6
Continuous
 62
     7
100
AcDbLine
 10
6283.0059343621
 20
5105.3768885895
 30
0.0
 11
6283.0059343621
 21
5105.3839591905
 31
0.0
  0
LINE
  5
1DB
330
1F
100
AcDbEntity
  8
0
  6
Continuous
 62
     7
100
AcDbLine
 10
6276.2367040057
 20
5105.3768885895
 30
0.0
 11
6276.2367040057
 21
5105.3839591905
 31
0.0
  0
LINE
  5
1DC
330
1F
100
AcDbEntity
  8
0
  6
Continuous
 62
     7
100
AcDbLine
 10
6279.6213195331
 20
5105.3768885895
 30
0.0
 11
6279.6213195331
 21
5105.3839591905
 31
0.0
  0
LINE
  5
1DD
330
1F
100
AcDbEntity
  8
0
  6
Continuous
 62
     7
100
AcDbLine
 10
6271.8392681934
 20
5105.3768885895
 30
0.0
 11
6271.8392681934
 21
5105.3839591905
 31
0.0
  0
LINE
  5
1DE
330
1F
100
AcDbEntity
  8
0
  6
Continuous
 62
     7
100
AcDbLine
 10
6273.5315758407
 20
5105.3768885895
 30
0.0
 11
6273.5315758407
 21
5105.3839591905
 31
0.0
  0
LINE
  5
1DF
330
1F
100
AcDbEntity
  8
0
  6
Continuous
 62
     7
100
AcDbLine
 10
6274.53157583
 20
5105.9933403149
 30
0.0
 11
6275.3008066582
 21
5105.9933403149
 31
0.0
  0
LINE
  5
1E0
330
1F
100
AcDbEntity
  8
0
  6
Continuous
 62
     7
100
AcDbLine
 10
6275.3008066582
 20
5105.9933403149
 30
0.0
 11
6275.3008066582
 21
5105.8482924118
 31
0.0
  0
LINE
  5
1E1
330
1F
100
AcDbEntity
  8
0
  6
Continuous
 62
     7
100
AcDbLine
 10
6275.3008066582
 20
5105.8482924118
 30
0.0
 11
6274.53157583
 21
5105.8482924118
 31
0.0
  0
LINE
  5
1E2
330
1F
100
AcDbEntity
  8
0
  6
Continuous
 62
     7
100
AcDbLine
 10
6274.53157583
 20
5105.8482924118
 30
0.0
 11
6274.53157583
 21
5105.9933403149
 31
0.0
  0
LINE
  5
1E3
330
1F
100
AcDbEntity
  8
0
  6
Continuous
 62
     7
100
AcDbLine
 10
6275.3008066582
 20
5105.9933403149
 30
0.0
 11
6275.3008066582
 21
5106.0004109159
 31
0.0
  0
LINE
  5
1E4
330
1F
100
AcDbEntity
  8
0
  6
Continuous
 62
     7
100
AcDbLine
 10
6274.53157583
 20
5105.9933403149
 30
0.0
 11
6274.53157583
 21
5106.0004109159
 31
0.0
  0
LINE
  5
1E5
330
1F
100
AcDbEntity
  8
0
  6
Continuous
 62
     7
100
AcDbLine
 10
5697.8934315637
 20
5525.8000647291
 30
0.0
 11
5650.1440910295
 21
5525.8000647291
 31
0.0
  0
LINE
  5
1E6
330
1F
100
AcDbEntity
  8
0
  6
Continuous
 62
     7
100
AcDbLine
 10
5650.1440910295
 20
5540.6324719652
 30
0.0
 11
5697.8934315637
 21
5540.6324719652
 31
0.0
  0
LINE
  5
1E7
330
1F
100
AcDbEntity
  8
0
  6
Continuous
 62
     7
100
AcDbLine
 10
6897.8934196427
 20
5525.8000647291
 30
0.0
 11
6850.1440791085
 21
5525.8000647291
 31
0.0
  0
LINE
  5
1E8
330
1F
100
AcDbEntity
  8
0
  6
Continuous
 62
     7
100
AcDbLine
 10
6850.1440791085
 20
5540.6324719652
 30
0.0
 11
6897.8934196427
 21
5540.6324719652
 31
0.0
  0
LINE
  5
1E9
330
1F
100
AcDbEntity
  8
0
  6
Continuous
 62
     7
100
AcDbLine
 10
6297.8934274659
 20
5525.8000647291
 30
0.0
 11
6250.1440832063
 21
5525.8000647291
 31
0.0
  0
LINE
  5
1EA
330
1F
100
AcDbEntity
  8
0
  6
Continuous
 62
     7
100
AcDbLine
 10
6250.1440832063
 20
5540.6324719652
 30
0.0
 11
6297.8934274659
 21
5540.6324719652
 31
0.0
  0
LINE
  5
1EB
330
1F
100
AcDbEntity
  8
0
  6
Continuous
 62
     7
100
AcDbLine
 10
7574.1075070604
 20
4962.3039221033
 30
0.0
 11
7573.4103413328
 21
4962.3039221033
 31
0.0
  0
LINE
  5
1EC
330
1F
100
AcDbEntity
  8
0
  6
Continuous
 62
     7
100
AcDbLine
 10
7573.4103413328
 20
4882.3039238915
 30
0.0
 11
7574.1075070604
 21
4882.3039238915
 31
0.0
  0
LINE
  5
1ED
330
1F
100
AcDbEntity
  8
0
  6
Continuous
 62
     7
100
AcDbLine
 10
7573.4103413328
 20
4942.3039262756
 30
0.0
 11
7563.4103396937
 21
4942.3039262756
 31
0.0
  0
LINE
  5
1EE
330
1F
100
AcDbEntity
  8
0
  6
Continuous
 62
     7
100
AcDbLine
 10
7563.4103396937
 20
4902.3039346203
 30
0.0
 11
7573.4103413328
 21
4902.3039346203
 31
0.0
  0
LINE
  5
1EF
330
1F
100
AcDbEntity
  8
0
  6
Continuous
 62
     7
100
AcDbLine
 10
7574.9075094267
 20
4813.2162546381
 30
0.0
 11
7574.9075094267
 21
5093.2162663076
 31
0.0
  0
LINE
  5
1F0
330
1F
100
AcDbEntity
  8
0
  6
Continuous
 62
     7
100
AcDbLine
 10
7574.1075070604
 20
4813.2162546381
 30
0.0
 11
7574.1075070604
 21
5093.2162663076
 31
0.0
  0
LINE
  5
1F1
330
1F
100
AcDbEntity
  8
0
  6
Continuous
 62
     7
100
AcDbLine
 10
7574.1075070604
 20
4813.2162546381
 30
0.0
 11
7574.9075094267
 21
4813.2162546381
 31
0.0
  0
LINE
  5
1F2
330
1F
100
AcDbEntity
  8
0
  6
Continuous
 62
     7
100
AcDbLine
 10
7575.3575095936
 20
4813.2162546381
 30
0.0
 11
7575.3575095936
 21
5093.2162663076
 31
0.0
  0
LINE
  5
1F3
330
1F
100
AcDbEntity
  8
0
  6
Continuous
 62
     7
100
AcDbLine
 10
7574.9075094267
 20
4813.2162546381
 30
0.0
 11
7575.3575095936
 21
4813.2162546381
 31
0.0
  0
LINE
  5
1F4
330
1F
100
AcDbEntity
  8
0
  6
Continuous
 62
     7
100
AcDbLine
 10
7789.857504706
 20
4813.2162546381
 30
0.0
 11
7789.857504706
 21
5093.2162663076
 31
0.0
  0
LINE
  5
1F5
330
1F
100
AcDbEntity
  8
0
  6
Continuous
 62
     7
100
AcDbLine
 10
7575.3575095936
 20
4813.2162546381
 30
0.0
 11
7789.857504706
 21
4813.2162546381
 31
0.0
  0
LINE
  5
1F6
330
1F
100
AcDbEntity
  8
0
  6
Continuous
 62
     7
100
AcDbLine
 10
7791.1075035139
 20
4813.2162546381
 30
0.0
 11
7791.1075035139
 21
5093.2162663076
 31
0.0
  0
LINE
  5
1F7
330
1F
100
AcDbEntity
  8
0
  6
Continuous
 62
     7
100
AcDbLine
 10
7789.857504706
 20
4813.2162546381
 30
0.0
 11
7791.1075035139
 21
4813.2162546381
 31
0.0
  0
LINE
  5
1F8
330
1F
100
AcDbEntity
  8
0
  6
Continuous
 62
     7
100
AcDbLine
 10
7576.0575065419
 20
5093.2162663076
 30
0.0
 11
7574.1075070604
 21
5093.2162663076
 31
0.0
  0
LINE
  5
1F9
330
1F
100
AcDbEntity
  8
0
  6
Continuous
 62
     7
100
AcDbLine
 10
7574.1075070604
 20
5093.2162663076
 30
0.0
 11
7574.1075070604
 21
5593.2175373301
 31
0.0
  0
LINE
  5
1FA
330
1F
100
AcDbEntity
  8
0
  6
Continuous
 62
     7
100
AcDbLine
 10
7574.160141687
 20
5593.2175373301
 30
0.0
 11
7576.0575065419
 21
5593.2175373301
 31
0.0
  0
LINE
  5
1FB
330
1F
100
AcDbEntity
  8
0
  6
Continuous
 62
     7
100
AcDbLine
 10
7576.0575065419
 20
5593.2175373301
 30
0.0
 11
7576.0575065419
 21
5093.2162663076
 31
0.0
  0
LINE
  5
1FC
330
1F
100
AcDbEntity
  8
0
  6
Continuous
 62
     7
100
AcDbLine
 10
7796.6770956322
 20
5093.7874080837
 30
0.0
 11
7830.5366018816
 21
5127.646908687
 31
0.0
  0
LINE
  5
1FD
330
1F
100
AcDbEntity
  8
0
  6
Continuous
 62
     7
100
AcDbLine
 10
7576.0575065419
 20
5093.2162663076
 30
0.0
 11
7795.2982464835
 21
5093.2162663076
 31
0.0
  0
LINE
  5
1FE
330
1F
100
AcDbEntity
  8
0
  6
Continuous
 62
     7
100
AcDbLine
 10
7577.0575085684
 20
5593.2175373301
 30
0.0
 11
7576.0575065419
 21
5593.2175373301
 31
0.0
  0
LINE
  5
1FF
330
1F
100
AcDbEntity
  8
0
  6
Continuous
 62
     7
100
AcDbLine
 10
7577.0575085684
 20
5595.2175413832
 30
0.0
 11
7577.0575085684
 21
5593.2175373301
 31
0.0
  0
LINE
  5
200
330
1F
100
AcDbEntity
  8
0
  6
Continuous
 62
     7
100
AcDbLine
 10
7574.1075070604
 20
5595.2175413832
 30
0.0
 11
7577.0575085684
 21
5595.2175413832
 31
0.0
  0
LINE
  5
201
330
1F
100
AcDbEntity
  8
0
  6
Continuous
 62
     7
100
AcDbLine
 10
7574.1075070604
 20
5612.2326409086
 30
0.0
 11
7574.1075070604
 21
5595.2175413832
 31
0.0
  0
LINE
  5
202
330
1F
100
AcDbEntity
  8
0
  6
Continuous
 62
     7
100
AcDbLine
 10
7798.208756189
 20
5533.451334165
 30
0.0
 11
7576.724445264
 21
5614.065066503
 31
0.0
  0
LINE
  5
203
330
1F
100
AcDbEntity
  8
0
  6
Continuous
 62
     7
100
AcDbLine
 10
7831.107748489
 20
5129.0257690117
 30
0.0
 11
7831.107748489
 21
5486.4667212233
 31
0.0
  0
LINE
  5
204
330
1F
100
AcDbEntity
  8
0
  6
Continuous
 62
     7
100
AcDbLine
 10
7574.1075070604
 20
5593.2175373301
 30
0.0
 11
7574.160141687
 21
5593.2175373301
 31
0.0
  0
LINE
  5
205
330
1F
100
AcDbEntity
  8
0
  6
Continuous
 62
     7
100
AcDbLine
 10
7574.1075070604
 20
5595.2175413832
 30
0.0
 11
7574.1075070604
 21
5593.2175373301
 31
0.0
  0
LINE
  5
206
330
1F
100
AcDbEntity
  8
0
  6
Continuous
 62
     7
100
AcDbLine
 10
7575.607506375
 20
5595.2175413832
 30
0.0
 11
7575.607506375
 21
5593.2175373301
 31
0.0
  0
LINE
  5
207
330
1F
100
AcDbEntity
  8
0
  6
Continuous
 62
     7
100
AcDbLine
 10
7832.6077440783
 20
5217.8180520996
 30
0.0
 11
7834.1077396675
 21
5217.8180520996
 31
0.0
  0
LINE
  5
208
330
1F
100
AcDbEntity
  8
0
  6
Continuous
 62
     7
100
AcDbLine
 10
7832.6077440783
 20
5217.8180520996
 30
0.0
 11
7832.6077440783
 21
5230.9680586323
 31
0.0
  0
LINE
  5
209
330
1F
100
AcDbEntity
  8
0
  6
Continuous
 62
     7
100
AcDbLine
 10
7834.1077396675
 20
5230.9680586323
 30
0.0
 11
7832.6077440783
 21
5230.9680586323
 31
0.0
  0
LINE
  5
20A
330
1F
100
AcDbEntity
  8
0
  6
Continuous
 62
     7
100
AcDbLine
 10
7834.1077396675
 20
5217.8180520996
 30
0.0
 11
7834.1077396675
 21
5230.9680586323
 31
0.0
  0
LINE
  5
20B
330
1F
100
AcDbEntity
  8
0
  6
Continuous
 62
     7
100
AcDbLine
 10
7573.4103413328
 20
4962.3039221033
 30
0.0
 11
7573.4103413328
 21
4882.3039238915
 31
0.0
  0
LINE
  5
20C
330
1F
100
AcDbEntity
  8
0
  6
Continuous
 62
     7
100
AcDbLine
 10
7563.4103396937
 20
4942.3039262756
 30
0.0
 11
7563.4103396937
 21
4902.3039346203
 31
0.0
  0
LINE
  5
20D
330
1F
100
AcDbEntity
  8
0
  6
Continuous
 62
     7
100
AcDbLine
 10
7810.8899423882
 20
5107.8588334486
 30
0.0
 11
7810.8192363783
 21
5107.929544115
 31
0.0
  0
LINE
  5
20E
330
1F
100
AcDbEntity
  8
0
  6
Continuous
 62
     7
100
AcDbLine
 10
7810.8899423882
 20
5107.8588334486
 30
0.0
 11
7807.3544183775
 21
5104.3232991934
 31
0.0
  0
LINE
  5
20F
330
1F
100
AcDbEntity
  8
0
  6
Continuous
 62
     7
100
AcDbLine
 10
7807.3544183775
 20
5104.3232991934
 30
0.0
 11
7807.2836974665
 21
5104.3940098598
 31
0.0
  0
LINE
  5
210
330
1F
100
AcDbEntity
  8
0
  6
Continuous
 62
     7
100
AcDbLine
 10
7809.836355786
 20
5106.7911019191
 30
0.0
 11
7809.8292926356
 21
5106.7981725201
 31
0.0
  0
LINE
  5
211
330
1F
100
AcDbEntity
  8
0
  6
Continuous
 62
     7
100
AcDbLine
 10
7808.4221461817
 20
5105.3768885895
 30
0.0
 11
7808.4150681301
 21
5105.3839591905
 31
0.0
  0
LINE
  5
212
330
1F
100
AcDbEntity
  8
0
  6
Continuous
 62
     7
100
AcDbLine
 10
7808.4221461817
 20
5105.3768885895
 30
0.0
 11
7809.836355786
 21
5106.7911019191
 31
0.0
  0
LINE
  5
213
330
1F
100
AcDbEntity
  8
0
  6
Continuous
 62
     7
100
AcDbLine
 10
7809.8726252123
 20
5106.8273638949
 30
0.0
 11
7809.8655471608
 21
5106.8344344958
 31
0.0
  0
LINE
  5
214
330
1F
100
AcDbEntity
  8
0
  6
Continuous
 62
     7
100
AcDbLine
 10
7808.2227090403
 20
5105.1774477228
 30
0.0
 11
7808.4221461817
 21
5105.3768885895
 31
0.0
  0
LINE
  5
215
330
1F
100
AcDbEntity
  8
0
  6
Continuous
 62
     7
100
AcDbLine
 10
7809.836355786
 20
5106.7911019191
 30
0.0
 11
7809.8726252123
 21
5106.8273638949
 31
0.0
  0
LINE
  5
216
330
1F
100
AcDbEntity
  8
0
  6
Continuous
 62
     7
100
AcDbLine
 10
7808.2227090403
 20
5105.1774477228
 30
0.0
 11
7808.2156309887
 21
5105.1845192551
 31
0.0
  0
LINE
  5
217
330
1F
100
AcDbEntity
  8
0
  6
Continuous
 62
     7
100
AcDbLine
 10
6314.018754442
 20
4409.0734072225
 30
0.0
 11
6314.018754442
 21
4409.7705729501
 31
0.0
  0
LINE
  5
218
330
1F
100
AcDbEntity
  8
0
  6
Continuous
 62
     7
100
AcDbLine
 10
6234.0187562302
 20
4409.7705729501
 30
0.0
 11
6234.0187562302
 21
4409.0734072225
 31
0.0
  0
LINE
  5
219
330
1F
100
AcDbEntity
  8
0
  6
Continuous
 62
     7
100
AcDbLine
 10
6294.0187548891
 20
4409.7705729501
 30
0.0
 11
6294.0187548891
 21
4419.7705745892
 31
0.0
  0
LINE
  5
21A
330
1F
100
AcDbEntity
  8
0
  6
Continuous
 62
     7
100
AcDbLine
 10
6254.0187557831
 20
4419.7705745892
 30
0.0
 11
6254.0187557831
 21
4409.7705729501
 31
0.0
  0
LINE
  5
21B
330
1F
100
AcDbEntity
  8
0
  6
Continuous
 62
     7
100
AcDbLine
 10
5649.0187553361
 20
4362.0737403826
 30
0.0
 11
5649.0187553361
 21
4358.8649799777
 31
0.0
  0
LINE
  5
21C
330
1F
100
AcDbEntity
  8
0
  6
Continuous
 62
     7
100
AcDbLine
 10
5699.018767257
 20
4358.8649799777
 30
0.0
 11
5699.018767257
 21
4362.0737403826
 31
0.0
  0
LINE
  5
21D
330
1F
100
AcDbEntity
  8
0
  6
Continuous
 62
     7
100
AcDbLine
 10
6849.0187434152
 20
4362.0737403826
 30
0.0
 11
6849.0187434152
 21
4358.8649799777
 31
0.0
  0
LINE
  5
21E
330
1F
100
AcDbEntity
  8
0
  6
Continuous
 62
     7
100
AcDbLine
 10
6899.0187553361
 20
4358.8649799777
 30
0.0
 11
6899.0187553361
 21
4362.0737403826
 31
0.0
  0
LINE
  5
21F
330
1F
100
AcDbEntity
  8
0
  6
Continuous
 62
     7
100
AcDbLine
 10
6249.0187549636
 20
4362.0737403826
 30
0.0
 11
6249.0187549636
 21
4358.8649799777
 31
0.0
  0
LINE
  5
220
330
1F
100
AcDbEntity
  8
0
  6
Continuous
 62
     7
100
AcDbLine
 10
6299.0187557086
 20
4358.8649799777
 30
0.0
 11
6299.0187557086
 21
4362.0737403826
 31
0.0
  0
LINE
  5
221
330
1F
100
AcDbEntity
  8
0
  6
Continuous
 62
     7
100
AcDbLine
 10
6194.2095441416
 20
4409.0734072225
 30
0.0
 11
6194.2093578771
 21
4409.0737387733
 31
0.0
  0
LINE
  5
222
330
1F
100
AcDbEntity
  8
0
  6
Continuous
 62
     7
100
AcDbLine
 10
6124.5187578395
 20
4409.0737387733
 30
0.0
 11
6103.8281527951
 21
4409.0737387733
 31
0.0
  0
LINE
  5
223
330
1F
100
AcDbEntity
  8
0
  6
Continuous
 62
     7
100
AcDbLine
 10
6124.519085665
 20
4409.0734072225
 30
0.0
 11
6124.5187578395
 21
4409.0737387733
 31
0.0
  0
LINE
  5
224
330
1F
100
AcDbEntity
  8
0
  6
Continuous
 62
     7
100
AcDbLine
 10
6173.5187528327
 20
4409.0737387733
 30
0.0
 11
6173.5184250072
 21
4409.0734072225
 31
0.0
  0
LINE
  5
225
330
1F
100
AcDbEntity
  8
0
  6
Continuous
 62
     7
100
AcDbLine
 10
6194.2093578771
 20
4409.0737387733
 30
0.0
 11
6173.5187528327
 21
4409.0737387733
 31
0.0
  0
LINE
  5
226
330
1F
100
AcDbEntity
  8
0
  6
Continuous
 62
     7
100
AcDbLine
 10
6103.8281527951
 20
4409.0737387733
 30
0.0
 11
6103.82795908
 21
4409.0734072225
 31
0.0
  0
LINE
  5
227
330
1F
100
AcDbEntity
  8
0
  6
Continuous
 62
     7
100
AcDbLine
 10
6449.2095468238
 20
4409.0734072225
 30
0.0
 11
6449.2093531087
 21
4409.0737387733
 31
0.0
  0
LINE
  5
228
330
1F
100
AcDbEntity
  8
0
  6
Continuous
 62
     7
100
AcDbLine
 10
6428.5187480643
 20
4409.0737387733
 30
0.0
 11
6428.5184202388
 21
4409.0734072225
 31
0.0
  0
LINE
  5
229
330
1F
100
AcDbEntity
  8
0
  6
Continuous
 62
     7
100
AcDbLine
 10
6358.8281554773
 20
4409.0737387733
 30
0.0
 11
6358.8279617622
 21
4409.0734072225
 31
0.0
  0
LINE
  5
22A
330
1F
100
AcDbEntity
  8
0
  6
Continuous
 62
     7
100
AcDbLine
 10
6449.2093531087
 20
4409.0737387733
 30
0.0
 11
6428.5187480643
 21
4409.0737387733
 31
0.0
  0
LINE
  5
22B
330
1F
100
AcDbEntity
  8
0
  6
Continuous
 62
     7
100
AcDbLine
 10
6379.5190883473
 20
4409.0734072225
 30
0.0
 11
6379.5187530711
 21
4409.0737387733
 31
0.0
  0
LINE
  5
22C
330
1F
100
AcDbEntity
  8
0
  6
Continuous
 62
     7
100
AcDbLine
 10
6379.5187530711
 20
4409.0737387733
 30
0.0
 11
6358.8281554773
 21
4409.0737387733
 31
0.0
  0
LINE
  5
22D
330
1F
100
AcDbEntity
  8
0
  6
Continuous
 62
     7
100
AcDbLine
 10
5599.7093824342
 20
4409.0737387733
 30
0.0
 11
5579.0187624887
 21
4409.0737387733
 31
0.0
  0
LINE
  5
22E
330
1F
100
AcDbEntity
  8
0
  6
Continuous
 62
     7
100
AcDbLine
 10
5579.0187624887
 20
4409.0737387733
 30
0.0
 11
5579.0184048608
 21
4409.0734072225
 31
0.0
  0
LINE
  5
22F
330
1F
100
AcDbEntity
  8
0
  6
Continuous
 62
     7
100
AcDbLine
 10
5599.7095612481
 20
4409.0734072225
 30
0.0
 11
5599.7093824342
 21
4409.0737387733
 31
0.0
  0
LINE
  5
230
330
1F
100
AcDbEntity
  8
0
  6
Continuous
 62
     7
100
AcDbLine
 10
6969.0191058114
 20
4409.0734072225
 30
0.0
 11
6969.0187481835
 21
4409.0737387733
 31
0.0
  0
LINE
  5
231
330
1F
100
AcDbEntity
  8
0
  6
Continuous
 62
     7
100
AcDbLine
 10
6969.0187481835
 20
4409.0737387733
 30
0.0
 11
6948.328128238
 21
4409.0737387733
 31
0.0
  0
LINE
  5
232
330
1F
100
AcDbEntity
  8
0
  6
Continuous
 62
     7
100
AcDbLine
 10
6948.328128238
 20
4409.0737387733
 30
0.0
 11
6948.3279494241
 21
4409.0734072225
 31
0.0
  0
LINE
  5
233
330
1F
100
AcDbEntity
  8
0
  6
Continuous
 62
     7
100
AcDbLine
 10
7174.0187314942
 20
4409.0734072225
 30
0.0
 11
7172.5187806085
 21
4409.0734072225
 31
0.0
  0
LINE
  5
234
330
1F
100
AcDbEntity
  8
0
  6
Continuous
 62
     7
100
AcDbLine
 10
7174.0187314942
 20
4406.4564690189
 30
0.0
 11
7172.5187806085
 21
4406.4564690189
 31
0.0
  0
LINE
  5
235
330
1F
100
AcDbEntity
  8
0
  6
Continuous
 62
     7
100
AcDbLine
 10
7172.5187806085
 20
4406.4564690189
 30
0.0
 11
7172.5187806085
 21
4409.0734072225
 31
0.0
  0
LINE
  5
236
330
1F
100
AcDbEntity
  8
0
  6
Continuous
 62
     7
100
AcDbLine
 10
7174.0187314942
 20
4406.4564690189
 30
0.0
 11
7174.0187314942
 21
4409.0734072225
 31
0.0
  0
LINE
  5
237
330
1F
100
AcDbEntity
  8
0
  6
Continuous
 62
     7
100
AcDbLine
 10
7174.0187314942
 20
4184.9721580939
 30
0.0
 11
7172.5187806085
 21
4184.9721580939
 31
0.0
  0
LINE
  5
238
330
1F
100
AcDbEntity
  8
0
  6
Continuous
 62
     7
100
AcDbLine
 10
7172.5187806085
 20
4184.9721580939
 30
0.0
 11
7172.5187806085
 21
4406.4564690189
 31
0.0
  0
LINE
  5
239
330
1F
100
AcDbEntity
  8
0
  6
Continuous
 62
     7
100
AcDbLine
 10
7174.0187314942
 20
4184.9721580939
 30
0.0
 11
7174.0187314942
 21
4406.4564690189
 31
0.0
  0
LINE
  5
23A
330
1F
100
AcDbEntity
  8
0
  6
Continuous
 62
     7
100
AcDbLine
 10
7174.0187314942
 20
4152.0731657938
 30
0.0
 11
7172.5187806085
 21
4152.0731657938
 31
0.0
  0
LINE
  5
23B
330
1F
100
AcDbEntity
  8
0
  6
Continuous
 62
     7
100
AcDbLine
 10
7172.5187806085
 20
4152.0731657938
 30
0.0
 11
7172.5187806085
 21
4184.9721580939
 31
0.0
  0
LINE
  5
23C
330
1F
100
AcDbEntity
  8
0
  6
Continuous
 62
     7
100
AcDbLine
 10
7174.0187314942
 20
4152.0731657938
 30
0.0
 11
7174.0187314942
 21
4184.9721580939
 31
0.0
  0
LINE
  5
23D
330
1F
100
AcDbEntity
  8
0
  6
Continuous
 62
     7
100
AcDbLine
 10
5374.018779178
 20
4406.4564690189
 30
0.0
 11
5375.5187300637
 21
4406.4564690189
 31
0.0
  0
LINE
  5
23E
330
1F
100
AcDbEntity
  8
0
  6
Continuous
 62
     7
100
AcDbLine
 10
5374.018779178
 20
4409.0734072225
 30
0.0
 11
5375.5187300637
 21
4409.0734072225
 31
0.0
  0
LINE
  5
23F
330
1F
100
AcDbEntity
  8
0
  6
Continuous
 62
     7
100
AcDbLine
 10
5375.5187300637
 20
4406.4564690189
 30
0.0
 11
5375.5187300637
 21
4409.0734072225
 31
0.0
  0
LINE
  5
240
330
1F
100
AcDbEntity
  8
0
  6
Continuous
 62
     7
100
AcDbLine
 10
5374.018779178
 20
4406.4564690189
 30
0.0
 11
5374.018779178
 21
4409.0734072225
 31
0.0
  0
LINE
  5
241
330
1F
100
AcDbEntity
  8
0
  6
Continuous
 62
     7
100
AcDbLine
 10
5374.018779178
 20
4184.9721580939
 30
0.0
 11
5375.5187300637
 21
4184.9721580939
 31
0.0
  0
LINE
  5
242
330
1F
100
AcDbEntity
  8
0
  6
Continuous
 62
     7
100
AcDbLine
 10
5375.5187300637
 20
4184.9721580939
 30
0.0
 11
5375.5187300637
 21
4406.4564690189
 31
0.0
  0
LINE
  5
243
330
1F
100
AcDbEntity
  8
0
  6
Continuous
 62
     7
100
AcDbLine
 10
5374.018779178
 20
4184.9721580939
 30
0.0
 11
5374.018779178
 21
4406.4564690189
 31
0.0
  0
LINE
  5
244
330
1F
100
AcDbEntity
  8
0
  6
Continuous
 62
     7
100
AcDbLine
 10
5374.018779178
 20
4152.0731657938
 30
0.0
 11
5375.5187300637
 21
4152.0731657938
 31
0.0
  0
LINE
  5
245
330
1F
100
AcDbEntity
  8
0
  6
Continuous
 62
     7
100
AcDbLine
 10
5375.5187300637
 20
4152.0731657938
 30
0.0
 11
5375.5187300637
 21
4184.9721580939
 31
0.0
  0
LINE
  5
246
330
1F
100
AcDbEntity
  8
0
  6
Continuous
 62
     7
100
AcDbLine
 10
5374.018779178
 20
4152.0731657938
 30
0.0
 11
5374.018779178
 21
4184.9721580939
 31
0.0
  0
LINE
  5
247
330
1F
100
AcDbEntity
  8
0
  6
Continuous
 62
     7
100
AcDbLine
 10
7172.5187806085
 20
4409.0734072225
 30
0.0
 11
5375.5187300637
 21
4409.0734072225
 31
0.0
  0
LINE
  5
248
330
1F
100
AcDbEntity
  8
0
  6
Continuous
 62
     7
100
AcDbLine
 10
7172.5187806085
 20
4406.4564690189
 30
0.0
 11
5375.5187300637
 21
4406.4564690189
 31
0.0
  0
LINE
  5
249
330
1F
100
AcDbEntity
  8
0
  6
Continuous
 62
     7
100
AcDbLine
 10
7172.5187806085
 20
4363.3568011419
 30
0.0
 11
5375.5187300637
 21
4363.3568011419
 31
0.0
  0
LINE
  5
24A
330
1F
100
AcDbEntity
  8
0
  6
Continuous
 62
     7
100
AcDbLine
 10
5375.5187300637
 20
4363.3568011419
 30
0.0
 11
5375.5187300637
 21
4406.4564690189
 31
0.0
  0
LINE
  5
24B
330
1F
100
AcDbEntity
  8
0
  6
Continuous
 62
     7
100
AcDbLine
 10
7172.5187806085
 20
4363.3568011419
 30
0.0
 11
7172.5187806085
 21
4406.4564690189
 31
0.0
  0
LINE
  5
24C
330
1F
100
AcDbEntity
  8
0
  6
Continuous
 62
     7
100
AcDbLine
 10
7172.5187806085
 20
4362.0737403826
 30
0.0
 11
5375.5187300637
 21
4362.0737403826
 31
0.0
  0
LINE
  5
24D
330
1F
100
AcDbEntity
  8
0
  6
Continuous
 62
     7
100
AcDbLine
 10
7172.5187806085
 20
4153.5731762843
 30
0.0
 11
5375.5187300637
 21
4153.5731762843
 31
0.0
  0
LINE
  5
24E
330
1F
100
AcDbEntity
  8
0
  6
Continuous
 62
     7
100
AcDbLine
 10
7172.5187806085
 20
4149.0731746153
 30
0.0
 11
5375.5187300637
 21
4149.0731746153
 31
0.0
  0
LINE
  5
24F
330
1F
100
AcDbEntity
  8
0
  6
Continuous
 62
     7
100
AcDbLine
 10
5375.5187300637
 20
4149.0731746153
 30
0.0
 11
5375.5187300637
 21
4152.0731657938
 31
0.0
  0
LINE
  5
250
330
1F
100
AcDbEntity
  8
0
  6
Continuous
 62
     7
100
AcDbLine
 10
7172.5187806085
 20
4149.0731746153
 30
0.0
 11
7172.5187806085
 21
4152.0731657938
 31
0.0
  0
LINE
  5
251
330
1F
100
AcDbEntity
  8
0
  6
Continuous
 62
     7
100
AcDbLine
 10
7172.5187806085
 20
4153.704977055
 30
0.0
 11
5375.5187300637
 21
4153.704977055
 31
0.0
  0
LINE
  5
252
330
1F
100
AcDbEntity
  8
0
  6
Continuous
 62
     7
100
AcDbLine
 10
7172.5187806085
 20
4328.0824370877
 30
0.0
 11
5375.5187300637
 21
4328.0824370877
 31
0.0
  0
LINE
  5
253
330
1F
100
AcDbEntity
  8
0
  6
Continuous
 62
     7
100
AcDbLine
 10
7172.5187806085
 20
4187.5644684033
 30
0.0
 11
5375.5187300637
 21
4187.5644684033
 31
0.0
  0
LINE
  5
254
330
1F
100
AcDbEntity
  8
0
  6
Continuous
 62
     7
100
AcDbLine
 10
7172.5187806085
 20
4327.7642376916
 30
0.0
 11
5375.5187300637
 21
4327.7642376916
 31
0.0
  0
LINE
  5
255
330
1F
100
AcDbEntity
  8
0
  6
Continuous
 62
     7
100
AcDbLine
 10
7172.5187806085
 20
4187.8826677994
 30
0.0
 11
5375.5187300637
 21
4187.8826677994
 31
0.0
  0
LINE
  5
256
330
1F
100
AcDbEntity
  8
0
  6
Continuous
 62
     7
100
AcDbLine
 10
6310.3293349639
 20
4409.7705729501
 30
0.0
 11
6234.0187562302
 21
4409.7705729501
 31
0.0
  0
LINE
  5
257
330
1F
100
AcDbEntity
  8
0
  6
Continuous
 62
     7
100
AcDbLine
 10
6314.018754442
 20
4409.7705729501
 30
0.0
 11
6310.3293349639
 21
4409.7705729501
 31
0.0
  0
LINE
  5
258
330
1F
100
AcDbEntity
  8
0
  6
Continuous
 62
     7
100
AcDbLine
 10
6292.17404515
 20
4419.7705745892
 30
0.0
 11
6254.0187557831
 21
4419.7705745892
 31
0.0
  0
LINE
  5
259
330
1F
100
AcDbEntity
  8
0
  6
Continuous
 62
     7
100
AcDbLine
 10
6294.0187548891
 20
4419.7705745892
 30
0.0
 11
6292.17404515
 21
4419.7705745892
 31
0.0
  0
LINE
  5
25A
330
1F
100
AcDbEntity
  8
0
  6
Continuous
 62
     7
100
AcDbLine
 10
6258.1557111487
 20
4250.3969282107
 30
0.0
 11
6262.7012069941
 21
4253.0212685661
 31
0.0
  0
LINE
  5
25B
330
1F
100
AcDbEntity
  8
0
  6
Continuous
 62
     7
100
AcDbLine
 10
6285.3363036781
 20
4253.0212685661
 30
0.0
 11
6289.8817995235
 21
4250.3969282107
 31
0.0
  0
LINE
  5
25C
330
1F
100
AcDbEntity
  8
0
  6
Continuous
 62
     7
100
AcDbLine
 10
6272.5187553231
 20
4269.2251637773
 30
0.0
 11
6272.5187553231
 21
4277.2656291918
 31
0.0
  0
LINE
  5
25D
330
1F
100
AcDbEntity
  8
0
  6
Continuous
 62
     7
100
AcDbLine
 10
6275.5187553491
 20
4277.2656291918
 30
0.0
 11
6275.5187553491
 21
4269.2251637773
 31
0.0
  0
LINE
  5
25E
330
1F
100
AcDbEntity
  8
0
  6
Continuous
 62
     7
100
AcDbLine
 10
6275.4792009409
 20
4252.7806296264
 30
0.0
 11
6275.3173496246
 21
4253.9413109617
 31
0.0
  0
LINE
  5
25F
330
1F
100
AcDbEntity
  8
0
  6
Continuous
 62
     7
100
AcDbLine
 10
6275.3173496246
 20
4253.9413109617
 30
0.0
 11
6275.1405864626
 21
4255.2089378433
 31
0.0
  0
LINE
  5
260
330
1F
100
AcDbEntity
  8
0
  6
Continuous
 62
     7
100
AcDbLine
 10
6275.1405864626
 20
4255.2089378433
 30
0.0
 11
6274.9536541894
 21
4256.5494835572
 31
0.0
  0
LINE
  5
261
330
1F
100
AcDbEntity
  8
0
  6
Continuous
 62
     7
100
AcDbLine
 10
6274.9536541894
 20
4256.5494835572
 30
0.0
 11
6274.7615681517
 21
4257.9269841508
 31
0.0
  0
LINE
  5
262
330
1F
100
AcDbEntity
  8
0
  6
Continuous
 62
     7
100
AcDbLine
 10
6274.7615681517
 20
4257.9269841508
 30
0.0
 11
6274.569482114
 21
4259.3044921951
 31
0.0
  0
LINE
  5
263
330
1F
100
AcDbEntity
  8
0
  6
Continuous
 62
     7
100
AcDbLine
 10
6274.569482114
 20
4259.3044921951
 30
0.0
 11
6274.3825498408
 21
4260.645037909
 31
0.0
  0
LINE
  5
264
330
1F
100
AcDbEntity
  8
0
  6
Continuous
 62
     7
100
AcDbLine
 10
6274.3825498408
 20
4260.645037909
 30
0.0
 11
6274.2057867224
 21
4261.9126647906
 31
0.0
  0
LINE
  5
265
330
1F
100
AcDbEntity
  8
0
  6
Continuous
 62
     7
100
AcDbLine
 10
6274.2057867224
 20
4261.9126647906
 30
0.0
 11
6274.0439353908
 21
4263.0733461192
 31
0.0
  0
LINE
  5
266
330
1F
100
AcDbEntity
  8
0
  6
Continuous
 62
     7
100
AcDbLine
 10
6272.5583097314
 20
4262.8661833812
 30
0.0
 11
6272.7201610476
 21
4261.7055013971
 31
0.0
  0
LINE
  5
267
330
1F
100
AcDbEntity
  8
0
  6
Continuous
 62
     7
100
AcDbLine
 10
6272.7201610476
 20
4261.7055013971
 30
0.0
 11
6272.8969242096
 21
4260.4378819661
 31
0.0
  0
LINE
  5
268
330
1F
100
AcDbEntity
  8
0
  6
Continuous
 62
     7
100
AcDbLine
 10
6272.8969242096
 20
4260.4378819661
 30
0.0
 11
6273.0838564828
 21
4259.0973288016
 31
0.0
  0
LINE
  5
269
330
1F
100
AcDbEntity
  8
0
  6
Continuous
 62
     7
100
AcDbLine
 10
6273.0838564828
 20
4259.0973288016
 30
0.0
 11
6273.2759425205
 21
4257.7198282079
 31
0.0
  0
LINE
  5
26A
330
1F
100
AcDbEntity
  8
0
  6
Continuous
 62
     7
100
AcDbLine
 10
6273.2759425205
 20
4257.7198282079
 30
0.0
 11
6273.4680285582
 21
4256.3423201637
 31
0.0
  0
LINE
  5
26B
330
1F
100
AcDbEntity
  8
0
  6
Continuous
 62
     7
100
AcDbLine
 10
6273.4680285582
 20
4256.3423201637
 30
0.0
 11
6273.6549608314
 21
4255.0017744498
 31
0.0
  0
LINE
  5
26C
330
1F
100
AcDbEntity
  8
0
  6
Continuous
 62
     7
100
AcDbLine
 10
6273.6549608314
 20
4255.0017744498
 30
0.0
 11
6273.8317239498
 21
4253.7341475682
 31
0.0
  0
LINE
  5
26D
330
1F
100
AcDbEntity
  8
0
  6
Continuous
 62
     7
100
AcDbLine
 10
6273.8317239498
 20
4253.7341475682
 30
0.0
 11
6273.9935752814
 21
4252.5734668884
 31
0.0
  0
LINE
  5
26E
330
1F
100
AcDbEntity
  8
0
  6
Continuous
 62
     7
100
AcDbLine
 10
5697.8934315637
 20
4356.4642201373
 30
0.0
 11
5650.1440910295
 21
4356.4642201373
 31
0.0
  0
LINE
  5
26F
330
1F
100
AcDbEntity
  8
0
  6
Continuous
 62
     7
100
AcDbLine
 10
6897.8934196427
 20
4356.4642201373
 30
0.0
 11
6850.1440791085
 21
4356.4642201373
 31
0.0
  0
LINE
  5
270
330
1F
100
AcDbEntity
  8
0
  6
Continuous
 62
     7
100
AcDbLine
 10
6297.8934274659
 20
4356.4642201373
 30
0.0
 11
6250.1440832063
 21
4356.4642201373
 31
0.0
  0
LINE
  5
271
330
1F
100
AcDbEntity
  8
0
  6
Continuous
 62
     7
100
AcDbLine
 10
7172.5187806085
 20
4361.9419384332
 30
0.0
 11
6899.0187553361
 21
4361.9419384332
 31
0.0
  0
LINE
  5
272
330
1F
100
AcDbEntity
  8
0
  6
Continuous
 62
     7
100
AcDbLine
 10
6849.0187434152
 20
4361.9419384332
 30
0.0
 11
6299.0187557086
 21
4361.9419384332
 31
0.0
  0
LINE
  5
273
330
1F
100
AcDbEntity
  8
0
  6
Continuous
 62
     7
100
AcDbLine
 10
6249.0187549636
 20
4361.9419384332
 30
0.0
 11
5699.018767257
 21
4361.9419384332
 31
0.0
  0
LINE
  5
274
330
1F
100
AcDbEntity
  8
0
  6
Continuous
 62
     7
100
AcDbLine
 10
5649.0187553361
 20
4361.9419384332
 30
0.0
 11
5375.5187300637
 21
4361.9419384332
 31
0.0
  0
LINE
  5
275
330
1F
100
AcDbEntity
  8
0
  6
Continuous
 62
     7
100
AcDbLine
 10
6274.0187553361
 20
4277.3234084444
 30
0.0
 11
6274.0187553361
 21
4269.3234071331
 31
0.0
  0
LWPOLYLINE
  5
276
330
1F
100
AcDbEntity
  8
0
  6
Continuous
 62
     7
100
AcDbPolyline
 90
        3
 70
   128
 43
0.0
 10
6271.4080810547
 20
5106.7789090439
 10
6271.7304496601
 20
5106.6272524375
 10
6271.8136270203
 20
5106.4199726671
  0
LWPOLYLINE
  5
277
330
1F
100
AcDbEntity
  8
0
  6
Continuous
 62
     7
100
AcDbPolyline
 90
        3
 70
   128
 43
0.0
 10
6270.9541320801
 20
5106.7981725201
 10
6271.2118505576
 20
5106.7943334389
 10
6271.4105822749
 20
5106.7789090439
  0
LWPOLYLINE
  5
278
330
1F
100
AcDbEntity
  8
0
  6
Continuous
 62
     7
100
AcDbPolyline
 90
        3
 70
   128
 43
0.0
 10
6273.1018066406
 20
5106.7789090439
 10
6273.4227573756
 20
5106.627252427
 10
6273.5059348422
 20
5106.4199726671
  0
LWPOLYLINE
  5
279
330
1F
100
AcDbEntity
  8
0
  6
Continuous
 62
     7
100
AcDbPolyline
 90
        3
 70
   128
 43
0.0
 10
6272.647857666
 20
5106.7981725201
 10
6272.904158238
 20
5106.7943334431
 10
6273.1028899805
 20
5106.7789090439
  0
LWPOLYLINE
  5
27A
330
1F
100
AcDbEntity
  8
0
  6
Continuous
 62
     7
100
AcDbPolyline
 90
        4
 70
   128
 43
0.0
 10
6272.7928161621
 20
5106.1726664766
 10
6273.1463106989
 20
5106.2100157523
 10
6273.2777686699
 20
5106.2924914407
 10
6273.3264476199
 20
5106.4131851882
  0
LWPOLYLINE
  5
27B
330
1F
100
AcDbEntity
  8
0
  6
Continuous
 62
     7
100
AcDbPolyline
 90
        4
 70
   128
 43
0.0
 10
6273.323059082
 20
5106.4131851882
 10
6273.277674851
 20
5106.5301009264
 10
6273.1491881053
 20
5106.6116946934
 10
6272.8040117443
 20
5106.646054016
  0
LWPOLYLINE
  5
27C
330
1F
100
AcDbEntity
  8
0
  6
Continuous
 62
     7
100
AcDbPolyline
 90
        3
 70
   128
 43
0.0
 10
6272.647857666
 20
5106.7911019191
 10
6272.9041582319
 20
5106.7872619112
 10
6273.1028899805
 20
5106.7718375116
  0
LWPOLYLINE
  5
27D
330
1F
100
AcDbEntity
  8
0
  6
Continuous
 62
     7
100
AcDbPolyline
 90
        3
 70
   128
 43
0.0
 10
6273.1018066406
 20
5106.7718375116
 10
6273.4227530572
 20
5106.6201854784
 10
6273.5059348422
 20
5106.4129020661
  0
LWPOLYLINE
  5
27E
330
1F
100
AcDbEntity
  8
0
  6
Continuous
 62
     7
100
AcDbPolyline
 90
        4
 70
   128
 43
0.0
 10
6273.5023498535
 20
5106.4129020661
 10
6273.4525070525
 20
5106.2397548129
 10
6273.2850001598
 20
5106.1072536128
 10
6272.7968001643
 20
5106.0296022907
  0
LWPOLYLINE
  5
27F
330
1F
100
AcDbEntity
  8
0
  6
Continuous
 62
     7
100
AcDbPolyline
 90
        4
 70
   128
 43
0.0
 10
6271.0990905762
 20
5106.1726664766
 10
6271.4540030946
 20
5106.210015747
 10
6271.5854609412
 20
5106.2924914822
 10
6271.6341399725
 20
5106.4131851882
  0
LWPOLYLINE
  5
280
330
1F
100
AcDbEntity
  8
0
  6
Continuous
 62
     7
100
AcDbPolyline
 90
        4
 70
   128
 43
0.0
 10
6271.6331481934
 20
5106.4131851882
 10
6271.5853671166
 20
5106.5301008946
 10
6271.4568804073
 20
5106.61169467
 10
6271.1117040969
 20
5106.646054016
  0
LWPOLYLINE
  5
281
330
1F
100
AcDbEntity
  8
0
  6
Continuous
 62
     7
100
AcDbPolyline
 90
        3
 70
   128
 43
0.0
 10
6270.9541320801
 20
5106.7911019191
 10
6271.2118505515
 20
5106.7872619071
 10
6271.4105822749
 20
5106.7718375116
  0
LWPOLYLINE
  5
282
330
1F
100
AcDbEntity
  8
0
  6
Continuous
 62
     7
100
AcDbPolyline
 90
        3
 70
   128
 43
0.0
 10
6271.4080810547
 20
5106.7718375116
 10
6271.7304453418
 20
5106.6201854889
 10
6271.8136270203
 20
5106.4129020661
  0
LWPOLYLINE
  5
283
330
1F
100
AcDbEntity
  8
0
  6
Continuous
 62
     7
100
AcDbPolyline
 90
        4
 70
   128
 43
0.0
 10
6271.8124389648
 20
5106.4129020661
 10
6271.760199288
 20
5106.2397548073
 10
6271.5926923978
 20
5106.1072535989
 10
6271.1044924006
 20
5106.0296022907
  0
LWPOLYLINE
  5
284
330
1F
100
AcDbEntity
  8
0
  6
Continuous
 62
     7
100
AcDbPolyline
 90
        4
 70
   128
 43
0.0
 10
6272.7928161621
 20
5106.179738009
 10
6273.1463087421
 20
5106.21708567
 10
6273.2777641365
 20
5106.2995565992
 10
6273.3264476199
 20
5106.4202557891
  0
LWPOLYLINE
  5
285
330
1F
100
AcDbEntity
  8
0
  6
Continuous
 62
     7
100
AcDbPolyline
 90
        4
 70
   128
 43
0.0
 10
6271.0990905762
 20
5106.179738009
 10
6271.4540011378
 20
5106.2170856647
 10
6271.5854564078
 20
5106.2995566407
 10
6271.6341399725
 20
5106.4202557891
  0
LWPOLYLINE
  5
286
330
1F
100
AcDbEntity
  8
0
  6
Continuous
 62
     7
100
AcDbPolyline
 90
        3
 70
   128
 43
0.0
 10
5650.1426696777
 20
5540.6324719652
 10
5649.0379202601
 20
5532.2586494432
 10
5650.1440910295
 20
5525.8000647291
  0
LWPOLYLINE
  5
287
330
1F
100
AcDbEntity
  8
0
  6
Continuous
 62
     7
100
AcDbPolyline
 90
        3
 70
   128
 43
0.0
 10
5697.8912353516
 20
5525.8000647291
 10
5698.999602333
 20
5534.1738872512
 10
5697.8934315637
 20
5540.6324719652
  0
LWPOLYLINE
  5
288
330
1F
100
AcDbEntity
  8
0
  6
Continuous
 62
     7
100
AcDbPolyline
 90
        3
 70
   128
 43
0.0
 10
6850.1434326172
 20
5540.6324719652
 10
6849.0379083392
 20
5532.2586494432
 10
6850.1440791085
 20
5525.8000647291
  0
LWPOLYLINE
  5
289
330
1F
100
AcDbEntity
  8
0
  6
Continuous
 62
     7
100
AcDbPolyline
 90
        3
 70
   128
 43
0.0
 10
6897.891998291
 20
5525.8000647291
 10
6898.9995904121
 20
5534.1738872512
 10
6897.8934196427
 20
5540.6324719652
  0
LWPOLYLINE
  5
28A
330
1F
100
AcDbEntity
  8
0
  6
Continuous
 62
     7
100
AcDbPolyline
 90
        3
 70
   128
 43
0.0
 10
6250.1411437988
 20
5540.6324719652
 10
6249.0378940371
 20
5532.2586473464
 10
6250.1440832063
 20
5525.8000647291
  0
LWPOLYLINE
  5
28B
330
1F
100
AcDbEntity
  8
0
  6
Continuous
 62
     7
100
AcDbPolyline
 90
        3
 70
   128
 43
0.0
 10
6297.8897094727
 20
5525.8000647291
 10
6298.9996166351
 20
5534.1738893479
 10
6297.8934274659
 20
5540.6324719652
  0
LWPOLYLINE
  5
28C
330
1F
100
AcDbEntity
  8
0
  6
Continuous
 62
     7
100
AcDbPolyline
 90
       10
 70
   128
 43
0.0
 10
5650.1426696777
 20
4356.4642201373
 10
5649.0683059165
 20
4358.7543579306
 10
5649.0018735274
 20
4358.9147884024
 10
5649.0003237339
 20
4358.9188266903
 10
5649.0002820204
 20
4358.9189871839
 10
5649.0002859503
 20
4358.9189978764
 10
5649.000305138
 20
4358.9189786466
 10
5649.0006793089
 20
4358.9182231334
 10
5649.001903413
 20
4358.9154722398
 10
5649.0232852891
 20
4358.8649799777
  0
LWPOLYLINE
  5
28D
330
1F
100
AcDbEntity
  8
0
  6
Continuous
 62
     7
100
AcDbPolyline
 90
        3
 70
   128
 43
0.0
 10
5699.0127563477
 20
4358.8649799777
 10
5698.6431355432
 20
4357.998540246
 10
5697.8934315637
 20
4356.4642201373
  0
LWPOLYLINE
  5
28E
330
1F
100
AcDbEntity
  8
0
  6
Continuous
 62
     7
100
AcDbPolyline
 90
       10
 70
   128
 43
0.0
 10
6850.1434326172
 20
4356.4642201373
 10
6849.0682939956
 20
4358.7543579306
 10
6849.0018616065
 20
4358.9147884024
 10
6849.000311813
 20
4358.9188266903
 10
6849.0002700995
 20
4358.9189871839
 10
6849.0002740294
 20
4358.9189978764
 10
6849.0002932171
 20
4358.9189786466
 10
6849.0006673879
 20
4358.9182231334
 10
6849.0018914921
 20
4358.9154722398
 10
6849.0232733682
 20
4358.8649799777
  0
LWPOLYLINE
  5
28F
330
1F
100
AcDbEntity
  8
0
  6
Continuous
 62
     7
100
AcDbPolyline
 90
        3
 70
   128
 43
0.0
 10
6899.0135192871
 20
4358.8649799777
 10
6898.6431236223
 20
4357.998540246
 10
6897.8934196427
 20
4356.4642201373
  0
LWPOLYLINE
  5
290
330
1F
100
AcDbEntity
  8
0
  6
Continuous
 62
     7
100
AcDbPolyline
 90
       10
 70
   128
 43
0.0
 10
6250.1411437988
 20
4356.4642201373
 10
6249.0682442107
 20
4358.7543570476
 10
6249.0018160012
 20
4358.9147879573
 10
6249.0002699257
 20
4358.9188263283
 10
6249.0002290112
 20
4358.9189868375
 10
6249.0002332148
 20
4358.9189975352
 10
6249.0002527731
 20
4358.9189783124
 10
6249.0006290324
 20
4358.9182228363
 10
6249.0018562199
 20
4358.9154719921
 10
6249.0232607022
 20
4358.8649799777
  0
LWPOLYLINE
  5
291
330
1F
100
AcDbEntity
  8
0
  6
Continuous
 62
     7
100
AcDbPolyline
 90
        3
 70
   128
 43
0.0
 10
6299.0112304688
 20
4358.8649799777
 10
6298.6431490707
 20
4357.9985395829
 10
6297.8934274659
 20
4356.4642201373
  0
ENDSEC
  0
SECTION
  2
OBJECTS
  0
DICTIONARY
  5
C
330
0
100
AcDbDictionary
281
     1
  3
ACAD_GROUP
350
D
  3
ACAD_LAYOUT
350
1A
  3
ACAD_MLINESTYLE
350
17
  3
ACAD_PLOTSETTINGS
350
19
  3
ACAD_PLOTSTYLENAME
350
E
  3
ACAD_SCALELIST
350
47
  3
DWGPROPS
350
292
  0
DICTIONARY
  5
D
102
{ACAD_REACTORS
330
C
102
}
330
C
100
AcDbDictionary
281
     1
  0
DICTIONARY
  5
1A
102
{ACAD_REACTORS
330
C
102
}
330
C
100
AcDbDictionary
281
     1
  3
Layout1
350
1E
  3
Layout2
350
26
  3
Model
350
22
  0
DICTIONARY
  5
17
102
{ACAD_REACTORS
330
C
102
}
330
C
100
AcDbDictionary
281
     1
  3
Standard
350
18
  0
DICTIONARY
  5
19
102
{ACAD_REACTORS
330
C
102
}
330
C
100
AcDbDictionary
281
     1
  0
ACDBDICTIONARYWDFLT
  5
E
102
{ACAD_REACTORS
330
C
102
}
330
C
100
AcDbDictionary
281
     1
  3
Normal
350
F
100
AcDbDictionaryWithDefault
340
F
  0
DICTIONARY
  5
47
102
{ACAD_REACTORS
330
C
102
}
330
C
100
AcDbDictionary
281
     1
  3
A0
350
48
  3
A1
350
49
  3
A2
350
4A
  3
A3
350
4B
  3
A4
350
4C
  3
A5
350
4D
  3
A6
350
4E
  3
A7
350
4F
  3
A8
350
50
  3
A9
350
51
  3
B0
350
52
  3
B1
350
53
  3
B2
350
54
  3
B3
350
55
  3
B4
350
56
  3
B5
350
57
  3
B6
350
58
  3
B7
350
59
  3
B8
350
5A
  3
B9
350
5B
  3
C0
350
5C
  3
C1
350
5D
  3
C2
350
5E
  3
C3
350
5F
  3
C4
350
60
  3
C5
350
61
  3
C6
350
62
  3
C7
350
63
  3
C8
350
64
  3
C9
350
65
  3
D0
350
66
  3
D1
350
67
  3
D2
350
68
  0
XRECORD
  5
292
102
{ACAD_REACTORS
330
C
102
}
330
C
100
AcDbXrecord
280
     1
  1
DWGPROPS COOKIE
  2

  3

  4

  6

  7

  8
radek.stransky
  9

300
=
301
=
302
=
303
=
304
=
305
=
306
=
307
=
308
=
309
=
 40
0.0
 41
2459094.250550729
 42
2459094.250579653
  1

 90
        0
  0
LAYOUT
  5
1E
102
{ACAD_REACTORS
330
1A
102
}
330
1A
100
AcDbPlotSettings
  1

  2
none_device
  4

  6

 40
0.0
 41
0.0
 42
0.0
 43
0.0
 44
0.0
 45
0.0
 46
0.0
 47
0.0
 48
0.0
 49
0.0
140
0.0
141
0.0
142
1.0
143
1.0
 70
   688
 72
     1
 73
     0
 74
     5
  7

 75
    16
147
1.0
148
0.0
149
0.0
100
AcDbLayout
  1
Layout1
 70
     1
 71
     1
 10
0.0
 20
0.0
 11
420.0
 21
297.0
 12
0.0
 22
0.0
 32
0.0
 14
1.0000000000E+20
 24
1.0000000000E+20
 34
1.0000000000E+20
 15
-1.0000000000E+20
 25
-1.0000000000E+20
 35
-1.0000000000E+20
146
0.0
 13
0.0
 23
0.0
 33
0.0
 16
1.0
 26
0.0
 36
0.0
 17
0.0
 27
1.0
 37
0.0
 76
     0
330
1B
  0
LAYOUT
  5
26
102
{ACAD_REACTORS
330
1A
102
}
330
1A
100
AcDbPlotSettings
  1

  2
none_device
  4

  6

 40
0.0
 41
0.0
 42
0.0
 43
0.0
 44
0.0
 45
0.0
 46
0.0
 47
0.0
 48
0.0
 49
0.0
140
0.0
141
0.0
142
1.0
143
1.0
 70
   688
 72
     1
 73
     0
 74
     5
  7

 75
    16
147
1.0
148
0.0
149
0.0
100
AcDbLayout
  1
Layout2
 70
     1
 71
     2
 10
0.0
 20
0.0
 11
0.0
 21
0.0
 12
0.0
 22
0.0
 32
0.0
 14
0.0
 24
0.0
 34
0.0
 15
0.0
 25
0.0
 35
0.0
146
0.0
 13
0.0
 23
0.0
 33
0.0
 16
1.0
 26
0.0
 36
0.0
 17
0.0
 27
1.0
 37
0.0
 76
     0
330
23
  0
LAYOUT
  5
22
102
{ACAD_REACTORS
330
1A
102
}
330
1A
100
AcDbPlotSettings
  1

  2
none_device
  4
ANSI_A_(11.00_x_8.50_Inches)
  6

 40
6.35
 41
19.05
 42
6.35000508
 43
19.05000254
 44
279.4
 45
215.9
 46
-609.1936874531
 47
-459.9775395524
 48
0.0
 49
0.0
140
0.0
141
0.0
142
0.0044266692
143
1.0
 70
  1696
 72
     0
 73
     0
 74
     0
  7

 75
     0
147
0.0179189148
148
-1300.4909072572
149
0.0
100
AcDbLayout
  1
Model
 70
     1
 71
     0
 10
0.0
 20
0.0
 11
420.0
 21
297.0
 12
0.0
 22
0.0
 32
0.0
 14
5374.018779178
 24
4149.0731746153
 34
0.0
 15
7834.1077396675
 25
5614.1826664671
 35
0.0
146
0.0
 13
0.0
 23
0.0
 33
0.0
 16
1.0
 26
0.0
 36
0.0
 17
0.0
 27
1.0
 37
0.0
 76
     0
330
1F
331
29
  0
MLINESTYLE
  5
18
102
{ACAD_REACTORS
330
17
102
}
330
17
100
AcDbMlineStyle
  2
Standard
 70
     0
  3

 62
   256
 51
90.0
 52
90.0
 71
     2
 49
0.5
 62
   256
  6
BYLAYER
 49
-0.5
 62
   256
  6
BYLAYER
  0
ACDBPLACEHOLDER
  5
F
102
{ACAD_REACTORS
330
E
102
}
330
E
  0
SCALE
  5
48
102
{ACAD_REACTORS
330
47
102
}
330
47
100
AcDbScale
 70
     0
300
1:1
140
1.0
141
1.0
290
     1
  0
SCALE
  5
49
102
{ACAD_REACTORS
330
47
102
}
330
47
100
AcDbScale
 70
     0
300
1:2
140
1.0
141
2.0
290
     0
  0
SCALE
  5
4A
102
{ACAD_REACTORS
330
47
102
}
330
47
100
AcDbScale
 70
     0
300
1:4
140
1.0
141
4.0
290
     0
  0
SCALE
  5
4B
102
{ACAD_REACTORS
330
47
102
}
330
47
100
AcDbScale
 70
     0
300
1:5
140
1.0
141
5.0
290
     0
  0
SCALE
  5
4C
102
{ACAD_REACTORS
330
47
102
}
330
47
100
AcDbScale
 70
     0
300
1:8
140
1.0
141
8.0
290
     0
  0
SCALE
  5
4D
102
{ACAD_REACTORS
330
47
102
}
330
47
100
AcDbScale
 70
     0
300
1:10
140
1.0
141
10.0
290
     0
  0
SCALE
  5
4E
102
{ACAD_REACTORS
330
47
102
}
330
47
100
AcDbScale
 70
     0
300
1:16
140
1.0
141
16.0
290
     0
  0
SCALE
  5
4F
102
{ACAD_REACTORS
330
47
102
}
330
47
100
AcDbScale
 70
     0
300
1:20
140
1.0
141
20.0
290
     0
  0
SCALE
  5
50
102
{ACAD_REACTORS
330
47
102
}
330
47
100
AcDbScale
 70
     0
300
1:30
140
1.0
141
30.0
290
     0
  0
SCALE
  5
51
102
{ACAD_REACTORS
330
47
102
}
330
47
100
AcDbScale
 70
     0
300
1:40
140
1.0
141
40.0
290
     0
  0
SCALE
  5
52
102
{ACAD_REACTORS
330
47
102
}
330
47
100
AcDbScale
 70
     0
300
1:50
140
1.0
141
50.0
290
     0
  0
SCALE
  5
53
102
{ACAD_REACTORS
330
47
102
}
330
47
100
AcDbScale
 70
     0
300
1:100
140
1.0
141
100.0
290
     0
  0
SCALE
  5
54
102
{ACAD_REACTORS
330
47
102
}
330
47
100
AcDbScale
 70
     0
300
2:1
140
2.0
141
1.0
290
     0
  0
SCALE
  5
55
102
{ACAD_REACTORS
330
47
102
}
330
47
100
AcDbScale
 70
     0
300
4:1
140
4.0
141
1.0
290
     0
  0
SCALE
  5
56
102
{ACAD_REACTORS
330
47
102
}
330
47
100
AcDbScale
 70
     0
300
8:1
140
8.0
141
1.0
290
     0
  0
SCALE
  5
57
102
{ACAD_REACTORS
330
47
102
}
330
47
100
AcDbScale
 70
     0
300
10:1
140
10.0
141
1.0
290
     0
  0
SCALE
  5
58
102
{ACAD_REACTORS
330
47
102
}
330
47
100
AcDbScale
 70
     0
300
100:1
140
100.0
141
1.0
290
     0
  0
SCALE
  5
59
102
{ACAD_REACTORS
330
47
102
}
330
47
100
AcDbScale
 70
     0
300
1/128" = 1'-0"
140
0.0078125
141
12.0
290
     0
  0
SCALE
  5
5A
102
{ACAD_REACTORS
330
47
102
}
330
47
100
AcDbScale
 70
     0
300
1/64" = 1'-0"
140
0.015625
141
12.0
290
     0
  0
SCALE
  5
5B
102
{ACAD_REACTORS
330
47
102
}
330
47
100
AcDbScale
 70
     0
300
1/32" = 1'-0"
140
0.03125
141
12.0
290
     0
  0
SCALE
  5
5C
102
{ACAD_REACTORS
330
47
102
}
330
47
100
AcDbScale
 70
     0
300
1/16" = 1'-0"
140
0.0625
141
12.0
290
     0
  0
SCALE
  5
5D
102
{ACAD_REACTORS
330
47
102
}
330
47
100
AcDbScale
 70
     0
300
3/32" = 1'-0"
140
0.09375
141
12.0
290
     0
  0
SCALE
  5
5E
102
{ACAD_REACTORS
330
47
102
}
330
47
100
AcDbScale
 70
     0
300
1/8" = 1'-0"
140
0.125
141
12.0
290
     0
  0
SCALE
  5
5F
102
{ACAD_REACTORS
330
47
102
}
330
47
100
AcDbScale
 70
     0
300
3/16" = 1'-0"
140
0.1875
141
12.0
290
     0
  0
SCALE
  5
60
102
{ACAD_REACTORS
330
47
102
}
330
47
100
AcDbScale
 70
     0
300
1/4" = 1'-0"
140
0.25
141
12.0
290
     0
  0
SCALE
  5
61
102
{ACAD_REACTORS
330
47
102
}
330
47
100
AcDbScale
 70
     0
300
3/8" = 1'-0"
140
0.375
141
12.0
290
     0
  0
SCALE
  5
62
102
{ACAD_REACTORS
330
47
102
}
330
47
100
AcDbScale
 70
     0
300
1/2" = 1'-0"
140
0.5
141
12.0
290
     0
  0
SCALE
  5
63
102
{ACAD_REACTORS
330
47
102
}
330
47
100
AcDbScale
 70
     0
300
3/4" = 1'-0"
140
0.75
141
12.0
290
     0
  0
SCALE
  5
64
102
{ACAD_REACTORS
330
47
102
}
330
47
100
AcDbScale
 70
     0
300
1" = 1'-0"
140
1.0
141
12.0
290
     0
  0
SCALE
  5
65
102
{ACAD_REACTORS
330
47
102
}
330
47
100
AcDbScale
 70
     0
300
1-1/2" = 1'-0"
140
1.5
141
12.0
290
     0
  0
SCALE
  5
66
102
{ACAD_REACTORS
330
47
102
}
330
47
100
AcDbScale
 70
     0
300
3" = 1'-0"
140
3.0
141
12.0
290
     0
  0
SCALE
  5
67
102
{ACAD_REACTORS
330
47
102
}
330
47
100
AcDbScale
 70
     0
300
6" = 1'-0"
140
6.0
141
12.0
290
     0
  0
SCALE
  5
68
102
{ACAD_REACTORS
330
47
102
}
330
47
100
AcDbScale
 70
     0
300
1'-0" = 1'-0"
140
12.0
141
12.0
290
     0
  0
ENDSEC
  0
EOF
