  0
SECTION
  2
HEADER
  9
$ACADVER
  1
AC1015
  9
$ACADMAINTVER
 70
     6
  9
$DWGCODEPAGE
  3
ANSI_1250
  9
$INSBASE
 10
0.0
 20
0.0
 30
0.0
  9
$EXTMIN
 10
0.0
 20
0.0
 30
0.0
  9
$EXTMAX
 10
20000.0
 20
10000.0
 30
0.0
  9
$LIMMIN
 10
0.0
 20
0.0
  9
$LIMMAX
 10
20000.0
 20
10000.0
  9
$ORTHOMODE
 70
     0
  9
$REGENMODE
 70
     1
  9
$FILLMODE
 70
     1
  9
$QTEXTMODE
 70
     0
  9
$MIRRTEXT
 70
     1
  9
$LTSCALE
 40
1.0
  9
$ATTMODE
 70
     1
  9
$TEXTSIZE
 40
2.0
  9
$TRACEWID
 40
1.0
  9
$TEXTSTYLE
  7
Standard
  9
$CLAYER
  8
0
  9
$CELTYPE
  6
ByLayer
  9
$CECOLOR
 62
   256
  9
$CELTSCALE
 40
1.0
  9
$DISPSILH
 70
     0
  9
$DIMSCALE
 40
1.0
  9
$DIMASZ
 40
2.0
  9
$DIMEXO
 40
1.0
  9
$DIMDLI
 40
3.75
  9
$DIMRND
 40
0.0
  9
$DIMDLE
 40
0.0
  9
$DIMEXE
 40
1.0
  9
$DIMTP
 40
0.0
  9
$DIMTM
 40
0.0
  9
$DIMTXT
 40
2.0
  9
$DIMCEN
 40
2.5
  9
$DIMTSZ
 40
0.0
  9
$DIMTOL
 70
     0
  9
$DIMLIM
 70
     0
  9
$DIMTIH
 70
     1
  9
$DIMTOH
 70
     1
  9
$DIMSE1
 70
     0
  9
$DIMSE2
 70
     0
  9
$DIMTAD
 70
     1
  9
$DIMZIN
 70
     0
  9
$DIMBLK
  1

  9
$DIMASO
 70
     1
  9
$DIMSHO
 70
     1
  9
$DIMPOST
  1

  9
$DIMAPOST
  1

  9
$DIMALT
 70
     0
  9
$DIMALTD
 70
     3
  9
$DIMALTF
 40
0.0393700787
  9
$DIMLFAC
 40
1.0
  9
$DIMTOFL
 70
     1
  9
$DIMTVP
 40
0.0
  9
$DIMTIX
 70
     0
  9
$DIMSOXD
 70
     0
  9
$DIMSAH
 70
     0
  9
$DIMBLK1
  1

  9
$DIMBLK2
  1

  9
$DIMSTYLE
  2
ISO-25
  9
$DIMCLRD
 70
     0
  9
$DIMCLRE
 70
     0
  9
$DIMCLRT
 70
     0
  9
$DIMTFAC
 40
1.0
  9
$DIMGAP
 40
1.524
  9
$DIMJUST
 70
     0
  9
$DIMSD1
 70
     0
  9
$DIMSD2
 70
     0
  9
$DIMTOLJ
 70
     0
  9
$DIMTZIN
 70
     0
  9
$DIMALTZ
 70
     0
  9
$DIMALTTZ
 70
     0
  9
$DIMUPT
 70
     0
  9
$DIMDEC
 70
     2
  9
$DIMTDEC
 70
     0
  9
$DIMALTU
 70
     2
  9
$DIMALTTD
 70
     3
  9
$DIMTXSTY
  7
Standard
  9
$DIMAUNIT
 70
     0
  9
$DIMADEC
 70
     2
  9
$DIMALTRND
 40
0.0
  9
$DIMAZIN
 70
     0
  9
$DIMDSEP
 70
    44
  9
$DIMATFIT
 70
     3
  9
$DIMFRAC
 70
     0
  9
$DIMLDRBLK
  1

  9
$DIMLUNIT
 70
     2
  9
$DIMLWD
 70
    -2
  9
$DIMLWE
 70
    -2
  9
$DIMTMOVE
 70
     0
  9
$LUNITS
 70
     2
  9
$LUPREC
 70
     3
  9
$SKETCHINC
 40
1.0
  9
$FILLETRAD
 40
10.0
  9
$AUNITS
 70
     0
  9
$AUPREC
 70
     2
  9
$MENU
  1
.
  9
$ELEVATION
 40
0.0
  9
$PELEVATION
 40
0.0
  9
$THICKNESS
 40
0.0
  9
$LIMCHECK
 70
     0
  9
$CHAMFERA
 40
0.0
  9
$CHAMFERB
 40
0.0
  9
$CHAMFERC
 40
0.0
  9
$CHAMFERD
 40
0.0
  9
$SKPOLY
 70
     0
  9
$TDCREATE
 40
2458697.613606007
  9
$TDUCREATE
 40
2458697.530272674
  9
$TDUPDATE
 40
2458697.613606343
  9
$TDUUPDATE
 40
2458697.530273009
  9
$TDINDWG
 40
0.0000000116
  9
$TDUSRTIMER
 40
0.0000000116
  9
$USRTIMER
 70
     1
  9
$ANGBASE
 50
0.0
  9
$ANGDIR
 70
     0
  9
$PDMODE
 70
     0
  9
$PDSIZE
 40
-1.0
  9
$PLINEWID
 40
0.0
  9
$SPLFRAME
 70
     0
  9
$SPLINETYPE
 70
     6
  9
$SPLINESEGS
 70
     8
  9
$HANDSEED
  5
223
  9
$SURFTAB1
 70
     6
  9
$SURFTAB2
 70
     6
  9
$SURFTYPE
 70
     6
  9
$SURFU
 70
     6
  9
$SURFV
 70
     6
  9
$UCSBASE
  2

  9
$UCSNAME
  2

  9
$UCSORG
 10
0.0
 20
0.0
 30
0.0
  9
$UCSXDIR
 10
1.0
 20
0.0
 30
0.0
  9
$UCSYDIR
 10
0.0
 20
1.0
 30
0.0
  9
$UCSORTHOREF
  2

  9
$UCSORTHOVIEW
 70
     0
  9
$UCSORGTOP
 10
0.0
 20
0.0
 30
0.0
  9
$UCSORGBOTTOM
 10
0.0
 20
0.0
 30
0.0
  9
$UCSORGLEFT
 10
0.0
 20
0.0
 30
0.0
  9
$UCSORGRIGHT
 10
0.0
 20
0.0
 30
0.0
  9
$UCSORGFRONT
 10
0.0
 20
0.0
 30
0.0
  9
$UCSORGBACK
 10
0.0
 20
0.0
 30
0.0
  9
$PUCSBASE
  2

  9
$PUCSNAME
  2

  9
$PUCSORG
 10
0.0
 20
0.0
 30
0.0
  9
$PUCSXDIR
 10
1.0
 20
0.0
 30
0.0
  9
$PUCSYDIR
 10
0.0
 20
1.0
 30
0.0
  9
$PUCSORTHOREF
  2

  9
$PUCSORTHOVIEW
 70
     0
  9
$PUCSORGTOP
 10
0.0
 20
0.0
 30
0.0
  9
$PUCSORGBOTTOM
 10
0.0
 20
0.0
 30
0.0
  9
$PUCSORGLEFT
 10
0.0
 20
0.0
 30
0.0
  9
$PUCSORGRIGHT
 10
0.0
 20
0.0
 30
0.0
  9
$PUCSORGFRONT
 10
0.0
 20
0.0
 30
0.0
  9
$PUCSORGBACK
 10
0.0
 20
0.0
 30
0.0
  9
$USERI1
 70
     0
  9
$USERI2
 70
     0
  9
$USERI3
 70
     0
  9
$USERI4
 70
     0
  9
$USERI5
 70
     0
  9
$USERR1
 40
0.0
  9
$USERR2
 40
0.0
  9
$USERR3
 40
0.0
  9
$USERR4
 40
0.0
  9
$USERR5
 40
0.0
  9
$WORLDVIEW
 70
     1
  9
$SHADEDGE
 70
     3
  9
$SHADEDIF
 70
    70
  9
$TILEMODE
 70
     1
  9
$MAXACTVP
 70
    64
  9
$PINSBASE
 10
0.0
 20
0.0
 30
0.0
  9
$PLIMCHECK
 70
     0
  9
$PEXTMIN
 10
1.0000000000E+20
 20
1.0000000000E+20
 30
1.0000000000E+20
  9
$PEXTMAX
 10
-1.0000000000E+20
 20
-1.0000000000E+20
 30
-1.0000000000E+20
  9
$PLIMMIN
 10
0.0
 20
0.0
  9
$PLIMMAX
 10
420.0
 20
297.0
  9
$UNITMODE
 70
     0
  9
$VISRETAIN
 70
     1
  9
$PLINEGEN
 70
     0
  9
$PSLTSCALE
 70
     1
  9
$TREEDEPTH
 70
  3020
  9
$CMLSTYLE
  2
Standard
  9
$CMLJUST
 70
     0
  9
$CMLSCALE
 40
20.0
  9
$PROXYGRAPHICS
 70
     1
  9
$MEASUREMENT
 70
     1
  9
$CELWEIGHT
370
    -1
  9
$ENDCAPS
280
     0
  9
$JOINSTYLE
280
     0
  9
$LWDISPLAY
290
     1
  9
$INSUNITS
 70
     4
  9
$HYPERLINKBASE
  1

  9
$STYLESHEET
  1

  9
$XEDIT
290
     1
  9
$CEPSNTYPE
380
     0
  9
$PSTYLEMODE
290
     1
  9
$FINGERPRINTGUID
  2
{AF524940-A6E5-45A7-BA48-92477F7489F5}
  9
$VERSIONGUID
  2
{FAEB1C32-E019-11D5-929B-00C0DF256EC4}
  9
$EXTNAMES
290
     1
  9
$PSVPSCALE
 40
0.0
  9
$OLESTARTUP
290
     0
  0
ENDSEC
  0
SECTION
  2
CLASSES
  0
CLASS
  1
ACDBDICTIONARYWDFLT
  2
AcDbDictionaryWithDefault
  3
ObjectDBX Classes
 90
        0
280
     0
281
     0
  0
CLASS
  1
VISUALSTYLE
  2
AcDbVisualStyle
  3
ObjectDBX Classes
 90
     4095
280
     0
281
     0
  0
CLASS
  1
MATERIAL
  2
AcDbMaterial
  3
ObjectDBX Classes
 90
     1153
280
     0
281
     0
  0
CLASS
  1
SCALE
  2
AcDbScale
  3
ObjectDBX Classes
 90
     1153
280
     0
281
     0
  0
CLASS
  1
TABLESTYLE
  2
AcDbTableStyle
  3
ObjectDBX Classes
 90
     4095
280
     0
281
     0
  0
CLASS
  1
MLEADERSTYLE
  2
AcDbMLeaderStyle
  3
ACDB_MLEADERSTYLE_CLASS
 90
     4095
280
     0
281
     0
  0
CLASS
  1
SUN
  2
AcDbSun
  3
SCENEOE
 90
     1153
280
     0
281
     0
  0
CLASS
  1
ACDBPLACEHOLDER
  2
AcDbPlaceHolder
  3
ObjectDBX Classes
 90
        0
280
     0
281
     0
  0
CLASS
  1
LAYOUT
  2
AcDbLayout
  3
ObjectDBX Classes
 90
        0
280
     0
281
     0
  0
ENDSEC
  0
SECTION
  2
TABLES
  0
TABLE
  2
VPORT
  5
8
330
0
100
AcDbSymbolTable
 70
     1
  0
VPORT
  5
29
330
8
100
AcDbSymbolTableRecord
100
AcDbViewportTableRecord
  2
*Active
 70
     0
 10
0.0
 20
0.0
 11
1.0
 21
1.0
 12
10000.0
 22
5000.0
 13
0.0
 23
0.0
 14
10.0
 24
10.0
 15
10.0
 25
10.0
 16
0.0
 26
0.0
 36
1.0
 17
0.0
 27
0.0
 37
0.0
 40
10000.0
 41
2.0
 42
50.0
 43
0.0
 44
0.0
 50
0.0
 51
0.0
 71
     0
 72
  2000
 73
     1
 74
     3
 75
     0
 76
     0
 77
     0
 78
     0
281
     0
 65
     1
110
0.0
120
0.0
130
0.0
111
1.0
121
0.0
131
0.0
112
0.0
122
1.0
132
0.0
 79
     0
146
0.0
  0
ENDTAB
  0
TABLE
  2
LTYPE
  5
5
330
0
100
AcDbSymbolTable
 70
     6
  0
LTYPE
  5
14
330
5
100
AcDbSymbolTableRecord
100
AcDbLinetypeTableRecord
  2
ByBlock
 70
     0
  3

 72
    65
 73
     0
 40
0.0
  0
LTYPE
  5
15
330
5
100
AcDbSymbolTableRecord
100
AcDbLinetypeTableRecord
  2
ByLayer
 70
     0
  3

 72
    65
 73
     0
 40
0.0
  0
LTYPE
  5
16
330
5
100
AcDbSymbolTableRecord
100
AcDbLinetypeTableRecord
  2
Continuous
 70
     0
  3
Solid line
 72
    65
 73
     0
 40
0.0
  0
LTYPE
  5
6E
330
5
100
AcDbSymbolTableRecord
100
AcDbLinetypeTableRecord
  2
HIDDEN
 70
     0
  3
Hidden __ __ __ __ __ __ __ __ __ __ __ __ __ __
 72
    65
 73
     2
 40
1.905
 49
1.27
 74
     0
 49
-0.635
 74
     0
  0
LTYPE
  5
6F
330
5
100
AcDbSymbolTableRecord
100
AcDbLinetypeTableRecord
  2
PHANTOM
 70
     0
  3
Phantom ______  __  __  ______  __  __  ______
 72
    65
 73
     6
 40
12.7
 49
6.35
 74
     0
 49
-1.27
 74
     0
 49
1.27
 74
     0
 49
-1.27
 74
     0
 49
1.27
 74
     0
 49
-1.27
 74
     0
  0
LTYPE
  5
70
330
5
100
AcDbSymbolTableRecord
100
AcDbLinetypeTableRecord
  2
CENTER
 70
     0
  3
Center ____ _ ____ _ ____ _ ____ _ ____ _ ____
 72
    65
 73
     4
 40
10.16
 49
6.35
 74
     0
 49
-1.27
 74
     0
 49
1.27
 74
     0
 49
-1.27
 74
     0
  0
LTYPE
  5
71
330
5
100
AcDbSymbolTableRecord
100
AcDbLinetypeTableRecord
  2
CENTERX2
 70
     0
  3
Center (2x) ________  __  ________  __  _____
 72
    65
 73
     4
 40
20.32
 49
12.7
 74
     0
 49
-2.54
 74
     0
 49
2.54
 74
     0
 49
-2.54
 74
     0
  0
LTYPE
  5
72
330
5
100
AcDbSymbolTableRecord
100
AcDbLinetypeTableRecord
  2
DOT2
 70
     0
  3
Dot (.5x) ........................................
 72
    65
 73
     2
 40
0.635
 49
0.0
 74
     0
 49
-0.635
 74
     0
  0
ENDTAB
  0
TABLE
  2
LAYER
  5
2
330
0
100
AcDbSymbolTable
 70
    13
  0
LAYER
  5
10
330
2
100
AcDbSymbolTableRecord
100
AcDbLayerTableRecord
  2
0
 70
     0
 62
     7
  6
Continuous
370
    -3
390
F
  0
LAYER
  5
73
330
2
100
AcDbSymbolTableRecord
100
AcDbLayerTableRecord
  2
FORMAT
 70
     0
 62
     7
  6
Continuous
370
    -3
390
F
  0
LAYER
  5
74
330
2
100
AcDbSymbolTableRecord
100
AcDbLayerTableRecord
  2
OSA
 70
     0
 62
     7
  6
CENTER
370
    -3
390
F
  0
LAYER
  5
75
330
2
100
AcDbSymbolTableRecord
100
AcDbLayerTableRecord
  2
0_35
 70
     0
 62
     7
  6
Continuous
370
    35
390
F
  0
LAYER
  5
76
330
2
100
AcDbSymbolTableRecord
100
AcDbLayerTableRecord
  2
0_5
 70
     0
 62
     7
  6
Continuous
370
    50
390
F
  0
LAYER
  5
77
330
2
100
AcDbSymbolTableRecord
100
AcDbLayerTableRecord
  2
0_25
 70
     0
 62
     7
  6
Continuous
370
    25
390
F
  0
LAYER
  5
78
330
2
100
AcDbSymbolTableRecord
100
AcDbLayerTableRecord
  2
0_18
 70
     0
 62
     7
  6
Continuous
370
    -3
390
F
  0
LAYER
  5
79
330
2
100
AcDbSymbolTableRecord
100
AcDbLayerTableRecord
  2
SLD-0
 70
     0
 62
   179
  6
Continuous
370
    -3
390
F
  0
LAYER
  5
7A
330
2
100
AcDbSymbolTableRecord
100
AcDbLayerTableRecord
  2
KOTY
 70
     0
 62
     7
  6
Continuous
370
    -3
390
F
  0
LAYER
  5
7B
330
2
100
AcDbSymbolTableRecord
100
AcDbLayerTableRecord
  2
SILNA
 70
     0
 62
   179
  6
Continuous
370
    -3
390
F
  0
LAYER
  5
7C
330
2
100
AcDbSymbolTableRecord
100
AcDbLayerTableRecord
  2
0_18_1
 70
     0
 62
   179
  6
Continuous
370
    -3
390
F
  0
LAYER
  5
7D
330
2
100
AcDbSymbolTableRecord
100
AcDbLayerTableRecord
  2
0_35_1
 70
     0
 62
   179
  6
Continuous
370
    35
390
F
  0
LAYER
  5
7E
330
2
100
AcDbSymbolTableRecord
100
AcDbLayerTableRecord
  2
0_5_1
 70
     0
 62
   179
  6
Continuous
370
    50
390
F
  0
ENDTAB
  0
TABLE
  2
STYLE
  5
3
330
0
100
AcDbSymbolTable
 70
     1
  0
STYLE
  5
11
330
3
100
AcDbSymbolTableRecord
100
AcDbTextStyleTableRecord
  2
Standard
 70
     0
 40
0.0
 41
1.0
 50
0.0
 71
     0
 42
2.0
  3
txt
  4

  0
ENDTAB
  0
TABLE
  2
VIEW
  5
6
330
0
100
AcDbSymbolTable
 70
     0
  0
ENDTAB
  0
TABLE
  2
UCS
  5
7
330
0
100
AcDbSymbolTable
 70
     0
  0
ENDTAB
  0
TABLE
  2
APPID
  5
9
330
0
100
AcDbSymbolTable
 70
     1
  0
APPID
  5
12
330
9
100
AcDbSymbolTableRecord
100
AcDbRegAppTableRecord
  2
ACAD
 70
     0
  0
ENDTAB
  0
TABLE
  2
DIMSTYLE
  5
A
330
0
100
AcDbSymbolTable
 70
     1
100
AcDbDimStyleTable
  0
DIMSTYLE
105
27
330
A
100
AcDbSymbolTableRecord
100
AcDbDimStyleTableRecord
  2
ISO-25
 70
     0
 41
2.5
 42
0.625
 43
3.75
 44
1.25
 73
     0
 74
     0
 77
     1
 78
     8
140
2.5
141
2.5
143
0.0393700787
147
0.625
171
     3
172
     1
178
     0
271
     2
272
     2
274
     3
278
    44
283
     0
284
     8
340
11
  0
ENDTAB
  0
TABLE
  2
BLOCK_RECORD
  5
1
330
0
100
AcDbSymbolTable
 70
     1
  0
BLOCK_RECORD
  5
1F
330
1
100
AcDbSymbolTableRecord
100
AcDbBlockTableRecord
  2
*Model_Space
340
22
  0
BLOCK_RECORD
  5
1B
330
1
100
AcDbSymbolTableRecord
100
AcDbBlockTableRecord
  2
*Paper_Space
340
1E
  0
BLOCK_RECORD
  5
23
330
1
100
AcDbSymbolTableRecord
100
AcDbBlockTableRecord
  2
*Paper_Space0
340
26
  0
ENDTAB
  0
ENDSEC
  0
SECTION
  2
BLOCKS
  0
BLOCK
  5
20
330
1F
100
AcDbEntity
  8
0
100
AcDbBlockBegin
  2
*Model_Space
 70
     0
 10
0.0
 20
0.0
 30
0.0
  3
*Model_Space
  1

  0
ENDBLK
  5
21
330
1F
100
AcDbEntity
  8
0
100
AcDbBlockEnd
  0
BLOCK
  5
1C
330
1B
100
AcDbEntity
 67
     1
  8
0
100
AcDbBlockBegin
  2
*Paper_Space
 70
     0
 10
0.0
 20
0.0
 30
0.0
  3
*Paper_Space
  1

  0
ENDBLK
  5
1D
330
1B
100
AcDbEntity
 67
     1
  8
0
100
AcDbBlockEnd
  0
BLOCK
  5
24
330
23
100
AcDbEntity
  8
0
100
AcDbBlockBegin
  2
*Paper_Space0
 70
     0
 10
0.0
 20
0.0
 30
0.0
  3
*Paper_Space0
  1

  0
ENDBLK
  5
25
330
23
100
AcDbEntity
  8
0
100
AcDbBlockEnd
  0
ENDSEC
  0
SECTION
  2
ENTITIES
  0
LINE
  5
7F
330
1F
100
AcDbEntity
  8
0
  6
Continuous
 62
     7
370
    25
100
AcDbLine
 10
6286.2392553732
 20
5298.3941197658
 30
0.0
 11
6285.7392552912
 21
5298.8941133285
 31
0.0
  0
LINE
  5
80
330
1F
100
AcDbEntity
  8
0
  6
Continuous
 62
     7
370
    25
100
AcDbLine
 10
6262.298255381
 20
5298.8941133285
 30
0.0
 11
6261.798255299
 21
5298.3941197658
 31
0.0
  0
CIRCLE
  5
81
330
1F
100
AcDbEntity
  8
0
  6
Continuous
 62
     7
370
    25
100
AcDbCircle
 10
6274.0187553361
 20
5178.3941166548
 30
0.0
 40
12.5
  0
ARC
  5
82
330
1F
100
AcDbEntity
  8
0
  6
Continuous
 62
     7
370
    25
100
AcDbCircle
 10
6277.2776657951
 20
5181.8831049999
 30
0.0
 40
1.353611246208338
100
AcDbArc
 50
10.1404867648
 51
90.0000000001
  0
LINE
  5
83
330
1F
100
AcDbEntity
  8
0
  6
Continuous
 62
     7
370
    25
100
AcDbLine
 10
6277.2776658319
 20
5183.2367162483
 30
0.0
 11
6276.6983484987
 21
5183.2367162483
 31
0.0
  0
ARC
  5
84
330
1F
100
AcDbEntity
  8
0
  6
Continuous
 62
     7
370
    25
100
AcDbCircle
 10
6276.698348513
 20
5181.8831049999
 30
0.0
 40
1.353611246208256
100
AcDbArc
 50
90.0
 51
124.7440022271
  0
ARC
  5
85
330
1F
100
AcDbEntity
  8
0
  6
Continuous
 62
     7
370
    25
100
AcDbCircle
 10
6274.7150886433
 20
5182.392259235
 30
0.0
 40
1.353611246207947
100
AcDbArc
 50
26.4592691593
 51
90.0
  0
LINE
  5
86
330
1F
100
AcDbEntity
  8
0
  6
Continuous
 62
     7
370
    25
100
AcDbLine
 10
6274.715088636
 20
5183.7458705327
 30
0.0
 11
6274.2584777232
 21
5183.7458705327
 31
0.0
  0
ARC
  5
87
330
1F
100
AcDbEntity
  8
0
  6
Continuous
 62
     7
370
    25
100
AcDbCircle
 10
6274.2584777242
 20
5182.392259235
 30
0.0
 40
1.353611246208857
100
AcDbArc
 50
90.0
 51
117.7207121261
  0
LINE
  5
88
330
1F
100
AcDbEntity
  8
0
  6
Continuous
 62
     7
370
    25
100
AcDbLine
 10
6273.6288291132
 20
5183.590510444
 30
0.0
 11
6273.6288291132
 21
5187.136230225
 31
0.0
  0
ARC
  5
89
330
1F
100
AcDbEntity
  8
0
  6
Continuous
 62
     7
370
    25
100
AcDbCircle
 10
6272.0117862055
 20
5187.1362301123
 30
0.0
 40
1.617042895244595
100
AcDbArc
 50
0.0
 51
180.0
  0
LINE
  5
8A
330
1F
100
AcDbEntity
  8
0
  6
Continuous
 62
     7
370
    25
100
AcDbLine
 10
6270.3947433408
 20
5187.136230225
 30
0.0
 11
6270.3947433408
 21
5179.5977786446
 31
0.0
  0
ARC
  5
8B
330
1F
100
AcDbEntity
  8
0
  6
Continuous
 62
     7
370
    25
100
AcDbCircle
 10
6268.549693047
 20
5177.8101497246
 30
0.0
 40
2.56901288587183
100
AcDbArc
 50
44.0944057145
 51
105.4941474424
  0
LINE
  5
8C
330
1F
100
AcDbEntity
  8
0
  6
Continuous
 62
     7
370
    25
100
AcDbLine
 10
6267.8634069532
 20
5180.2857987846
 30
0.0
 11
6267.8634069532
 21
5174.8646846304
 31
0.0
  0
ARC
  5
8D
330
1F
100
AcDbEntity
  8
0
  6
Continuous
 62
     7
370
    25
100
AcDbCircle
 10
6274.1859374181
 20
5174.8646843252
 30
0.0
 40
6.322530327733148
100
AcDbArc
 50
180.0
 51
270.0
  0
LINE
  5
8E
330
1F
100
AcDbEntity
  8
0
  6
Continuous
 62
     7
370
    25
100
AcDbLine
 10
6274.1859374153
 20
5168.5421545322
 30
0.0
 11
6276.5531618286
 21
5168.5421545322
 31
0.0
  0
ARC
  5
8F
330
1F
100
AcDbEntity
  8
0
  6
Continuous
 62
     7
370
    25
100
AcDbCircle
 10
6276.5531618251
 20
5173.0977545481
 30
0.0
 40
4.555600550638701
100
AcDbArc
 50
270.0
 51
0.0
  0
LINE
  5
90
330
1F
100
AcDbEntity
  8
0
  6
Continuous
 62
     7
370
    25
100
AcDbLine
 10
6281.1087622911
 20
5173.0977542961
 30
0.0
 11
6281.1087622911
 21
5180.9345250281
 31
0.0
  0
ARC
  5
91
330
1F
100
AcDbEntity
  8
0
  6
Continuous
 62
     7
370
    25
100
AcDbCircle
 10
6279.7551511295
 20
5180.9345250764
 30
0.0
 40
1.353611246208857
100
AcDbArc
 50
0.0
 51
90.0
  0
LINE
  5
92
330
1F
100
AcDbEntity
  8
0
  6
Continuous
 62
     7
370
    25
100
AcDbLine
 10
6279.7551510528
 20
5182.2881362664
 30
0.0
 11
6279.2609256364
 21
5182.2881362664
 31
0.0
  0
ARC
  5
93
330
1F
100
AcDbEntity
  8
0
  6
Continuous
 62
     7
370
    25
100
AcDbCircle
 10
6279.2609256648
 20
5180.9345250764
 30
0.0
 40
1.353611246208857
100
AcDbArc
 50
90.0
 51
118.7365577358
  0
LINE
  5
94
330
1F
100
AcDbEntity
  8
0
  6
Continuous
 62
     7
370
    25
100
AcDbLine
 10
6271.4243432645
 20
5187.136230225
 30
0.0
 11
6271.4243432645
 21
5175.8557291964
 31
0.0
  0
ARC
  5
95
330
1F
100
AcDbEntity
  8
0
  6
Continuous
 62
     7
370
    25
100
AcDbCircle
 10
6270.7567246216
 20
5175.8557288425
 30
0.0
 40
0.6676186886570576
100
AcDbArc
 50
180.0
 51
0.0
  0
LINE
  5
96
330
1F
100
AcDbEntity
  8
0
  6
Continuous
 62
     7
370
    25
100
AcDbLine
 10
6270.0891058564
 20
5175.8557291964
 30
0.0
 11
6270.0891058564
 21
5177.8101496661
 31
0.0
  0
LINE
  5
97
330
1F
100
AcDbEntity
  8
0
  6
Continuous
 62
     7
370
    25
100
AcDbLine
 10
6268.8930068769
 20
5179.3107920589
 30
0.0
 11
6268.8930068769
 21
5174.8646846304
 31
0.0
  0
ARC
  5
98
330
1F
100
AcDbEntity
  8
0
  6
Continuous
 62
     7
370
    25
100
AcDbCircle
 10
6274.1859374181
 20
5174.8646843252
 30
0.0
 40
5.292930327733302
100
AcDbArc
 50
180.0
 51
270.0
  0
LINE
  5
99
330
1F
100
AcDbEntity
  8
0
  6
Continuous
 62
     7
370
    25
100
AcDbLine
 10
6274.1859374153
 20
5169.5717539901
 30
0.0
 11
6276.5531618286
 21
5169.5717539901
 31
0.0
  0
ARC
  5
9A
330
1F
100
AcDbEntity
  8
0
  6
Continuous
 62
     7
370
    25
100
AcDbCircle
 10
6276.5531618251
 20
5173.0977545481
 30
0.0
 40
3.526000550638855
100
AcDbArc
 50
270.0
 51
0.0
  0
LINE
  5
9B
330
1F
100
AcDbEntity
  8
0
  6
Continuous
 62
     7
370
    25
100
AcDbLine
 10
6280.0791623674
 20
5173.0977542961
 30
0.0
 11
6280.0791623674
 21
5180.9809169995
 31
0.0
  0
ARC
  5
9C
330
1F
100
AcDbEntity
  8
0
  6
Continuous
 62
     7
370
    25
100
AcDbCircle
 10
6279.8390522594
 20
5180.9809168289
 30
0.0
 40
0.2401101162877239
100
AcDbArc
 50
0.0
 51
90.0
  0
LINE
  5
9D
330
1F
100
AcDbEntity
  8
0
  6
Continuous
 62
     7
370
    25
100
AcDbLine
 10
6279.8390520409
 20
5181.2210268604
 30
0.0
 11
6279.1770246483
 21
5181.2210268604
 31
0.0
  0
ARC
  5
9E
330
1F
100
AcDbEntity
  8
0
  6
Continuous
 62
     7
370
    25
100
AcDbCircle
 10
6268.549693047
 20
5177.8101497246
 30
0.0
 40
1.53941288587157
100
AcDbArc
 50
0.0
 51
77.1137478469
  0
LINE
  5
9F
330
1F
100
AcDbEntity
  8
0
  6
Continuous
 62
     7
370
    25
100
AcDbLine
 10
6278.9369143218
 20
5180.9809169995
 30
0.0
 11
6278.9369143218
 21
5179.4653897437
 31
0.0
  0
ARC
  5
A0
330
1F
100
AcDbEntity
  8
0
  6
Continuous
 62
     7
370
    25
100
AcDbCircle
 10
6278.2692957299
 20
5179.4653898382
 30
0.0
 40
0.6676186886570576
100
AcDbArc
 50
180.0
 51
0.0
  0
LINE
  5
A1
330
1F
100
AcDbEntity
  8
0
  6
Continuous
 62
     7
370
    25
100
AcDbLine
 10
6277.6016771465
 20
5179.4653897437
 30
0.0
 11
6277.6016771465
 21
5181.8972671668
 31
0.0
  0
ARC
  5
A2
330
1F
100
AcDbEntity
  8
0
  6
Continuous
 62
     7
370
    25
100
AcDbCircle
 10
6277.361566925
 20
5181.8972671376
 30
0.0
 40
0.2401101162877239
100
AcDbArc
 50
0.0
 51
90.0
  0
LINE
  5
A3
330
1F
100
AcDbEntity
  8
0
  6
Continuous
 62
     7
370
    25
100
AcDbLine
 10
6277.36156682
 20
5182.1373772605
 30
0.0
 11
6276.6144472778
 21
5182.1373772605
 31
0.0
  0
ARC
  5
A4
330
1F
100
AcDbEntity
  8
0
  6
Continuous
 62
     7
370
    25
100
AcDbCircle
 10
6276.6144473831
 20
5181.8972671376
 30
0.0
 40
0.2401101162877239
100
AcDbArc
 50
90.0
 51
180.0
  0
LINE
  5
A5
330
1F
100
AcDbEntity
  8
0
  6
Continuous
 62
     7
370
    25
100
AcDbLine
 10
6276.3743371841
 20
5181.8972671668
 30
0.0
 11
6276.3743371841
 21
5179.4653897437
 31
0.0
  0
ARC
  5
A6
330
1F
100
AcDbEntity
  8
0
  6
Continuous
 62
     7
370
    25
100
AcDbCircle
 10
6275.7067185782
 20
5179.4653898382
 30
0.0
 40
0.6676186886570576
100
AcDbArc
 50
180.0
 51
0.0
  0
LINE
  5
A7
330
1F
100
AcDbEntity
  8
0
  6
Continuous
 62
     7
370
    25
100
AcDbLine
 10
6275.0390998924
 20
5179.4653897437
 30
0.0
 11
6275.0390998924
 21
5182.4064214511
 31
0.0
  0
ARC
  5
A8
330
1F
100
AcDbEntity
  8
0
  6
Continuous
 62
     7
370
    25
100
AcDbCircle
 10
6274.7989897732
 20
5182.4064213728
 30
0.0
 40
0.2401101162877239
100
AcDbArc
 50
0.0
 51
90.0
  0
LINE
  5
A9
330
1F
100
AcDbEntity
  8
0
  6
Continuous
 62
     7
370
    25
100
AcDbLine
 10
6274.7989897987
 20
5182.6465315449
 30
0.0
 11
6274.1745765895
 21
5182.6465315449
 31
0.0
  0
ARC
  5
AA
330
1F
100
AcDbEntity
  8
0
  6
Continuous
 62
     7
370
    25
100
AcDbCircle
 10
6274.1745765943
 20
5182.4064213728
 30
0.0
 40
0.2401101162877239
100
AcDbArc
 50
90.0
 51
180.0
  0
LINE
  5
AB
330
1F
100
AcDbEntity
  8
0
  6
Continuous
 62
     7
370
    25
100
AcDbLine
 10
6273.9344664812
 20
5182.4064214511
 30
0.0
 11
6273.9344664812
 21
5179.4653897437
 31
0.0
  0
ARC
  5
AC
330
1F
100
AcDbEntity
  8
0
  6
Continuous
 62
     7
370
    25
100
AcDbCircle
 10
6273.2668477894
 20
5179.4653898382
 30
0.0
 40
0.6676186886570576
100
AcDbArc
 50
180.0
 51
0.0
  0
LINE
  5
AD
330
1F
100
AcDbEntity
  8
0
  6
Continuous
 62
     7
370
    25
100
AcDbLine
 10
6272.5992290441
 20
5179.4653897437
 30
0.0
 11
6272.5992290441
 21
5187.136230225
 31
0.0
  0
ARC
  5
AE
330
1F
100
AcDbEntity
  8
0
  6
Continuous
 62
     7
370
    25
100
AcDbCircle
 10
6272.0117862055
 20
5187.1362301123
 30
0.0
 40
0.5874428952447488
100
AcDbArc
 50
0.0
 51
180.0
  0
ARC
  5
AF
330
1F
100
AcDbEntity
  8
0
  6
Continuous
 62
     7
370
    25
100
AcDbCircle
 10
6279.1770245349
 20
5180.9809168289
 30
0.0
 40
0.2401101162877239
100
AcDbArc
 50
90.0
 51
180.0
  0
CIRCLE
  5
B0
330
1F
100
AcDbEntity
  8
0
  6
Continuous
 62
     7
370
    25
100
AcDbCircle
 10
6274.0187553361
 20
5178.3941166548
 30
0.0
 40
14.0
  0
CIRCLE
  5
B1
330
1F
100
AcDbEntity
  8
0
  6
Continuous
 62
     7
370
    25
100
AcDbCircle
 10
6274.0187553361
 20
5213.3941166548
 30
0.0
 40
70.5
  0
CIRCLE
  5
B2
330
1F
100
AcDbEntity
  8
0
  6
Continuous
 62
     7
370
    25
100
AcDbCircle
 10
6274.0187553361
 20
5213.3941166548
 30
0.0
 40
72.38561808316354
  0
CIRCLE
  5
B3
330
1F
100
AcDbEntity
  8
0
  6
Continuous
 62
     7
370
    25
100
AcDbCircle
 10
6274.0187553361
 20
5213.3941166548
 30
0.0
 40
73.32842712474485
  0
LINE
  5
B4
330
1F
100
AcDbEntity
  8
0
  6
Continuous
 62
     7
370
    25
100
AcDbLine
 10
6357.0187521771
 20
5158.3941173071
 30
0.0
 11
6357.0187521771
 21
5268.3941185737
 31
0.0
  0
LINE
  5
B5
330
1F
100
AcDbEntity
  8
0
  6
Continuous
 62
     7
370
    25
100
AcDbLine
 10
6357.0187521771
 20
5268.3941185737
 30
0.0
 11
6359.0187562302
 21
5268.3941185737
 31
0.0
  0
LINE
  5
B6
330
1F
100
AcDbEntity
  8
0
  6
Continuous
 62
     7
370
    25
100
AcDbLine
 10
6359.0187562302
 20
5268.3941185737
 30
0.0
 11
6359.0187562302
 21
5158.3941173071
 31
0.0
  0
LINE
  5
B7
330
1F
100
AcDbEntity
  8
0
  6
Continuous
 62
     7
370
    25
100
AcDbLine
 10
6357.0187521771
 20
5158.3941173071
 30
0.0
 11
6359.0187562302
 21
5158.3941173071
 31
0.0
  0
ARC
  5
B8
330
1F
100
AcDbEntity
  8
0
  6
Continuous
 62
     7
370
    25
100
AcDbCircle
 10
6329.0187553361
 20
5268.3941166548
 30
0.0
 40
28.0
100
AcDbArc
 50
0.0
 51
90.0
  0
ARC
  5
B9
330
1F
100
AcDbEntity
  8
0
  6
Continuous
 62
     7
370
    25
100
AcDbCircle
 10
6329.0187553361
 20
5158.3941166548
 30
0.0
 40
28.0
100
AcDbArc
 50
270.0
 51
0.0
  0
LINE
  5
BA
330
1F
100
AcDbEntity
  8
0
  6
Continuous
 62
     7
370
    25
100
AcDbLine
 10
6219.0187556341
 20
5130.3941183055
 30
0.0
 11
6329.0187550381
 21
5130.3941183055
 31
0.0
  0
ARC
  5
BB
330
1F
100
AcDbEntity
  8
0
  6
Continuous
 62
     7
370
    25
100
AcDbCircle
 10
6219.0187553361
 20
5158.3941166548
 30
0.0
 40
28.0
100
AcDbArc
 50
180.0
 51
270.0
  0
LINE
  5
BC
330
1F
100
AcDbEntity
  8
0
  6
Continuous
 62
     7
370
    25
100
AcDbLine
 10
6191.0187584951
 20
5268.3941185737
 30
0.0
 11
6191.0187584951
 21
5158.3941173071
 31
0.0
  0
ARC
  5
BD
330
1F
100
AcDbEntity
  8
0
  6
Continuous
 62
     7
370
    25
100
AcDbCircle
 10
6219.0187553361
 20
5268.3941166548
 30
0.0
 40
28.0
100
AcDbArc
 50
90.0
 51
180.0
  0
LINE
  5
BE
330
1F
100
AcDbEntity
  8
0
  6
Continuous
 62
     7
370
    25
100
AcDbLine
 10
6329.0187550381
 20
5296.3941157127
 30
0.0
 11
6219.0187556341
 21
5296.3941157127
 31
0.0
  0
ARC
  5
BF
330
1F
100
AcDbEntity
  8
0
  6
Continuous
 62
     7
370
    25
100
AcDbCircle
 10
6329.0187553361
 20
5158.3941166548
 30
0.0
 40
30.0
100
AcDbArc
 50
270.0
 51
0.0
  0
LINE
  5
C0
330
1F
100
AcDbEntity
  8
0
  6
Continuous
 62
     7
370
    25
100
AcDbLine
 10
6329.0187550381
 20
5128.3941179777
 30
0.0
 11
6329.0187550381
 21
5130.3941183055
 31
0.0
  0
LINE
  5
C1
330
1F
100
AcDbEntity
  8
0
  6
Continuous
 62
     7
370
    25
100
AcDbLine
 10
6329.0187550381
 20
5128.3941179777
 30
0.0
 11
6219.0187556341
 21
5128.3941179777
 31
0.0
  0
LINE
  5
C2
330
1F
100
AcDbEntity
  8
0
  6
Continuous
 62
     7
370
    25
100
AcDbLine
 10
6219.0187556341
 20
5128.3941179777
 30
0.0
 11
6219.0187556341
 21
5130.3941183055
 31
0.0
  0
LINE
  5
C3
330
1F
100
AcDbEntity
  8
0
  6
Continuous
 62
     7
370
    25
100
AcDbLine
 10
6329.0187550381
 20
5296.3941157127
 30
0.0
 11
6329.0187550381
 21
5298.3941197658
 31
0.0
  0
ARC
  5
C4
330
1F
100
AcDbEntity
  8
0
  6
Continuous
 62
     7
370
    25
100
AcDbCircle
 10
6329.0187553361
 20
5268.3941166548
 30
0.0
 40
30.00000000000091
100
AcDbArc
 50
0.0
 51
90.0
  0
LINE
  5
C5
330
1F
100
AcDbEntity
  8
0
  6
Continuous
 62
     7
370
    25
100
AcDbLine
 10
6219.0187556341
 20
5296.3941157127
 30
0.0
 11
6219.0187556341
 21
5298.3941197658
 31
0.0
  0
LINE
  5
C6
330
1F
100
AcDbEntity
  8
0
  6
Continuous
 62
     7
370
    25
100
AcDbLine
 10
6219.0187556341
 20
5298.3941197658
 30
0.0
 11
6329.0187550381
 21
5298.3941197658
 31
0.0
  0
ARC
  5
C7
330
1F
100
AcDbEntity
  8
0
  6
Continuous
 62
     7
370
    25
100
AcDbCircle
 10
6219.0187553361
 20
5158.3941166548
 30
0.0
 40
30.0
100
AcDbArc
 50
180.0
 51
270.0
  0
LINE
  5
C8
330
1F
100
AcDbEntity
  8
0
  6
Continuous
 62
     7
370
    25
100
AcDbLine
 10
6189.018754442
 20
5158.3941173071
 30
0.0
 11
6191.0187584951
 21
5158.3941173071
 31
0.0
  0
LINE
  5
C9
330
1F
100
AcDbEntity
  8
0
  6
Continuous
 62
     7
370
    25
100
AcDbLine
 10
6189.018754442
 20
5268.3941185737
 30
0.0
 11
6191.0187584951
 21
5268.3941185737
 31
0.0
  0
ARC
  5
CA
330
1F
100
AcDbEntity
  8
0
  6
Continuous
 62
     7
370
    25
100
AcDbCircle
 10
6219.0187553361
 20
5268.3941166548
 30
0.0
 40
30.00000000000091
100
AcDbArc
 50
90.0
 51
180.0
  0
LINE
  5
CB
330
1F
100
AcDbEntity
  8
0
  6
Continuous
 62
     7
370
    25
100
AcDbLine
 10
6189.018754442
 20
5158.3941173071
 30
0.0
 11
6189.018754442
 21
5268.3941185737
 31
0.0
  0
LINE
  5
CC
330
1F
100
AcDbEntity
  8
0
  6
Continuous
 62
     7
370
    25
100
AcDbLine
 10
6262.6768892303
 20
5298.8941133285
 30
0.0
 11
6285.7392552912
 21
5298.8941133285
 31
0.0
  0
LINE
  5
CD
330
1F
100
AcDbEntity
  8
0
  6
Continuous
 62
     7
370
    25
100
AcDbLine
 10
6262.298255381
 20
5298.8941133285
 30
0.0
 11
6262.6768892303
 21
5298.8941133285
 31
0.0
  0
LINE
  5
CE
330
1F
100
AcDbEntity
  8
0
  6
Continuous
 62
     7
370
    25
100
AcDbLine
 10
6623.6842954837
 20
5279.3941185141
 30
0.0
 11
6554.0842945062
 21
5279.3941185141
 31
0.0
  0
LINE
  5
CF
330
1F
100
AcDbEntity
  8
0
  6
Continuous
 62
     7
370
    25
100
AcDbLine
 10
6554.0842945062
 20
5148.3941175307
 30
0.0
 11
6623.6842954837
 21
5148.3941175307
 31
0.0
  0
LINE
  5
D0
330
1F
100
AcDbEntity
  8
0
  6
Continuous
 62
     7
370
    25
100
AcDbLine
 10
6626.58429242
 20
5154.0789086635
 30
0.0
 11
6626.5105540239
 21
5153.9528504277
 31
0.0
  0
LINE
  5
D1
330
1F
100
AcDbEntity
  8
0
  6
Continuous
 62
     7
370
    25
100
AcDbLine
 10
6623.7570578538
 20
5154.3748606259
 30
0.0
 11
6623.6842954837
 21
5154.250026148
 31
0.0
  0
LINE
  5
D2
330
1F
100
AcDbEntity
  8
0
  6
Continuous
 62
     7
370
    25
100
AcDbLine
 10
6623.6068019949
 20
5150.3124892975
 30
0.0
 11
6623.6842954837
 21
5150.4454188312
 31
0.0
  0
LINE
  5
D3
330
1F
100
AcDbEntity
  8
0
  6
Continuous
 62
     7
370
    25
100
AcDbLine
 10
6623.6932808839
 20
5277.3748249079
 30
0.0
 11
6623.6343765937
 21
5277.4758100773
 31
0.0
  0
SPLINE
  5
D4
330
1F
100
AcDbEntity
  8
0
  6
Continuous
 62
     7
370
    25
100
AcDbSpline
210
0.0
220
0.0
230
1.0
 70
     8
 71
     3
 72
     9
 73
     5
 74
     0
 42
0.000000001
 43
0.00000001
 40
0.0
 40
0.0
 40
0.0
 40
0.0
 40
0.4995392488676342
 40
1.0
 40
1.0
 40
1.0
 40
1.0
 10
6626.953215368868
 20
5276.930114653189
 30
0.0
 10
6626.900050905281
 20
5277.02088233811
 30
0.0
 10
6626.793623905384
 20
5277.202585147502
 30
0.0
 10
6626.687490717654
 20
5277.38467916733
 30
0.0
 10
6626.634375222803
 20
5277.475810077269
 30
0.0
  0
SPLINE
  5
D5
330
1F
100
AcDbEntity
  8
0
  6
Continuous
 62
     7
370
    25
100
AcDbSpline
210
0.0
220
0.0
230
1.0
 70
     8
 71
     3
 72
     9
 73
     5
 74
     0
 42
0.000000001
 43
0.00000001
 40
0.0
 40
0.0
 40
0.0
 40
0.0
 40
0.4993354561136674
 40
1.0
 40
1.0
 40
1.0
 40
1.0
 10
6626.5247473799
 20
5273.856541540701
 30
0.0
 10
6626.578011483722
 20
5273.765462734743
 30
0.0
 10
6626.684681465133
 20
5273.583062697166
 30
0.0
 10
6626.790964149926
 20
5273.400548248955
 30
0.0
 10
6626.844176121832
 20
5273.309169735987
 30
0.0
  0
LINE
  5
D6
330
1F
100
AcDbEntity
  8
0
  6
Continuous
 62
     7
370
    25
100
AcDbLine
 10
6623.5247487508
 20
5273.8565415407
 30
0.0
 11
6623.6842954837
 21
5273.5835224653
 31
0.0
  0
LINE
  5
D7
330
1F
100
AcDbEntity
  8
0
  6
Continuous
 62
     7
370
    25
100
AcDbLine
 10
6627.0842934333
 20
5277.0335883165
 30
0.0
 11
6627.0247483932
 21
5276.9316941763
 31
0.0
  0
LINE
  5
D8
330
1F
100
AcDbEntity
  8
0
  6
Continuous
 62
     7
370
    25
100
AcDbLine
 10
6626.613640257
 20
5277.4941161538
 30
0.0
 11
6626.58429242
 21
5277.4941161538
 31
0.0
  0
LINE
  5
D9
330
1F
100
AcDbEntity
  8
0
  6
Continuous
 62
     7
370
    25
100
AcDbLine
 10
6626.8636370384
 20
5273.2941195632
 30
0.0
 11
6627.0842934333
 21
5273.2941195632
 31
0.0
  0
LINE
  5
DA
330
1F
100
AcDbEntity
  8
0
  6
Continuous
 62
     7
370
    25
100
AcDbLine
 10
6627.0505199515
 20
5276.9528538252
 30
0.0
 11
6626.9399086319
 21
5276.9528538252
 31
0.0
  0
LINE
  5
DB
330
1F
100
AcDbEntity
  8
0
  6
Continuous
 62
     7
370
    25
100
AcDbLine
 10
6637.0842913471
 20
5164.394116428
 30
0.0
 11
6637.5842923604
 21
5164.394116428
 31
0.0
  0
LINE
  5
DC
330
1F
100
AcDbEntity
  8
0
  6
Continuous
 62
     7
370
    25
100
AcDbLine
 10
6637.5842923604
 20
5192.3941168266
 30
0.0
 11
6637.0842913471
 21
5192.3941168266
 31
0.0
  0
LINE
  5
DD
330
1F
100
AcDbEntity
  8
0
  6
Continuous
 62
     7
370
    25
100
AcDbLine
 10
6637.5842923604
 20
5164.394116428
 30
0.0
 11
6639.0842954003
 21
5165.8941157425
 31
0.0
  0
LINE
  5
DE
330
1F
100
AcDbEntity
  8
0
  6
Continuous
 62
     7
370
    25
100
AcDbLine
 10
6639.0842954003
 20
5190.8941165807
 30
0.0
 11
6637.5842923604
 21
5192.3941168266
 31
0.0
  0
ARC
  5
DF
330
1F
100
AcDbEntity
  8
0
  6
Continuous
 62
     7
370
    25
100
AcDbCircle
 10
6636.0842945062
 20
5140.0656895301
 30
0.0
 40
1.0
100
AcDbArc
 50
109.4712206345
 51
180.0
  0
ARC
  5
E0
330
1F
100
AcDbEntity
  8
0
  6
Continuous
 62
     7
370
    25
100
AcDbCircle
 10
6636.0842945062
 20
5286.7225437796
 30
0.0
 40
1.0
100
AcDbArc
 50
180.0
 51
250.5287793655
  0
ARC
  5
E1
330
1F
100
AcDbEntity
  8
0
  6
Continuous
 62
     7
370
    25
100
AcDbCircle
 10
6635.0842945062
 20
5283.8941166548
 30
0.0
 40
1.999999999999241
100
AcDbArc
 50
0.0
 51
70.5287793655
  0
ARC
  5
E2
330
1F
100
AcDbEntity
  8
0
  6
Continuous
 62
     7
370
    25
100
AcDbCircle
 10
6635.0842945062
 20
5142.8941166548
 30
0.0
 40
2.000000000000956
100
AcDbArc
 50
289.4712206345
 51
0.0
  0
LINE
  5
E3
330
1F
100
AcDbEntity
  8
0
  6
Continuous
 62
     7
370
    25
100
AcDbLine
 10
6596.9842942737
 20
5148.3941175307
 30
0.0
 11
6596.9842942737
 21
5147.4941171969
 31
0.0
  0
LINE
  5
E4
330
1F
100
AcDbEntity
  8
0
  6
Continuous
 62
     7
370
    25
100
AcDbLine
 10
6610.1842942022
 20
5147.4941171969
 30
0.0
 11
6610.1842942022
 21
5148.3941175307
 31
0.0
  0
ARC
  5
E5
330
1F
100
AcDbEntity
  8
0
  6
Continuous
 62
     7
370
    25
100
AcDbCircle
 10
6597.7842945062
 20
5147.4941166548
 30
0.0
 40
0.8000000000001819
100
AcDbArc
 50
180.0
 51
270.0
  0
ARC
  5
E6
330
1F
100
AcDbEntity
  8
0
  6
Continuous
 62
     7
370
    25
100
AcDbCircle
 10
6609.3842945062
 20
5147.4941166548
 30
0.0
 40
0.8000000000001819
100
AcDbArc
 50
270.0
 51
0.0
  0
LINE
  5
E7
330
1F
100
AcDbEntity
  8
0
  6
Continuous
 62
     7
370
    25
100
AcDbLine
 10
6592.4970442735
 20
5297.7018639708
 30
0.0
 11
6591.3047949158
 21
5298.8941133285
 31
0.0
  0
LINE
  5
E8
330
1F
100
AcDbEntity
  8
0
  6
Continuous
 62
     7
370
    25
100
AcDbLine
 10
6566.5076747842
 20
5297.5379959012
 30
0.0
 11
6566.3637947597
 21
5297.3941177393
 31
0.0
  0
LINE
  5
E9
330
1F
100
AcDbEntity
  8
0
  6
Continuous
 62
     7
370
    25
100
AcDbLine
 10
6567.8637940742
 20
5298.8941133285
 30
0.0
 11
6567.1676360376
 21
5298.1979608799
 31
0.0
  0
SPLINE
  5
EA
330
1F
100
AcDbEntity
  8
0
  6
Continuous
 62
     7
370
    25
100
AcDbSpline
210
0.0
220
0.0
230
1.0
 70
     8
 71
     3
 72
     9
 73
     5
 74
     0
 42
0.000000001
 43
0.00000001
 40
0.0
 40
0.0
 40
0.0
 40
0.0
 40
0.5046088559467143
 40
1.0
 40
1.0
 40
1.0
 40
1.0
 10
6566.371142894805
 20
5297.043813791353
 30
0.0
 10
6566.514442090753
 20
5296.961030961817
 30
0.0
 10
6566.798422830008
 20
5296.796977500287
 30
0.0
 10
6567.082399838192
 20
5296.632917305747
 30
0.0
 10
6567.223079533161
 20
5296.551643338282
 30
0.0
  0
SPLINE
  5
EB
330
1F
100
AcDbEntity
  8
0
  6
Continuous
 62
     7
370
    25
100
AcDbSpline
210
0.0
220
0.0
230
1.0
 70
     8
 71
     3
 72
     9
 73
     5
 74
     0
 42
0.000000001
 43
0.00000001
 40
0.0
 40
0.0
 40
0.0
 40
0.0
 40
0.5046069794124792
 40
1.0
 40
1.0
 40
1.0
 40
1.0
 10
6566.371142894805
 20
5295.456311132986
 30
0.0
 10
6566.514442362154
 20
5295.373531256782
 30
0.0
 10
6566.798424695326
 20
5295.209483037908
 30
0.0
 10
6567.082400099777
 20
5295.045422550776
 30
0.0
 10
6567.223079533161
 20
5294.964148130495
 30
0.0
  0
SPLINE
  5
EC
330
1F
100
AcDbEntity
  8
0
  6
Continuous
 62
     7
370
    25
100
AcDbSpline
210
0.0
220
0.0
230
1.0
 70
     8
 71
     3
 72
     9
 73
     5
 74
     0
 42
0.000000001
 43
0.00000001
 40
0.0
 40
0.0
 40
0.0
 40
0.0
 40
0.5046088559467143
 40
1.0
 40
1.0
 40
1.0
 40
1.0
 10
6566.371142894805
 20
5293.8688159252
 30
0.0
 10
6566.514442090753
 20
5293.786033095663
 30
0.0
 10
6566.798422830008
 20
5293.621979634133
 30
0.0
 10
6567.082399838192
 20
5293.457919439594
 30
0.0
 10
6567.223079533161
 20
5293.376645472128
 30
0.0
  0
SPLINE
  5
ED
330
1F
100
AcDbEntity
  8
0
  6
Continuous
 62
     7
370
    25
100
AcDbSpline
210
0.0
220
0.0
230
1.0
 70
     8
 71
     3
 72
     9
 73
     5
 74
     0
 42
0.000000001
 43
0.00000001
 40
0.0
 40
0.0
 40
0.0
 40
0.0
 40
0.5046107674494044
 40
1.0
 40
1.0
 40
1.0
 40
1.0
 10
6566.371142894805
 20
5292.281313266833
 30
0.0
 10
6566.51444181429
 20
5292.198529958745
 30
0.0
 10
6566.798420929932
 20
5292.034476170305
 30
0.0
 10
6567.082399571736
 20
5291.870421287053
 30
0.0
 10
6567.223079533161
 20
5291.789150264342
 30
0.0
  0
SPLINE
  5
EE
330
1F
100
AcDbEntity
  8
0
  6
Continuous
 62
     7
370
    25
100
AcDbSpline
210
0.0
220
0.0
230
1.0
 70
     8
 71
     3
 72
     9
 73
     5
 74
     0
 42
0.000000001
 43
0.00000001
 40
0.0
 40
0.0
 40
0.0
 40
0.0
 40
0.5046069794124792
 40
1.0
 40
1.0
 40
1.0
 40
1.0
 10
6566.371142894805
 20
5290.693810608465
 30
0.0
 10
6566.514442362154
 20
5290.611030732261
 30
0.0
 10
6566.798424695326
 20
5290.446982513387
 30
0.0
 10
6567.082400099777
 20
5290.282922026255
 30
0.0
 10
6567.223079533161
 20
5290.201647605974
 30
0.0
  0
SPLINE
  5
EF
330
1F
100
AcDbEntity
  8
0
  6
Continuous
 62
     7
370
    25
100
AcDbSpline
210
0.0
220
0.0
230
1.0
 70
     8
 71
     3
 72
     9
 73
     5
 74
     0
 42
0.000000001
 43
0.00000001
 40
0.0
 40
0.0
 40
0.0
 40
0.0
 40
0.4999953096170592
 40
1.0
 40
1.0
 40
1.0
 40
1.0
 10
6591.937669583441
 20
5295.753365781386
 30
0.0
 10
6592.080962305131
 20
5295.836150191541
 30
0.0
 10
6592.367550436927
 20
5296.001720565028
 30
0.0
 10
6592.654145404538
 20
5296.167278828575
 30
0.0
 10
6592.797444232584
 20
5296.25005873688
 30
0.0
  0
SPLINE
  5
F0
330
1F
100
AcDbEntity
  8
0
  6
Continuous
 62
     7
370
    25
100
AcDbSpline
210
0.0
220
0.0
230
1.0
 70
     8
 71
     3
 72
     9
 73
     5
 74
     0
 42
0.000000001
 43
0.00000001
 40
0.0
 40
0.0
 40
0.0
 40
0.0
 40
0.4999915561068223
 40
1.0
 40
1.0
 40
1.0
 40
1.0
 10
6591.937669583441
 20
5294.165870573599
 30
0.0
 10
6592.080962842983
 20
5294.248651569204
 30
0.0
 10
6592.367554201961
 20
5294.414216356437
 30
0.0
 10
6592.65414594241
 20
5294.579780206205
 30
0.0
 10
6592.797444232584
 20
5294.662563529093
 30
0.0
  0
SPLINE
  5
F1
330
1F
100
AcDbEntity
  8
0
  6
Continuous
 62
     7
370
    25
100
AcDbSpline
210
0.0
220
0.0
230
1.0
 70
     8
 71
     3
 72
     9
 73
     5
 74
     0
 42
0.000000001
 43
0.00000001
 40
0.0
 40
0.0
 40
0.0
 40
0.0
 40
0.4999953096170592
 40
1.0
 40
1.0
 40
1.0
 40
1.0
 10
6591.937669583441
 20
5292.578367915232
 30
0.0
 10
6592.080962305131
 20
5292.661152325387
 30
0.0
 10
6592.367550436927
 20
5292.826722698875
 30
0.0
 10
6592.654145404538
 20
5292.992280962421
 30
0.0
 10
6592.797444232584
 20
5293.075060870726
 30
0.0
  0
SPLINE
  5
F2
330
1F
100
AcDbEntity
  8
0
  6
Continuous
 62
     7
370
    25
100
AcDbSpline
210
0.0
220
0.0
230
1.0
 70
     8
 71
     3
 72
     9
 73
     5
 74
     0
 42
0.000000001
 43
0.00000001
 40
0.0
 40
0.0
 40
0.0
 40
0.0
 40
0.4999934329112404
 40
1.0
 40
1.0
 40
1.0
 40
1.0
 10
6591.937669583441
 20
5290.990865256865
 30
0.0
 10
6592.080962574052
 20
5291.073649201508
 30
0.0
 10
6592.367552319394
 20
5291.239219265423
 30
0.0
 10
6592.654145673465
 20
5291.404782805587
 30
0.0
 10
6592.797444232584
 20
5291.487565662939
 30
0.0
  0
SPLINE
  5
F3
330
1F
100
AcDbEntity
  8
0
  6
Continuous
 62
     7
370
    25
100
AcDbSpline
210
0.0
220
0.0
230
1.0
 70
     8
 71
     3
 72
     9
 73
     5
 74
     0
 42
0.000000001
 43
0.00000001
 40
0.0
 40
0.0
 40
0.0
 40
0.0
 40
0.7917089285447755
 40
1.0
 40
1.0
 40
1.0
 40
1.0
 10
6591.937669583441
 20
5297.340868439753
 30
0.0
 10
6592.080961612479
 20
5297.423654062382
 30
0.0
 10
6592.261952408301
 20
5297.528219793099
 30
0.0
 10
6592.442949245702
 20
5297.632774890732
 30
0.0
 10
6592.480649270893
 20
5297.654552784044
 30
0.0
  0
LINE
  5
F4
330
1F
100
AcDbEntity
  8
0
  6
Continuous
 62
     7
370
    25
100
AcDbLine
 10
6592.8047942303
 20
5296.2585896517
 30
0.0
 11
6592.8047942303
 21
5296.6552809144
 31
0.0
  0
LINE
  5
F5
330
1F
100
AcDbEntity
  8
0
  6
Continuous
 62
     7
370
    25
100
AcDbLine
 10
6592.8047942303
 20
5294.6710869933
 30
0.0
 11
6592.8047942303
 21
5295.067778256
 31
0.0
  0
LINE
  5
F6
330
1F
100
AcDbEntity
  8
0
  6
Continuous
 62
     7
370
    25
100
AcDbLine
 10
6592.8047942303
 20
5293.0835917855
 30
0.0
 11
6592.8047942303
 21
5293.4802830482
 31
0.0
  0
LINE
  5
F7
330
1F
100
AcDbEntity
  8
0
  6
Continuous
 62
     7
370
    25
100
AcDbLine
 10
6592.8047942303
 20
5291.4960891271
 30
0.0
 11
6592.8047942303
 21
5291.8927803899
 31
0.0
  0
LINE
  5
F8
330
1F
100
AcDbEntity
  8
0
  6
Continuous
 62
     7
370
    25
100
AcDbLine
 10
6592.8047942303
 20
5289.8941174413
 30
0.0
 11
6592.8047942303
 21
5290.3052777315
 31
0.0
  0
LINE
  5
F9
330
1F
100
AcDbEntity
  8
0
  6
Continuous
 62
     7
370
    25
100
AcDbLine
 10
6566.3637947597
 20
5291.0991817976
 30
0.0
 11
6566.3637947597
 21
5290.7023117209
 31
0.0
  0
LINE
  5
FA
330
1F
100
AcDbEntity
  8
0
  6
Continuous
 62
     7
370
    25
100
AcDbLine
 10
6566.3637947597
 20
5292.6866844559
 30
0.0
 11
6566.3637947597
 21
5292.2898069287
 31
0.0
  0
LINE
  5
FB
330
1F
100
AcDbEntity
  8
0
  6
Continuous
 62
     7
370
    25
100
AcDbLine
 10
6566.3637947597
 20
5294.2741871143
 30
0.0
 11
6566.3637947597
 21
5293.8773095871
 31
0.0
  0
LINE
  5
FC
330
1F
100
AcDbEntity
  8
0
  6
Continuous
 62
     7
370
    25
100
AcDbLine
 10
6566.3637947597
 20
5295.8616823221
 30
0.0
 11
6566.3637947597
 21
5295.4648122454
 31
0.0
  0
LINE
  5
FD
330
1F
100
AcDbEntity
  8
0
  6
Continuous
 62
     7
370
    25
100
AcDbLine
 10
6566.3637947597
 20
5297.3941177393
 30
0.0
 11
6566.3637947597
 21
5297.0523074532
 31
0.0
  0
SPLINE
  5
FE
330
1F
100
AcDbEntity
  8
0
  6
Continuous
 62
     7
370
    25
100
AcDbSpline
210
0.0
220
0.0
230
1.0
 70
     8
 71
     3
 72
     9
 73
     5
 74
     0
 42
0.000000001
 43
0.00000001
 40
0.0
 40
0.0
 40
0.0
 40
0.0
 40
0.4999926379494428
 40
1.0
 40
1.0
 40
1.0
 40
1.0
 10
6567.230897054852
 20
5296.366988148768
 30
0.0
 10
6567.087604726429
 20
5296.284206621863
 30
0.0
 10
6566.801015849819
 20
5296.11864113025
 30
0.0
 10
6566.514422868784
 20
5295.953082951884
 30
0.0
 10
6566.371124268354
 20
5295.870302643854
 30
0.0
  0
SPLINE
  5
FF
330
1F
100
AcDbEntity
  8
0
  6
Continuous
 62
     7
370
    25
100
AcDbSpline
210
0.0
220
0.0
230
1.0
 70
     8
 71
     3
 72
     9
 73
     5
 74
     0
 42
0.000000001
 43
0.00000001
 40
0.0
 40
0.0
 40
0.0
 40
0.0
 40
0.4999926379494428
 40
1.0
 40
1.0
 40
1.0
 40
1.0
 10
6567.230897054852
 20
5294.7794854904
 30
0.0
 10
6567.087604726429
 20
5294.696703963496
 30
0.0
 10
6566.801015849819
 20
5294.531138471883
 30
0.0
 10
6566.514422868784
 20
5294.365580293517
 30
0.0
 10
6566.371124268354
 20
5294.282799985487
 30
0.0
  0
SPLINE
  5
100
330
1F
100
AcDbEntity
  8
0
  6
Continuous
 62
     7
370
    25
100
AcDbSpline
210
0.0
220
0.0
230
1.0
 70
     8
 71
     3
 72
     9
 73
     5
 74
     0
 42
0.000000001
 43
0.00000001
 40
0.0
 40
0.0
 40
0.0
 40
0.0
 40
0.4999945147659413
 40
1.0
 40
1.0
 40
1.0
 40
1.0
 10
6567.230897054852
 20
5293.191990282614
 30
0.0
 10
6567.087604995365
 20
5293.109205806663
 30
0.0
 10
6566.801017732394
 20
5292.943635038375
 30
0.0
 10
6566.514423137726
 20
5292.778077169621
 30
0.0
 10
6566.371124268354
 20
5292.69529732712
 30
0.0
  0
SPLINE
  5
101
330
1F
100
AcDbEntity
  8
0
  6
Continuous
 62
     7
370
    25
100
AcDbSpline
210
0.0
220
0.0
230
1.0
 70
     8
 71
     3
 72
     9
 73
     5
 74
     0
 42
0.000000001
 43
0.00000001
 40
0.0
 40
0.0
 40
0.0
 40
0.0
 40
0.4999926379494428
 40
1.0
 40
1.0
 40
1.0
 40
1.0
 10
6567.230897054852
 20
5291.604487624247
 30
0.0
 10
6567.087604726429
 20
5291.521706097342
 30
0.0
 10
6566.801015849819
 20
5291.356140605729
 30
0.0
 10
6566.514422868784
 20
5291.190582427364
 30
0.0
 10
6566.371124268354
 20
5291.107802119333
 30
0.0
  0
LINE
  5
102
330
1F
100
AcDbEntity
  8
0
  6
Continuous
 62
     7
370
    25
100
AcDbLine
 10
6567.2308970549
 20
5290.0169849659
 30
0.0
 11
6567.0409426399
 21
5289.9072453643
 31
0.0
  0
SPLINE
  5
103
330
1F
100
AcDbEntity
  8
0
  6
Continuous
 62
     7
370
    25
100
AcDbSpline
210
0.0
220
0.0
230
1.0
 70
     8
 71
     3
 72
     9
 73
     5
 74
     0
 42
0.000000001
 43
0.00000001
 40
0.0
 40
0.0
 40
0.0
 40
0.0
 40
0.5045984181799462
 40
1.0
 40
1.0
 40
1.0
 40
1.0
 10
6592.797466584326
 20
5295.07654758938
 30
0.0
 10
6592.654166537301
 20
5295.159327542687
 30
0.0
 10
6592.370178237175
 20
5295.323378697672
 30
0.0
 10
6592.086196380516
 20
5295.487441212894
 30
0.0
 10
6591.945511319519
 20
5295.568718042452
 30
0.0
  0
SPLINE
  5
104
330
1F
100
AcDbEntity
  8
0
  6
Continuous
 62
     7
370
    25
100
AcDbSpline
210
0.0
220
0.0
230
1.0
 70
     8
 71
     3
 72
     9
 73
     5
 74
     0
 42
0.000000001
 43
0.00000001
 40
0.0
 40
0.0
 40
0.0
 40
0.0
 40
0.5045984181799462
 40
1.0
 40
1.0
 40
1.0
 40
1.0
 10
6592.797466584326
 20
5293.489052381594
 30
0.0
 10
6592.654166537301
 20
5293.5718323349
 30
0.0
 10
6592.370178237175
 20
5293.735883489885
 30
0.0
 10
6592.086196380516
 20
5293.899946005107
 30
0.0
 10
6591.945511319519
 20
5293.981222834665
 30
0.0
  0
SPLINE
  5
105
330
1F
100
AcDbEntity
  8
0
  6
Continuous
 62
     7
370
    25
100
AcDbSpline
210
0.0
220
0.0
230
1.0
 70
     8
 71
     3
 72
     9
 73
     5
 74
     0
 42
0.000000001
 43
0.00000001
 40
0.0
 40
0.0
 40
0.0
 40
0.0
 40
0.5045984181799462
 40
1.0
 40
1.0
 40
1.0
 40
1.0
 10
6592.797466584326
 20
5291.901549723227
 30
0.0
 10
6592.654166537301
 20
5291.984329676533
 30
0.0
 10
6592.370178237175
 20
5292.148380831518
 30
0.0
 10
6592.086196380516
 20
5292.31244334674
 30
0.0
 10
6591.945511319519
 20
5292.393720176298
 30
0.0
  0
SPLINE
  5
106
330
1F
100
AcDbEntity
  8
0
  6
Continuous
 62
     7
370
    25
100
AcDbSpline
210
0.0
220
0.0
230
1.0
 70
     8
 71
     3
 72
     9
 73
     5
 74
     0
 42
0.000000001
 43
0.00000001
 40
0.0
 40
0.0
 40
0.0
 40
0.0
 40
0.5045984181799462
 40
1.0
 40
1.0
 40
1.0
 40
1.0
 10
6592.797466584326
 20
5290.31404706486
 30
0.0
 10
6592.654166537301
 20
5290.396827018166
 30
0.0
 10
6592.370178237175
 20
5290.560878173151
 30
0.0
 10
6592.086196380516
 20
5290.724940688373
 30
0.0
 10
6591.945511319519
 20
5290.806217517931
 30
0.0
  0
SPLINE
  5
107
330
1F
100
AcDbEntity
  8
0
  6
Continuous
 62
     7
370
    25
100
AcDbSpline
210
0.0
220
0.0
230
1.0
 70
     8
 71
     3
 72
     9
 73
     5
 74
     0
 42
0.000000001
 43
0.00000001
 40
0.0
 40
0.0
 40
0.0
 40
0.0
 40
0.5045984181799462
 40
1.0
 40
1.0
 40
1.0
 40
1.0
 10
6592.797466584326
 20
5296.664050247748
 30
0.0
 10
6592.654166537301
 20
5296.746830201054
 30
0.0
 10
6592.370178237175
 20
5296.910881356039
 30
0.0
 10
6592.086196380516
 20
5297.074943871261
 30
0.0
 10
6591.945511319519
 20
5297.156220700819
 30
0.0
  0
SPLINE
  5
108
330
1F
100
AcDbEntity
  8
0
  6
Continuous
 62
     7
370
    25
100
AcDbSpline
210
0.0
220
0.0
230
1.0
 70
     8
 71
     3
 72
     9
 73
     5
 74
     0
 42
0.000000001
 43
0.00000001
 40
0.0
 40
0.0
 40
0.0
 40
0.0
 40
0.6149582964746634
 40
1.0
 40
1.0
 40
1.0
 40
1.0
 10
6567.230897054852
 20
5297.954483356554
 30
0.0
 10
6567.08760511146
 20
5297.871701159135
 30
0.0
 10
6566.854594280947
 20
5297.7370868318
 30
0.0
 10
6566.621577682797
 20
5297.602482658001
 30
0.0
 10
6566.531856574894
 20
5297.55065443762
 30
0.0
  0
LINE
  5
109
330
1F
100
AcDbEntity
  8
0
  6
Continuous
 62
     7
370
    25
100
AcDbLine
 10
6567.2230795332
 20
5296.5568214918
 30
0.0
 11
6567.2230795332
 21
5296.3624730969
 31
0.0
  0
LINE
  5
10A
330
1F
100
AcDbEntity
  8
0
  6
Continuous
 62
     7
370
    25
100
AcDbLine
 10
6567.2230795332
 20
5294.9693188334
 30
0.0
 11
6567.2230795332
 21
5294.7749704386
 31
0.0
  0
LINE
  5
10B
330
1F
100
AcDbEntity
  8
0
  6
Continuous
 62
     7
370
    25
100
AcDbLine
 10
6567.2230795332
 20
5293.3818161751
 30
0.0
 11
6567.2230795332
 21
5293.1874677802
 31
0.0
  0
LINE
  5
10C
330
1F
100
AcDbEntity
  8
0
  6
Continuous
 62
     7
370
    25
100
AcDbLine
 10
6567.2230795332
 20
5291.7943209673
 30
0.0
 11
6567.2230795332
 21
5291.5999725724
 31
0.0
  0
LINE
  5
10D
330
1F
100
AcDbEntity
  8
0
  6
Continuous
 62
     7
370
    25
100
AcDbLine
 10
6567.2230795332
 20
5290.2068183089
 30
0.0
 11
6567.2230795332
 21
5290.012469914
 31
0.0
  0
LINE
  5
10E
330
1F
100
AcDbEntity
  8
0
  6
Continuous
 62
     7
370
    25
100
AcDbLine
 10
6591.9455113195
 20
5295.5646276737
 30
0.0
 11
6591.9455113195
 21
5295.7578957344
 31
0.0
  0
LINE
  5
10F
330
1F
100
AcDbEntity
  8
0
  6
Continuous
 62
     7
370
    25
100
AcDbLine
 10
6591.9455113195
 20
5293.9771324659
 30
0.0
 11
6591.9455113195
 21
5294.170393076
 31
0.0
  0
LINE
  5
110
330
1F
100
AcDbEntity
  8
0
  6
Continuous
 62
     7
370
    25
100
AcDbLine
 10
6591.9455113195
 20
5292.3896298076
 30
0.0
 11
6591.9455113195
 21
5292.5828978682
 31
0.0
  0
LINE
  5
111
330
1F
100
AcDbEntity
  8
0
  6
Continuous
 62
     7
370
    25
100
AcDbLine
 10
6591.9455113195
 20
5290.8021345998
 30
0.0
 11
6591.9455113195
 21
5290.9953952099
 31
0.0
  0
LINE
  5
112
330
1F
100
AcDbEntity
  8
0
  6
Continuous
 62
     7
370
    25
100
AcDbLine
 10
6591.9455113195
 20
5297.1521303321
 30
0.0
 11
6591.9455113195
 21
5297.3453983928
 31
0.0
  0
LINE
  5
113
330
1F
100
AcDbEntity
  8
0
  6
Continuous
 62
     7
370
    25
100
AcDbLine
 10
6567.2230795332
 20
5298.1443166996
 30
0.0
 11
6567.2230795332
 21
5297.9499683047
 31
0.0
  0
LINE
  5
114
330
1F
100
AcDbEntity
  8
0
  6
Continuous
 62
     7
370
    25
100
AcDbLine
 10
6566.9634035163
 20
5129.794506755
 30
0.0
 11
6567.8637940742
 21
5128.8941152657
 31
0.0
  0
LINE
  5
115
330
1F
100
AcDbEntity
  8
0
  6
Continuous
 62
     7
370
    25
100
AcDbLine
 10
6591.3047949158
 20
5128.8941152657
 30
0.0
 11
6592.7200327002
 21
5130.3093530501
 31
0.0
  0
LINE
  5
116
330
1F
100
AcDbEntity
  8
0
  6
Continuous
 62
     7
370
    25
100
AcDbLine
 10
6566.3637947597
 20
5131.0697630311
 30
0.0
 11
6566.3637947597
 21
5130.6730605925
 31
0.0
  0
LINE
  5
117
330
1F
100
AcDbEntity
  8
0
  6
Continuous
 62
     7
370
    25
100
AcDbLine
 10
6566.3637947597
 20
5132.6572619642
 30
0.0
 11
6566.3637947597
 21
5132.2605595256
 31
0.0
  0
LINE
  5
118
330
1F
100
AcDbEntity
  8
0
  6
Continuous
 62
     7
370
    25
100
AcDbLine
 10
6566.3637947597
 20
5134.2447608972
 30
0.0
 11
6566.3637947597
 21
5133.8480621839
 31
0.0
  0
LINE
  5
119
330
1F
100
AcDbEntity
  8
0
  6
Continuous
 62
     7
370
    25
100
AcDbLine
 10
6566.3637947597
 20
5135.8322598303
 30
0.0
 11
6566.3637947597
 21
5135.435561117
 31
0.0
  0
LINE
  5
11A
330
1F
100
AcDbEntity
  8
0
  6
Continuous
 62
     7
370
    25
100
AcDbLine
 10
6566.3637947597
 20
5137.4197624887
 30
0.0
 11
6566.3637947597
 21
5137.0230600501
 31
0.0
  0
LINE
  5
11B
330
1F
100
AcDbEntity
  8
0
  6
Continuous
 62
     7
370
    25
100
AcDbLine
 10
6592.8047942303
 20
5137.8166362906
 30
0.0
 11
6592.8047942303
 21
5137.8941148783
 31
0.0
  0
LINE
  5
11C
330
1F
100
AcDbEntity
  8
0
  6
Continuous
 62
     7
370
    25
100
AcDbLine
 10
6592.8047942303
 20
5136.2291373576
 30
0.0
 11
6592.8047942303
 21
5136.6262756551
 31
0.0
  0
LINE
  5
11D
330
1F
100
AcDbEntity
  8
0
  6
Continuous
 62
     7
370
    25
100
AcDbLine
 10
6592.8047942303
 20
5134.6416346992
 30
0.0
 11
6592.8047942303
 21
5135.038776722
 31
0.0
  0
LINE
  5
11E
330
1F
100
AcDbEntity
  8
0
  6
Continuous
 62
     7
370
    25
100
AcDbLine
 10
6592.8047942303
 20
5133.0541357661
 30
0.0
 11
6592.8047942303
 21
5133.4512740637
 31
0.0
  0
LINE
  5
11F
330
1F
100
AcDbEntity
  8
0
  6
Continuous
 62
     7
370
    25
100
AcDbLine
 10
6592.8047942303
 20
5131.466636833
 30
0.0
 11
6592.8047942303
 21
5131.8637751306
 31
0.0
  0
SPLINE
  5
120
330
1F
100
AcDbEntity
  8
0
  6
Continuous
 62
     7
370
    25
100
AcDbSpline
210
0.0
220
0.0
230
1.0
 70
     8
 71
     3
 72
     9
 73
     5
 74
     0
 42
0.000000001
 43
0.00000001
 40
0.0
 40
0.0
 40
0.0
 40
0.0
 40
0.5040596370480666
 40
1.0
 40
1.0
 40
1.0
 40
1.0
 10
6592.798338302256
 20
5131.871162381251
 30
0.0
 10
6592.655049879721
 20
5131.953934385233
 30
0.0
 10
6592.370781090863
 20
5132.118145121225
 30
0.0
 10
6592.086513462197
 20
5132.28235846854
 30
0.0
 10
6591.945533671261
 20
5132.363798495609
 30
0.0
  0
SPLINE
  5
121
330
1F
100
AcDbEntity
  8
0
  6
Continuous
 62
     7
370
    25
100
AcDbSpline
210
0.0
220
0.0
230
1.0
 70
     8
 71
     3
 72
     9
 73
     5
 74
     0
 42
0.000000001
 43
0.00000001
 40
0.0
 40
0.0
 40
0.0
 40
0.0
 40
0.5040586987195105
 40
1.0
 40
1.0
 40
1.0
 40
1.0
 10
6592.798338302256
 20
5133.458665039618
 30
0.0
 10
6592.655049744169
 20
5133.541435567181
 30
0.0
 10
6592.370780157214
 20
5133.705643679795
 30
0.0
 10
6592.086513330976
 20
5133.869857174455
 30
0.0
 10
6591.945533671261
 20
5133.951297428686
 30
0.0
  0
SPLINE
  5
122
330
1F
100
AcDbEntity
  8
0
  6
Continuous
 62
     7
370
    25
100
AcDbSpline
210
0.0
220
0.0
230
1.0
 70
     8
 71
     3
 72
     9
 73
     5
 74
     0
 42
0.000000001
 43
0.00000001
 40
0.0
 40
0.0
 40
0.0
 40
0.0
 40
0.5040577450117878
 40
1.0
 40
1.0
 40
1.0
 40
1.0
 10
6592.798338302256
 20
5135.046163972695
 30
0.0
 10
6592.655049606397
 20
5135.128934261764
 30
0.0
 10
6592.370779208261
 20
5135.293142211921
 30
0.0
 10
6592.086513197603
 20
5135.45735836018
 30
0.0
 10
6591.945533671261
 20
5135.538800087053
 30
0.0
  0
SPLINE
  5
123
330
1F
100
AcDbEntity
  8
0
  6
Continuous
 62
     7
370
    25
100
AcDbSpline
210
0.0
220
0.0
230
1.0
 70
     8
 71
     3
 72
     9
 73
     5
 74
     0
 42
0.000000001
 43
0.00000001
 40
0.0
 40
0.0
 40
0.0
 40
0.0
 40
0.5040577450117878
 40
1.0
 40
1.0
 40
1.0
 40
1.0
 10
6592.798338302256
 20
5136.633662905771
 30
0.0
 10
6592.655049606397
 20
5136.716433194841
 30
0.0
 10
6592.370779208261
 20
5136.880641144998
 30
0.0
 10
6592.086513197603
 20
5137.044857293257
 30
0.0
 10
6591.945533671261
 20
5137.12629902013
 30
0.0
  0
SPLINE
  5
124
330
1F
100
AcDbEntity
  8
0
  6
Continuous
 62
     7
370
    25
100
AcDbSpline
210
0.0
220
0.0
230
1.0
 70
     8
 71
     3
 72
     9
 73
     5
 74
     0
 42
0.000000001
 43
0.00000001
 40
0.0
 40
0.0
 40
0.0
 40
0.0
 40
0.4999937550466421
 40
1.0
 40
1.0
 40
1.0
 40
1.0
 10
6567.229968526245
 20
5131.574040677626
 30
0.0
 10
6567.086684507029
 20
5131.49126917736
 30
0.0
 10
6566.800112889341
 20
5131.325724109185
 30
0.0
 10
6566.513538039634
 20
5131.160185243822
 30
0.0
 10
6566.370248825134
 20
5131.077414777357
 30
0.0
  0
SPLINE
  5
125
330
1F
100
AcDbEntity
  8
0
  6
Continuous
 62
     7
370
    25
100
AcDbSpline
210
0.0
220
0.0
230
1.0
 70
     8
 71
     3
 72
     9
 73
     5
 74
     0
 42
0.000000001
 43
0.00000001
 40
0.0
 40
0.0
 40
0.0
 40
0.0
 40
0.4999946934778297
 40
1.0
 40
1.0
 40
1.0
 40
1.0
 10
6567.229968526245
 20
5133.161543335993
 30
0.0
 10
6567.086684641491
 20
5133.078770361198
 30
0.0
 10
6566.800113830594
 20
5132.913222654641
 30
0.0
 10
6566.5135381741
 20
5132.747683944126
 30
0.0
 10
6566.370248825134
 20
5132.664913710434
 30
0.0
  0
SPLINE
  5
126
330
1F
100
AcDbEntity
  8
0
  6
Continuous
 62
     7
370
    25
100
AcDbSpline
210
0.0
220
0.0
230
1.0
 70
     8
 71
     3
 72
     9
 73
     5
 74
     0
 42
0.000000001
 43
0.00000001
 40
0.0
 40
0.0
 40
0.0
 40
0.0
 40
0.4999928166623369
 40
1.0
 40
1.0
 40
1.0
 40
1.0
 10
6567.229968526245
 20
5134.74904226907
 30
0.0
 10
6567.086684372573
 20
5134.666271001564
 30
0.0
 10
6566.800111948136
 20
5134.500726088223
 30
0.0
 10
6566.513537905174
 20
5134.335184584509
 30
0.0
 10
6566.370248825134
 20
5134.252412643511
 30
0.0
  0
SPLINE
  5
127
330
1F
100
AcDbEntity
  8
0
  6
Continuous
 62
     7
370
    25
100
AcDbSpline
210
0.0
220
0.0
230
1.0
 70
     8
 71
     3
 72
     9
 73
     5
 74
     0
 42
0.000000001
 43
0.00000001
 40
0.0
 40
0.0
 40
0.0
 40
0.0
 40
0.4999937550466421
 40
1.0
 40
1.0
 40
1.0
 40
1.0
 10
6567.229968526245
 20
5136.336541202147
 30
0.0
 10
6567.086684507029
 20
5136.253769701881
 30
0.0
 10
6566.800112889341
 20
5136.088224633706
 30
0.0
 10
6566.513538039634
 20
5135.922685768342
 30
0.0
 10
6566.370248825134
 20
5135.839915301878
 30
0.0
  0
SPLINE
  5
128
330
1F
100
AcDbEntity
  8
0
  6
Continuous
 62
     7
370
    25
100
AcDbSpline
210
0.0
220
0.0
230
1.0
 70
     8
 71
     3
 72
     9
 73
     5
 74
     0
 42
0.000000001
 43
0.00000001
 40
0.0
 40
0.0
 40
0.0
 40
0.0
 40
0.4679335638211793
 40
0.9999999999999999
 40
0.9999999999999999
 40
0.9999999999999999
 40
0.9999999999999999
 10
6567.178165570677
 20
5137.894114878256
 30
0.0
 10
6567.052149146811
 20
5137.821318570424
 30
0.0
 10
6566.782845054071
 20
5137.665748819799
 30
0.0
 10
6566.513538045449
 20
5137.510184688103
 30
0.0
 10
6566.370248825134
 20
5137.427414234955
 30
0.0
  0
LINE
  5
129
330
1F
100
AcDbEntity
  8
0
  6
Continuous
 62
     7
370
    25
100
AcDbLine
 10
6567.2299685262
 20
5129.9865417445
 30
0.0
 11
6566.9669602372
 21
5129.834609505
 31
0.0
  0
SPLINE
  5
12A
330
1F
100
AcDbEntity
  8
0
  6
Continuous
 62
     7
370
    25
100
AcDbSpline
210
0.0
220
0.0
230
1.0
 70
     8
 71
     3
 72
     9
 73
     5
 74
     0
 42
0.000000001
 43
0.00000001
 40
0.0
 40
0.0
 40
0.0
 40
0.0
 40
0.4387557215531311
 40
1.0
 40
1.0
 40
1.0
 40
1.0
 10
6592.699111469866
 20
5130.340980764706
 30
0.0
 10
6592.58889855187
 20
5130.404645587681
 30
0.0
 10
6592.337704293695
 20
5130.549748705083
 30
0.0
 10
6592.086513222671
 20
5130.694857872545
 30
0.0
 10
6591.945533671261
 20
5130.776299562533
 30
0.0
  0
SPLINE
  5
12B
330
1F
100
AcDbEntity
  8
0
  6
Continuous
 62
     7
370
    25
100
AcDbSpline
210
0.0
220
0.0
230
1.0
 70
     8
 71
     3
 72
     9
 73
     5
 74
     0
 42
0.000000001
 43
0.00000001
 40
0.0
 40
0.0
 40
0.0
 40
0.0
 40
0.4999933847311774
 40
1.0
 40
1.0
 40
1.0
 40
1.0
 10
6591.938623257757
 20
5132.550096538145
 30
0.0
 10
6592.081906321099
 20
5132.632868069061
 30
0.0
 10
6592.368476239257
 20
5132.798413321146
 30
0.0
 10
6592.655049684083
 20
5132.963952002602
 30
0.0
 10
6592.798338302256
 20
5133.046722438414
 30
0.0
  0
SPLINE
  5
12C
330
1F
100
AcDbEntity
  8
0
  6
Continuous
 62
     7
370
    25
100
AcDbSpline
210
0.0
220
0.0
230
1.0
 70
     8
 71
     3
 72
     9
 73
     5
 74
     0
 42
0.000000001
 43
0.00000001
 40
0.0
 40
0.0
 40
0.0
 40
0.0
 40
0.4999933847311774
 40
1.0
 40
1.0
 40
1.0
 40
1.0
 10
6591.938623257757
 20
5134.137595471222
 30
0.0
 10
6592.081906321099
 20
5134.220367002138
 30
0.0
 10
6592.368476239257
 20
5134.385912254223
 30
0.0
 10
6592.655049684083
 20
5134.551450935679
 30
0.0
 10
6592.798338302256
 20
5134.634221371491
 30
0.0
  0
SPLINE
  5
12D
330
1F
100
AcDbEntity
  8
0
  6
Continuous
 62
     7
370
    25
100
AcDbSpline
210
0.0
220
0.0
230
1.0
 70
     8
 71
     3
 72
     9
 73
     5
 74
     0
 42
0.000000001
 43
0.00000001
 40
0.0
 40
0.0
 40
0.0
 40
0.0
 40
0.4999924462979664
 40
1.0
 40
1.0
 40
1.0
 40
1.0
 10
6591.938623257757
 20
5135.725098129589
 30
0.0
 10
6592.081906455561
 20
5135.807868185976
 30
0.0
 10
6592.368477180506
 20
5135.97341079967
 30
0.0
 10
6592.65504981855
 20
5136.138949635981
 30
0.0
 10
6592.798338302256
 20
5136.221720304567
 30
0.0
  0
SPLINE
  5
12E
330
1F
100
AcDbEntity
  8
0
  6
Continuous
 62
     7
370
    25
100
AcDbSpline
210
0.0
220
0.0
230
1.0
 70
     8
 71
     3
 72
     9
 73
     5
 74
     0
 42
0.000000001
 43
0.00000001
 40
0.0
 40
0.0
 40
0.0
 40
0.0
 40
0.4999933847311774
 40
1.0
 40
1.0
 40
1.0
 40
1.0
 10
6591.938623257757
 20
5137.312597062666
 30
0.0
 10
6592.081906321099
 20
5137.395368593582
 30
0.0
 10
6592.368476239257
 20
5137.560913845667
 30
0.0
 10
6592.655049684083
 20
5137.726452527123
 30
0.0
 10
6592.798338302256
 20
5137.809222962935
 30
0.0
  0
SPLINE
  5
12F
330
1F
100
AcDbEntity
  8
0
  6
Continuous
 62
     7
370
    25
100
AcDbSpline
210
0.0
220
0.0
230
1.0
 70
     8
 71
     3
 72
     9
 73
     5
 74
     0
 42
0.000000001
 43
0.00000001
 40
0.0
 40
0.0
 40
0.0
 40
0.0
 40
0.5040598944565694
 40
1.0
 40
1.0
 40
1.0
 40
1.0
 10
6566.370250687779
 20
5132.25297110923
 30
0.0
 10
6566.513539620853
 20
5132.170200681453
 30
0.0
 10
6566.797809277396
 20
5132.005993156341
 30
0.0
 10
6567.0820754111
 20
5131.841779070985
 30
0.0
 10
6567.223054387451
 20
5131.760338720162
 30
0.0
  0
SPLINE
  5
130
330
1F
100
AcDbEntity
  8
0
  6
Continuous
 62
     7
370
    25
100
AcDbSpline
210
0.0
220
0.0
230
1.0
 70
     8
 71
     3
 72
     9
 73
     5
 74
     0
 42
0.000000001
 43
0.00000001
 40
0.0
 40
0.0
 40
0.0
 40
0.0
 40
0.5040589561379238
 40
1.0
 40
1.0
 40
1.0
 40
1.0
 10
6566.370250687779
 20
5133.840470042307
 30
0.0
 10
6566.513539756403
 20
5133.75770109095
 30
0.0
 10
6566.797810211036
 20
5133.593496189224
 30
0.0
 10
6567.08207554232
 20
5133.429281956515
 30
0.0
 10
6567.223054387451
 20
5133.347841378529
 30
0.0
  0
SPLINE
  5
131
330
1F
100
AcDbEntity
  8
0
  6
Continuous
 62
     7
370
    25
100
AcDbSpline
210
0.0
220
0.0
230
1.0
 70
     8
 71
     3
 72
     9
 73
     5
 74
     0
 42
0.000000001
 43
0.00000001
 40
0.0
 40
0.0
 40
0.0
 40
0.0
 40
0.5040598944565694
 40
1.0
 40
1.0
 40
1.0
 40
1.0
 10
6566.370250687779
 20
5135.427972700674
 30
0.0
 10
6566.513539620853
 20
5135.345202272897
 30
0.0
 10
6566.797809277396
 20
5135.180994747785
 30
0.0
 10
6567.0820754111
 20
5135.016780662429
 30
0.0
 10
6567.223054387451
 20
5134.935340311606
 30
0.0
  0
SPLINE
  5
132
330
1F
100
AcDbEntity
  8
0
  6
Continuous
 62
     7
370
    25
100
AcDbSpline
210
0.0
220
0.0
230
1.0
 70
     8
 71
     3
 72
     9
 73
     5
 74
     0
 42
0.000000001
 43
0.00000001
 40
0.0
 40
0.0
 40
0.0
 40
0.0
 40
0.5040598944565694
 40
1.0
 40
1.0
 40
1.0
 40
1.0
 10
6566.370250687779
 20
5137.015471633751
 30
0.0
 10
6566.513539620853
 20
5136.932701205974
 30
0.0
 10
6566.797809277396
 20
5136.768493680862
 30
0.0
 10
6567.0820754111
 20
5136.604279595506
 30
0.0
 10
6567.223054387451
 20
5136.522839244682
 30
0.0
  0
SPLINE
  5
133
330
1F
100
AcDbEntity
  8
0
  6
Continuous
 62
     7
370
    25
100
AcDbSpline
210
0.0
220
0.0
230
1.0
 70
     8
 71
     3
 72
     9
 73
     5
 74
     0
 42
0.000000001
 43
0.00000001
 40
0.0
 40
0.0
 40
0.0
 40
0.0
 40
0.5040598944565694
 40
1.0
 40
1.0
 40
1.0
 40
1.0
 10
6566.370250687779
 20
5130.665472176153
 30
0.0
 10
6566.513539620853
 20
5130.582701748376
 30
0.0
 10
6566.797809277396
 20
5130.418494223264
 30
0.0
 10
6567.0820754111
 20
5130.254280137909
 30
0.0
 10
6567.223054387451
 20
5130.172839787085
 30
0.0
  0
SPLINE
  5
134
330
1F
100
AcDbEntity
  8
0
  6
Continuous
 62
     7
370
    25
100
AcDbSpline
210
0.0
220
0.0
230
1.0
 70
     8
 71
     3
 72
     9
 73
     5
 74
     0
 42
0.000000001
 43
0.00000001
 40
0.0
 40
0.0
 40
0.0
 40
0.0
 40
0.4999933847311774
 40
1.0
 40
1.0
 40
1.0
 40
1.0
 10
6591.938623257757
 20
5130.962597605068
 30
0.0
 10
6592.081906321099
 20
5131.045369135984
 30
0.0
 10
6592.368476239257
 20
5131.210914388069
 30
0.0
 10
6592.655049684083
 20
5131.376453069525
 30
0.0
 10
6592.798338302256
 20
5131.459223505337
 30
0.0
  0
LINE
  5
135
330
1F
100
AcDbEntity
  8
0
  6
Continuous
 62
     7
370
    25
100
AcDbLine
 10
6591.9455336713
 20
5132.3595889176
 30
0.0
 11
6591.9455336713
 21
5132.5540900493
 31
0.0
  0
LINE
  5
136
330
1F
100
AcDbEntity
  8
0
  6
Continuous
 62
     7
370
    25
100
AcDbLine
 10
6591.9455336713
 20
5133.9470915759
 30
0.0
 11
6591.9455336713
 21
5134.1415889824
 31
0.0
  0
LINE
  5
137
330
1F
100
AcDbEntity
  8
0
  6
Continuous
 62
     7
370
    25
100
AcDbLine
 10
6591.9455336713
 20
5135.534590509
 30
0.0
 11
6591.9455336713
 21
5135.7290879155
 31
0.0
  0
LINE
  5
138
330
1F
100
AcDbEntity
  8
0
  6
Continuous
 62
     7
370
    25
100
AcDbLine
 10
6591.9455336713
 20
5137.1220894421
 30
0.0
 11
6591.9455336713
 21
5137.3165905739
 31
0.0
  0
LINE
  5
139
330
1F
100
AcDbEntity
  8
0
  6
Continuous
 62
     7
370
    25
100
AcDbLine
 10
6567.2230543875
 20
5131.7643955613
 30
0.0
 11
6567.2230543875
 21
5131.5700471664
 31
0.0
  0
LINE
  5
13A
330
1F
100
AcDbEntity
  8
0
  6
Continuous
 62
     7
370
    25
100
AcDbLine
 10
6567.2230543875
 20
5133.3518944944
 30
0.0
 11
6567.2230543875
 21
5133.1575460995
 31
0.0
  0
LINE
  5
13B
330
1F
100
AcDbEntity
  8
0
  6
Continuous
 62
     7
370
    25
100
AcDbLine
 10
6567.2230543875
 20
5134.9393971527
 30
0.0
 11
6567.2230543875
 21
5134.7450487579
 31
0.0
  0
LINE
  5
13C
330
1F
100
AcDbEntity
  8
0
  6
Continuous
 62
     7
370
    25
100
AcDbLine
 10
6567.2230543875
 20
5136.5268960858
 30
0.0
 11
6567.2230543875
 21
5136.3325476909
 31
0.0
  0
LINE
  5
13D
330
1F
100
AcDbEntity
  8
0
  6
Continuous
 62
     7
370
    25
100
AcDbLine
 10
6567.2230543875
 20
5130.1768966282
 30
0.0
 11
6567.2230543875
 21
5129.9825482333
 31
0.0
  0
LINE
  5
13E
330
1F
100
AcDbEntity
  8
0
  6
Continuous
 62
     7
370
    25
100
AcDbLine
 10
6591.9455336713
 20
5130.7720899845
 30
0.0
 11
6591.9455336713
 21
5130.966587391
 31
0.0
  0
LINE
  5
13F
330
1F
100
AcDbEntity
  8
0
  6
Continuous
 62
     7
370
    25
100
AcDbLine
 10
6623.6842954837
 20
5264.7715792323
 30
0.0
 11
6626.58429242
 21
5264.7715792323
 31
0.0
  0
LINE
  5
140
330
1F
100
AcDbEntity
  8
0
  6
Continuous
 62
     7
370
    25
100
AcDbLine
 10
6623.6842954837
 20
5283.8941201831
 30
0.0
 11
6626.58429242
 21
5283.8941201831
 31
0.0
  0
LINE
  5
141
330
1F
100
AcDbEntity
  8
0
  6
Continuous
 62
     7
370
    25
100
AcDbLine
 10
6626.58429242
 20
5283.8941201831
 30
0.0
 11
6626.58429242
 21
5266.6235551501
 31
0.0
  0
LINE
  5
142
330
1F
100
AcDbEntity
  8
0
  6
Continuous
 62
     7
370
    25
100
AcDbLine
 10
6623.6842954837
 20
5283.8941201831
 30
0.0
 11
6623.6842954837
 21
5264.7715792323
 31
0.0
  0
LINE
  5
143
330
1F
100
AcDbEntity
  8
0
  6
Continuous
 62
     7
370
    25
100
AcDbLine
 10
6623.6842954837
 20
5163.0166568125
 30
0.0
 11
6626.58429242
 21
5163.0166568125
 31
0.0
  0
LINE
  5
144
330
1F
100
AcDbEntity
  8
0
  6
Continuous
 62
     7
370
    25
100
AcDbLine
 10
6626.58429242
 20
5264.7715792323
 30
0.0
 11
6626.58429242
 21
5163.0166568125
 31
0.0
  0
LINE
  5
145
330
1F
100
AcDbEntity
  8
0
  6
Continuous
 62
     7
370
    25
100
AcDbLine
 10
6623.6842954837
 20
5264.7715792323
 30
0.0
 11
6623.6842954837
 21
5163.0166568125
 31
0.0
  0
LINE
  5
146
330
1F
100
AcDbEntity
  8
0
  6
Continuous
 62
     7
370
    25
100
AcDbLine
 10
6623.6842954837
 20
5143.8941158617
 30
0.0
 11
6626.58429242
 21
5143.8941158617
 31
0.0
  0
LINE
  5
147
330
1F
100
AcDbEntity
  8
0
  6
Continuous
 62
     7
370
    25
100
AcDbLine
 10
6623.6842954837
 20
5143.8941158617
 30
0.0
 11
6623.6842954837
 21
5163.0166568125
 31
0.0
  0
LINE
  5
148
330
1F
100
AcDbEntity
  8
0
  6
Continuous
 62
     7
370
    25
100
AcDbLine
 10
6554.0842945062
 20
5272.5656911994
 30
0.0
 11
6554.0842945062
 21
5279.3941185141
 31
0.0
  0
LINE
  5
149
330
1F
100
AcDbEntity
  8
0
  6
Continuous
 62
     7
370
    25
100
AcDbLine
 10
6623.6842954837
 20
5272.5656911994
 30
0.0
 11
6554.0842945062
 21
5272.5656911994
 31
0.0
  0
LINE
  5
14A
330
1F
100
AcDbEntity
  8
0
  6
Continuous
 62
     7
370
    25
100
AcDbLine
 10
6623.6842954837
 20
5262.9088372255
 30
0.0
 11
6554.0842945062
 21
5262.9088372255
 31
0.0
  0
LINE
  5
14B
330
1F
100
AcDbEntity
  8
0
  6
Continuous
 62
     7
370
    25
100
AcDbLine
 10
6623.6842954837
 20
5164.8793988193
 30
0.0
 11
6554.0842945062
 21
5164.8793988193
 31
0.0
  0
LINE
  5
14C
330
1F
100
AcDbEntity
  8
0
  6
Continuous
 62
     7
370
    25
100
AcDbLine
 10
6554.0842945062
 20
5164.8793988193
 30
0.0
 11
6554.0842945062
 21
5262.9088372255
 31
0.0
  0
LINE
  5
14D
330
1F
100
AcDbEntity
  8
0
  6
Continuous
 62
     7
370
    25
100
AcDbLine
 10
6623.6842954837
 20
5268.3230474854
 30
0.0
 11
6554.0842945062
 21
5268.3230474854
 31
0.0
  0
LINE
  5
14E
330
1F
100
AcDbEntity
  8
0
  6
Continuous
 62
     7
370
    25
100
AcDbLine
 10
6554.0842945062
 20
5262.9088372255
 30
0.0
 11
6554.0842945062
 21
5268.3230474854
 31
0.0
  0
LINE
  5
14F
330
1F
100
AcDbEntity
  8
0
  6
Continuous
 62
     7
370
    25
100
AcDbLine
 10
6623.6842954837
 20
5159.4651848341
 30
0.0
 11
6554.0842945062
 21
5159.4651848341
 31
0.0
  0
LINE
  5
150
330
1F
100
AcDbEntity
  8
0
  6
Continuous
 62
     7
370
    25
100
AcDbLine
 10
6554.0842945062
 20
5164.8793988193
 30
0.0
 11
6554.0842945062
 21
5159.4651848341
 31
0.0
  0
LINE
  5
151
330
1F
100
AcDbEntity
  8
0
  6
Continuous
 62
     7
370
    25
100
AcDbLine
 10
6623.6842954837
 20
5155.2225429828
 30
0.0
 11
6554.0842945062
 21
5155.2225429828
 31
0.0
  0
LINE
  5
152
330
1F
100
AcDbEntity
  8
0
  6
Continuous
 62
     7
370
    25
100
AcDbLine
 10
6554.0842945062
 20
5155.2225429828
 30
0.0
 11
6554.0842945062
 21
5148.3941175307
 31
0.0
  0
LINE
  5
153
330
1F
100
AcDbEntity
  8
0
  6
Continuous
 62
     7
370
    25
100
AcDbLine
 10
6554.0842945062
 20
5268.3230474854
 30
0.0
 11
6554.0842945062
 21
5272.5656911994
 31
0.0
  0
LINE
  5
154
330
1F
100
AcDbEntity
  8
0
  6
Continuous
 62
     7
370
    25
100
AcDbLine
 10
6554.0842945062
 20
5159.4651848341
 30
0.0
 11
6554.0842945062
 21
5155.2225429828
 31
0.0
  0
LINE
  5
155
330
1F
100
AcDbEntity
  8
0
  6
Continuous
 62
     7
370
    25
100
AcDbLine
 10
6623.6842954837
 20
5279.3941185141
 30
0.0
 11
6554.0842945062
 21
5279.3941185141
 31
0.0
  0
SPLINE
  5
156
330
1F
100
AcDbEntity
  8
0
  6
Continuous
 62
     7
370
    25
100
AcDbSpline
210
0.0
220
0.0
230
1.0
 70
     8
 71
     3
 72
    10
 73
     6
 74
     0
 42
0.000000001
 43
0.00000001
 40
0.0
 40
0.0
 40
0.0
 40
0.0
 40
0.4771518313629823
 40
0.9543040045445695
 40
1.0
 40
1.0
 40
1.0
 40
1.0
 10
6627.08429343331
 20
5276.244631435949
 30
0.0
 10
6627.063463639805
 20
5276.398122421854
 30
0.0
 10
6627.021804037876
 20
5276.705104503621
 30
0.0
 10
6626.978124078568
 20
5276.920586374949
 30
0.0
 10
6626.955306446663
 20
5276.919927674141
 30
0.0
 10
6626.953312226416
 20
5276.919870104868
 30
0.0
  0
SPLINE
  5
157
330
1F
100
AcDbEntity
  8
0
  6
Continuous
 62
     7
370
    25
100
AcDbSpline
210
0.0
220
0.0
230
1.0
 70
     8
 71
     3
 72
    16
 73
    12
 74
     0
 42
0.000000001
 43
0.00000001
 40
0.0
 40
0.0
 40
0.0
 40
0.0
 40
0.058690084976359
 40
0.1836901147434373
 40
0.3086896895122878
 40
0.4336894382036071
 40
0.5586899226872524
 40
0.6836895141023617
 40
0.8086898973784697
 40
0.9336900792783592
 40
0.9999999999999999
 40
0.9999999999999999
 40
0.9999999999999999
 40
0.9999999999999999
 10
6627.113641270281
 20
5273.334315445501
 30
0.0
 10
6627.1038583176
 20
5273.32580087655
 30
0.0
 10
6627.073239317792
 20
5273.299151704915
 30
0.0
 10
6627.021801155443
 20
5273.599557193616
 30
0.0
 10
6626.959294858088
 20
5274.172801131591
 30
0.0
 10
6626.896789418284
 20
5274.949643679814
 30
0.0
 10
6626.834299462259
 20
5275.788379362471
 30
0.0
 10
6626.771793431721
 20
5276.572527082763
 30
0.0
 10
6626.709288457363
 20
5277.161310271145
 30
0.0
 10
6626.656577949238
 20
5277.480285472617
 30
0.0
 10
6626.62469217343
 20
5277.46070652347
 30
0.0
 10
6626.613640257002
 20
5277.453920271475
 30
0.0
  0
SPLINE
  5
158
330
1F
100
AcDbEntity
  8
0
  6
Continuous
 62
     7
370
    25
100
AcDbSpline
210
0.0
220
0.0
230
1.0
 70
     8
 71
     3
 72
    12
 73
     8
 74
     0
 42
0.000000001
 43
0.00000001
 40
0.0
 40
0.0
 40
0.0
 40
0.0
 40
0.1050493241403883
 40
0.3287872347170742
 40
0.5525241766103548
 40
0.7762612755259534
 40
0.9999999999999999
 40
0.9999999999999999
 40
0.9999999999999999
 40
0.9999999999999999
 10
6626.863637038351
 20
5273.334315445501
 30
0.0
 10
6626.853857238427
 20
5273.325796432756
 30
0.0
 10
6626.823248061263
 20
5273.299133313636
 30
0.0
 10
6626.771793355492
 20
5273.599735837343
 30
0.0
 10
6626.709288455417
 20
5274.172146557406
 30
0.0
 10
6626.646797523593
 20
5274.952082482593
 30
0.0
 10
6626.60512750501
 20
5275.503548875105
 30
0.0
 10
6626.584292420031
 20
5275.779283073027
 30
0.0
  0
LINE
  5
159
330
1F
100
AcDbEntity
  8
0
  6
Continuous
 62
     7
370
    25
100
AcDbLine
 10
6637.5842923604
 20
5164.394116428
 30
0.0
 11
6637.5842923604
 21
5192.3941168266
 31
0.0
  0
LINE
  5
15A
330
1F
100
AcDbEntity
  8
0
  6
Continuous
 62
     7
370
    25
100
AcDbLine
 10
6639.0842954003
 20
5190.8941165807
 30
0.0
 11
6639.0842954003
 21
5165.8941157425
 31
0.0
  0
LINE
  5
15B
330
1F
100
AcDbEntity
  8
0
  6
Continuous
 62
     7
370
    25
100
AcDbLine
 10
6627.0842934333
 20
5158.3941173071
 30
0.0
 11
6627.0842934333
 21
5128.3941179777
 31
0.0
  0
LINE
  5
15C
330
1F
100
AcDbEntity
  8
0
  6
Continuous
 62
     7
370
    25
100
AcDbLine
 10
6633.0842981421
 20
5158.3941173071
 30
0.0
 11
6627.0842934333
 21
5158.3941173071
 31
0.0
  0
LINE
  5
15D
330
1F
100
AcDbEntity
  8
0
  6
Continuous
 62
     7
370
    25
100
AcDbLine
 10
6633.0842981421
 20
5128.3941179777
 30
0.0
 11
6633.0842981421
 21
5158.3941173071
 31
0.0
  0
LINE
  5
15E
330
1F
100
AcDbEntity
  8
0
  6
Continuous
 62
     7
370
    25
100
AcDbLine
 10
6633.0842981421
 20
5128.3941179777
 30
0.0
 11
6627.0842934333
 21
5128.3941179777
 31
0.0
  0
LINE
  5
15F
330
1F
100
AcDbEntity
  8
0
  6
Continuous
 62
     7
370
    25
100
AcDbLine
 10
6627.0842934333
 20
5268.3941185737
 30
0.0
 11
6627.0842934333
 21
5158.3941173071
 31
0.0
  0
LINE
  5
160
330
1F
100
AcDbEntity
  8
0
  6
Continuous
 62
     7
370
    25
100
AcDbLine
 10
6633.0842981421
 20
5268.3941185737
 30
0.0
 11
6627.0842934333
 21
5268.3941185737
 31
0.0
  0
LINE
  5
161
330
1F
100
AcDbEntity
  8
0
  6
Continuous
 62
     7
370
    25
100
AcDbLine
 10
6633.0842981421
 20
5158.3941173071
 30
0.0
 11
6633.0842981421
 21
5268.3941185737
 31
0.0
  0
LINE
  5
162
330
1F
100
AcDbEntity
  8
0
  6
Continuous
 62
     7
370
    25
100
AcDbLine
 10
6633.0842981421
 20
5158.3941173071
 30
0.0
 11
6635.0842947446
 21
5158.3941173071
 31
0.0
  0
LINE
  5
163
330
1F
100
AcDbEntity
  8
0
  6
Continuous
 62
     7
370
    25
100
AcDbLine
 10
6635.0842947446
 20
5158.3941173071
 30
0.0
 11
6635.0842947446
 21
5130.3941183055
 31
0.0
  0
ARC
  5
164
330
1F
100
AcDbEntity
  8
0
  6
Continuous
 62
     7
370
    25
100
AcDbCircle
 10
6633.0842945062
 20
5130.3941166548
 30
0.0
 40
2.0
100
AcDbArc
 50
270.0
 51
0.0
  0
LINE
  5
165
330
1F
100
AcDbEntity
  8
0
  6
Continuous
 62
     7
370
    25
100
AcDbLine
 10
6633.0842981421
 20
5268.3941185737
 30
0.0
 11
6635.0842947446
 21
5268.3941185737
 31
0.0
  0
LINE
  5
166
330
1F
100
AcDbEntity
  8
0
  6
Continuous
 62
     7
370
    25
100
AcDbLine
 10
6635.0842947446
 20
5268.3941185737
 30
0.0
 11
6635.0842947446
 21
5158.3941173071
 31
0.0
  0
LINE
  5
167
330
1F
100
AcDbEntity
  8
0
  6
Continuous
 62
     7
370
    25
100
AcDbLine
 10
6633.0842981421
 20
5298.3941197658
 30
0.0
 11
6627.0842934333
 21
5298.3941197658
 31
0.0
  0
LINE
  5
168
330
1F
100
AcDbEntity
  8
0
  6
Continuous
 62
     7
370
    25
100
AcDbLine
 10
6633.0842981421
 20
5268.3941185737
 30
0.0
 11
6633.0842981421
 21
5298.3941197658
 31
0.0
  0
LINE
  5
169
330
1F
100
AcDbEntity
  8
0
  6
Continuous
 62
     7
370
    25
100
AcDbLine
 10
6627.0842934333
 20
5298.3941197658
 30
0.0
 11
6627.0842934333
 21
5268.3941185737
 31
0.0
  0
LINE
  5
16A
330
1F
100
AcDbEntity
  8
0
  6
Continuous
 62
     7
370
    25
100
AcDbLine
 10
6635.0842947446
 20
5296.3941157127
 30
0.0
 11
6635.0842947446
 21
5268.3941185737
 31
0.0
  0
ARC
  5
16B
330
1F
100
AcDbEntity
  8
0
  6
Continuous
 62
     7
370
    25
100
AcDbCircle
 10
6633.0842945062
 20
5296.3941166548
 30
0.0
 40
2.000000000000909
100
AcDbArc
 50
0.0
 51
90.0
  0
LINE
  5
16C
330
1F
100
AcDbEntity
  8
0
  6
Continuous
 62
     7
370
    25
100
AcDbLine
 10
6637.0842913471
 20
5283.8941201831
 30
0.0
 11
6637.0842913471
 21
5142.8941175605
 31
0.0
  0
LINE
  5
16D
330
1F
100
AcDbEntity
  8
0
  6
Continuous
 62
     7
370
    25
100
AcDbLine
 10
6600.412019559
 20
5146.6941148306
 30
0.0
 11
6609.3842955612
 21
5146.6941148306
 31
0.0
  0
LINE
  5
16E
330
1F
100
AcDbEntity
  8
0
  6
Continuous
 62
     7
370
    25
100
AcDbLine
 10
6597.7842929147
 20
5146.6941148306
 30
0.0
 11
6600.412019559
 21
5146.6941148306
 31
0.0
  0
SPLINE
  5
16F
330
1F
100
AcDbEntity
  8
0
  6
Continuous
 62
     7
370
    25
100
AcDbSpline
210
0.0
220
0.0
230
1.0
 70
     8
 71
     3
 72
    18
 73
    14
 74
     0
 42
0.000000001
 43
0.00000001
 40
0.0
 40
0.0
 40
0.0
 40
0.0
 40
0.0907448887254123
 40
0.1814897940666838
 40
0.2746720249370888
 40
0.3687536588740263
 40
0.4656166024071805
 40
0.5588440214776594
 40
0.6547749699578004
 40
0.7480037392242515
 40
0.8439747809109375
 40
0.9365482404709653
 40
1.0
 40
1.0
 40
1.0
 40
1.0
 10
6576.786645718695
 20
5297.394117739279
 30
0.0
 10
6577.484686001589
 20
5297.402893159951
 30
0.0
 10
6578.880766695193
 20
5297.420444002901
 30
0.0
 10
6581.025777783407
 20
5297.446940519121
 30
0.0
 10
6583.150201103754
 20
5297.472130568772
 30
0.0
 10
6585.219302836317
 20
5297.498479130511
 30
0.0
 10
6587.123549869151
 20
5297.526177865025
 30
0.0
 10
6588.819000078262
 20
5297.554170339267
 30
0.0
 10
6590.227835941748
 20
5297.581377463992
 30
0.0
 10
6591.346751620055
 20
5297.607079664596
 30
0.0
 10
6592.099350446467
 20
5297.634211770077
 30
0.0
 10
6592.499114031546
 20
5297.659138262413
 30
0.0
 10
6592.482552679021
 20
5297.674421810043
 30
0.0
 10
6592.475817569376
 20
5297.680637266714
 30
0.0
  0
SPLINE
  5
170
330
1F
100
AcDbEntity
  8
0
  6
Continuous
 62
     7
370
    25
100
AcDbSpline
210
0.0
220
0.0
230
1.0
 70
     8
 71
     3
 72
    10
 73
     6
 74
     0
 42
0.000000001
 43
0.00000001
 40
0.0
 40
0.0
 40
0.0
 40
0.0
 40
0.3007701538105231
 40
0.6907294421087439
 40
1.0
 40
1.0
 40
1.0
 40
1.0
 10
6567.181737192751
 20
5298.183856930811
 30
0.0
 10
6567.199365515421
 20
5298.191045065611
 30
0.0
 10
6567.239849590484
 20
5298.207552874907
 30
0.0
 10
6567.67093549186
 20
5298.229726790082
 30
0.0
 10
6568.179492885644
 20
5298.246125237152
 30
0.0
 10
6568.404428691448
 20
5298.253378298361
 30
0.0
  0
LINE
  5
171
330
1F
100
AcDbEntity
  8
0
  6
Continuous
 62
     7
370
    25
100
AcDbLine
 10
6576.7866457187
 20
5297.3941177393
 30
0.0
 11
6566.3637947597
 21
5297.3941177393
 31
0.0
  0
SPLINE
  5
172
330
1F
100
AcDbEntity
  8
0
  6
Continuous
 62
     7
370
    25
100
AcDbSpline
210
0.0
220
0.0
230
1.0
 70
     8
 71
     3
 72
    15
 73
    11
 74
     0
 42
0.000000001
 43
0.00000001
 40
0.0
 40
0.0
 40
0.0
 40
0.0
 40
0.1354913910469691
 40
0.2702821796040223
 40
0.4089681021742776
 40
0.543987131369986
 40
0.6829073077143234
 40
0.8181614697703268
 40
0.9571792251730297
 40
1.0
 40
1.0
 40
1.0
 40
1.0
 10
6575.407934405685
 20
5298.253378298361
 30
0.0
 10
6574.743586881082
 20
5298.219836096767
 30
0.0
 10
6573.41832705773
 20
5298.152925134485
 30
0.0
 10
6571.606931561246
 20
5298.055802748921
 30
0.0
 10
6570.001360536391
 20
5297.952698969535
 30
0.0
 10
6568.645494729133
 20
5297.849109307238
 30
0.0
 10
6567.591751427201
 20
5297.748058599607
 30
0.0
 10
6566.880136699378
 20
5297.653559279572
 30
0.0
 10
6566.540934425957
 20
5297.578906717896
 30
0.0
 10
6566.524890895156
 20
5297.534920683524
 30
0.0
 10
6566.521112837673
 20
5297.52456250437
 30
0.0
  0
SPLINE
  5
173
330
1F
100
AcDbEntity
  8
0
  6
Continuous
 62
     7
370
    25
100
AcDbSpline
210
0.0
220
0.0
230
1.0
 70
    24
 71
     3
 72
    13
 73
     9
 74
     0
 42
0.000000001
 43
0.00000001
 40
0.0
 40
0.0
 40
0.0
 40
0.0
 40
0.0409241016593772
 40
0.2049391970679996
 40
0.4196578532734753
 40
0.6343764297073603
 40
0.817188130824304
 40
1.0
 40
1.0
 40
1.0
 40
1.0
 10
6568.404428691448
 20
5298.253378298361
 30
0.0
 10
6568.462085307888
 20
5298.253378298361
 30
0.0
 10
6568.750817380182
 20
5298.253378298361
 30
0.0
 10
6569.450434576414
 20
5298.253378298361
 30
0.0
 10
6570.671604377426
 20
5298.253378298361
 30
0.0
 10
6572.172087289116
 20
5298.253378298361
 30
0.0
 10
6573.763056503722
 20
5298.253378298361
 30
0.0
 10
6574.859641603683
 20
5298.253378298361
 30
0.0
 10
6575.407934405685
 20
5298.253378298361
 30
0.0
  0
LINE
  5
174
330
1F
100
AcDbEntity
  8
0
  6
Continuous
 62
     7
370
    25
100
AcDbLine
 10
6582.5393228166
 20
5298.8941133285
 30
0.0
 11
6591.3047949158
 21
5298.8941133285
 31
0.0
  0
LINE
  5
175
330
1F
100
AcDbEntity
  8
0
  6
Continuous
 62
     7
370
    25
100
AcDbLine
 10
6567.8637940742
 20
5298.8941133285
 30
0.0
 11
6582.5393228166
 21
5298.8941133285
 31
0.0
  0
LINE
  5
176
330
1F
100
AcDbEntity
  8
0
  6
Continuous
 62
     7
370
    25
100
AcDbLine
 10
6576.2569150262
 20
5289.8941174413
 30
0.0
 11
6576.2569150262
 21
5279.3941185141
 31
0.0
  0
LINE
  5
177
330
1F
100
AcDbEntity
  8
0
  6
Continuous
 62
     7
370
    25
100
AcDbLine
 10
6565.3107967533
 20
5289.8941174413
 30
0.0
 11
6565.3107967533
 21
5279.3941185141
 31
0.0
  0
LINE
  5
178
330
1F
100
AcDbEntity
  8
0
  6
Continuous
 62
     7
370
    25
100
AcDbLine
 10
6565.3107967533
 20
5289.8941174413
 30
0.0
 11
6569.5080850579
 21
5289.8941174413
 31
0.0
  0
LINE
  5
179
330
1F
100
AcDbEntity
  8
0
  6
Continuous
 62
     7
370
    25
100
AcDbLine
 10
6572.0926290684
 20
5289.8941174413
 30
0.0
 11
6576.2569150262
 21
5289.8941174413
 31
0.0
  0
SPLINE
  5
17A
330
1F
100
AcDbEntity
  8
0
  6
Continuous
 62
     7
370
    25
100
AcDbSpline
210
0.0
220
0.0
230
1.0
 70
     8
 71
     3
 72
    14
 73
    10
 74
     0
 42
0.000000001
 43
0.00000001
 40
0.0
 40
0.0
 40
0.0
 40
0.0
 40
0.0359813418064933
 40
0.1983750359815255
 40
0.3588752512566535
 40
0.5230056189191273
 40
0.6871360154172771
 40
0.8476361799230766
 40
1.0
 40
1.0
 40
1.0
 40
1.0
 10
6576.786645718695
 20
5297.394117739279
 30
0.0
 10
6576.577385101175
 20
5297.389919911162
 30
0.0
 10
6575.423673748399
 20
5297.366776129918
 30
0.0
 10
6573.410865442787
 20
5297.325836852317
 30
0.0
 10
6570.978514395824
 20
5297.272833265077
 30
0.0
 10
6568.950199042282
 20
5297.215212238957
 30
0.0
 10
6567.458461082555
 20
5297.157559683336
 30
0.0
 10
6566.525864470102
 20
5297.105781515814
 30
0.0
 10
6566.42935431258
 20
5297.069820405744
 30
0.0
 10
6566.382354155959
 20
5297.052307453234
 30
0.0
  0
LINE
  5
17B
330
1F
100
AcDbEntity
  8
0
  6
Continuous
 62
     7
370
    25
100
AcDbLine
 10
6566.3650287621
 20
5297.0488801862
 30
0.0
 11
6566.3977535747
 21
5297.0437541867
 31
0.0
  0
SPLINE
  5
17C
330
1F
100
AcDbEntity
  8
0
  6
Continuous
 62
     7
370
    25
100
AcDbSpline
210
0.0
220
0.0
230
1.0
 70
     8
 71
     3
 72
    23
 73
    19
 74
     0
 42
0.000000001
 43
0.00000001
 40
0.0
 40
0.0
 40
0.0
 40
0.0
 40
0.0495140848041794
 40
0.1209630070704396
 40
0.1909032624922471
 40
0.2622001885953875
 40
0.3340869211865674
 40
0.4048036121491179
 40
0.4750699181645511
 40
0.5190515796007177
 40
0.5632189917539385
 40
0.5789349586251926
 40
0.6498654406367002
 40
0.7199688836373934
 40
0.791657911651482
 40
0.8633469557996161
 40
0.9334503800067915
 40
1.0
 40
1.0
 40
1.0
 40
1.0
 10
6592.726913311363
 20
5296.249887373526
 30
0.0
 10
6592.701849020396
 20
5296.236645898975
 30
0.0
 10
6592.640616908009
 20
5296.204296950469
 30
0.0
 10
6591.802323870676
 20
5296.153013938428
 30
0.0
 10
6590.369294815228
 20
5296.100598600236
 30
0.0
 10
6588.388179446911
 20
5296.043918134549
 30
0.0
 10
6585.973259412644
 20
5295.98598388093
 30
0.0
 10
6583.25867017891
 20
5295.931001164521
 30
0.0
 10
6580.745064839693
 20
5295.884539140453
 30
0.0
 10
6578.573722647104
 20
5295.842107558361
 30
0.0
 10
6577.163486956464
 20
5295.814202747674
 30
0.0
 10
6575.425341556316
 20
5295.779283499578
 30
0.0
 10
6573.41020833156
 20
5295.738327609328
 30
0.0
 10
6570.978693971789
 20
5295.685341269616
 30
0.0
 10
6568.950150380434
 20
5295.627718552092
 30
0.0
 10
6567.458473791111
 20
5295.570055240209
 30
0.0
 10
6566.525861527685
 20
5295.51827729962
 30
0.0
 10
6566.429353348083
 20
5295.482322247357
 30
0.0
 10
6566.382354155959
 20
5295.464812245447
 30
0.0
  0
LINE
  5
17D
330
1F
100
AcDbEntity
  8
0
  6
Continuous
 62
     7
370
    25
100
AcDbLine
 10
6566.3650287621
 20
5295.4613849784
 30
0.0
 11
6566.3977535747
 21
5295.4562515283
 31
0.0
  0
SPLINE
  5
17E
330
1F
100
AcDbEntity
  8
0
  6
Continuous
 62
     7
370
    25
100
AcDbSpline
210
0.0
220
0.0
230
1.0
 70
     8
 71
     3
 72
    23
 73
    19
 74
     0
 42
0.000000001
 43
0.00000001
 40
0.0
 40
0.0
 40
0.0
 40
0.0
 40
0.0495140848057534
 40
0.1209630035587755
 40
0.1909032589828063
 40
0.2622001885885432
 40
0.3340869211820082
 40
0.4048036121468068
 40
0.4750699181644737
 40
0.5190515796020384
 40
0.563218988195529
 40
0.5789349586118195
 40
0.6498654371615874
 40
0.71996888354607
 40
0.7916579115624375
 40
0.8633469557128505
 40
0.9334503765406925
 40
1.0
 40
1.0
 40
1.0
 40
1.0
 10
6592.726913311363
 20
5294.662384715159
 30
0.0
 10
6592.70184902349
 20
5294.649142789532
 30
0.0
 10
6592.640616920437
 20
5294.616792739987
 30
0.0
 10
6591.802323844629
 20
5294.565520735924
 30
0.0
 10
6590.369294757526
 20
5294.513105330659
 30
0.0
 10
6588.388179520034
 20
5294.456412861881
 30
0.0
 10
6585.973259399854
 20
5294.39848211838
 30
0.0
 10
6583.258670196565
 20
5294.343497521122
 30
0.0
 10
6580.745064791404
 20
5294.297039019952
 30
0.0
 10
6578.57372280251
 20
5294.254599317982
 30
0.0
 10
6577.163486709441
 20
5294.226715562435
 30
0.0
 10
6575.425341901988
 20
5294.191767449407
 30
0.0
 10
6573.410208052792
 20
5294.150843496749
 30
0.0
 10
6570.97869409217
 20
5294.097833323208
 30
0.0
 10
6568.950150353298
 20
5294.04021816811
 30
0.0
 10
6567.45847383383
 20
5293.982548874778
 30
0.0
 10
6566.525861490961
 20
5293.930786664965
 30
0.0
 10
6566.429353337682
 20
5293.894823527407
 30
0.0
 10
6566.382354155959
 20
5293.87730958708
 30
0.0
  0
LINE
  5
17F
330
1F
100
AcDbEntity
  8
0
  6
Continuous
 62
     7
370
    25
100
AcDbLine
 10
6566.3650287621
 20
5293.87388232
 30
0.0
 11
6566.3977535747
 21
5293.86874887
 31
0.0
  0
SPLINE
  5
180
330
1F
100
AcDbEntity
  8
0
  6
Continuous
 62
     7
370
    25
100
AcDbSpline
210
0.0
220
0.0
230
1.0
 70
     8
 71
     3
 72
    23
 73
    19
 74
     0
 42
0.000000001
 43
0.00000001
 40
0.0
 40
0.0
 40
0.0
 40
0.0
 40
0.0495140812658091
 40
0.1209630035551798
 40
0.1909032589996098
 40
0.2622001886261415
 40
0.3340869212405733
 40
0.4048036087832544
 40
0.4750699182195538
 40
0.5190515761387791
 40
0.563218988306286
 40
0.5789349551826235
 40
0.6498654372170739
 40
0.7199688836220032
 40
0.7916579081201094
 40
0.8633469522914315
 40
0.9334503765212823
 40
1.0
 40
1.0
 40
1.0
 40
1.0
 10
6592.726913311363
 20
5293.074882056791
 30
0.0
 10
6592.701849016227
 20
5293.061643649212
 30
0.0
 10
6592.640616891057
 20
5293.029302191952
 30
0.0
 10
6591.802323879459
 20
5292.978014515465
 30
0.0
 10
6590.369294759505
 20
5292.925603366487
 30
0.0
 10
6588.388179500299
 20
5292.868911058948
 30
0.0
 10
6585.973259515739
 20
5292.810975326828
 30
0.0
 10
6583.258669961299
 20
5292.756010208826
 30
0.0
 10
6580.745065059857
 20
5292.709527239334
 30
0.0
 10
6578.573722539634
 20
5292.667112771455
 30
0.0
 10
6577.163486960298
 20
5292.639204698794
 30
0.0
 10
6575.425341554862
 20
5292.604285664145
 30
0.0
 10
6573.410208237574
 20
5292.563333293573
 30
0.0
 10
6570.978694123055
 20
5292.510330444243
 30
0.0
 10
6568.950150304066
 20
5292.452724340947
 30
0.0
 10
6567.458473804638
 20
5292.395055870146
 30
0.0
 10
6566.525861508767
 20
5292.34328175796
 30
0.0
 10
6566.429353342732
 20
5292.30732013231
 30
0.0
 10
6566.382354155959
 20
5292.289806928713
 30
0.0
  0
LINE
  5
181
330
1F
100
AcDbEntity
  8
0
  6
Continuous
 62
     7
370
    25
100
AcDbLine
 10
6566.3650287621
 20
5292.2863796616
 30
0.0
 11
6566.3977535747
 21
5292.2812536622
 31
0.0
  0
SPLINE
  5
182
330
1F
100
AcDbEntity
  8
0
  6
Continuous
 62
     7
370
    25
100
AcDbSpline
210
0.0
220
0.0
230
1.0
 70
     8
 71
     3
 72
    23
 73
    19
 74
     0
 42
0.000000001
 43
0.00000001
 40
0.0
 40
0.0
 40
0.0
 40
0.0
 40
0.049514084808261
 40
0.120963007080411
 40
0.190903262507984
 40
0.2622001886170017
 40
0.3340869212141073
 40
0.4048036121824873
 40
0.4750699182037128
 40
0.519051579643505
 40
0.5632189918003667
 40
0.5789349586729163
 40
0.6498654372262764
 40
0.7199688836143096
 40
0.7916579116343077
 40
0.8633469557883513
 40
0.9334503800013056
 40
1.0
 40
1.0
 40
1.0
 40
1.0
 10
6592.726913311363
 20
5291.487386849005
 30
0.0
 10
6592.701849020396
 20
5291.474145374457
 30
0.0
 10
6592.640616908009
 20
5291.441796425959
 30
0.0
 10
6591.802323870677
 20
5291.390513413844
 30
0.0
 10
6590.369294815225
 20
5291.338098075943
 30
0.0
 10
6588.388179446926
 20
5291.281417609152
 30
0.0
 10
6585.973259412587
 20
5291.223483359686
 30
0.0
 10
6583.258670179112
 20
5291.168500628027
 30
0.0
 10
6580.745064839062
 20
5291.12203865331
 30
0.0
 10
6578.573722648505
 20
5291.079606950761
 30
0.0
 10
6577.163486952575
 20
5291.051702453646
 30
0.0
 10
6575.42534161323
 20
5291.016782330899
 30
0.0
 10
6573.410208148873
 20
5290.975840541782
 30
0.0
 10
6570.978694065059
 20
5290.922837067701
 30
0.0
 10
6568.950150363889
 20
5290.865219022995
 30
0.0
 10
6567.458473795421
 20
5290.807554456333
 30
0.0
 10
6566.52586152668
 20
5290.755776835545
 30
0.0
 10
6566.429353347754
 20
5290.719821742632
 30
0.0
 10
6566.382354155959
 20
5290.702311720926
 30
0.0
  0
LINE
  5
183
330
1F
100
AcDbEntity
  8
0
  6
Continuous
 62
     7
370
    25
100
AcDbLine
 10
6566.3650287621
 20
5290.6988844539
 30
0.0
 11
6566.3977535747
 21
5290.6937510038
 31
0.0
  0
LINE
  5
184
330
1F
100
AcDbEntity
  8
0
  6
Continuous
 62
     7
370
    25
100
AcDbLine
 10
6592.7914614164
 20
5289.9086088205
 30
0.0
 11
6592.7837910436
 21
5289.8941174413
 31
0.0
  0
SPLINE
  5
185
330
1F
100
AcDbEntity
  8
0
  6
Continuous
 62
     7
370
    25
100
AcDbSpline
210
0.0
220
0.0
230
1.0
 70
     8
 71
     3
 72
    23
 73
    19
 74
     0
 42
0.000000001
 43
0.00000001
 40
0.0
 40
0.0
 40
0.0
 40
0.0
 40
0.0088416849775008
 40
0.080832623925952
 40
0.1516517651973414
 40
0.2220197531532793
 40
0.293900604287529
 40
0.3655840433536639
 40
0.4356800306902805
 40
0.5069070772489715
 40
0.5789201033543687
 40
0.6499533515381416
 40
0.7201582593894137
 40
0.7919512171185047
 40
0.8585985703403981
 40
0.8952656433210684
 40
0.965361613773161
 40
1.0
 40
1.0
 40
1.0
 40
1.0
 10
6591.90471194017
 20
5297.340719428141
 30
0.0
 10
6591.911308303319
 20
5297.33839576997
 30
0.0
 10
6591.971613702467
 20
5297.317152377159
 30
0.0
 10
6591.505222893421
 20
5297.275694721595
 30
0.0
 10
6590.492733446223
 20
5297.220895165912
 30
0.0
 10
6588.896954092699
 20
5297.167335250477
 30
0.0
 10
6586.856549818613
 20
5297.109537213207
 30
0.0
 10
6584.457767350587
 20
5297.052162540339
 30
0.0
 10
6581.833330659253
 20
5296.999502730291
 30
0.0
 10
6579.095168479545
 20
5296.943323479525
 30
0.0
 10
6576.368407687165
 20
5296.885355917337
 30
0.0
 10
6573.812436924314
 20
5296.829743633253
 30
0.0
 10
6571.536864096151
 20
5296.776765752231
 30
0.0
 10
6569.690547939204
 20
5296.720425702649
 30
0.0
 10
6568.52000474803
 20
5296.673523920635
 30
0.0
 10
6567.70297253475
 20
5296.62861666776
 30
0.0
 10
6567.239387991635
 20
5296.593914617298
 30
0.0
 10
6567.284496745393
 20
5296.565872300644
 30
0.0
 10
6567.299415387989
 20
5296.556597974379
 30
0.0
  0
SPLINE
  5
186
330
1F
100
AcDbEntity
  8
0
  6
Continuous
 62
     7
370
    25
100
AcDbSpline
210
0.0
220
0.0
230
1.0
 70
     8
 71
     3
 72
    23
 73
    19
 74
     0
 42
0.000000001
 43
0.00000001
 40
0.0
 40
0.0
 40
0.0
 40
0.0
 40
0.0088416849772375
 40
0.0808326279999924
 40
0.1516517692692736
 40
0.2220197572231167
 40
0.2939006042909636
 40
0.3655840473966316
 40
0.4356800308700725
 40
0.506907081416634
 40
0.5789201034410121
 40
0.6499533555905148
 40
0.7201582634396969
 40
0.7919512211666507
 40
0.8585985743865602
 40
0.8952656473661389
 40
0.9653616178161448
 40
1.0
 40
1.0
 40
1.0
 40
1.0
 10
6591.90471194017
 20
5295.753224220354
 30
0.0
 10
6591.911308303156
 20
5295.75090058689
 30
0.0
 10
6591.971613703846
 20
5295.729657418879
 30
0.0
 10
6591.505222927304
 20
5295.688188563498
 30
0.0
 10
6590.492733426849
 20
5295.633394337187
 30
0.0
 10
6588.896954186523
 20
5295.579828708445
 30
0.0
 10
6586.856549622331
 20
5295.522048558737
 30
0.0
 10
6584.457767575075
 20
5295.464652735814
 30
0.0
 10
6581.833330419973
 20
5295.412014773108
 30
0.0
 10
6579.095168727005
 20
5295.355813614868
 30
0.0
 10
6576.36840745975
 20
5295.297867168362
 30
0.0
 10
6573.812437039317
 20
5295.2422373272
 30
0.0
 10
6571.536864076193
 20
5295.189264070322
 30
0.0
 10
6569.690547944393
 20
5295.132922888294
 30
0.0
 10
6568.520004747001
 20
5295.086021020878
 30
0.0
 10
6567.70297253601
 20
5295.041114716022
 30
0.0
 10
6567.239387998828
 20
5295.00640755723
 30
0.0
 10
6567.284496748056
 20
5294.978374146659
 30
0.0
 10
6567.299415387989
 20
5294.969102766592
 30
0.0
  0
SPLINE
  5
187
330
1F
100
AcDbEntity
  8
0
  6
Continuous
 62
     7
370
    25
100
AcDbSpline
210
0.0
220
0.0
230
1.0
 70
     8
 71
     3
 72
    23
 73
    19
 74
     0
 42
0.000000001
 43
0.00000001
 40
0.0
 40
0.0
 40
0.0
 40
0.0
 40
0.0088416849802052
 40
0.0808326280271232
 40
0.1516517653766718
 40
0.2220197572465493
 40
0.2939006043385224
 40
0.3655840434265834
 40
0.4356800307846404
 40
0.5069070773651179
 40
0.5789201034925419
 40
0.6499533556658864
 40
0.7201582635386322
 40
0.791951217235731
 40
0.85859857047801
 40
0.8952656434698958
 40
0.9653616178045187
 40
1.0
 40
1.0
 40
1.0
 40
1.0
 10
6591.90471194017
 20
5294.165721561987
 30
0.0
 10
6591.911308303079
 20
5294.163397936731
 30
0.0
 10
6591.971613703067
 20
5294.142154843767
 30
0.0
 10
6591.505222973467
 20
5294.100682268677
 30
0.0
 10
6590.492733330539
 20
5294.045904348265
 30
0.0
 10
6588.896954239405
 20
5293.992323494922
 30
0.0
 10
6586.856549723189
 20
5293.934543104217
 30
0.0
 10
6584.457767364443
 20
5293.877163648273
 30
0.0
 10
6581.833330652352
 20
5293.824505307061
 30
0.0
 10
6579.095168493522
 20
5293.768324857443
 30
0.0
 10
6576.368407587523
 20
5293.710360636572
 30
0.0
 10
6573.812437009474
 20
5293.654736373755
 30
0.0
 10
6571.536864161514
 20
5293.60175839569
 30
0.0
 10
6569.690547875702
 20
5293.545430515494
 30
0.0
 10
6568.520004754126
 20
5293.498524930209
 30
0.0
 10
6567.702972510808
 20
5293.453621070611
 30
0.0
 10
6567.239388004889
 20
5293.418903646341
 30
0.0
 10
6567.284496749976
 20
5293.390871176744
 30
0.0
 10
6567.299415387989
 20
5293.381600108225
 30
0.0
  0
SPLINE
  5
188
330
1F
100
AcDbEntity
  8
0
  6
Continuous
 62
     7
370
    25
100
AcDbSpline
210
0.0
220
0.0
230
1.0
 70
     8
 71
     3
 72
    23
 73
    19
 74
     0
 42
0.000000001
 43
0.00000001
 40
0.0
 40
0.0
 40
0.0
 40
0.0
 40
0.0088416810032272
 40
0.0808326243065624
 40
0.1516517658518569
 40
0.2220197540799549
 40
0.2939006014279531
 40
0.3655840448130031
 40
0.4356800285596387
 40
0.5069070793838033
 40
0.5789201057677231
 40
0.6499533542262292
 40
0.7201582623490307
 40
0.7919512203557932
 40
0.8585985738354566
 40
0.8952656469579431
 40
0.9653616176811438
 40
1.0
 40
1.0
 40
1.0
 40
1.0
 10
6591.90471194017
 20
5292.57821890362
 30
0.0
 10
6591.911308302259
 20
5292.575897908004
 30
0.0
 10
6591.971613719105
 20
5292.55467884721
 30
0.0
 10
6591.50522291573
 20
5292.513182621889
 30
0.0
 10
6590.492733429992
 20
5292.458398598748
 30
0.0
 10
6588.896954185336
 20
5292.404830276192
 30
0.0
 10
6586.856549623902
 20
5292.347050783295
 30
0.0
 10
6584.457767570058
 20
5292.289655074221
 30
0.0
 10
6581.833330438164
 20
5292.237016017803
 30
0.0
 10
6579.095168605225
 20
5292.180819183351
 30
0.0
 10
6576.368407667297
 20
5292.122856391585
 30
0.0
 10
6573.812436929546
 20
5292.067242852864
 30
0.0
 10
6571.536864094681
 20
5292.014265273327
 30
0.0
 10
6569.690547939702
 20
5291.957925258323
 30
0.0
 10
6568.520004747608
 20
5291.911023124137
 30
0.0
 10
6567.702972535755
 20
5291.86611686269
 30
0.0
 10
6567.239387998863
 20
5291.831409689293
 30
0.0
 10
6567.284496748065
 20
5291.803376280062
 30
0.0
 10
6567.299415387989
 20
5291.794104900438
 30
0.0
  0
SPLINE
  5
189
330
1F
100
AcDbEntity
  8
0
  6
Continuous
 62
     7
370
    25
100
AcDbSpline
210
0.0
220
0.0
230
1.0
 70
     8
 71
     3
 72
    23
 73
    19
 74
     0
 42
0.000000001
 43
0.00000001
 40
0.0
 40
0.0
 40
0.0
 40
0.0
 40
0.008841684978188
 40
0.0808326280086817
 40
0.1516517692855758
 40
0.2220197572469833
 40
0.2939006043225573
 40
0.3655840474359311
 40
0.4356800309169072
 40
0.5069070774811346
 40
0.5789201035921293
 40
0.6499533557492679
 40
0.7201582636059969
 40
0.7919512213406683
 40
0.8585985705102699
 40
0.8952656434937903
 40
0.9653616178124212
 40
1.0
 40
1.0
 40
1.0
 40
1.0
 10
6591.90471194017
 20
5290.990723695833
 30
0.0
 10
6591.911308303156
 20
5290.988400062357
 30
0.0
 10
6591.971613703849
 20
5290.967156894242
 30
0.0
 10
6591.5052229272
 20
5290.925688044023
 30
0.0
 10
6590.492733427212
 20
5290.87089379509
 30
0.0
 10
6588.89695418517
 20
5290.817328249451
 30
0.0
 10
6586.856549627496
 20
5290.759547784096
 30
0.0
 10
6584.457767556052
 20
5290.702153132538
 30
0.0
 10
6581.833330538853
 20
5290.649510873134
 30
0.0
 10
6579.095168511806
 20
5290.593325988702
 30
0.0
 10
6576.368407579612
 20
5290.535363279122
 30
0.0
 10
6573.812437022732
 20
5290.479737487402
 30
0.0
 10
6571.536864073067
 20
5290.426764099968
 30
0.0
 10
6569.690548009751
 20
5290.370419454153
 30
0.0
 10
6568.520004713411
 20
5290.323528771769
 30
0.0
 10
6567.70297251986
 20
5290.278622488216
 30
0.0
 10
6567.23938800363
 20
5290.243905879825
 30
0.0
 10
6567.284496749663
 20
5290.215873335354
 30
0.0
 10
6567.299415387989
 20
5290.206602242071
 30
0.0
  0
LINE
  5
18A
330
1F
100
AcDbEntity
  8
0
  6
Continuous
 62
     7
370
    25
100
AcDbLine
 10
6590.9950780057
 20
5289.8941174413
 30
0.0
 11
6592.7837910436
 21
5289.8941174413
 31
0.0
  0
SPLINE
  5
18B
330
1F
100
AcDbEntity
  8
0
  6
Continuous
 62
     7
370
    25
100
AcDbSpline
210
0.0
220
0.0
230
1.0
 70
     8
 71
     3
 72
    22
 73
    18
 74
     0
 42
0.000000001
 43
0.00000001
 40
0.0
 40
0.0
 40
0.0
 40
0.0
 40
0.0201129481645412
 40
0.0912424165090119
 40
0.1612142488564616
 40
0.2307404109035575
 40
0.3017610441337718
 40
0.3725867893115709
 40
0.4418441337752608
 40
0.5122189813660104
 40
0.5833702836175662
 40
0.6535536127174667
 40
0.7229186178457944
 40
0.7938525027325274
 40
0.8647864000814668
 40
0.934151383268299
 40
1.0
 40
1.0
 40
1.0
 40
1.0
 10
6592.738722481609
 20
5296.655280914385
 30
0.0
 10
6592.757940501458
 20
5296.649939727522
 30
0.0
 10
6592.845123074452
 20
5296.625709426105
 30
0.0
 10
6592.343487679465
 20
5296.581175986631
 30
0.0
 10
6591.248467456562
 20
5296.526367798358
 30
0.0
 10
6589.544994750789
 20
5296.47279412281
 30
0.0
 10
6587.36187506014
 20
5296.41501567621
 30
0.0
 10
6584.796577809075
 20
5296.357620532192
 30
0.0
 10
6581.989661789881
 20
5296.304978302829
 30
0.0
 10
6579.061153825185
 20
5296.24879400966
 30
0.0
 10
6576.144934595063
 20
5296.190829032889
 30
0.0
 10
6573.410945494901
 20
5296.135211238522
 30
0.0
 10
6570.97849251323
 20
5296.082208265885
 30
0.0
 10
6568.950204964153
 20
5296.024587072122
 30
0.0
 10
6567.458459539625
 20
5295.966934561509
 30
0.0
 10
6566.525864829699
 20
5295.915156382515
 30
0.0
 10
6566.429354430348
 20
5295.879195273904
 30
0.0
 10
6566.382354155959
 20
5295.861682322104
 30
0.0
  0
SPLINE
  5
18C
330
1F
100
AcDbEntity
  8
0
  6
Continuous
 62
     7
370
    25
100
AcDbSpline
210
0.0
220
0.0
230
1.0
 70
     8
 71
     3
 72
    22
 73
    18
 74
     0
 42
0.000000001
 43
0.00000001
 40
0.0
 40
0.0
 40
0.0
 40
0.0
 40
0.020112948232803
 40
0.0912424132973582
 40
0.1612142492887634
 40
0.2307404082094829
 40
0.3017610451915377
 40
0.3725867871184386
 40
0.4418441351524682
 40
0.5122189829820648
 40
0.5833702854751027
 40
0.6535536148132003
 40
0.7229186168310067
 40
0.793852501958484
 40
0.8647864030500574
 40
0.9341513864723092
 40
1.0
 40
1.0
 40
1.0
 40
1.0
 10
6592.738722481609
 20
5295.067778256018
 30
0.0
 10
6592.757940502466
 20
5295.062436918262
 30
0.0
 10
6592.845123076668
 20
5295.038205933255
 30
0.0
 10
6592.34348760547
 20
5294.993687744734
 30
0.0
 10
6591.248467568701
 20
5294.93885790973
 30
0.0
 10
6589.544994597562
 20
5294.885306249671
 30
0.0
 10
6587.361875247217
 20
5294.827505782368
 30
0.0
 10
6584.796577615825
 20
5294.770131730539
 30
0.0
 10
6581.989661898921
 20
5294.717471948327
 30
0.0
 10
6579.061153810704
 20
5294.661292187447
 30
0.0
 10
6576.144934588944
 20
5294.60332680622
 30
0.0
 10
6573.410945576288
 20
5294.547706081718
 30
0.0
 10
6570.978492442719
 20
5294.494715153448
 30
0.0
 10
6568.950204918263
 20
5294.437093687533
 30
0.0
 10
6567.458459581409
 20
5294.379430039625
 30
0.0
 10
6566.525864839418
 20
5294.327652184676
 30
0.0
 10
6566.429354432688
 20
5294.291697121528
 30
0.0
 10
6566.382354155959
 20
5294.274187114317
 30
0.0
  0
SPLINE
  5
18D
330
1F
100
AcDbEntity
  8
0
  6
Continuous
 62
     7
370
    25
100
AcDbSpline
210
0.0
220
0.0
230
1.0
 70
     8
 71
     3
 72
    22
 73
    18
 74
     0
 42
0.000000001
 43
0.00000001
 40
0.0
 40
0.0
 40
0.0
 40
0.0
 40
0.0201129481601322
 40
0.0912424164890107
 40
0.1612142522275982
 40
0.2307404108971103
 40
0.3017610441117562
 40
0.3725867892740296
 40
0.4418441337225377
 40
0.5122189847444951
 40
0.5833702869804538
 40
0.6535536126374633
 40
0.7229186177505855
 40
0.7938525026217692
 40
0.8647864034570488
 40
0.9341513832827336
 40
0.9999999999999999
 40
0.9999999999999999
 40
0.9999999999999999
 40
0.9999999999999999
 10
6592.738722481609
 20
5293.480283048231
 30
0.0
 10
6592.7579405018
 20
5293.474941823177
 30
0.0
 10
6592.845123076351
 20
5293.450711348501
 30
0.0
 10
6592.343487636094
 20
5293.406181768193
 30
0.0
 10
6591.248467551016
 20
5293.351357027574
 30
0.0
 10
6589.544994684755
 20
5293.297799742565
 30
0.0
 10
6587.361875065265
 20
5293.240017040031
 30
0.0
 10
6584.796577819958
 20
5293.182622239279
 30
0.0
 10
6581.989661696325
 20
5293.129982844418
 30
0.0
 10
6579.061153912381
 20
5293.073786703003
 30
0.0
 10
6576.144934677058
 20
5293.015821607167
 30
0.0
 10
6573.410945407908
 20
5292.960216109573
 30
0.0
 10
6570.978492532929
 20
5292.907208808778
 30
0.0
 10
6568.950204899293
 20
5292.849592870089
 30
0.0
 10
6567.458459622003
 20
5292.791923787131
 30
0.0
 10
6566.52586480319
 20
5292.7401615237
 30
0.0
 10
6566.429354422449
 20
5292.704198392957
 30
0.0
 10
6566.382354155959
 20
5292.68668445595
 30
0.0
  0
SPLINE
  5
18E
330
1F
100
AcDbEntity
  8
0
  6
Continuous
 62
     7
370
    25
100
AcDbSpline
210
0.0
220
0.0
230
1.0
 70
     8
 71
     3
 72
    22
 73
    18
 74
     0
 42
0.000000001
 43
0.00000001
 40
0.0
 40
0.0
 40
0.0
 40
0.0
 40
0.0201129481676786
 40
0.0912424165232449
 40
0.1612142488816095
 40
0.2307404109395509
 40
0.3017610441808438
 40
0.3725867858784155
 40
0.4418441336881944
 40
0.5122189812899218
 40
0.5833702835525765
 40
0.6535536126634249
 40
0.7229186178025729
 40
0.7938524991984807
 40
0.8647864000603748
 40
0.9341513832580273
 40
1.0
 40
1.0
 40
1.0
 40
1.0
 10
6592.738722481609
 20
5291.892780389864
 30
0.0
 10
6592.757940501471
 20
5291.887439202274
 30
0.0
 10
6592.845123074523
 20
5291.863208897557
 30
0.0
 10
6592.343487678231
 20
5291.818675531608
 30
0.0
 10
6591.248467460924
 20
5291.76386702805
 30
0.0
 10
6589.544994734511
 20
5291.710294515627
 30
0.0
 10
6587.361875158334
 20
5291.652511650864
 30
0.0
 10
6584.796577627643
 20
5291.595132906584
 30
0.0
 10
6581.98966189661
 20
5291.542474279431
 30
0.0
 10
6579.061153807962
 20
5291.486294502643
 30
0.0
 10
6576.144934602349
 20
5291.428328007949
 30
0.0
 10
6573.410945483061
 20
5291.372711687342
 30
0.0
 10
6570.978492593797
 20
5291.319704349566
 30
0.0
 10
6568.950204841946
 20
5291.262099470572
 30
0.0
 10
6567.458459594924
 20
5291.204430671077
 30
0.0
 10
6566.525864820504
 20
5291.152656642663
 30
0.0
 10
6566.429354427338
 20
5291.116695006365
 30
0.0
 10
6566.382354155959
 20
5291.099181797583
 30
0.0
  0
SPLINE
  5
18F
330
1F
100
AcDbEntity
  8
0
  6
Continuous
 62
     7
370
    25
100
AcDbSpline
210
0.0
220
0.0
230
1.0
 70
     8
 71
     3
 72
    16
 73
    12
 74
     0
 42
0.000000001
 43
0.00000001
 40
0.0
 40
0.0
 40
0.0
 40
0.0
 40
0.0388328167523214
 40
0.176165149283638
 40
0.3112623971506934
 40
0.4454991595833737
 40
0.5826213668557305
 40
0.7193672829360507
 40
0.8530850356691593
 40
0.988960400260707
 40
1.0
 40
1.0
 40
1.0
 40
1.0
 10
6592.738722481609
 20
5290.305277731497
 30
0.0
 10
6592.75794051412
 20
5290.299939293383
 30
0.0
 10
6592.845123156258
 20
5290.275721458422
 30
0.0
 10
6592.34348630732
 20
5290.231181111376
 30
0.0
 10
6591.24847223304
 20
5290.17635914973
 30
0.0
 10
6589.544977186639
 20
5290.12280467621
 30
0.0
 10
6587.361941711106
 20
5290.065007707784
 30
0.0
 10
6584.79633285317
 20
5290.007622587598
 30
0.0
 10
6581.990559168748
 20
5289.955002910488
 30
0.0
 10
6579.968164798009
 20
5289.916189912642
 30
0.0
 10
6578.918264384924
 20
5289.895660107977
 30
0.0
 10
6578.839371942759
 20
5289.894117441256
 30
0.0
  0
SPLINE
  5
190
330
1F
100
AcDbEntity
  8
0
  6
Continuous
 62
     7
370
    25
100
AcDbSpline
210
0.0
220
0.0
230
1.0
 70
    24
 71
     3
 72
    10
 73
     6
 74
     0
 42
0.000000001
 43
0.00000001
 40
0.0
 40
0.0
 40
0.0
 40
0.0
 40
0.0685894636843989
 40
0.5300992923720131
 40
0.9999999999999999
 40
0.9999999999999999
 40
0.9999999999999999
 40
0.9999999999999999
 10
6569.508085057915
 20
5289.894117441256
 30
0.0
 10
6569.558559637994
 20
5289.894117441256
 30
0.0
 10
6569.94865656754
 20
5289.894117441256
 30
0.0
 10
6570.758533278101
 20
5289.894117441256
 30
0.0
 10
6571.645267671253
 20
5289.894117441256
 30
0.0
 10
6572.092629068376
 20
5289.894117441256
 30
0.0
  0
SPLINE
  5
191
330
1F
100
AcDbEntity
  8
0
  6
Continuous
 62
     7
370
    25
100
AcDbSpline
210
0.0
220
0.0
230
1.0
 70
     8
 71
     3
 72
    14
 73
    10
 74
     0
 42
0.000000001
 43
0.00000001
 40
0.0
 40
0.0
 40
0.0
 40
0.0
 40
0.0991143903781175
 40
0.1967370333451761
 40
0.3818925924579094
 40
0.5696020434200008
 40
0.7552629205768963
 40
0.9379754021371987
 40
1.0
 40
1.0
 40
1.0
 40
1.0
 10
6575.407934405685
 20
5298.253378298361
 30
0.0
 10
6574.956469306957
 20
5298.243461309404
 30
0.0
 10
6574.060334004665
 20
5298.22377658976
 30
0.0
 10
6572.438350236343
 20
5298.187737401469
 30
0.0
 10
6570.644305372666
 20
5298.140265976097
 30
0.0
 10
6568.945412983358
 20
5298.082467547516
 30
0.0
 10
6567.81516365861
 20
5298.026094422659
 30
0.0
 10
6567.259352173116
 20
5297.985740268478
 30
0.0
 10
6567.290749511238
 20
5297.960648690317
 30
0.0
 10
6567.29870665151
 20
5297.954289641459
 30
0.0
  0
SPLINE
  5
192
330
1F
100
AcDbEntity
  8
0
  6
Continuous
 62
     7
370
    25
100
AcDbSpline
210
0.0
220
0.0
230
1.0
 70
     8
 71
     3
 72
    24
 73
    20
 74
     0
 42
0.000000001
 43
0.00000001
 40
0.0
 40
0.0
 40
0.0
 40
0.0
 40
0.0209946349355282
 40
0.0928834975524797
 40
0.1636022199860593
 40
0.2338704288223595
 40
0.3056493515962594
 40
0.3772311503192544
 40
0.4472277403671098
 40
0.5183537936782042
 40
0.5902647080626903
 40
0.6169031490805376
 40
0.6548735603130675
 40
0.6922724878040651
 40
0.7632049962114288
 40
0.8351158965163414
 40
0.9062419986237144
 40
0.9762385756666017
 40
1.0
 40
1.0
 40
1.0
 40
1.0
 10
6591.882542737604
 20
5297.151899364073
 30
0.0
 10
6591.901243639351
 20
5297.146385449098
 30
0.0
 10
6591.983979308103
 20
5297.121991040258
 30
0.0
 10
6591.514655211976
 20
5297.077275613471
 30
0.0
 10
6590.490242503178
 20
5297.022452120491
 30
0.0
 10
6588.897638313654
 20
5296.968894268615
 30
0.0
 10
6586.856355756349
 20
5296.911112031418
 30
0.0
 10
6584.457852562778
 20
5296.853716640776
 30
0.0
 10
6581.833181744298
 20
5296.801079030128
 30
0.0
 10
6579.095690646399
 20
5296.744876011962
 30
0.0
 10
6576.931441416978
 20
5296.69893079605
 30
0.0
 10
6575.264983370954
 20
5296.662831773732
 30
0.0
 10
6574.062757902688
 20
5296.636299025704
 30
0.0
 10
6572.437038411144
 20
5296.600220010248
 30
0.0
 10
6570.644751450829
 20
5296.55277776387
 30
0.0
 10
6568.945293850224
 20
5296.494972433118
 30
0.0
 10
6567.815195814589
 20
5296.438592027798
 30
0.0
 10
6567.259349917284
 20
5296.398231209585
 30
0.0
 10
6567.290749055933
 20
5296.373150681311
 30
0.0
 10
6567.29870665151
 20
5296.366794433672
 30
0.0
  0
SPLINE
  5
193
330
1F
100
AcDbEntity
  8
0
  6
Continuous
 62
     7
370
    25
100
AcDbSpline
210
0.0
220
0.0
230
1.0
 70
     8
 71
     3
 72
    24
 73
    20
 74
     0
 42
0.000000001
 43
0.00000001
 40
0.0
 40
0.0
 40
0.0
 40
0.0
 40
0.0209946388541485
 40
0.0928835011791069
 40
0.1636022233254462
 40
0.233870431876336
 40
0.3056493543586893
 40
0.3772311527909383
 40
0.4472277425544866
 40
0.5183537915923531
 40
0.5902647056847563
 40
0.6169031506127509
 40
0.6548735616910554
 40
0.6922724852204672
 40
0.7632049973019414
 40
0.8351158973147714
 40
0.906241995148919
 40
0.976238575763114
 40
1.0
 40
1.0
 40
1.0
 40
1.0
 10
6591.882542737604
 20
5295.564404156286
 30
0.0
 10
6591.901243641027
 20
5295.558887444459
 30
0.0
 10
6591.98397930498
 20
5295.534480665518
 30
0.0
 10
6591.514655217406
 20
5295.489775857915
 30
0.0
 10
6590.490242501947
 20
5295.434948686044
 30
0.0
 10
6588.897638313233
 20
5295.381391858862
 30
0.0
 10
6586.856355759369
 20
5295.323609167312
 30
0.0
 10
6584.457852551292
 20
5295.266214546787
 30
0.0
 10
6581.833181835652
 20
5295.213574354308
 30
0.0
 10
6579.095690588652
 20
5295.157381051626
 30
0.0
 10
6576.931441228492
 20
5295.111442552419
 30
0.0
 10
6575.26498347912
 20
5295.075326149082
 30
0.0
 10
6574.062757973888
 20
5295.048794575545
 30
0.0
 10
6572.437038226511
 20
5295.012730905582
 30
0.0
 10
6570.64475155349
 20
5294.965271438948
 30
0.0
 10
6568.945293885185
 20
5294.907467377404
 30
0.0
 10
6567.81519574893
 20
5294.851102341257
 30
0.0
 10
6567.259349922262
 20
5294.810727639141
 30
0.0
 10
6567.2907490572
 20
5294.785647838321
 30
0.0
 10
6567.29870665151
 20
5294.779291775305
 30
0.0
  0
SPLINE
  5
194
330
1F
100
AcDbEntity
  8
0
  6
Continuous
 62
     7
370
    25
100
AcDbSpline
210
0.0
220
0.0
230
1.0
 70
     8
 71
     3
 72
    24
 73
    20
 74
     0
 42
0.000000001
 43
0.00000001
 40
0.0
 40
0.0
 40
0.0
 40
0.0
 40
0.0209946388587757
 40
0.0928834971289118
 40
0.1636022192908373
 40
0.233870427857214
 40
0.3056493544138872
 40
0.3772311488259766
 40
0.4472277424605661
 40
0.5183537915141085
 40
0.5902647056223609
 40
0.6169031465378811
 40
0.654873557624554
 40
0.69227248497189
 40
0.7632049970689975
 40
0.8351158970976766
 40
0.9062419949475001
 40
0.9762385717215074
 40
1.0
 40
1.0
 40
1.0
 40
1.0
 10
6591.882542737604
 20
5293.976901497919
 30
0.0
 10
6591.901243641777
 20
5293.971384666874
 30
0.0
 10
6591.983979305423
 20
5293.946977361559
 30
0.0
 10
6591.514655184759
 20
5293.902283956511
 30
0.0
 10
6590.490242520651
 20
5293.84745171352
 30
0.0
 10
6588.89763822071
 20
5293.793900465178
 30
0.0
 10
6586.856355951208
 20
5293.736100172696
 30
0.0
 10
6584.457852343103
 20
5293.678725698262
 30
0.0
 10
6581.833181966051
 20
5293.626067325124
 30
0.0
 10
6579.095690518155
 20
5293.569882046032
 30
0.0
 10
6576.931441424239
 20
5293.523932557154
 30
0.0
 10
6575.264983368676
 20
5293.487834032713
 30
0.0
 10
6574.062757907091
 20
5293.46130087832
 30
0.0
 10
6572.437038347145
 20
5293.42522344736
 30
0.0
 10
6570.644751525918
 20
5293.377770018772
 30
0.0
 10
6568.945293890498
 20
5293.319965803862
 30
0.0
 10
6567.815195775419
 20
5293.263594226913
 30
0.0
 10
6567.259349912214
 20
5293.223239720813
 30
0.0
 10
6567.290749054102
 20
5293.198148161116
 30
0.0
 10
6567.29870665151
 20
5293.191789116938
 30
0.0
  0
SPLINE
  5
195
330
1F
100
AcDbEntity
  8
0
  6
Continuous
 62
     7
370
    25
100
AcDbSpline
210
0.0
220
0.0
230
1.0
 70
     8
 71
     3
 72
    24
 73
    20
 74
     0
 42
0.000000001
 43
0.00000001
 40
0.0
 40
0.0
 40
0.0
 40
0.0
 40
0.0209946349355282
 40
0.0928834975524797
 40
0.1636022199860593
 40
0.2338704288223595
 40
0.3056493515962594
 40
0.3772311503192544
 40
0.4472277403671098
 40
0.5183537936782042
 40
0.5902647080626903
 40
0.6169031490805376
 40
0.6548735603130675
 40
0.6922724878040651
 40
0.7632049962114288
 40
0.8351158965163414
 40
0.9062419986237144
 40
0.9762385756666017
 40
1.0
 40
1.0
 40
1.0
 40
1.0
 10
6591.882542737604
 20
5292.389398839552
 30
0.0
 10
6591.901243639351
 20
5292.383884924578
 30
0.0
 10
6591.983979308103
 20
5292.359490515737
 30
0.0
 10
6591.514655211976
 20
5292.31477508895
 30
0.0
 10
6590.490242503178
 20
5292.25995159597
 30
0.0
 10
6588.897638313654
 20
5292.206393744094
 30
0.0
 10
6586.856355756349
 20
5292.148611506897
 30
0.0
 10
6584.457852562778
 20
5292.091216116255
 30
0.0
 10
6581.833181744298
 20
5292.038578505607
 30
0.0
 10
6579.095690646399
 20
5291.982375487441
 30
0.0
 10
6576.931441416978
 20
5291.936430271529
 30
0.0
 10
6575.264983370954
 20
5291.900331249211
 30
0.0
 10
6574.062757902688
 20
5291.873798501183
 30
0.0
 10
6572.437038411144
 20
5291.837719485727
 30
0.0
 10
6570.644751450829
 20
5291.790277239349
 30
0.0
 10
6568.945293850224
 20
5291.732471908597
 30
0.0
 10
6567.815195814589
 20
5291.676091503277
 30
0.0
 10
6567.259349917284
 20
5291.635730685064
 30
0.0
 10
6567.290749055933
 20
5291.61065015679
 30
0.0
 10
6567.29870665151
 20
5291.604293909151
 30
0.0
  0
SPLINE
  5
196
330
1F
100
AcDbEntity
  8
0
  6
Continuous
 62
     7
370
    25
100
AcDbSpline
210
0.0
220
0.0
230
1.0
 70
     8
 71
     3
 72
    24
 73
    20
 74
     0
 42
0.000000001
 43
0.00000001
 40
0.0
 40
0.0
 40
0.0
 40
0.0
 40
0.0209946388596004
 40
0.0928835012032267
 40
0.1636022194300194
 40
0.2338704318860529
 40
0.3056493543870457
 40
0.377231152837883
 40
0.4472277426196078
 40
0.5183537916759442
 40
0.5902647057870212
 40
0.6169031467035877
 40
0.6548735577917522
 40
0.6922724851405573
 40
0.763204997240451
 40
0.8351158972719548
 40
0.9062419951245722
 40
0.9762385757569438
 40
1.0
 40
1.0
 40
1.0
 40
1.0
 10
6591.882542737604
 20
5290.801903631766
 30
0.0
 10
6591.901243640637
 20
5290.796386960379
 30
0.0
 10
6591.98397930287
 20
5290.771980360349
 30
0.0
 10
6591.514655263786
 20
5290.727271686383
 30
0.0
 10
6590.490242400739
 20
5290.672461074135
 30
0.0
 10
6588.897638384589
 20
5290.618887814186
 30
0.0
 10
6586.85635575107
 20
5290.5611095454
 30
0.0
 10
6584.457852550036
 20
5290.503713960335
 30
0.0
 10
6581.833181848493
 20
5290.451073212368
 30
0.0
 10
6579.095690537279
 20
5290.394883123771
 30
0.0
 10
6576.931441422556
 20
5290.348934785032
 30
0.0
 10
6575.264983369072
 20
5290.312836142933
 30
0.0
 10
6574.062757906958
 20
5290.286303029355
 30
0.0
 10
6572.437038347286
 20
5290.250225523723
 30
0.0
 10
6570.644751525299
 20
5290.202772566673
 30
0.0
 10
6568.94529389271
 20
5290.144966411845
 30
0.0
 10
6567.815195746901
 20
5290.088601935675
 30
0.0
 10
6567.259349922405
 20
5290.048227106247
 30
0.0
 10
6567.290749057229
 20
5290.023147312108
 30
0.0
 10
6567.29870665151
 20
5290.016791250784
 30
0.0
  0
LINE
  5
197
330
1F
100
AcDbEntity
  8
0
  6
Continuous
 62
     7
370
    25
100
AcDbLine
 10
6589.7190431439
 20
5289.8941174413
 30
0.0
 11
6589.7190431439
 21
5279.3941185141
 31
0.0
  0
LINE
  5
198
330
1F
100
AcDbEntity
  8
0
  6
Continuous
 62
     7
370
    25
100
AcDbLine
 10
6576.2569150262
 20
5289.8941174413
 30
0.0
 11
6589.7190431439
 21
5289.8941174413
 31
0.0
  0
LINE
  5
199
330
1F
100
AcDbEntity
  8
0
  6
Continuous
 62
     7
370
    25
100
AcDbLine
 10
6593.8577922367
 20
5289.8941174413
 30
0.0
 11
6593.8577922367
 21
5279.3941185141
 31
0.0
  0
LINE
  5
19A
330
1F
100
AcDbEntity
  8
0
  6
Continuous
 62
     7
370
    25
100
AcDbLine
 10
6592.78445042
 20
5289.8941174413
 30
0.0
 11
6593.8577922367
 21
5289.8941174413
 31
0.0
  0
LINE
  5
19B
330
1F
100
AcDbEntity
  8
0
  6
Continuous
 62
     7
370
    25
100
AcDbLine
 10
6589.7190431439
 20
5289.8941174413
 30
0.0
 11
6590.9950780057
 21
5289.8941174413
 31
0.0
  0
LINE
  5
19C
330
1F
100
AcDbEntity
  8
0
  6
Continuous
 62
     7
370
    25
100
AcDbLine
 10
6593.0596748673
 20
5137.8941148783
 30
0.0
 11
6579.5351872526
 21
5137.8941148783
 31
0.0
  0
LINE
  5
19D
330
1F
100
AcDbEntity
  8
0
  6
Continuous
 62
     7
370
    25
100
AcDbLine
 10
6579.5351872526
 20
5137.8941148783
 30
0.0
 11
6579.5351872526
 21
5148.3941175307
 31
0.0
  0
LINE
  5
19E
330
1F
100
AcDbEntity
  8
0
  6
Continuous
 62
     7
370
    25
100
AcDbLine
 10
6593.0596748673
 20
5137.8941148783
 30
0.0
 11
6593.0596748673
 21
5148.3941175307
 31
0.0
  0
LINE
  5
19F
330
1F
100
AcDbEntity
  8
0
  6
Continuous
 62
     7
370
    25
100
AcDbLine
 10
6566.059807346
 20
5137.8941148783
 30
0.0
 11
6566.059807346
 21
5148.3941175307
 31
0.0
  0
LINE
  5
1A0
330
1F
100
AcDbEntity
  8
0
  6
Continuous
 62
     7
370
    25
100
AcDbLine
 10
6579.5351872526
 20
5137.8941148783
 30
0.0
 11
6566.059807346
 21
5137.8941148783
 31
0.0
  0
SPLINE
  5
1A1
330
1F
100
AcDbEntity
  8
0
  6
Continuous
 62
     7
370
    25
100
AcDbSpline
210
0.0
220
0.0
230
1.0
 70
     8
 71
     3
 72
    27
 73
    23
 74
     0
 42
0.000000001
 43
0.00000001
 40
0.0
 40
0.0
 40
0.0
 40
0.0
 40
0.0169335691393477
 40
0.0705714132824417
 40
0.125794939864251
 40
0.1789457610394568
 40
0.2336379747356766
 40
0.2867895423520366
 40
0.3415045751686778
 40
0.3942825628655593
 40
0.4485996532765136
 40
0.501239433419274
 40
0.5554138361829893
 40
0.6078457235847498
 40
0.6618168273123091
 40
0.7139455701600003
 40
0.767586502554202
 40
0.8196694163445626
 40
0.8732915251089073
 40
0.9249092368366981
 40
0.9780238726003886
 40
0.9999999999999999
 40
0.9999999999999999
 40
0.9999999999999999
 40
0.9999999999999999
 10
6592.689462967993
 20
5130.324276563008
 30
0.0
 10
6592.704948296707
 20
5130.32154730408
 30
0.0
 10
6592.769484102682
 20
5130.310172994378
 30
0.0
 10
6592.509636866795
 20
5130.289769995525
 30
0.0
 10
6591.902451429656
 20
5130.26204835209
 30
0.0
 10
6590.912971513588
 20
5130.23406989363
 30
0.0
 10
6589.624085413015
 20
5130.206851630404
 30
0.0
 10
6588.037076520815
 20
5130.181157782456
 30
0.0
 10
6586.229546013522
 20
5130.154002941437
 30
0.0
 10
6584.222577501919
 20
5130.126009813471
 30
0.0
 10
6582.113055778223
 20
5130.098337965529
 30
0.0
 10
6579.918272749356
 20
5130.07151072524
 30
0.0
 10
6577.74285899026
 20
5130.045791488303
 30
0.0
 10
6575.608139336511
 20
5130.01794102266
 30
0.0
 10
6573.617340975248
 20
5129.990208972906
 30
0.0
 10
6571.788095956256
 20
5129.962397615788
 30
0.0
 10
6570.203226971003
 20
5129.936711003793
 30
0.0
 10
6568.879442850201
 20
5129.909808464481
 30
0.0
 10
6567.875231882762
 20
5129.882086800852
 30
0.0
 10
6567.224686947997
 20
5129.854101719568
 30
0.0
 10
6566.92388476818
 20
5129.83216542973
 30
0.0
 10
6566.97113454284
 20
5129.819710175374
 30
0.0
 10
6566.984962702573
 20
5129.816065009911
 30
0.0
  0
LINE
  5
1A2
330
1F
100
AcDbEntity
  8
0
  6
Continuous
 62
     7
370
    25
100
AcDbLine
 10
6591.3047353112
 20
5128.8941152657
 30
0.0
 11
6567.8637940742
 21
5128.8941152657
 31
0.0
  0
SPLINE
  5
1A3
330
1F
100
AcDbEntity
  8
0
  6
Continuous
 62
     7
370
    25
100
AcDbSpline
210
0.0
220
0.0
230
1.0
 70
     8
 71
     3
 72
    22
 73
    18
 74
     0
 42
0.000000001
 43
0.00000001
 40
0.0
 40
0.0
 40
0.0
 40
0.0
 40
0.0374813207062204
 40
0.1081749243591027
 40
0.1792581389623574
 40
0.2489960345307202
 40
0.3187339857855002
 40
0.3898171781945104
 40
0.4605107631279112
 40
0.5297116976367826
 40
0.6002549003916283
 40
0.671381650617532
 40
0.7413508112413705
 40
0.8108742725369097
 40
0.8818922638579765
 40
0.9527152563647155
 40
1.0
 40
1.0
 40
1.0
 40
1.0
 10
6566.441277072609
 20
5130.673060592491
 30
0.0
 10
6566.428972317241
 20
5130.682586110302
 30
0.0
 10
6566.393459534974
 20
5130.710077728772
 30
0.0
 10
6567.037829008019
 20
5130.758567478211
 30
0.0
 10
6568.298784338167
 20
5130.816458023177
 30
0.0
 10
6570.13264625459
 20
5130.870681203698
 30
0.0
 10
6572.412998583053
 20
5130.924895941915
 30
0.0
 10
6575.056891670958
 20
5130.982789158889
 30
0.0
 10
6577.915055065441
 20
5131.039857160084
 30
0.0
 10
6580.84523913413
 20
5131.09233348207
 30
0.0
 10
6583.721651108995
 20
5131.14900148568
 30
0.0
 10
6586.406230128966
 20
5131.206946235799
 30
0.0
 10
6588.743126495643
 20
5131.261900197347
 30
0.0
 10
6590.644307313116
 20
5131.315426023692
 30
0.0
 10
6591.991559695444
 20
5131.373229325503
 30
0.0
 10
6592.732207463416
 20
5131.424605526416
 30
0.0
 10
6592.735713307547
 20
5131.454620328044
 30
0.0
 10
6592.737116881491
 20
5131.466636833031
 30
0.0
  0
SPLINE
  5
1A4
330
1F
100
AcDbEntity
  8
0
  6
Continuous
 62
     7
370
    25
100
AcDbSpline
210
0.0
220
0.0
230
1.0
 70
     8
 71
     3
 72
    22
 73
    18
 74
     0
 42
0.000000001
 43
0.00000001
 40
0.0
 40
0.0
 40
0.0
 40
0.0
 40
0.0374813206997824
 40
0.1081749243405219
 40
0.1792581406901162
 40
0.2489960345547569
 40
0.3187339874893004
 40
0.389817179886101
 40
0.4605107648073591
 40
0.5297116976394948
 40
0.6002549003822235
 40
0.6713816505959102
 40
0.7413508112077303
 40
0.8108742724913277
 40
0.881892263800196
 40
0.9527152580403995
 40
1.0
 40
1.0
 40
1.0
 40
1.0
 10
6566.441277072609
 20
5132.260559525568
 30
0.0
 10
6566.42897231664
 20
5132.27008510036
 30
0.0
 10
6566.393459532644
 20
5132.297576883284
 30
0.0
 10
6567.037829033979
 20
5132.34606454617
 30
0.0
 10
6568.298784279104
 20
5132.403963795809
 30
0.0
 10
6570.132646326534
 20
5132.458177036594
 30
0.0
 10
6572.41299853586
 20
5132.512400560575
 30
0.0
 10
6575.056891684507
 20
5132.570290938835
 30
0.0
 10
6577.915055015295
 20
5132.62736133866
 30
0.0
 10
6580.845239183071
 20
5132.679830995544
 30
0.0
 10
6583.721651101864
 20
5132.736500797022
 30
0.0
 10
6586.406230130756
 20
5132.794445102909
 30
0.0
 10
6588.743126495508
 20
5132.84939902414
 30
0.0
 10
6590.64430731189
 20
5132.902925448199
 30
0.0
 10
6591.991559711734
 20
5132.960726356503
 30
0.0
 10
6592.732207452512
 20
5133.012110546425
 30
0.0
 10
6592.735713304466
 20
5133.042121001648
 30
0.0
 10
6592.737116881491
 20
5133.054135766108
 30
0.0
  0
SPLINE
  5
1A5
330
1F
100
AcDbEntity
  8
0
  6
Continuous
 62
     7
370
    25
100
AcDbSpline
210
0.0
220
0.0
230
1.0
 70
     8
 71
     3
 72
    22
 73
    18
 74
     0
 42
0.000000001
 43
0.00000001
 40
0.0
 40
0.0
 40
0.0
 40
0.0
 40
0.0374813207655866
 40
0.1081749245304396
 40
0.1792581392462821
 40
0.2489960332333582
 40
0.3187339862903374
 40
0.3898171788119354
 40
0.4605107638573069
 40
0.5297116968109354
 40
0.6002549014092348
 40
0.6713816499871436
 40
0.7413508124250363
 40
0.8108742721496424
 40
0.8818922653384691
 40
0.9527152579573838
 40
1.0
 40
1.0
 40
1.0
 40
1.0
 10
6566.441277072609
 20
5133.848062183935
 30
0.0
 10
6566.428972317043
 20
5133.857587716539
 30
0.0
 10
6566.393459534207
 20
5133.8850793777
 30
0.0
 10
6567.037829014484
 20
5133.933568585353
 30
0.0
 10
6568.298784304377
 20
5133.991461389554
 30
0.0
 10
6570.132646324047
 20
5134.045676316819
 30
0.0
 10
6572.412998535947
 20
5134.099899431452
 30
0.0
 10
6575.056891686744
 20
5134.157789763432
 30
0.0
 10
6577.91505500641
 20
5134.214860759779
 30
0.0
 10
6580.845239240011
 20
5134.267328112338
 30
0.0
 10
6583.721650999105
 20
5134.324006693157
 30
0.0
 10
6586.406230228778
 20
5134.381940443678
 30
0.0
 10
6588.74312641302
 20
5134.436905305925
 30
0.0
 10
6590.644307376993
 20
5134.490420788615
 30
0.0
 10
6591.991559667161
 20
5134.548232317946
 30
0.0
 10
6592.732207461194
 20
5134.599608386143
 30
0.0
 10
6592.735713306934
 20
5134.629619622013
 30
0.0
 10
6592.737116881491
 20
5134.641634699185
 30
0.0
  0
SPLINE
  5
1A6
330
1F
100
AcDbEntity
  8
0
  6
Continuous
 62
     7
370
    25
100
AcDbSpline
210
0.0
220
0.0
230
1.0
 70
     8
 71
     3
 72
    22
 73
    18
 74
     0
 42
0.000000001
 43
0.00000001
 40
0.0
 40
0.0
 40
0.0
 40
0.0
 40
0.0374813207062204
 40
0.1081749243591027
 40
0.1792581389623574
 40
0.2489960345307202
 40
0.3187339857855002
 40
0.3898171781945104
 40
0.4605107631279112
 40
0.5297116976367826
 40
0.6002549003916283
 40
0.671381650617532
 40
0.7413508112413705
 40
0.8108742725369097
 40
0.8818922638579765
 40
0.9527152563647155
 40
1.0
 40
1.0
 40
1.0
 40
1.0
 10
6566.441277072609
 20
5135.435561117012
 30
0.0
 10
6566.428972317241
 20
5135.445086634822
 30
0.0
 10
6566.393459534974
 20
5135.472578253293
 30
0.0
 10
6567.037829008019
 20
5135.521068002732
 30
0.0
 10
6568.298784338167
 20
5135.578958547698
 30
0.0
 10
6570.13264625459
 20
5135.633181728219
 30
0.0
 10
6572.412998583053
 20
5135.687396466436
 30
0.0
 10
6575.056891670958
 20
5135.74528968341
 30
0.0
 10
6577.915055065441
 20
5135.802357684604
 30
0.0
 10
6580.84523913413
 20
5135.854834006591
 30
0.0
 10
6583.721651108995
 20
5135.911502010201
 30
0.0
 10
6586.406230128966
 20
5135.969446760319
 30
0.0
 10
6588.743126495643
 20
5136.024400721868
 30
0.0
 10
6590.644307313116
 20
5136.077926548212
 30
0.0
 10
6591.991559695444
 20
5136.135729850023
 30
0.0
 10
6592.732207463416
 20
5136.187106050937
 30
0.0
 10
6592.735713307547
 20
5136.217120852565
 30
0.0
 10
6592.737116881491
 20
5136.229137357552
 30
0.0
  0
SPLINE
  5
1A7
330
1F
100
AcDbEntity
  8
0
  6
Continuous
 62
     7
370
    25
100
AcDbSpline
210
0.0
220
0.0
230
1.0
 70
     8
 71
     3
 72
    22
 73
    18
 74
     0
 42
0.000000001
 43
0.00000001
 40
0.0
 40
0.0
 40
0.0
 40
0.0
 40
0.0374813207022864
 40
0.1081749243477487
 40
0.1792581389435424
 40
0.2489960345045855
 40
0.318733987443788
 40
0.3898171798453373
 40
0.4605107647713181
 40
0.5297116976080768
 40
0.6002549003555183
 40
0.6713816505739565
 40
0.741350811190451
 40
0.810874272478693
 40
0.8818922637923058
 40
0.9527152580372406
 40
1.0
 40
1.0
 40
1.0
 40
1.0
 10
6566.441277072609
 20
5137.023060050089
 30
0.0
 10
6566.428972317191
 20
5137.032585571063
 30
0.0
 10
6566.393459534785
 20
5137.060077198664
 30
0.0
 10
6567.037829009625
 20
5137.10856683224
 30
0.0
 10
6568.298784332277
 20
5137.166457860443
 30
0.0
 10
6570.132646290815
 20
5137.220679276429
 30
0.0
 10
6572.412998540623
 20
5137.274900615372
 30
0.0
 10
6575.056891683228
 20
5137.332791589544
 30
0.0
 10
6577.915055015629
 20
5137.389861830262
 30
0.0
 10
6580.845239182981
 20
5137.442331528992
 30
0.0
 10
6583.721651101889
 20
5137.499001319108
 30
0.0
 10
6586.406230130749
 20
5137.556945628073
 30
0.0
 10
6588.74312649551
 20
5137.611899548491
 30
0.0
 10
6590.64430731189
 20
5137.665425972767
 30
0.0
 10
6591.991559711734
 20
5137.723226881011
 30
0.0
 10
6592.732207452512
 20
5137.774611070949
 30
0.0
 10
6592.735713304466
 20
5137.804621526169
 30
0.0
 10
6592.737116881491
 20
5137.816636290629
 30
0.0
  0
SPLINE
  5
1A8
330
1F
100
AcDbEntity
  8
0
  6
Continuous
 62
     7
370
    25
100
AcDbSpline
210
0.0
220
0.0
230
1.0
 70
     8
 71
     3
 72
    22
 73
    18
 74
     0
 42
0.000000001
 43
0.00000001
 40
0.0
 40
0.0
 40
0.0
 40
0.0
 40
0.0672991376489843
 40
0.1391460717562737
 40
0.2104035707438693
 40
0.2803051702966049
 40
0.3517145379060907
 40
0.4235175065354211
 40
0.4939615435181398
 40
0.5644055791420184
 40
0.6362085235014389
 40
0.7076179410485411
 40
0.7775194831277903
 40
0.8487770046681019
 40
0.9206239458712218
 40
0.9913015497630181
 40
1.0
 40
1.0
 40
1.0
 40
1.0
 10
6566.384732753814
 20
5131.077515360195
 30
0.0
 10
6566.463715882946
 20
5131.094809512995
 30
0.0
 10
6566.627019493329
 20
5131.130566485677
 30
0.0
 10
6567.669375489909
 20
5131.187690829318
 30
0.0
 10
6569.25571722516
 20
5131.244334705283
 30
0.0
 10
6571.34940933194
 20
5131.296811209455
 30
0.0
 10
6573.844041925238
 20
5131.353879752295
 30
0.0
 10
6576.628387807843
 20
5131.411770673496
 30
0.0
 10
6579.542286295658
 20
5131.465993731301
 30
0.0
 10
6582.458363365417
 20
5131.520208486886
 30
0.0
 10
6585.248253969939
 20
5131.578101927607
 30
0.0
 10
6587.754382498842
 20
5131.635168977389
 30
0.0
 10
6589.854504490094
 20
5131.687648636472
 30
0.0
 10
6591.480884700127
 20
5131.744304367831
 30
0.0
 10
6592.465205543627
 20
5131.802294895911
 30
0.0
 10
6592.882399301463
 20
5131.841236480932
 30
0.0
 10
6592.781701812411
 20
5131.861549159249
 30
0.0
 10
6592.770666845919
 20
5131.863775130589
 30
0.0
  0
SPLINE
  5
1A9
330
1F
100
AcDbEntity
  8
0
  6
Continuous
 62
     7
370
    25
100
AcDbSpline
210
0.0
220
0.0
230
1.0
 70
     8
 71
     3
 72
    22
 73
    18
 74
     0
 42
0.000000001
 43
0.00000001
 40
0.0
 40
0.0
 40
0.0
 40
0.0
 40
0.0672991376426147
 40
0.1391460717431041
 40
0.2104035707239553
 40
0.280305170270075
 40
0.3517145378728021
 40
0.4235175082716913
 40
0.4939615435388703
 40
0.5644055808649538
 40
0.6362085252175785
 40
0.7076179427579221
 40
0.7775194831488472
 40
0.8487770046824147
 40
0.9206239458787344
 40
0.9913015497638413
 40
1.0
 40
1.0
 40
1.0
 40
1.0
 10
6566.384732753814
 20
5132.665014293272
 30
0.0
 10
6566.463715882997
 20
5132.682308443398
 30
0.0
 10
6566.627019493484
 20
5132.718065410551
 30
0.0
 10
6567.66937548924
 20
5132.775189797689
 30
0.0
 10
6569.255717227619
 20
5132.831833508553
 30
0.0
 10
6571.349409322869
 20
5132.884310621256
 30
0.0
 10
6573.844041980801
 20
5132.941376850742
 30
0.0
 10
6576.628387703607
 20
5132.999276438118
 30
0.0
 10
6579.54228639999
 20
5133.05348956631
 30
0.0
 10
6582.458363306817
 20
5133.107713105023
 30
0.0
 10
6585.2482539841
 20
5133.165603707489
 30
0.0
 10
6587.754382459165
 20
5133.222673156728
 30
0.0
 10
6589.85450452323
 20
5133.275146147015
 30
0.0
 10
6591.480884694572
 20
5133.331803690424
 30
0.0
 10
6592.465205545168
 20
5133.38979372096
 30
0.0
 10
6592.882399301428
 20
5133.428735416449
 30
0.0
 10
6592.781701812407
 20
5133.449048092567
 30
0.0
 10
6592.770666845919
 20
5133.451274063666
 30
0.0
  0
SPLINE
  5
1AA
330
1F
100
AcDbEntity
  8
0
  6
Continuous
 62
     7
370
    25
100
AcDbSpline
210
0.0
220
0.0
230
1.0
 70
     8
 71
     3
 72
    22
 73
    18
 74
     0
 42
0.000000001
 43
0.00000001
 40
0.0
 40
0.0
 40
0.0
 40
0.0
 40
0.067299135925983
 40
0.1391460700305149
 40
0.2104035707646302
 40
0.2803051703146829
 40
0.3517145379214279
 40
0.4235175065480025
 40
0.493961541819145
 40
0.5644055791491922
 40
0.6362085235058569
 40
0.7076179410502184
 40
0.7775194814450765
 40
0.8487770047319074
 40
0.9206239441537912
 40
0.9913015497633519
 40
1.0
 40
1.0
 40
1.0
 40
1.0
 10
6566.384732753814
 20
5134.252516951639
 30
0.0
 10
6566.463715884112
 20
5134.269809643536
 30
0.0
 10
6566.627019499062
 20
5134.305563596161
 30
0.0
 10
6567.669375513957
 20
5134.362687623552
 30
0.0
 10
6569.255717195993
 20
5134.419337517644
 30
0.0
 10
6571.34940933302
 20
5134.471812583642
 30
0.0
 10
6573.844041933276
 20
5134.528880960317
 30
0.0
 10
6576.628387752433
 20
5134.586774013343
 30
0.0
 10
6579.542286393556
 20
5134.640988851497
 30
0.0
 10
6582.458363308304
 20
5134.695211974378
 30
0.0
 10
6585.248253984741
 20
5134.753102533115
 30
0.0
 10
6587.754382455179
 20
5134.810172575299
 30
0.0
 10
6589.854504555583
 20
5134.862643272849
 30
0.0
 10
6591.480884647883
 20
5134.919309552048
 30
0.0
 10
6592.465205576808
 20
5134.977289190716
 30
0.0
 10
6592.882399302652
 20
5135.016238236684
 30
0.0
 10
6592.781701812311
 20
5135.036550766964
 30
0.0
 10
6592.770666845919
 20
5135.038776722033
 30
0.0
  0
SPLINE
  5
1AB
330
1F
100
AcDbEntity
  8
0
  6
Continuous
 62
     7
370
    25
100
AcDbSpline
210
0.0
220
0.0
230
1.0
 70
     8
 71
     3
 72
    22
 73
    18
 74
     0
 42
0.000000001
 43
0.00000001
 40
0.0
 40
0.0
 40
0.0
 40
0.0
 40
0.067299137650951
 40
0.1391460699818617
 40
0.2104035707207943
 40
0.2803051702755727
 40
0.3517145378871454
 40
0.4235175065185742
 40
0.4939615435033515
 40
0.5644055791292887
 40
0.6362085234908076
 40
0.7076179410399966
 40
0.7775194831212886
 40
0.8487770046636828
 40
0.9206239458689022
 40
0.991301549762764
 40
1.0
 40
1.0
 40
1.0
 40
1.0
 10
6566.384732753814
 20
5135.840015884716
 30
0.0
 10
6566.463715878585
 20
5135.857310525163
 30
0.0
 10
6566.627019477864
 20
5135.893068505633
 30
0.0
 10
6567.669375535064
 20
5135.950184917284
 30
0.0
 10
6569.255717193351
 20
5136.006836910301
 30
0.0
 10
6571.349409335907
 20
5136.059311276549
 30
0.0
 10
6573.844041924159
 20
5136.116380401324
 30
0.0
 10
6576.628387808127
 20
5136.174271165281
 30
0.0
 10
6579.542286295582
 20
5136.228494264516
 30
0.0
 10
6582.458363365437
 20
5136.282709009027
 30
0.0
 10
6585.248253969934
 20
5136.340602452768
 30
0.0
 10
6587.754382498843
 20
5136.397669501744
 30
0.0
 10
6589.854504490093
 20
5136.450149161038
 30
0.0
 10
6591.480884700127
 20
5136.50680489234
 30
0.0
 10
6592.465205543627
 20
5136.564795420435
 30
0.0
 10
6592.882399301463
 20
5136.603737005453
 30
0.0
 10
6592.781701812411
 20
5136.62404968377
 30
0.0
 10
6592.770666845919
 20
5136.62627565511
 30
0.0
  0
SPLINE
  5
1AC
330
1F
100
AcDbEntity
  8
0
  6
Continuous
 62
     7
370
    25
100
AcDbSpline
210
0.0
220
0.0
230
1.0
 70
     8
 71
     3
 72
    16
 73
    12
 74
     0
 42
0.000000001
 43
0.00000001
 40
0.0
 40
0.0
 40
0.0
 40
0.0
 40
0.1132813911442757
 40
0.2342178686304431
 40
0.3541621784205474
 40
0.4718241681156484
 40
0.5920241110291461
 40
0.7128865835476496
 40
0.8314616319954155
 40
0.9500366781559114
 40
1.0
 40
1.0
 40
1.0
 40
1.0
 10
6566.384732753814
 20
5137.427514817793
 30
0.0
 10
6566.463715682358
 20
5137.444808972897
 30
0.0
 10
6566.627018878009
 20
5137.480565950344
 30
0.0
 10
6567.669378137309
 20
5137.537690256503
 30
0.0
 10
6569.255707488454
 20
5137.59433427473
 30
0.0
 10
6571.349445240929
 20
5137.646810254547
 30
0.0
 10
6573.843904274576
 20
5137.703880791158
 30
0.0
 10
6576.628900202214
 20
5137.761764244953
 30
0.0
 10
6579.540414684911
 20
5137.816014689064
 30
0.0
 10
6581.886157440264
 20
5137.85941085388
 30
0.0
 10
6583.203020014107
 20
5137.886179340822
 30
0.0
 10
6583.593404882432
 20
5137.894114878256
 30
0.0
  0
SPLINE
  5
1AD
330
1F
100
AcDbEntity
  8
0
  6
Continuous
 62
     7
370
    25
100
AcDbSpline
210
0.0
220
0.0
230
1.0
 70
     8
 71
     3
 72
    22
 73
    18
 74
     0
 42
0.000000001
 43
0.00000001
 40
0.0
 40
0.0
 40
0.0
 40
0.0
 40
0.0271116724743047
 40
0.0985781190802299
 40
0.1704384727602614
 40
0.2409386893715505
 40
0.3114388787839329
 40
0.3832992526773338
 40
0.4547657222741485
 40
0.5247229756946736
 40
0.5960373836365286
 40
0.6679417624373802
 40
0.7386757652882467
 40
0.8089591797075009
 40
0.8807535935265209
 40
0.9523508576738584
 40
1.0
 40
1.0
 40
1.0
 40
1.0
 10
6567.299232848764
 20
5129.986720558483
 30
0.0
 10
6567.293248929367
 20
5129.993545520828
 30
0.0
 10
6567.271491381231
 20
5130.018361103537
 30
0.0
 10
6567.858816743714
 20
5130.064060680739
 30
0.0
 10
6569.030823746174
 20
5130.121919774472
 30
0.0
 10
6570.747338081238
 20
5130.176149586216
 30
0.0
 10
6572.878989550135
 20
5130.230368846002
 30
0.0
 10
6575.351175567308
 20
5130.288260298126
 30
0.0
 10
6578.023535144136
 20
5130.34533026687
 30
0.0
 10
6580.763290726118
 20
5130.397800244224
 30
0.0
 10
6583.452745779181
 20
5130.454469923302
 30
0.0
 10
6585.962841096083
 20
5130.512414167672
 30
0.0
 10
6588.14784802386
 20
5130.567368120302
 30
0.0
 10
6589.925485230066
 20
5130.620894684616
 30
0.0
 10
6591.185099278137
 20
5130.678695257364
 30
0.0
 10
6591.877296239297
 20
5130.730039312874
 30
0.0
 10
6591.880674870146
 20
5130.760012534896
 30
0.0
 10
6591.882024922253
 20
5130.771989401657
 30
0.0
  0
SPLINE
  5
1AE
330
1F
100
AcDbEntity
  8
0
  6
Continuous
 62
     7
370
    25
100
AcDbSpline
210
0.0
220
0.0
230
1.0
 70
     8
 71
     3
 72
    22
 73
    18
 74
     0
 42
0.000000001
 43
0.00000001
 40
0.0
 40
0.0
 40
0.0
 40
0.0
 40
0.027111674400058
 40
0.098578121007971
 40
0.1704384746900014
 40
0.2409386893470872
 40
0.3114388787614306
 40
0.3832992526568303
 40
0.454765722255633
 40
0.5247229756781041
 40
0.5960373856243308
 40
0.6679417623913435
 40
0.7386757672136249
 40
0.8089591796910335
 40
0.8807535955416738
 40
0.9523508576725329
 40
0.9999999999999999
 40
0.9999999999999999
 40
0.9999999999999999
 40
0.9999999999999999
 10
6567.299232848764
 20
5131.57421949156
 30
0.0
 10
6567.293248928145
 20
5131.581045891353
 30
0.0
 10
6567.271491376685
 20
5131.605866699352
 30
0.0
 10
6567.858816748054
 20
5131.651561891425
 30
0.0
 10
6569.030823716607
 20
5131.709424108482
 30
0.0
 10
6570.747338116714
 20
5131.763647076752
 30
0.0
 10
6572.878989545152
 20
5131.81786820698
 30
0.0
 10
6575.351175571065
 20
5131.875758991068
 30
0.0
 10
6578.023535134277
 20
5131.932829722308
 30
0.0
 10
6580.763290787108
 20
5131.985297351868
 30
0.0
 10
6583.452745669259
 20
5132.041975821673
 30
0.0
 10
6585.962841200919
 20
5132.099909508077
 30
0.0
 10
6588.14784793564
 20
5132.154874402002
 30
0.0
 10
6589.925485299694
 20
5132.208390025098
 30
0.0
 10
6591.18509923046
 20
5132.266201219294
 30
0.0
 10
6591.877296248551
 20
5132.317537156679
 30
0.0
 10
6591.880674872773
 20
5132.347511156838
 30
0.0
 10
6591.882024922253
 20
5132.359488334734
 30
0.0
  0
SPLINE
  5
1AF
330
1F
100
AcDbEntity
  8
0
  6
Continuous
 62
     7
370
    25
100
AcDbSpline
210
0.0
220
0.0
230
1.0
 70
     8
 71
     3
 72
    22
 73
    18
 74
     0
 42
0.000000001
 43
0.00000001
 40
0.0
 40
0.0
 40
0.0
 40
0.0
 40
0.0271116744023848
 40
0.0985781210164313
 40
0.170438474704629
 40
0.2409386913239297
 40
0.3114388787881586
 40
0.3832992526897256
 40
0.4547657222946618
 40
0.5247229757231369
 40
0.5960373856754841
 40
0.6679417624486678
 40
0.7386757672770199
 40
0.808959181704261
 40
0.8807535955314397
 40
0.9523508576684435
 40
1.0
 40
1.0
 40
1.0
 40
1.0
 10
6567.299232848764
 20
5133.161718424637
 30
0.0
 10
6567.293248928266
 20
5133.168544815987
 30
0.0
 10
6567.271491377242
 20
5133.193365593287
 30
0.0
 10
6567.858816741114
 20
5133.239061311243
 30
0.0
 10
6569.030823752524
 20
5133.296921275204
 30
0.0
 10
6570.747338043127
 20
5133.35115245258
 30
0.0
 10
6572.878989592875
 20
5133.405365376275
 30
0.0
 10
6575.351175564294
 20
5133.463258400386
 30
0.0
 10
6578.023535136138
 20
5133.520328522808
 30
0.0
 10
6580.763290786258
 20
5133.572796351454
 30
0.0
 10
6583.452745670817
 20
5133.629474619304
 30
0.0
 10
6585.962841195545
 20
5133.687408915724
 30
0.0
 10
6588.147847975103
 20
5133.742371609927
 30
0.0
 10
6589.925485240347
 20
5133.795895412429
 30
0.0
 10
6591.185099257954
 20
5133.853698398242
 30
0.0
 10
6591.877296245429
 20
5133.905036361829
 30
0.0
 10
6591.880674871881
 20
5133.935010167592
 30
0.0
 10
6591.882024922253
 20
5133.946987267811
 30
0.0
  0
SPLINE
  5
1B0
330
1F
100
AcDbEntity
  8
0
  6
Continuous
 62
     7
370
    25
100
AcDbSpline
210
0.0
220
0.0
230
1.0
 70
     8
 71
     3
 72
    22
 73
    18
 74
     0
 42
0.000000001
 43
0.00000001
 40
0.0
 40
0.0
 40
0.0
 40
0.0
 40
0.027111672474657
 40
0.0985781190815108
 40
0.1704384727624761
 40
0.2409386893746812
 40
0.3114388768318145
 40
0.3832992527595572
 40
0.4547657223573006
 40
0.5247229757787348
 40
0.5960373837215163
 40
0.6679417625233023
 40
0.738675765375088
 40
0.8089591797952553
 40
0.8807535936152082
 40
0.9523508557450061
 40
1.0
 40
1.0
 40
1.0
 40
1.0
 10
6567.299232848764
 20
5134.749221083004
 30
0.0
 10
6567.293248929406
 20
5134.756046043102
 30
0.0
 10
6567.271491381409
 20
5134.780861617645
 30
0.0
 10
6567.858816741496
 20
5134.82656133475
 30
0.0
 10
6569.030823754227
 20
5134.884419828938
 30
0.0
 10
6570.747338036103
 20
5134.938651824114
 30
0.0
 10
6572.878989639899
 20
5134.992862918465
 30
0.0
 10
6575.35117551142
 20
5135.050762555071
 30
0.0
 10
6578.023535152068
 20
5135.10783033995
 30
0.0
 10
6580.763290723974
 20
5135.160300888814
 30
0.0
 10
6583.452745779739
 20
5135.216970424152
 30
0.0
 10
6585.962841096034
 20
5135.274914664476
 30
0.0
 10
6588.147848023512
 20
5135.329868776019
 30
0.0
 10
6589.925485231513
 20
5135.383394710225
 30
0.0
 10
6591.185099260675
 20
5135.441197688457
 30
0.0
 10
6591.877296250948
 20
5135.492533747785
 30
0.0
 10
6591.880674873433
 20
5135.522511320464
 30
0.0
 10
6591.882024922253
 20
5135.534489926178
 30
0.0
  0
SPLINE
  5
1B1
330
1F
100
AcDbEntity
  8
0
  6
Continuous
 62
     7
370
    25
100
AcDbSpline
210
0.0
220
0.0
230
1.0
 70
     8
 71
     3
 72
    22
 73
    18
 74
     0
 42
0.000000001
 43
0.00000001
 40
0.0
 40
0.0
 40
0.0
 40
0.0
 40
0.027111674400007
 40
0.0985781210077857
 40
0.1704384746896809
 40
0.2409386893466341
 40
0.3114388787608449
 40
0.3832992526561096
 40
0.4547657222547778
 40
0.5247229756771173
 40
0.5960373836208218
 40
0.6679417624235383
 40
0.7386757652762393
 40
0.8089591796973163
 40
0.8807535955478217
 40
0.9523508576785462
 40
1.0
 40
1.0
 40
1.0
 40
1.0
 10
6567.299232848764
 20
5136.336720016081
 30
0.0
 10
6567.293248928145
 20
5136.343546415861
 30
0.0
 10
6567.271491376686
 20
5136.368367223816
 30
0.0
 10
6567.85881674804
 20
5136.414062416654
 30
0.0
 10
6569.030823716657
 20
5136.471924630436
 30
0.0
 10
6570.747338116532
 20
5136.526147610635
 30
0.0
 10
6572.878989545835
 20
5136.580368696258
 30
0.0
 10
6575.351175568468
 20
5136.638259649639
 30
0.0
 10
6578.023535143817
 20
5136.695329754348
 30
0.0
 10
6580.763290726266
 20
5136.74779968564
 30
0.0
 10
6583.452745778905
 20
5136.804469416331
 30
0.0
 10
6585.962841097038
 20
5136.862413499886
 30
0.0
 10
6588.147848020393
 20
5136.917368034162
 30
0.0
 10
6589.92548525999
 20
5136.970892436253
 30
0.0
 10
6591.185099238138
 20
5137.028701230721
 30
0.0
 10
6591.877296247342
 20
5137.080037760756
 30
0.0
 10
6591.880674872427
 20
5137.110011704072
 30
0.0
 10
6591.882024922253
 20
5137.121988859255
 30
0.0
  0
SPLINE
  5
1B2
330
1F
100
AcDbEntity
  8
0
  6
Continuous
 62
     7
370
    25
100
AcDbSpline
210
0.0
220
0.0
230
1.0
 70
     8
 71
     3
 72
    22
 73
    18
 74
     0
 42
0.000000001
 43
0.00000001
 40
0.0
 40
0.0
 40
0.0
 40
0.0
 40
0.0379059420385996
 40
0.1093593687230378
 40
0.1812066307186864
 40
0.2516940034384896
 40
0.3221813470085325
 40
0.394028629213868
 40
0.4654820788850073
 40
0.5354265892570479
 40
0.6067280049761692
 40
0.6786192840720403
 40
0.7493404004397065
 40
0.8196110104649963
 40
0.8913923446127089
 40
0.962976562987817
 40
1.0
 40
1.0
 40
1.0
 40
1.0
 10
6567.295492657305
 20
5130.176948782284
 30
0.0
 10
6567.283975777184
 20
5130.186480574518
 30
0.0
 10
6567.250749357473
 20
5130.21397997766
 30
0.0
 10
6567.853271529174
 20
5130.262473893365
 30
0.0
 10
6569.032281622702
 20
5130.320364903177
 30
0.0
 10
6570.74695083552
 20
5130.37458794319
 30
0.0
 10
6572.879095494428
 20
5130.428802883799
 30
0.0
 10
6575.351147515919
 20
5130.486695959057
 30
0.0
 10
6578.023541003612
 20
5130.543763844466
 30
0.0
 10
6580.763294624895
 20
5130.596240438269
 30
0.0
 10
6583.45272349304
 20
5130.652908201832
 30
0.0
 10
6585.962926344167
 20
5130.710853413942
 30
0.0
 10
6588.147536071595
 20
5130.765805463375
 30
0.0
 10
6589.926652438121
 20
5130.819338670176
 30
0.0
 10
6591.180642816592
 20
5130.877114108943
 30
0.0
 10
6591.852009411745
 20
5130.925683050164
 30
0.0
 10
6591.86234501719
 20
5130.953023989034
 30
0.0
 10
6591.865868338228
 20
5130.962344285328
 30
0.0
  0
SPLINE
  5
1B3
330
1F
100
AcDbEntity
  8
0
  6
Continuous
 62
     7
370
    25
100
AcDbSpline
210
0.0
220
0.0
230
1.0
 70
     8
 71
     3
 72
    22
 73
    18
 74
     0
 42
0.000000001
 43
0.00000001
 40
0.0
 40
0.0
 40
0.0
 40
0.0
 40
0.0379059401885626
 40
0.1093593670080917
 40
0.1812066291395757
 40
0.2516940019926432
 40
0.3221813476517592
 40
0.39402862999293
 40
0.4654820797991602
 40
0.5354265883787194
 40
0.6067280042326441
 40
0.6786192834644337
 40
0.7493403999658061
 40
0.8196110101239504
 40
0.8913923444073738
 40
0.9629765629178199
 40
1.0
 40
1.0
 40
1.0
 40
1.0
 10
6567.295492657305
 20
5131.764451440651
 30
0.0
 10
6567.28397577848
 20
5131.773981758575
 30
0.0
 10
6567.250749361405
 20
5131.801476909212
 30
0.0
 10
6567.85327153165
 20
5131.849973400731
 30
0.0
 10
6569.032281616203
 20
5131.907864037696
 30
0.0
 10
6570.746950874313
 20
5131.962085538856
 30
0.0
 10
6572.879095449035
 20
5132.01630701969
 30
0.0
 10
6575.351147529044
 20
5132.074197868516
 30
0.0
 10
6578.023540950336
 20
5132.131267989777
 30
0.0
 10
6580.763294677147
 20
5132.183737958497
 30
0.0
 10
6583.452723485412
 20
5132.240407520419
 30
0.0
 10
6585.962926346182
 20
5132.298352245221
 30
0.0
 10
6588.147536071064
 20
5132.353304423329
 30
0.0
 10
6589.926652438267
 20
5132.40683759589
 30
0.0
 10
6591.180642816552
 20
5132.464613044038
 30
0.0
 10
6591.852009411749
 20
5132.513181983008
 30
0.0
 10
6591.862345017191
 20
5132.540522922051
 30
0.0
 10
6591.865868338228
 20
5132.549843218405
 30
0.0
  0
SPLINE
  5
1B4
330
1F
100
AcDbEntity
  8
0
  6
Continuous
 62
     7
370
    25
100
AcDbSpline
210
0.0
220
0.0
230
1.0
 70
     8
 71
     3
 72
    22
 73
    18
 74
     0
 42
0.000000001
 43
0.00000001
 40
0.0
 40
0.0
 40
0.0
 40
0.0
 40
0.0379059420377841
 40
0.1093593687150988
 40
0.1812066307035846
 40
0.2516940014605525
 40
0.3221813469793768
 40
0.3940286291775494
 40
0.4654820788415652
 40
0.5354265872819132
 40
0.6067280049959494
 40
0.6786192820491849
 40
0.7493404003788892
 40
0.8196110084537268
 40
0.8913923446235366
 40
0.962976562991508
 40
1.0
 40
1.0
 40
1.0
 40
1.0
 10
6567.295492657305
 20
5133.351950373728
 30
0.0
 10
6567.283975776971
 20
5133.361482180767
 30
0.0
 10
6567.250749356645
 20
5133.38898162662
 30
0.0
 10
6567.853271536087
 20
5133.437475000541
 30
0.0
 10
6569.032281586565
 20
5133.495368269399
 30
0.0
 10
6570.7469509098
 20
5133.549583056575
 30
0.0
 10
6572.879095444049
 20
5133.603806373193
 30
0.0
 10
6575.3511475328
 20
5133.661696563594
 30
0.0
 10
6578.023540940479
 20
5133.718767444185
 30
0.0
 10
6580.76329473813
 20
5133.771235068157
 30
0.0
 10
6583.452723375518
 20
5133.827913411576
 30
0.0
 10
6585.962926450908
 20
5133.885847612459
 30
0.0
 10
6588.147535983238
 20
5133.940810607038
 30
0.0
 10
6589.926652506373
 20
5133.994333302969
 30
0.0
 10
6591.180642786345
 20
5134.052117606837
 30
0.0
 10
6591.852009414365
 20
5134.100684421456
 30
0.0
 10
6591.862345017856
 20
5134.128025524509
 30
0.0
 10
6591.865868338228
 20
5134.137345876772
 30
0.0
  0
SPLINE
  5
1B5
330
1F
100
AcDbEntity
  8
0
  6
Continuous
 62
     7
370
    25
100
AcDbSpline
210
0.0
220
0.0
230
1.0
 70
     8
 71
     3
 72
    22
 73
    18
 74
     0
 42
0.000000001
 43
0.00000001
 40
0.0
 40
0.0
 40
0.0
 40
0.0
 40
0.0379059420406354
 40
0.1093593687177384
 40
0.1812066307060112
 40
0.2516940034185783
 40
0.3221813469813851
 40
0.3940286291793448
 40
0.4654820788431488
 40
0.5354265872832896
 40
0.6067280049971145
 40
0.6786192820501371
 40
0.7493404003796318
 40
0.8196110084542613
 40
0.8913923446238583
 40
0.9629765629916177
 40
1.0
 40
1.0
 40
1.0
 40
1.0
 10
6567.295492657305
 20
5134.939449306805
 30
0.0
 10
6567.283975777178
 20
5134.948981099121
 30
0.0
 10
6567.250749357455
 20
5134.976480502494
 30
0.0
 10
6567.853271529223
 20
5135.024974415209
 30
0.0
 10
6569.032281622508
 20
5135.082865437519
 30
0.0
 10
6570.746950836227
 20
5135.137088431874
 30
0.0
 10
6572.879095491761
 20
5135.191303543228
 30
0.0
 10
6575.351147526058
 20
5135.249195970441
 30
0.0
 10
6578.023540942238
 20
5135.306266253667
 30
0.0
 10
6580.763294737653
 20
5135.358734034753
 30
0.0
 10
6583.452723375649
 20
5135.415412335511
 30
0.0
 10
6585.962926450873
 20
5135.473346547949
 30
0.0
 10
6588.147535983247
 20
5135.528309539476
 30
0.0
 10
6589.926652506371
 20
5135.58183223622
 30
0.0
 10
6591.180642786346
 20
5135.639616539866
 30
0.0
 10
6591.852009414365
 20
5135.688183354539
 30
0.0
 10
6591.862345017856
 20
5135.715524457587
 30
0.0
 10
6591.865868338228
 20
5135.724844809849
 30
0.0
  0
SPLINE
  5
1B6
330
1F
100
AcDbEntity
  8
0
  6
Continuous
 62
     7
370
    25
100
AcDbSpline
210
0.0
220
0.0
230
1.0
 70
     8
 71
     3
 72
    22
 73
    18
 74
     0
 42
0.000000001
 43
0.00000001
 40
0.0
 40
0.0
 40
0.0
 40
0.0
 40
0.0379059401925923
 40
0.1093593670141311
 40
0.1812066291476358
 40
0.2516940020026859
 40
0.3221813457079756
 40
0.3940286280511672
 40
0.465482077859407
 40
0.5354265883656529
 40
0.606728004221583
 40
0.6786192834553947
 40
0.7493403999587562
 40
0.8196110101188769
 40
0.8913923444043191
 40
0.9629765629167787
 40
1.0
 40
1.0
 40
1.0
 40
1.0
 10
6567.295492657305
 20
5136.526951965172
 30
0.0
 10
6567.28397577853
 20
5136.536482279929
 30
0.0
 10
6567.250749361601
 20
5136.563977421431
 30
0.0
 10
6567.853271529932
 20
5136.612474028814
 30
0.0
 10
6569.032281622503
 20
5136.670364182562
 30
0.0
 10
6570.746950835572
 20
5136.724587448123
 30
0.0
 10
6572.879095494412
 20
5136.778802328437
 30
0.0
 10
6575.351147515922
 20
5136.836695420136
 30
0.0
 10
6578.02354100361
 20
5136.893763301156
 30
0.0
 10
6580.763294624895
 20
5136.946239896113
 30
0.0
 10
6583.45272349304
 20
5137.002907659364
 30
0.0
 10
6585.962926344167
 20
5137.060852871557
 30
0.0
 10
6588.147536071595
 20
5137.115804920968
 30
0.0
 10
6589.926652438121
 20
5137.169338127775
 30
0.0
 10
6591.180642816592
 20
5137.22711356654
 30
0.0
 10
6591.852009411745
 20
5137.275682507762
 30
0.0
 10
6591.86234501719
 20
5137.303023446631
 30
0.0
 10
6591.865868338228
 20
5137.312343742926
 30
0.0
  0
LINE
  5
1B7
330
1F
100
AcDbEntity
  8
0
  6
Continuous
 62
     7
370
    25
100
AcDbLine
 10
6593.108781644
 20
5137.8941148783
 30
0.0
 11
6593.108781644
 21
5148.3941175307
 31
0.0
  0
LINE
  5
1B8
330
1F
100
AcDbEntity
  8
0
  6
Continuous
 62
     7
370
    25
100
AcDbLine
 10
6593.108781644
 20
5137.8941148783
 30
0.0
 11
6593.0596748673
 21
5137.8941148783
 31
0.0
  0
LINE
  5
1B9
330
1F
100
AcDbEntity
  8
0
  6
Continuous
 62
     7
370
    25
100
AcDbLine
 10
6626.58429242
 20
5143.594118234
 30
0.0
 11
6627.0842934333
 21
5143.594118234
 31
0.0
  0
LINE
  5
1BA
330
1F
100
AcDbEntity
  8
0
  6
Continuous
 62
     7
370
    25
100
AcDbLine
 10
6626.58429242
 20
5158.5941169674
 30
0.0
 11
6626.58429242
 21
5143.594118234
 31
0.0
  0
LINE
  5
1BB
330
1F
100
AcDbEntity
  8
0
  6
Continuous
 62
     7
370
    25
100
AcDbLine
 10
6626.58429242
 20
5266.6235551501
 30
0.0
 11
6627.0842934333
 21
5266.6235551501
 31
0.0
  0
LINE
  5
1BC
330
1F
100
AcDbEntity
  8
0
  6
Continuous
 62
     7
370
    25
100
AcDbLine
 10
6626.58429242
 20
5266.6235551501
 30
0.0
 11
6626.58429242
 21
5158.5941169674
 31
0.0
  0
LINE
  5
1BD
330
1F
100
AcDbEntity
  8
0
  6
Continuous
 62
     7
370
    25
100
AcDbLine
 10
6626.58429242
 20
5283.5941151048
 30
0.0
 11
6627.0842934333
 21
5283.5941151048
 31
0.0
  0
LINE
  5
1BE
330
1F
100
AcDbEntity
  8
0
  6
Continuous
 62
     8
370
    25
100
AcDbLine
 10
6635.7509577953
 20
5285.7797354723
 30
0.0
 11
6635.7509577953
 21
5141.008498546
 31
0.0
  0
LINE
  5
1BF
330
1F
100
AcDbEntity
  8
0
  6
Continuous
 62
     8
370
    25
100
AcDbLine
 10
6599.9744618617
 20
5147.4941171969
 30
0.0
 11
6610.1842942022
 21
5147.4941171969
 31
0.0
  0
LINE
  5
1C0
330
1F
100
AcDbEntity
  8
0
  6
Continuous
 62
     8
370
    25
100
AcDbLine
 10
6599.9744618617
 20
5147.4941171969
 30
0.0
 11
6596.9842942737
 21
5147.4941171969
 31
0.0
  0
LINE
  5
1C1
330
1F
100
AcDbEntity
  8
0
  6
Continuous
 62
     8
370
    25
100
AcDbLine
 10
6626.58429242
 20
5158.5941169674
 30
0.0
 11
6627.0842934333
 21
5158.5941169674
 31
0.0
  0
LINE
  5
1C2
330
1F
100
AcDbEntity
  8
0
  6
Continuous
 62
     7
370
    25
100
AcDbLine
 10
6339.5187539652
 20
4855.4440560557
 30
0.0
 11
6339.5187539652
 21
4925.0440570332
 31
0.0
  0
LINE
  5
1C3
330
1F
100
AcDbEntity
  8
0
  6
Continuous
 62
     7
370
    25
100
AcDbLine
 10
6208.518756707
 20
4925.0440570332
 30
0.0
 11
6208.518756707
 21
4855.4440560557
 31
0.0
  0
SPLINE
  5
1C4
330
1F
100
AcDbEntity
  8
0
  6
Continuous
 62
     7
370
    25
100
AcDbSpline
210
0.0
220
0.0
230
1.0
 70
     8
 71
     3
 72
     9
 73
     5
 74
     0
 42
0.000000001
 43
0.00000001
 40
0.0
 40
0.0
 40
0.0
 40
0.0
 40
0.3663793591818628
 40
1.0
 40
1.0
 40
1.0
 40
1.0
 10
6214.45243262201
 20
4852.044058106072
 30
0.0
 10
6214.402430622317
 20
4852.074432131947
 30
0.0
 10
6214.265954594289
 20
4852.157335344461
 30
0.0
 10
6214.128477508507
 20
4852.240283058843
 30
0.0
 10
6214.041369189316
 20
4852.292840442784
 30
0.0
  0
SPLINE
  5
1C5
330
1F
100
AcDbEntity
  8
0
  6
Continuous
 62
     7
370
    25
100
AcDbSpline
210
0.0
220
0.0
230
1.0
 70
     8
 71
     3
 72
     9
 73
     5
 74
     0
 42
0.000000001
 43
0.00000001
 40
0.0
 40
0.0
 40
0.0
 40
0.0
 40
0.7977207817727701
 40
1.0
 40
1.0
 40
1.0
 40
1.0
 10
6210.437057693297
 20
4852.243979535229
 30
0.0
 10
6210.528211195219
 20
4852.190879871453
 30
0.0
 10
6210.642478623129
 20
4852.124315648747
 30
0.0
 10
6210.756497278805
 20
4852.057561153237
 30
0.0
 10
6210.779560883338
 20
4852.044058106072
 30
0.0
  0
LINE
  5
1C6
330
1F
100
AcDbEntity
  8
0
  6
Continuous
 62
     7
370
    25
100
AcDbLine
 10
6213.9794027105
 20
4852.3949059464
 30
0.0
 11
6214.2247987583
 21
4852.5440591194
 31
0.0
  0
LINE
  5
1C7
330
1F
100
AcDbEntity
  8
0
  6
Continuous
 62
     7
370
    25
100
AcDbLine
 10
6210.4187516168
 20
4852.5147112824
 30
0.0
 11
6210.4187516168
 21
4852.264714501
 31
0.0
  0
LINE
  5
1C8
330
1F
100
AcDbEntity
  8
0
  6
Continuous
 62
     7
370
    25
100
AcDbLine
 10
6214.0774821535
 20
4852.3272770263
 30
0.0
 11
6214.0774821535
 21
4852.452275417
 31
0.0
  0
LINE
  5
1C9
330
1F
100
AcDbEntity
  8
0
  6
Continuous
 62
     7
370
    25
100
AcDbLine
 10
6260.018754904
 20
4842.0440601922
 30
0.0
 11
6260.018754904
 21
4841.544059179
 31
0.0
  0
LINE
  5
1CA
330
1F
100
AcDbEntity
  8
0
  6
Continuous
 62
     7
370
    25
100
AcDbLine
 10
6288.0187557682
 20
4841.544059179
 30
0.0
 11
6288.0187557682
 21
4842.0440601922
 31
0.0
  0
LINE
  5
1CB
330
1F
100
AcDbEntity
  8
0
  6
Continuous
 62
     7
370
    25
100
AcDbLine
 10
6260.018754904
 20
4841.544059179
 30
0.0
 11
6261.5187551498
 21
4840.0440561391
 31
0.0
  0
LINE
  5
1CC
330
1F
100
AcDbEntity
  8
0
  6
Continuous
 62
     7
370
    25
100
AcDbLine
 10
6286.5187555224
 20
4840.0440561391
 30
0.0
 11
6288.0187557682
 21
4841.544059179
 31
0.0
  0
ARC
  5
1CD
330
1F
100
AcDbEntity
  8
0
  6
Continuous
 62
     7
370
    25
100
AcDbCircle
 10
6200.6903282114
 20
4843.0440570332
 30
0.0
 40
1.00000000000121
100
AcDbArc
 50
19.4712206345
 51
90.0
  0
ARC
  5
1CE
330
1F
100
AcDbEntity
  8
0
  6
Continuous
 62
     7
370
    25
100
AcDbCircle
 10
6347.3471824608
 20
4843.0440570332
 30
0.0
 40
1.00000000000121
100
AcDbArc
 50
90.0
 51
160.5287793655
  0
ARC
  5
1CF
330
1F
100
AcDbEntity
  8
0
  6
Continuous
 62
     7
370
    25
100
AcDbCircle
 10
6344.5187553361
 20
4844.0440570332
 30
0.0
 40
2.0
100
AcDbArc
 50
270.0
 51
340.5287793655
  0
ARC
  5
1D0
330
1F
100
AcDbEntity
  8
0
  6
Continuous
 62
     7
370
    25
100
AcDbCircle
 10
6203.5187553361
 20
4844.0440570332
 30
0.0
 40
2.0
100
AcDbArc
 50
199.4712206345
 51
270.0
  0
LINE
  5
1D1
330
1F
100
AcDbEntity
  8
0
  6
Continuous
 62
     7
370
    25
100
AcDbLine
 10
6324.8962146833
 20
4855.4440560557
 30
0.0
 11
6324.8962146833
 21
4852.5440591194
 31
0.0
  0
LINE
  5
1D2
330
1F
100
AcDbEntity
  8
0
  6
Continuous
 62
     7
370
    25
100
AcDbLine
 10
6344.0187556341
 20
4855.4440560557
 30
0.0
 11
6344.0187556341
 21
4852.5440591194
 31
0.0
  0
LINE
  5
1D3
330
1F
100
AcDbEntity
  8
0
  6
Continuous
 62
     7
370
    25
100
AcDbLine
 10
6324.8962146833
 20
4852.5440591194
 30
0.0
 11
6328.2701616779
 21
4852.5440591194
 31
0.0
  0
LINE
  5
1D4
330
1F
100
AcDbEntity
  8
0
  6
Continuous
 62
     7
370
    25
100
AcDbLine
 10
6324.8962146833
 20
4855.4440560557
 30
0.0
 11
6344.0187556341
 21
4855.4440560557
 31
0.0
  0
LINE
  5
1D5
330
1F
100
AcDbEntity
  8
0
  6
Continuous
 62
     7
370
    25
100
AcDbLine
 10
6223.1412959889
 20
4855.4440560557
 30
0.0
 11
6223.1412959889
 21
4852.5440591194
 31
0.0
  0
LINE
  5
1D6
330
1F
100
AcDbEntity
  8
0
  6
Continuous
 62
     7
370
    25
100
AcDbLine
 10
6324.8962146833
 20
4852.5440591194
 30
0.0
 11
6223.1412959889
 21
4852.5440591194
 31
0.0
  0
LINE
  5
1D7
330
1F
100
AcDbEntity
  8
0
  6
Continuous
 62
     7
370
    25
100
AcDbLine
 10
6324.8962146833
 20
4855.4440560557
 30
0.0
 11
6223.1412959889
 21
4855.4440560557
 31
0.0
  0
LINE
  5
1D8
330
1F
100
AcDbEntity
  8
0
  6
Continuous
 62
     7
370
    25
100
AcDbLine
 10
6204.0187550381
 20
4855.4440560557
 30
0.0
 11
6204.0187550381
 21
4852.5440591194
 31
0.0
  0
LINE
  5
1D9
330
1F
100
AcDbEntity
  8
0
  6
Continuous
 62
     7
370
    25
100
AcDbLine
 10
6223.1412959889
 20
4852.5440591194
 30
0.0
 11
6204.1008380845
 21
4852.5440591194
 31
0.0
  0
LINE
  5
1DA
330
1F
100
AcDbEntity
  8
0
  6
Continuous
 62
     7
370
    25
100
AcDbLine
 10
6223.1412959889
 20
4855.4440560557
 30
0.0
 11
6204.0187550381
 21
4855.4440560557
 31
0.0
  0
LINE
  5
1DB
330
1F
100
AcDbEntity
  8
0
  6
Continuous
 62
     7
370
    25
100
AcDbLine
 10
6323.0334726766
 20
4855.4440560557
 30
0.0
 11
6323.0334726766
 21
4925.0440570332
 31
0.0
  0
LINE
  5
1DC
330
1F
100
AcDbEntity
  8
0
  6
Continuous
 62
     7
370
    25
100
AcDbLine
 10
6225.0040379956
 20
4855.4440560557
 30
0.0
 11
6225.0040379956
 21
4925.0440570332
 31
0.0
  0
LINE
  5
1DD
330
1F
100
AcDbEntity
  8
0
  6
Continuous
 62
     7
370
    25
100
AcDbLine
 10
6225.0040379956
 20
4925.0440570332
 30
0.0
 11
6323.0334726766
 21
4925.0440570332
 31
0.0
  0
LINE
  5
1DE
330
1F
100
AcDbEntity
  8
0
  6
Continuous
 62
     7
370
    25
100
AcDbLine
 10
6328.4476866618
 20
4855.4440560557
 30
0.0
 11
6328.4476866618
 21
4925.0440570332
 31
0.0
  0
LINE
  5
1DF
330
1F
100
AcDbEntity
  8
0
  6
Continuous
 62
     7
370
    25
100
AcDbLine
 10
6328.4476866618
 20
4925.0440570332
 30
0.0
 11
6323.0334726766
 21
4925.0440570332
 31
0.0
  0
LINE
  5
1E0
330
1F
100
AcDbEntity
  8
0
  6
Continuous
 62
     7
370
    25
100
AcDbLine
 10
6219.5898240104
 20
4855.4440560557
 30
0.0
 11
6219.5898240104
 21
4925.0440570332
 31
0.0
  0
LINE
  5
1E1
330
1F
100
AcDbEntity
  8
0
  6
Continuous
 62
     7
370
    25
100
AcDbLine
 10
6219.5898240104
 20
4925.0440570332
 30
0.0
 11
6225.0040379956
 21
4925.0440570332
 31
0.0
  0
LINE
  5
1E2
330
1F
100
AcDbEntity
  8
0
  6
Continuous
 62
     7
370
    25
100
AcDbLine
 10
6332.6903266504
 20
4855.4440560557
 30
0.0
 11
6332.6903266504
 21
4925.0440570332
 31
0.0
  0
LINE
  5
1E3
330
1F
100
AcDbEntity
  8
0
  6
Continuous
 62
     7
370
    25
100
AcDbLine
 10
6339.5187539652
 20
4925.0440570332
 30
0.0
 11
6332.6903266504
 21
4925.0440570332
 31
0.0
  0
LINE
  5
1E4
330
1F
100
AcDbEntity
  8
0
  6
Continuous
 62
     7
370
    25
100
AcDbLine
 10
6215.3471840218
 20
4855.4440560557
 30
0.0
 11
6215.3471840218
 21
4925.0440570332
 31
0.0
  0
LINE
  5
1E5
330
1F
100
AcDbEntity
  8
0
  6
Continuous
 62
     7
370
    25
100
AcDbLine
 10
6208.518756707
 20
4925.0440570332
 30
0.0
 11
6215.3471840218
 21
4925.0440570332
 31
0.0
  0
LINE
  5
1E6
330
1F
100
AcDbEntity
  8
0
  6
Continuous
 62
     7
370
    25
100
AcDbLine
 10
6332.6903266504
 20
4925.0440570332
 30
0.0
 11
6328.4476866618
 21
4925.0440570332
 31
0.0
  0
LINE
  5
1E7
330
1F
100
AcDbEntity
  8
0
  6
Continuous
 62
     7
370
    25
100
AcDbLine
 10
6215.3471840218
 20
4925.0440570332
 30
0.0
 11
6219.5898240104
 21
4925.0440570332
 31
0.0
  0
LINE
  5
1E8
330
1F
100
AcDbEntity
  8
0
  6
Continuous
 62
     7
370
    25
100
AcDbLine
 10
6339.5187539652
 20
4855.4440560557
 30
0.0
 11
6339.5187539652
 21
4925.0440570332
 31
0.0
  0
LINE
  5
1E9
330
1F
100
AcDbEntity
  8
0
  6
Continuous
 62
     7
370
    25
100
AcDbLine
 10
6208.518756707
 20
4855.4440560557
 30
0.0
 11
6208.518756707
 21
4925.0440570332
 31
0.0
  0
LINE
  5
1EA
330
1F
100
AcDbEntity
  8
0
  6
Continuous
 62
     7
370
    25
100
AcDbLine
 10
6210.4589549497
 20
4852.5147112824
 30
0.0
 11
6210.4543802932
 21
4852.5440591194
 31
0.0
  0
SPLINE
  5
1EB
330
1F
100
AcDbEntity
  8
0
  6
Continuous
 62
     7
370
    25
100
AcDbSpline
210
0.0
220
0.0
230
1.0
 70
     8
 71
     3
 72
    11
 73
     7
 74
     0
 42
0.000000001
 43
0.00000001
 40
0.0
 40
0.0
 40
0.0
 40
0.0
 40
0.2509073244299943
 40
0.5018150901043521
 40
0.7527210706941841
 40
1.0
 40
1.0
 40
1.0
 40
1.0
 10
6212.19650112539
 20
4852.044058106072
 30
0.0
 10
6212.40119268437
 20
4852.064889317688
 30
0.0
 10
6212.810576162302
 20
4852.106551777553
 30
0.0
 10
6213.389079196483
 20
4852.169056348658
 30
0.0
 10
6213.846487326809
 20
4852.231259623672
 30
0.0
 10
6213.976044981873
 20
4852.272622500589
 30
0.0
 10
6214.040352185065
 20
4852.293153367169
 30
0.0
  0
SPLINE
  5
1EC
330
1F
100
AcDbEntity
  8
0
  6
Continuous
 62
     7
370
    25
100
AcDbSpline
210
0.0
220
0.0
230
1.0
 70
     8
 71
     3
 72
    13
 73
     9
 74
     0
 42
0.000000001
 43
0.00000001
 40
0.0
 40
0.0
 40
0.0
 40
0.0
 40
0.1776057396959647
 40
0.3552116066238547
 40
0.5328179879646128
 40
0.7104242391428482
 40
0.8880294479888233
 40
1.0
 40
1.0
 40
1.0
 40
1.0
 10
6211.212506671244
 20
4852.044058106072
 30
0.0
 10
6211.343492360104
 20
4852.064889329861
 30
0.0
 10
6211.605463831658
 20
4852.10655179236
 30
0.0
 10
6212.190141431542
 20
4852.169056346015
 30
0.0
 10
6212.812981262293
 20
4852.231562226139
 30
0.0
 10
6213.38581587387
 20
4852.294051084907
 30
0.0
 10
6213.80101909835
 20
4852.348861537164
 30
0.0
 10
6213.912305939762
 20
4852.382824128673
 30
0.0
 10
6213.955337335164
 20
4852.395956478245
 30
0.0
  0
SPLINE
  5
1ED
330
1F
100
AcDbEntity
  8
0
  6
Continuous
 62
     7
370
    25
100
AcDbSpline
210
0.0
220
0.0
230
1.0
 70
     8
 71
     3
 72
    12
 73
     8
 74
     0
 42
0.000000001
 43
0.00000001
 40
0.0
 40
0.0
 40
0.0
 40
0.0
 40
0.1050492793178843
 40
0.3287861555421153
 40
0.5525244491190292
 40
0.7762623822524763
 40
1.0
 40
1.0
 40
1.0
 40
1.0
 10
6210.458954949671
 20
4852.264714501031
 30
0.0
 10
6210.450435832377
 20
4852.27449428881
 30
0.0
 10
6210.423772462171
 20
4852.305103340552
 30
0.0
 10
6210.724378889409
 20
4852.356558629544
 30
0.0
 10
6211.296783717937
 20
4852.419062973798
 30
0.0
 10
6212.076723943857
 20
4852.481553715018
 30
0.0
 10
6212.628189828977
 20
4852.523223994363
 30
0.0
 10
6212.903922577197
 20
4852.544059119351
 30
0.0
  0
LINE
  5
1EE
330
1F
100
AcDbEntity
  8
0
  6
Continuous
 62
     7
370
    25
100
AcDbLine
 10
6260.018754904
 20
4841.544059179
 30
0.0
 11
6288.0187557682
 21
4841.544059179
 31
0.0
  0
LINE
  5
1EF
330
1F
100
AcDbEntity
  8
0
  6
Continuous
 62
     7
370
    25
100
AcDbLine
 10
6286.5187555224
 20
4840.0440561391
 30
0.0
 11
6261.5187551498
 21
4840.0440561391
 31
0.0
  0
LINE
  5
1F0
330
1F
100
AcDbEntity
  8
0
  6
Continuous
 62
     7
370
    25
100
AcDbLine
 10
6329.0187550381
 20
4852.0440581061
 30
0.0
 11
6219.0187556341
 21
4852.0440581061
 31
0.0
  0
LINE
  5
1F1
330
1F
100
AcDbEntity
  8
0
  6
Continuous
 62
     7
370
    25
100
AcDbLine
 10
6329.0187550381
 20
4846.0440533973
 30
0.0
 11
6329.0187550381
 21
4852.0440581061
 31
0.0
  0
LINE
  5
1F2
330
1F
100
AcDbEntity
  8
0
  6
Continuous
 62
     7
370
    25
100
AcDbLine
 10
6219.0187556341
 20
4846.0440533973
 30
0.0
 11
6329.0187550381
 21
4846.0440533973
 31
0.0
  0
LINE
  5
1F3
330
1F
100
AcDbEntity
  8
0
  6
Continuous
 62
     7
370
    25
100
AcDbLine
 10
6219.0187556341
 20
4846.0440533973
 30
0.0
 11
6219.0187556341
 21
4852.0440581061
 31
0.0
  0
LINE
  5
1F4
330
1F
100
AcDbEntity
  8
0
  6
Continuous
 62
     7
370
    25
100
AcDbLine
 10
6359.0187562302
 20
4846.0440533973
 30
0.0
 11
6359.0187562302
 21
4852.0440581061
 31
0.0
  0
LINE
  5
1F5
330
1F
100
AcDbEntity
  8
0
  6
Continuous
 62
     7
370
    25
100
AcDbLine
 10
6329.0187550381
 20
4846.0440533973
 30
0.0
 11
6359.0187562302
 21
4846.0440533973
 31
0.0
  0
LINE
  5
1F6
330
1F
100
AcDbEntity
  8
0
  6
Continuous
 62
     7
370
    25
100
AcDbLine
 10
6359.0187562302
 20
4852.0440581061
 30
0.0
 11
6329.0187550381
 21
4852.0440581061
 31
0.0
  0
LINE
  5
1F7
330
1F
100
AcDbEntity
  8
0
  6
Continuous
 62
     7
370
    25
100
AcDbLine
 10
6189.018754442
 20
4846.0440533973
 30
0.0
 11
6219.0187556341
 21
4846.0440533973
 31
0.0
  0
LINE
  5
1F8
330
1F
100
AcDbEntity
  8
0
  6
Continuous
 62
     7
370
    25
100
AcDbLine
 10
6189.018754442
 20
4846.0440533973
 30
0.0
 11
6189.018754442
 21
4852.0440581061
 31
0.0
  0
LINE
  5
1F9
330
1F
100
AcDbEntity
  8
0
  6
Continuous
 62
     7
370
    25
100
AcDbLine
 10
6219.0187556341
 20
4852.0440581061
 30
0.0
 11
6189.018754442
 21
4852.0440581061
 31
0.0
  0
LINE
  5
1FA
330
1F
100
AcDbEntity
  8
0
  6
Continuous
 62
     7
370
    25
100
AcDbLine
 10
6357.0187521771
 20
4844.0440567948
 30
0.0
 11
6329.0187550381
 21
4844.0440567948
 31
0.0
  0
LINE
  5
1FB
330
1F
100
AcDbEntity
  8
0
  6
Continuous
 62
     7
370
    25
100
AcDbLine
 10
6329.0187550381
 20
4844.0440567948
 30
0.0
 11
6329.0187550381
 21
4846.0440533973
 31
0.0
  0
ARC
  5
1FC
330
1F
100
AcDbEntity
  8
0
  6
Continuous
 62
     7
370
    25
100
AcDbCircle
 10
6357.0187553361
 20
4846.0440570332
 30
0.0
 40
2.0
100
AcDbArc
 50
270.0
 51
0.0
  0
LINE
  5
1FD
330
1F
100
AcDbEntity
  8
0
  6
Continuous
 62
     7
370
    25
100
AcDbLine
 10
6329.0187550381
 20
4844.0440567948
 30
0.0
 11
6219.0187556341
 21
4844.0440567948
 31
0.0
  0
LINE
  5
1FE
330
1F
100
AcDbEntity
  8
0
  6
Continuous
 62
     7
370
    25
100
AcDbLine
 10
6219.0187556341
 20
4844.0440567948
 30
0.0
 11
6219.0187556341
 21
4846.0440533973
 31
0.0
  0
LINE
  5
1FF
330
1F
100
AcDbEntity
  8
0
  6
Continuous
 62
     7
370
    25
100
AcDbLine
 10
6219.0187556341
 20
4844.0440567948
 30
0.0
 11
6191.0187584951
 21
4844.0440567948
 31
0.0
  0
ARC
  5
200
330
1F
100
AcDbEntity
  8
0
  6
Continuous
 62
     7
370
    25
100
AcDbCircle
 10
6191.0187553361
 20
4846.0440570332
 30
0.0
 40
2.0
100
AcDbArc
 50
180.0
 51
270.0
  0
LINE
  5
201
330
1F
100
AcDbEntity
  8
0
  6
Continuous
 62
     7
370
    25
100
AcDbLine
 10
6344.5187566474
 20
4842.0440601922
 30
0.0
 11
6203.5187540248
 21
4842.0440601922
 31
0.0
  0
LINE
  5
202
330
1F
100
AcDbEntity
  8
0
  6
Continuous
 62
     7
370
    25
100
AcDbLine
 10
6281.2973052867
 20
4898.2611867405
 30
0.0
 11
6280.8079348549
 21
4896.2226128943
 31
0.0
  0
SPLINE
  5
203
330
1F
100
AcDbEntity
  8
0
  6
Continuous
 62
     7
370
    25
100
AcDbSpline
210
0.0
220
0.0
230
1.0
 70
     8
 71
     3
 72
    12
 73
     8
 74
     0
 42
0.000000001
 43
0.00000001
 40
0.0
 40
0.0
 40
0.0
 40
0.0
 40
0.0684904521048834
 40
0.3439657881421572
 40
0.5587717002642032
 40
0.7735775137539617
 40
1.0
 40
1.0
 40
1.0
 40
1.0
 10
6278.258341518039
 20
4893.490218631156
 30
0.0
 10
6278.365441145273
 20
4893.567952993197
 30
0.0
 10
6278.903306009046
 20
4893.958342606394
 30
0.0
 10
6279.681554167757
 20
4894.723340121945
 30
0.0
 10
6280.455938518687
 20
4895.84880893737
 30
0.0
 10
6281.008110475978
 20
4897.000438627139
 30
0.0
 10
6281.199229751644
 20
4897.833625314168
 30
0.0
 10
6281.29730528667
 20
4898.261186740525
 30
0.0
  0
CIRCLE
  5
204
330
1F
100
AcDbEntity
  8
0
  6
Continuous
 62
     7
370
    25
100
AcDbCircle
 10
6274.0187553361
 20
4899.5440570332
 30
0.0
 40
7.25
  0
SPLINE
  5
205
330
1F
100
AcDbEntity
  8
0
  6
Continuous
 62
     7
370
    25
100
AcDbSpline
210
0.0
220
0.0
230
1.0
 70
     8
 71
     3
 72
    14
 73
    10
 74
     0
 42
0.000000001
 43
0.00000001
 40
0.0
 40
0.0
 40
0.0
 40
0.0
 40
0.0889552268806557
 40
0.2400316919853102
 40
0.3911082007817699
 40
0.5422509049145908
 40
0.693380507201947
 40
0.8466903487627888
 40
1.0
 40
1.0
 40
1.0
 40
1.0
 10
6270.295783798018
 20
4892.981701604254
 30
0.0
 10
6270.514259106654
 20
4892.859821389894
 30
0.0
 10
6271.103780372886
 20
4892.53094679648
 30
0.0
 10
6272.166506922687
 20
4892.217733213843
 30
0.0
 10
6273.428120581544
 20
4892.027794502847
 30
0.0
 10
6274.707976191572
 20
4892.065798026548
 30
0.0
 10
6275.966259753885
 20
4892.318872593323
 30
0.0
 10
6277.176573502306
 20
4892.779691712383
 30
0.0
 10
6277.897752328677
 20
4893.253376422906
 30
0.0
 10
6278.258341518039
 20
4893.490218631156
 30
0.0
  0
CIRCLE
  5
206
330
1F
100
AcDbEntity
  8
0
  6
Continuous
 62
     7
370
    25
100
AcDbCircle
 10
6274.0187553361
 20
4899.5440570332
 30
0.0
 40
6.250000000000909
  0
CIRCLE
  5
207
330
1F
100
AcDbEntity
  8
0
  6
Continuous
 62
     7
370
    25
100
AcDbCircle
 10
6274.0187553361
 20
4899.5440570332
 30
0.0
 40
3.650000000000546
  0
SPLINE
  5
208
330
1F
100
AcDbEntity
  8
0
  6
Continuous
 62
     7
370
    25
100
AcDbSpline
210
0.0
220
0.0
230
1.0
 70
     8
 71
     3
 72
    39
 73
    35
 74
     0
 42
0.000000001
 43
0.00000001
 40
0.0
 40
0.0
 40
0.0
 40
0.0
 40
0.0308463629792703
 40
0.0621059474733032
 40
0.0933651320059237
 40
0.1258167786090935
 40
0.1582684398135786
 40
0.1904165746743033
 40
0.2225647218988297
 40
0.254720426842271
 40
0.2868744391021356
 40
0.3187995990049372
 40
0.3507247610756222
 40
0.3825674236117779
 40
0.4144079610221634
 40
0.4461267649562025
 40
0.4778456096388365
 40
0.5093762631330623
 40
0.5409061060903835
 40
0.5724168296262465
 40
0.6039275808422341
 40
0.6351484308938701
 40
0.666369285577363
 40
0.6975983624647126
 40
0.7288259374091105
 40
0.7598088576828862
 40
0.790791766282588
 40
0.8217076543754878
 40
0.8526213489193667
 40
0.8833979753512201
 40
0.9141746032357683
 40
0.9447783184400327
 40
0.9753809422604046
 40
1.0
 40
1.0
 40
1.0
 40
1.0
 10
6261.097657647723
 20
4902.341705820687
 30
0.0
 10
6260.988813152815
 20
4901.643652526692
 30
0.0
 10
6260.769666069313
 20
4900.238194734485
 30
0.0
 10
6260.878603207503
 20
4898.093223690373
 30
0.0
 10
6261.309704130518
 20
4895.958357719621
 30
0.0
 10
6262.112371838024
 20
4893.900258079429
 30
0.0
 10
6263.254485049976
 20
4891.986745381069
 30
0.0
 10
6264.704722544005
 20
4890.303838283863
 30
0.0
 10
6266.406570549012
 20
4888.886596028686
 30
0.0
 10
6268.326509724369
 20
4887.7821317865
 30
0.0
 10
6270.398256371314
 20
4887.012810171913
 30
0.0
 10
6272.5663470688
 20
4886.613809926926
 30
0.0
 10
6274.76336767254
 20
4886.577820864307
 30
0.0
 10
6276.932111372403
 20
4886.918572563189
 30
0.0
 10
6279.010550256066
 20
4887.611174505187
 30
0.0
 10
6280.935432250654
 20
4888.651227518711
 30
0.0
 10
6282.656172191356
 20
4889.990921770509
 30
0.0
 10
6284.118154949716
 20
4891.602988294495
 30
0.0
 10
6285.292706140124
 20
4893.429546607288
 30
0.0
 10
6286.134453329986
 20
4895.430999478051
 30
0.0
 10
6286.630553307921
 20
4897.537556463215
 30
0.0
 10
6286.756188914691
 20
4899.691180639173
 30
0.0
 10
6286.52680540694
 20
4901.829763515149
 30
0.0
 10
6285.93372545862
 20
4903.897498099239
 30
0.0
 10
6285.008229636357
 20
4905.833434903805
 30
0.0
 10
6283.765764859473
 20
4907.575725062988
 30
0.0
 10
6282.258240909509
 20
4909.084367048496
 30
0.0
 10
6280.515809106291
 20
4910.31141425135
 30
0.0
 10
6278.598683585954
 20
4911.231949314662
 30
0.0
 10
6276.55463018379
 20
4911.80586405693
 30
0.0
 10
6274.450147142044
 20
4912.034564211133
 30
0.0
 10
6272.344657486679
 20
4911.893581109748
 30
0.0
 10
6270.418379297689
 20
4911.458657360305
 30
0.0
 10
6269.26109702143
 20
4910.950479760382
 30
0.0
 10
6268.745154761517
 20
4910.723922847934
 30
0.0
  0
ARC
  5
209
330
1F
100
AcDbEntity
  8
0
  6
Continuous
 62
     7
370
    25
100
AcDbCircle
 10
6274.0187553361
 20
4899.5440570332
 30
0.0
 40
13.22050000000062
100
AcDbArc
 50
77.7830172522
 51
167.7830161819
  0
SPLINE
  5
20A
330
1F
100
AcDbEntity
  8
0
  6
Continuous
 62
     7
370
    25
100
AcDbSpline
210
0.0
220
0.0
230
1.0
 70
     8
 71
     3
 72
    16
 73
    12
 74
     0
 42
0.000000001
 43
0.00000001
 40
0.0
 40
0.0
 40
0.0
 40
0.0
 40
0.1148328163471428
 40
0.2307153469405475
 40
0.3466032867471726
 40
0.4626832417370565
 40
0.5787631730764488
 40
0.6949736501426247
 40
0.8112108835481681
 40
0.9056054316728569
 40
1.0
 40
1.0
 40
1.0
 40
1.0
 10
6262.384397131199
 20
4903.720417133696
 30
0.0
 10
6262.624186119535
 20
4904.384830811387
 30
0.0
 10
6263.105956064715
 20
4905.719731731147
 30
0.0
 10
6264.25367177212
 20
4907.528686264435
 30
0.0
 10
6265.663175926448
 20
4909.141522697341
 30
0.0
 10
6267.335039208781
 20
4910.487644281366
 30
0.0
 10
6269.205466364557
 20
4911.542157749961
 30
0.0
 10
6271.230727547933
 20
4912.262128678572
 30
0.0
 10
6273.212328222246
 20
4912.617084588127
 30
0.0
 10
6275.090602583481
 20
4912.687767882046
 30
0.0
 10
6276.24113736073
 20
4912.539359431577
 30
0.0
 10
6276.816404810915
 20
4912.465155198402
 30
0.0
  0
SPLINE
  5
20B
330
1F
100
AcDbEntity
  8
0
  6
Continuous
 62
     7
370
    25
100
AcDbSpline
210
0.0
220
0.0
230
1.0
 70
     8
 71
     3
 72
    13
 73
     9
 74
     0
 42
0.000000001
 43
0.00000001
 40
0.0
 40
0.0
 40
0.0
 40
0.0
 40
0.0409241016593772
 40
0.2049391970679996
 40
0.4196578532734753
 40
0.6343764297073603
 40
0.817188130824304
 40
1.0
 40
1.0
 40
1.0
 40
1.0
 10
6268.745154761517
 20
4910.723922847934
 30
0.0
 10
6268.62606409073
 20
4910.666266231494
 30
0.0
 10
6268.029683340519
 20
4910.3775341592
 30
0.0
 10
6266.862143026453
 20
4909.677916962967
 30
0.0
 10
6265.370205201588
 20
4908.456747161956
 30
0.0
 10
6264.066855348289
 20
4906.956264250266
 30
0.0
 10
6263.054410783498
 20
4905.365295035661
 30
0.0
 10
6262.607735083737
 20
4904.2687099357
 30
0.0
 10
6262.384397131199
 20
4903.720417133696
 30
0.0
  0
CIRCLE
  5
20C
330
1F
100
AcDbEntity
  8
0
  6
Continuous
 62
     7
370
    25
100
AcDbCircle
 10
6274.0187553361
 20
4899.5440570332
 30
0.0
 40
11.72050000000033
  0
CIRCLE
  5
20D
330
1F
100
AcDbEntity
  8
0
  6
Continuous
 62
     7
370
    25
100
AcDbCircle
 10
6274.0187553361
 20
4899.5440570332
 30
0.0
 40
7.625000000000504
  0
SPLINE
  5
20E
330
1F
100
AcDbEntity
  8
0
  6
Continuous
 62
     7
370
    25
100
AcDbSpline
210
0.0
220
0.0
230
1.0
 70
     8
 71
     3
 72
    28
 73
    24
 74
     0
 42
0.000000001
 43
0.00000001
 40
0.0
 40
0.0
 40
0.0
 40
0.0
 40
0.0280927486580964
 40
0.077966618214552
 40
0.1281601707268563
 40
0.1791841651306113
 40
0.2297895629841452
 40
0.279432023354702
 40
0.3301452675640027
 40
0.3811380213770797
 40
0.4311656884637392
 40
0.4811933833741728
 40
0.5321861581983282
 40
0.5828993949723708
 40
0.6325418523890577
 40
0.683147244923675
 40
0.7341712369574351
 40
0.7843648107234255
 40
0.8342386874864127
 40
0.8851846077711204
 40
0.9359907271172669
 40
0.9856717703535389
 40
1.0
 40
1.0
 40
1.0
 40
1.0
 10
6276.816404810915
 20
4912.465155198402
 30
0.0
 10
6277.341195804077
 20
4912.331107002388
 30
0.0
 10
6278.797663432229
 20
4911.959079165305
 30
0.0
 10
6281.039899230704
 20
4910.865203777797
 30
0.0
 10
6283.350506149492
 20
4909.063439569638
 30
0.0
 10
6285.215190909203
 20
4906.777596062817
 30
0.0
 10
6286.525122032488
 20
4904.148782685113
 30
0.0
 10
6287.229347474648
 20
4901.304058834992
 30
0.0
 10
6287.296837997201
 20
4898.365746242327
 30
0.0
 10
6286.712018684792
 20
4895.477478979239
 30
0.0
 10
6285.513579241599
 20
4892.800969311802
 30
0.0
 10
6283.762130742118
 20
4890.448862678177
 30
0.0
 10
6281.526439979579
 20
4888.529036876374
 30
0.0
 10
6278.9287167501
 20
4887.154152289005
 30
0.0
 10
6276.102143308408
 20
4886.380816316603
 30
0.0
 10
6273.167885307577
 20
4886.24114134111
 30
0.0
 10
6270.264495043883
 20
4886.754552774469
 30
0.0
 10
6267.557936742909
 20
4887.887837099564
 30
0.0
 10
6265.167384710054
 20
4889.581365706633
 30
0.0
 10
6263.1838056909
 20
4891.766303755904
 30
0.0
 10
6261.783167201416
 20
4894.334432506434
 30
0.0
 10
6261.034776808193
 20
4896.45931365781
 30
0.0
 10
6260.972453897801
 20
4897.692579694991
 30
0.0
 10
6260.958503153915
 20
4897.968641556032
 30
0.0
  0
SPLINE
  5
20F
330
1F
100
AcDbEntity
  8
0
  6
Continuous
 62
     7
370
    25
100
AcDbSpline
210
0.0
220
0.0
230
1.0
 70
     8
 71
     3
 72
    12
 73
     8
 74
     0
 42
0.000000001
 43
0.00000001
 40
0.0
 40
0.0
 40
0.0
 40
0.0
 40
0.1689548104333431
 40
0.3353667216964609
 40
0.6509911458716827
 40
0.9709690479992933
 40
1.0
 40
1.0
 40
1.0
 40
1.0
 10
6262.384397131199
 20
4903.720417133696
 30
0.0
 10
6262.564240423048
 20
4904.171607726137
 30
0.0
 10
6262.921220227598
 20
4905.067198147381
 30
0.0
 10
6263.860774159588
 20
4906.694422589501
 30
0.0
 10
6265.353255587838
 20
4908.449970788457
 30
0.0
 10
6266.815355411837
 20
4909.747644064185
 30
0.0
 10
6267.727403469578
 20
4910.165224982152
 30
0.0
 10
6267.803268660599
 20
4910.199959836133
 30
0.0
  0
LINE
  5
210
330
1F
100
AcDbEntity
  8
0
  6
Continuous
 62
     7
370
    25
100
AcDbLine
 10
6285.3289127022
 20
4909.6788047619
 30
0.0
 11
6280.5194735199
 21
4911.0032488398
 31
0.0
  0
LINE
  5
211
330
1F
100
AcDbEntity
  8
0
  6
Continuous
 62
     7
370
    25
100
AcDbLine
 10
6274.1252096464
 20
4912.7641283713
 30
0.0
 11
6270.2999153778
 21
4913.817554786
 31
0.0
  0
LINE
  5
212
330
1F
100
AcDbEntity
  8
0
  6
Continuous
 62
     7
370
    25
100
AcDbLine
 10
6288.8363564059
 20
4896.2166785069
 30
0.0
 11
6285.3289127022
 21
4909.6788047619
 31
0.0
  0
LINE
  5
213
330
1F
100
AcDbEntity
  8
0
  6
Continuous
 62
     7
370
    25
100
AcDbLine
 10
6285.4068299428
 20
4892.8343179442
 30
0.0
 11
6288.8363564059
 21
4896.2166785069
 31
0.0
  0
LINE
  5
214
330
1F
100
AcDbEntity
  8
0
  6
Continuous
 62
     7
370
    25
100
AcDbLine
 10
6270.2999153778
 20
4913.817554786
 30
0.0
 11
6267.4749746591
 21
4911.0314651198
 31
0.0
  0
LINE
  5
215
330
1F
100
AcDbEntity
  8
0
  6
Continuous
 62
     7
370
    25
100
AcDbLine
 10
6262.70859797
 20
4889.4093083955
 30
0.0
 11
6267.3422583982
 21
4888.1332735337
 31
0.0
  0
LINE
  5
216
330
1F
100
AcDbEntity
  8
0
  6
Continuous
 62
     7
370
    25
100
AcDbLine
 10
6259.2011542663
 20
4902.8714365132
 30
0.0
 11
6262.70859797
 21
4889.4093083955
 31
0.0
  0
LINE
  5
217
330
1F
100
AcDbEntity
  8
0
  6
Continuous
 62
     7
370
    25
100
AcDbLine
 10
6262.6230643734
 20
4906.246285028
 30
0.0
 11
6259.2011542663
 21
4902.8714365132
 31
0.0
  0
LINE
  5
218
330
1F
100
AcDbEntity
  8
0
  6
Continuous
 62
     7
370
    25
100
AcDbLine
 10
6273.8399870802
 20
4886.3439011194
 30
0.0
 11
6277.7375952944
 21
4885.2705593027
 31
0.0
  0
LINE
  5
219
330
1F
100
AcDbEntity
  8
0
  6
Continuous
 62
     7
370
    25
100
AcDbLine
 10
6277.7375952944
 20
4885.2705593027
 30
0.0
 11
6280.7484484881
 21
4888.2400031008
 31
0.0
  0
LINE
  5
21A
330
1F
100
AcDbEntity
  8
0
  6
Continuous
 62
     7
370
    25
100
AcDbLine
 10
6220.989318718
 20
4852.5440591194
 30
0.0
 11
6220.989318718
 21
4852.0440581061
 31
0.0
  0
LINE
  5
21B
330
1F
100
AcDbEntity
  8
0
  6
Continuous
 62
     7
370
    25
100
AcDbLine
 10
6329.0187550381
 20
4852.5440591194
 30
0.0
 11
6328.2701616779
 21
4852.5440591194
 31
0.0
  0
LINE
  5
21C
330
1F
100
AcDbEntity
  8
0
  6
Continuous
 62
     7
370
    25
100
AcDbLine
 10
6344.0187556341
 20
4852.5440591194
 30
0.0
 11
6344.0187556341
 21
4852.0440581061
 31
0.0
  0
LINE
  5
21D
330
1F
100
AcDbEntity
  8
0
  6
Continuous
 62
     7
370
    25
100
AcDbLine
 10
6344.0187556341
 20
4852.5440591194
 30
0.0
 11
6329.0187550381
 21
4852.5440591194
 31
0.0
  0
LINE
  5
21E
330
1F
100
AcDbEntity
  8
0
  6
Continuous
 62
     7
370
    25
100
AcDbLine
 10
6204.0187550381
 20
4852.5440591194
 30
0.0
 11
6204.0187550381
 21
4852.0440581061
 31
0.0
  0
LINE
  5
21F
330
1F
100
AcDbEntity
  8
0
  6
Continuous
 62
     7
370
    25
100
AcDbLine
 10
6204.1008380845
 20
4852.5440591194
 30
0.0
 11
6204.0187550381
 21
4852.5440591194
 31
0.0
  0
LINE
  5
220
330
1F
100
AcDbEntity
  8
0
  6
Continuous
 62
     8
370
    25
100
AcDbLine
 10
6274.0187553361
 20
4843.3773937441
 30
0.0
 11
6201.6331387356
 21
4843.3773937441
 31
0.0
  0
LINE
  5
221
330
1F
100
AcDbEntity
  8
0
  6
Continuous
 62
     8
370
    25
100
AcDbLine
 10
6346.4043719366
 20
4843.3773937441
 30
0.0
 11
6274.0187553361
 21
4843.3773937441
 31
0.0
  0
LINE
  5
222
330
1F
100
AcDbEntity
  8
0
  6
Continuous
 62
     8
370
    25
100
AcDbLine
 10
6329.0187550381
 20
4852.5440591194
 30
0.0
 11
6329.0187550381
 21
4852.0440581061
 31
0.0
  0
ENDSEC
  0
SECTION
  2
OBJECTS
  0
DICTIONARY
  5
C
330
0
100
AcDbDictionary
281
     1
  3
ACAD_GROUP
350
D
  3
ACAD_LAYOUT
350
1A
  3
ACAD_MLINESTYLE
350
17
  3
ACAD_PLOTSETTINGS
350
19
  3
ACAD_PLOTSTYLENAME
350
E
  3
ACAD_SCALELIST
350
47
  0
DICTIONARY
  5
D
102
{ACAD_REACTORS
330
C
102
}
330
C
100
AcDbDictionary
281
     1
  0
DICTIONARY
  5
1A
102
{ACAD_REACTORS
330
C
102
}
330
C
100
AcDbDictionary
281
     1
  3
Layout1
350
1E
  3
Layout2
350
26
  3
Model
350
22
  0
DICTIONARY
  5
17
102
{ACAD_REACTORS
330
C
102
}
330
C
100
AcDbDictionary
281
     1
  3
Standard
350
18
  0
DICTIONARY
  5
19
102
{ACAD_REACTORS
330
C
102
}
330
C
100
AcDbDictionary
281
     1
  0
ACDBDICTIONARYWDFLT
  5
E
102
{ACAD_REACTORS
330
C
102
}
330
C
100
AcDbDictionary
281
     1
  3
Normal
350
F
100
AcDbDictionaryWithDefault
340
F
  0
DICTIONARY
  5
47
102
{ACAD_REACTORS
330
C
102
}
330
C
100
AcDbDictionary
281
     1
  3
A0
350
48
  3
A1
350
49
  3
A2
350
4A
  3
A3
350
4B
  3
A4
350
4C
  3
A5
350
4D
  3
A6
350
4E
  3
A7
350
4F
  3
A8
350
50
  3
A9
350
51
  3
B0
350
52
  3
B1
350
53
  3
B2
350
54
  3
B3
350
55
  3
B4
350
56
  3
B5
350
57
  3
B6
350
58
  3
B7
350
59
  3
B8
350
5A
  3
B9
350
5B
  3
C0
350
5C
  3
C1
350
5D
  3
C2
350
5E
  3
C3
350
5F
  3
C4
350
60
  3
C5
350
61
  3
C6
350
62
  3
C7
350
63
  3
C8
350
64
  3
C9
350
65
  3
D0
350
66
  3
D1
350
67
  3
D2
350
68
  0
LAYOUT
  5
1E
102
{ACAD_REACTORS
330
1A
102
}
330
1A
100
AcDbPlotSettings
  1

  2
none_device
  4

  6

 40
0.0
 41
0.0
 42
0.0
 43
0.0
 44
0.0
 45
0.0
 46
0.0
 47
0.0
 48
0.0
 49
0.0
140
0.0
141
0.0
142
1.0
143
1.0
 70
   688
 72
     1
 73
     0
 74
     5
  7

 75
    16
147
1.0
148
0.0
149
0.0
100
AcDbLayout
  1
Layout1
 70
     1
 71
     1
 10
0.0
 20
0.0
 11
420.0
 21
297.0
 12
0.0
 22
0.0
 32
0.0
 14
1.0000000000E+20
 24
1.0000000000E+20
 34
1.0000000000E+20
 15
-1.0000000000E+20
 25
-1.0000000000E+20
 35
-1.0000000000E+20
146
0.0
 13
0.0
 23
0.0
 33
0.0
 16
1.0
 26
0.0
 36
0.0
 17
0.0
 27
1.0
 37
0.0
 76
     0
330
1B
  0
LAYOUT
  5
26
102
{ACAD_REACTORS
330
1A
102
}
330
1A
100
AcDbPlotSettings
  1

  2
none_device
  4

  6

 40
0.0
 41
0.0
 42
0.0
 43
0.0
 44
0.0
 45
0.0
 46
0.0
 47
0.0
 48
0.0
 49
0.0
140
0.0
141
0.0
142
1.0
143
1.0
 70
   688
 72
     1
 73
     0
 74
     5
  7

 75
    16
147
1.0
148
0.0
149
0.0
100
AcDbLayout
  1
Layout2
 70
     1
 71
     2
 10
0.0
 20
0.0
 11
0.0
 21
0.0
 12
0.0
 22
0.0
 32
0.0
 14
0.0
 24
0.0
 34
0.0
 15
0.0
 25
0.0
 35
0.0
146
0.0
 13
0.0
 23
0.0
 33
0.0
 16
1.0
 26
0.0
 36
0.0
 17
0.0
 27
1.0
 37
0.0
 76
     0
330
23
  0
LAYOUT
  5
22
102
{ACAD_REACTORS
330
1A
102
}
330
1A
100
AcDbPlotSettings
  1

  2
none_device
  4
Letter_(8.50_x_11.00_Inches)
  6

 40
6.35
 41
6.35
 42
6.35000508
 43
6.35000508
 44
215.9
 45
279.4
 46
0.0
 47
0.0
 48
0.0
 49
0.0
140
0.0
141
0.0
142
1.0
143
1.0
 70
  1712
 72
     1
 73
     0
 74
     0
  7

 75
     0
147
1.0
148
0.0
149
0.0
100
AcDbLayout
  1
Model
 70
     1
 71
     0
 10
0.0
 20
0.0
 11
20000.0
 21
10000.0
 12
0.0
 22
0.0
 32
0.0
 14
0.0
 24
0.0
 34
0.0
 15
20000.0
 25
10000.0
 35
0.0
146
0.0
 13
0.0
 23
0.0
 33
0.0
 16
1.0
 26
0.0
 36
0.0
 17
0.0
 27
1.0
 37
0.0
 76
     0
330
1F
331
29
  0
MLINESTYLE
  5
18
102
{ACAD_REACTORS
330
17
102
}
330
17
100
AcDbMlineStyle
  2
Standard
 70
     0
  3

 62
   256
 51
90.0
 52
90.0
 71
     2
 49
0.5
 62
   256
  6
BYLAYER
 49
-0.5
 62
   256
  6
BYLAYER
  0
ACDBPLACEHOLDER
  5
F
102
{ACAD_REACTORS
330
E
102
}
330
E
  0
SCALE
  5
48
102
{ACAD_REACTORS
330
47
102
}
330
47
100
AcDbScale
 70
     0
300
1:1
140
1.0
141
1.0
290
     1
  0
SCALE
  5
49
102
{ACAD_REACTORS
330
47
102
}
330
47
100
AcDbScale
 70
     0
300
1:2
140
1.0
141
2.0
290
     0
  0
SCALE
  5
4A
102
{ACAD_REACTORS
330
47
102
}
330
47
100
AcDbScale
 70
     0
300
1:4
140
1.0
141
4.0
290
     0
  0
SCALE
  5
4B
102
{ACAD_REACTORS
330
47
102
}
330
47
100
AcDbScale
 70
     0
300
1:5
140
1.0
141
5.0
290
     0
  0
SCALE
  5
4C
102
{ACAD_REACTORS
330
47
102
}
330
47
100
AcDbScale
 70
     0
300
1:8
140
1.0
141
8.0
290
     0
  0
SCALE
  5
4D
102
{ACAD_REACTORS
330
47
102
}
330
47
100
AcDbScale
 70
     0
300
1:10
140
1.0
141
10.0
290
     0
  0
SCALE
  5
4E
102
{ACAD_REACTORS
330
47
102
}
330
47
100
AcDbScale
 70
     0
300
1:16
140
1.0
141
16.0
290
     0
  0
SCALE
  5
4F
102
{ACAD_REACTORS
330
47
102
}
330
47
100
AcDbScale
 70
     0
300
1:20
140
1.0
141
20.0
290
     0
  0
SCALE
  5
50
102
{ACAD_REACTORS
330
47
102
}
330
47
100
AcDbScale
 70
     0
300
1:30
140
1.0
141
30.0
290
     0
  0
SCALE
  5
51
102
{ACAD_REACTORS
330
47
102
}
330
47
100
AcDbScale
 70
     0
300
1:40
140
1.0
141
40.0
290
     0
  0
SCALE
  5
52
102
{ACAD_REACTORS
330
47
102
}
330
47
100
AcDbScale
 70
     0
300
1:50
140
1.0
141
50.0
290
     0
  0
SCALE
  5
53
102
{ACAD_REACTORS
330
47
102
}
330
47
100
AcDbScale
 70
     0
300
1:100
140
1.0
141
100.0
290
     0
  0
SCALE
  5
54
102
{ACAD_REACTORS
330
47
102
}
330
47
100
AcDbScale
 70
     0
300
2:1
140
2.0
141
1.0
290
     0
  0
SCALE
  5
55
102
{ACAD_REACTORS
330
47
102
}
330
47
100
AcDbScale
 70
     0
300
4:1
140
4.0
141
1.0
290
     0
  0
SCALE
  5
56
102
{ACAD_REACTORS
330
47
102
}
330
47
100
AcDbScale
 70
     0
300
8:1
140
8.0
141
1.0
290
     0
  0
SCALE
  5
57
102
{ACAD_REACTORS
330
47
102
}
330
47
100
AcDbScale
 70
     0
300
10:1
140
10.0
141
1.0
290
     0
  0
SCALE
  5
58
102
{ACAD_REACTORS
330
47
102
}
330
47
100
AcDbScale
 70
     0
300
100:1
140
100.0
141
1.0
290
     0
  0
SCALE
  5
59
102
{ACAD_REACTORS
330
47
102
}
330
47
100
AcDbScale
 70
     0
300
1/128" = 1'-0"
140
0.0078125
141
12.0
290
     0
  0
SCALE
  5
5A
102
{ACAD_REACTORS
330
47
102
}
330
47
100
AcDbScale
 70
     0
300
1/64" = 1'-0"
140
0.015625
141
12.0
290
     0
  0
SCALE
  5
5B
102
{ACAD_REACTORS
330
47
102
}
330
47
100
AcDbScale
 70
     0
300
1/32" = 1'-0"
140
0.03125
141
12.0
290
     0
  0
SCALE
  5
5C
102
{ACAD_REACTORS
330
47
102
}
330
47
100
AcDbScale
 70
     0
300
1/16" = 1'-0"
140
0.0625
141
12.0
290
     0
  0
SCALE
  5
5D
102
{ACAD_REACTORS
330
47
102
}
330
47
100
AcDbScale
 70
     0
300
3/32" = 1'-0"
140
0.09375
141
12.0
290
     0
  0
SCALE
  5
5E
102
{ACAD_REACTORS
330
47
102
}
330
47
100
AcDbScale
 70
     0
300
1/8" = 1'-0"
140
0.125
141
12.0
290
     0
  0
SCALE
  5
5F
102
{ACAD_REACTORS
330
47
102
}
330
47
100
AcDbScale
 70
     0
300
3/16" = 1'-0"
140
0.1875
141
12.0
290
     0
  0
SCALE
  5
60
102
{ACAD_REACTORS
330
47
102
}
330
47
100
AcDbScale
 70
     0
300
1/4" = 1'-0"
140
0.25
141
12.0
290
     0
  0
SCALE
  5
61
102
{ACAD_REACTORS
330
47
102
}
330
47
100
AcDbScale
 70
     0
300
3/8" = 1'-0"
140
0.375
141
12.0
290
     0
  0
SCALE
  5
62
102
{ACAD_REACTORS
330
47
102
}
330
47
100
AcDbScale
 70
     0
300
1/2" = 1'-0"
140
0.5
141
12.0
290
     0
  0
SCALE
  5
63
102
{ACAD_REACTORS
330
47
102
}
330
47
100
AcDbScale
 70
     0
300
3/4" = 1'-0"
140
0.75
141
12.0
290
     0
  0
SCALE
  5
64
102
{ACAD_REACTORS
330
47
102
}
330
47
100
AcDbScale
 70
     0
300
1" = 1'-0"
140
1.0
141
12.0
290
     0
  0
SCALE
  5
65
102
{ACAD_REACTORS
330
47
102
}
330
47
100
AcDbScale
 70
     0
300
1-1/2" = 1'-0"
140
1.5
141
12.0
290
     0
  0
SCALE
  5
66
102
{ACAD_REACTORS
330
47
102
}
330
47
100
AcDbScale
 70
     0
300
3" = 1'-0"
140
3.0
141
12.0
290
     0
  0
SCALE
  5
67
102
{ACAD_REACTORS
330
47
102
}
330
47
100
AcDbScale
 70
     0
300
6" = 1'-0"
140
6.0
141
12.0
290
     0
  0
SCALE
  5
68
102
{ACAD_REACTORS
330
47
102
}
330
47
100
AcDbScale
 70
     0
300
1'-0" = 1'-0"
140
12.0
141
12.0
290
     0
  0
ENDSEC
  0
EOF
