  0
SECTION
  2
HEADER
  9
$ACADVER
  1
AC1015
  9
$ACADMAINTVER
 70
     6
  9
$DWGCODEPAGE
  3
ANSI_1250
  9
$INSBASE
 10
0.0
 20
0.0
 30
0.0
  9
$EXTMIN
 10
0.0
 20
0.0
 30
0.0
  9
$EXTMAX
 10
20000.0
 20
10000.0
 30
0.0
  9
$LIMMIN
 10
0.0
 20
0.0
  9
$LIMMAX
 10
20000.0
 20
10000.0
  9
$ORTHOMODE
 70
     0
  9
$REGENMODE
 70
     1
  9
$FILLMODE
 70
     1
  9
$QTEXTMODE
 70
     0
  9
$MIRRTEXT
 70
     1
  9
$LTSCALE
 40
1.0
  9
$ATTMODE
 70
     1
  9
$TEXTSIZE
 40
2.0
  9
$TRACEWID
 40
1.0
  9
$TEXTSTYLE
  7
STANDARD
  9
$CLAYER
  8
0
  9
$CELTYPE
  6
ByLayer
  9
$CECOLOR
 62
   256
  9
$CELTSCALE
 40
1.0
  9
$DISPSILH
 70
     0
  9
$DIMSCALE
 40
1.0
  9
$DIMASZ
 40
2.0
  9
$DIMEXO
 40
1.0
  9
$DIMDLI
 40
3.75
  9
$DIMRND
 40
0.0
  9
$DIMDLE
 40
0.0
  9
$DIMEXE
 40
1.0
  9
$DIMTP
 40
0.0
  9
$DIMTM
 40
0.0
  9
$DIMTXT
 40
2.0
  9
$DIMCEN
 40
2.5
  9
$DIMTSZ
 40
0.0
  9
$DIMTOL
 70
     0
  9
$DIMLIM
 70
     0
  9
$DIMTIH
 70
     1
  9
$DIMTOH
 70
     1
  9
$DIMSE1
 70
     0
  9
$DIMSE2
 70
     0
  9
$DIMTAD
 70
     1
  9
$DIMZIN
 70
     0
  9
$DIMBLK
  1

  9
$DIMASO
 70
     1
  9
$DIMSHO
 70
     1
  9
$DIMPOST
  1

  9
$DIMAPOST
  1

  9
$DIMALT
 70
     0
  9
$DIMALTD
 70
     3
  9
$DIMALTF
 40
0.0393700787
  9
$DIMLFAC
 40
1.0
  9
$DIMTOFL
 70
     1
  9
$DIMTVP
 40
0.0
  9
$DIMTIX
 70
     0
  9
$DIMSOXD
 70
     0
  9
$DIMSAH
 70
     0
  9
$DIMBLK1
  1

  9
$DIMBLK2
  1

  9
$DIMSTYLE
  2
ISO-25
  9
$DIMCLRD
 70
     0
  9
$DIMCLRE
 70
     0
  9
$DIMCLRT
 70
     0
  9
$DIMTFAC
 40
1.0
  9
$DIMGAP
 40
1.524
  9
$DIMJUST
 70
     0
  9
$DIMSD1
 70
     0
  9
$DIMSD2
 70
     0
  9
$DIMTOLJ
 70
     0
  9
$DIMTZIN
 70
     0
  9
$DIMALTZ
 70
     0
  9
$DIMALTTZ
 70
     0
  9
$DIMUPT
 70
     0
  9
$DIMDEC
 70
     2
  9
$DIMTDEC
 70
     0
  9
$DIMALTU
 70
     2
  9
$DIMALTTD
 70
     3
  9
$DIMTXSTY
  7
STANDARD
  9
$DIMAUNIT
 70
     0
  9
$DIMADEC
 70
     2
  9
$DIMALTRND
 40
0.0
  9
$DIMAZIN
 70
     0
  9
$DIMDSEP
 70
    44
  9
$DIMATFIT
 70
     3
  9
$DIMFRAC
 70
     0
  9
$DIMLDRBLK
  1

  9
$DIMLUNIT
 70
     2
  9
$DIMLWD
 70
    -2
  9
$DIMLWE
 70
    -2
  9
$DIMTMOVE
 70
     0
  9
$LUNITS
 70
     2
  9
$LUPREC
 70
     3
  9
$SKETCHINC
 40
1.0
  9
$FILLETRAD
 40
10.0
  9
$AUNITS
 70
     0
  9
$AUPREC
 70
     2
  9
$MENU
  1
.
  9
$ELEVATION
 40
0.0
  9
$PELEVATION
 40
0.0
  9
$THICKNESS
 40
0.0
  9
$LIMCHECK
 70
     0
  9
$CHAMFERA
 40
0.0
  9
$CHAMFERB
 40
0.0
  9
$CHAMFERC
 40
0.0
  9
$CHAMFERD
 40
0.0
  9
$SKPOLY
 70
     0
  9
$TDCREATE
 40
2460853.358755498
  9
$TDUCREATE
 40
2460853.275422164
  9
$TDUPDATE
 40
2460853.358756945
  9
$TDUUPDATE
 40
2460853.275423611
  9
$TDINDWG
 40
0.0000000116
  9
$TDUSRTIMER
 40
0.0000000116
  9
$USRTIMER
 70
     1
  9
$ANGBASE
 50
0.0
  9
$ANGDIR
 70
     0
  9
$PDMODE
 70
     0
  9
$PDSIZE
 40
-1.0
  9
$PLINEWID
 40
0.0
  9
$SPLFRAME
 70
     0
  9
$SPLINETYPE
 70
     6
  9
$SPLINESEGS
 70
     8
  9
$HANDSEED
  5
4B6
  9
$SURFTAB1
 70
     6
  9
$SURFTAB2
 70
     6
  9
$SURFTYPE
 70
     6
  9
$SURFU
 70
     6
  9
$SURFV
 70
     6
  9
$UCSBASE
  2

  9
$UCSNAME
  2

  9
$UCSORG
 10
0.0
 20
0.0
 30
0.0
  9
$UCSXDIR
 10
1.0
 20
0.0
 30
0.0
  9
$UCSYDIR
 10
0.0
 20
1.0
 30
0.0
  9
$UCSORTHOREF
  2

  9
$UCSORTHOVIEW
 70
     0
  9
$UCSORGTOP
 10
0.0
 20
0.0
 30
0.0
  9
$UCSORGBOTTOM
 10
0.0
 20
0.0
 30
0.0
  9
$UCSORGLEFT
 10
0.0
 20
0.0
 30
0.0
  9
$UCSORGRIGHT
 10
0.0
 20
0.0
 30
0.0
  9
$UCSORGFRONT
 10
0.0
 20
0.0
 30
0.0
  9
$UCSORGBACK
 10
0.0
 20
0.0
 30
0.0
  9
$PUCSBASE
  2

  9
$PUCSNAME
  2

  9
$PUCSORG
 10
0.0
 20
0.0
 30
0.0
  9
$PUCSXDIR
 10
1.0
 20
0.0
 30
0.0
  9
$PUCSYDIR
 10
0.0
 20
1.0
 30
0.0
  9
$PUCSORTHOREF
  2

  9
$PUCSORTHOVIEW
 70
     0
  9
$PUCSORGTOP
 10
0.0
 20
0.0
 30
0.0
  9
$PUCSORGBOTTOM
 10
0.0
 20
0.0
 30
0.0
  9
$PUCSORGLEFT
 10
0.0
 20
0.0
 30
0.0
  9
$PUCSORGRIGHT
 10
0.0
 20
0.0
 30
0.0
  9
$PUCSORGFRONT
 10
0.0
 20
0.0
 30
0.0
  9
$PUCSORGBACK
 10
0.0
 20
0.0
 30
0.0
  9
$USERI1
 70
     0
  9
$USERI2
 70
     0
  9
$USERI3
 70
     0
  9
$USERI4
 70
     0
  9
$USERI5
 70
     0
  9
$USERR1
 40
0.0
  9
$USERR2
 40
0.0
  9
$USERR3
 40
0.0
  9
$USERR4
 40
0.0
  9
$USERR5
 40
0.0
  9
$WORLDVIEW
 70
     1
  9
$SHADEDGE
 70
     3
  9
$SHADEDIF
 70
    70
  9
$TILEMODE
 70
     1
  9
$MAXACTVP
 70
    64
  9
$PINSBASE
 10
0.0
 20
0.0
 30
0.0
  9
$PLIMCHECK
 70
     0
  9
$PEXTMIN
 10
1.0000000000E+20
 20
1.0000000000E+20
 30
1.0000000000E+20
  9
$PEXTMAX
 10
-1.0000000000E+20
 20
-1.0000000000E+20
 30
-1.0000000000E+20
  9
$PLIMMIN
 10
0.0
 20
0.0
  9
$PLIMMAX
 10
420.0
 20
297.0
  9
$UNITMODE
 70
     0
  9
$VISRETAIN
 70
     1
  9
$PLINEGEN
 70
     0
  9
$PSLTSCALE
 70
     1
  9
$TREEDEPTH
 70
  3020
  9
$CMLSTYLE
  2
Standard
  9
$CMLJUST
 70
     0
  9
$CMLSCALE
 40
20.0
  9
$PROXYGRAPHICS
 70
     1
  9
$MEASUREMENT
 70
     1
  9
$CELWEIGHT
370
    -1
  9
$ENDCAPS
280
     0
  9
$JOINSTYLE
280
     0
  9
$LWDISPLAY
290
     1
  9
$INSUNITS
 70
     4
  9
$HYPERLINKBASE
  1

  9
$STYLESHEET
  1

  9
$XEDIT
290
     1
  9
$CEPSNTYPE
380
     0
  9
$PSTYLEMODE
290
     1
  9
$FINGERPRINTGUID
  2
{971e0d6e-5f2e-42cd-ab6c-206c6c9454d2}
  9
$VERSIONGUID
  2
{FAEB1C32-E019-11D5-929B-00C0DF256EC4}
  9
$EXTNAMES
290
     1
  9
$PSVPSCALE
 40
0.0
  9
$OLESTARTUP
290
     0
  0
ENDSEC
  0
SECTION
  2
CLASSES
  0
CLASS
  1
ACDBDICTIONARYWDFLT
  2
AcDbDictionaryWithDefault
  3
ObjectDBX Classes
 90
        0
280
     0
281
     0
  0
CLASS
  1
VISUALSTYLE
  2
AcDbVisualStyle
  3
ObjectDBX Classes
 90
     4095
280
     0
281
     0
  0
CLASS
  1
MATERIAL
  2
AcDbMaterial
  3
ObjectDBX Classes
 90
     1153
280
     0
281
     0
  0
CLASS
  1
SCALE
  2
AcDbScale
  3
ObjectDBX Classes
 90
     1153
280
     0
281
     0
  0
CLASS
  1
TABLESTYLE
  2
AcDbTableStyle
  3
ObjectDBX Classes
 90
     4095
280
     0
281
     0
  0
CLASS
  1
MLEADERSTYLE
  2
AcDbMLeaderStyle
  3
ACDB_MLEADERSTYLE_CLASS
 90
     4095
280
     0
281
     0
  0
CLASS
  1
SUN
  2
AcDbSun
  3
SCENEOE
 90
     1153
280
     0
281
     0
  0
CLASS
  1
ACDBPLACEHOLDER
  2
AcDbPlaceHolder
  3
ObjectDBX Classes
 90
        0
280
     0
281
     0
  0
CLASS
  1
LAYOUT
  2
AcDbLayout
  3
ObjectDBX Classes
 90
        0
280
     0
281
     0
  0
ENDSEC
  0
SECTION
  2
TABLES
  0
TABLE
  2
VPORT
  5
8
330
0
100
AcDbSymbolTable
 70
     1
  0
VPORT
  5
29
330
8
100
AcDbSymbolTableRecord
100
AcDbViewportTableRecord
  2
*Active
 70
     0
 10
0.0
 20
0.0
 11
1.0
 21
1.0
 12
10000.0
 22
5000.0
 13
0.0
 23
0.0
 14
10.0
 24
10.0
 15
10.0
 25
10.0
 16
0.0
 26
0.0
 36
1.0
 17
0.0
 27
0.0
 37
0.0
 40
10000.0
 41
2.0
 42
50.0
 43
0.0
 44
0.0
 50
0.0
 51
0.0
 71
     0
 72
  2000
 73
     1
 74
     3
 75
     0
 76
     0
 77
     0
 78
     0
281
     0
 65
     1
110
0.0
120
0.0
130
0.0
111
1.0
121
0.0
131
0.0
112
0.0
122
1.0
132
0.0
 79
     0
146
0.0
  0
ENDTAB
  0
TABLE
  2
LTYPE
  5
5
330
0
100
AcDbSymbolTable
 70
    10
  0
LTYPE
  5
14
330
5
100
AcDbSymbolTableRecord
100
AcDbLinetypeTableRecord
  2
ByBlock
 70
     0
  3

 72
    65
 73
     0
 40
0.0
  0
LTYPE
  5
15
330
5
100
AcDbSymbolTableRecord
100
AcDbLinetypeTableRecord
  2
ByLayer
 70
     0
  3

 72
    65
 73
     0
 40
0.0
  0
LTYPE
  5
16
330
5
100
AcDbSymbolTableRecord
100
AcDbLinetypeTableRecord
  2
Continuous
 70
     0
  3
Solid line
 72
    65
 73
     0
 40
0.0
  0
LTYPE
  5
6E
330
5
100
AcDbSymbolTableRecord
100
AcDbLinetypeTableRecord
  2
SLD-Plná
 70
     0
  3
SolidWorks Line Style
 72
    65
 73
     0
 40
0.0
  0
LTYPE
  5
6F
330
5
100
AcDbSymbolTableRecord
100
AcDbLinetypeTableRecord
  2
SLD-Čárkovaná
 70
     0
  3
SolidWorks Line Style
 72
    65
 73
     2
 40
1.905
 49
1.27
 74
     0
 49
-0.635
 74
     0
  0
LTYPE
  5
70
330
5
100
AcDbSymbolTableRecord
100
AcDbLinetypeTableRecord
  2
SLD-Dvojitě-čerchovaná
 70
     0
  3
SolidWorks Line Style
 72
    65
 73
     6
 40
12.7
 49
6.35
 74
     0
 49
-1.27
 74
     0
 49
1.27
 74
     0
 49
-1.27
 74
     0
 49
1.27
 74
     0
 49
-1.27
 74
     0
  0
LTYPE
  5
71
330
5
100
AcDbSymbolTableRecord
100
AcDbLinetypeTableRecord
  2
SLD-Čerchovaná
 70
     0
  3
SolidWorks Line Style
 72
    65
 73
     4
 40
10.16
 49
6.35
 74
     0
 49
-1.27
 74
     0
 49
1.27
 74
     0
 49
-1.27
 74
     0
  0
LTYPE
  5
72
330
5
100
AcDbSymbolTableRecord
100
AcDbLinetypeTableRecord
  2
SLD-Osa
 70
     0
  3
SolidWorks Line Style
 72
    65
 73
     4
 40
19.05
 49
15.24
 74
     0
 49
-1.27
 74
     0
 49
1.27
 74
     0
 49
-1.27
 74
     0
  0
LTYPE
  5
73
330
5
100
AcDbSymbolTableRecord
100
AcDbLinetypeTableRecord
  2
SLD-Tečkovaná
 70
     0
  3
SolidWorks Line Style
 72
    65
 73
     2
 40
0.635
 49
0.0
 74
     0
 49
-0.635
 74
     0
  0
LTYPE
  5
74
330
5
100
AcDbSymbolTableRecord
100
AcDbLinetypeTableRecord
  2
SLD-Hrubá-tenká-čerchovaná
 70
     0
  3
SolidWorks Line Style
 72
    65
 73
     4
 40
10.16
 49
6.35
 74
     0
 49
-1.27
 74
     0
 49
1.27
 74
     0
 49
-1.27
 74
     0
  0
LTYPE
  5
75
330
5
100
AcDbSymbolTableRecord
100
AcDbLinetypeTableRecord
  2
SLD-Řez-1
 70
     0
  3
SolidWorks Line Style
 72
    65
 73
     4
 40
8.128
 49
5.08
 74
     0
 49
-1.016
 74
     0
 49
1.016
 74
     0
 49
-1.016
 74
     0
  0
LTYPE
  5
76
330
5
100
AcDbSymbolTableRecord
100
AcDbLinetypeTableRecord
  2
SLD-Řez-2
 70
     0
  3
SolidWorks Line Style
 72
    65
 73
     2
 40
5080.0
 49
0.0
 74
     0
 49
-5080.0
 74
     0
  0
ENDTAB
  0
TABLE
  2
LAYER
  5
2
330
0
100
AcDbSymbolTable
 70
    13
  0
LAYER
  5
10
330
2
100
AcDbSymbolTableRecord
100
AcDbLayerTableRecord
  2
0
 70
     0
 62
     7
  6
Continuous
370
    -3
390
F
  0
LAYER
  5
77
330
2
100
AcDbSymbolTableRecord
100
AcDbLayerTableRecord
  2
FORMAT
 70
     0
 62
     7
  6
SLD-Plná
370
    -3
390
F
  0
LAYER
  5
78
330
2
100
AcDbSymbolTableRecord
100
AcDbLayerTableRecord
  2
OSA
 70
     0
 62
     7
  6
SLD-Hrubá-tenká-čerchovaná
370
    -3
390
F
  0
LAYER
  5
79
330
2
100
AcDbSymbolTableRecord
100
AcDbLayerTableRecord
  2
0_35
 70
     0
 62
     7
  6
SLD-Plná
370
    35
390
F
  0
LAYER
  5
7A
330
2
100
AcDbSymbolTableRecord
100
AcDbLayerTableRecord
  2
0_5
 70
     0
 62
     7
  6
SLD-Plná
370
    50
390
F
  0
LAYER
  5
7B
330
2
100
AcDbSymbolTableRecord
100
AcDbLayerTableRecord
  2
0_25
 70
     0
 62
     7
  6
SLD-Plná
370
    25
390
F
  0
LAYER
  5
7C
330
2
100
AcDbSymbolTableRecord
100
AcDbLayerTableRecord
  2
0_18
 70
     0
 62
     7
  6
SLD-Plná
370
    -3
390
F
  0
LAYER
  5
7D
330
2
100
AcDbSymbolTableRecord
100
AcDbLayerTableRecord
  2
SLD-0
 70
     0
 62
   179
  6
SLD-Plná
370
    -3
390
F
  0
LAYER
  5
7E
330
2
100
AcDbSymbolTableRecord
100
AcDbLayerTableRecord
  2
KOTY
 70
     0
 62
     7
  6
SLD-Plná
370
    -3
390
F
  0
LAYER
  5
7F
330
2
100
AcDbSymbolTableRecord
100
AcDbLayerTableRecord
  2
SILNA
 70
     0
 62
   179
  6
SLD-Plná
370
    -3
390
F
  0
LAYER
  5
80
330
2
100
AcDbSymbolTableRecord
100
AcDbLayerTableRecord
  2
0_18_1
 70
     0
 62
   179
  6
SLD-Plná
370
    -3
390
F
  0
LAYER
  5
81
330
2
100
AcDbSymbolTableRecord
100
AcDbLayerTableRecord
  2
0_35_1
 70
     0
 62
   179
  6
SLD-Plná
370
    35
390
F
  0
LAYER
  5
82
330
2
100
AcDbSymbolTableRecord
100
AcDbLayerTableRecord
  2
0_5_1
 70
     0
 62
   179
  6
SLD-Plná
370
    50
390
F
  0
ENDTAB
  0
TABLE
  2
STYLE
  5
3
330
0
100
AcDbSymbolTable
 70
     1
  0
STYLE
  5
11
330
3
100
AcDbSymbolTableRecord
100
AcDbTextStyleTableRecord
  2
STANDARD
 70
     0
 40
0.0
 41
1.0
 50
0.0
 71
     0
 42
2.0
  3
SWISOP1.TTF
  4

1001
ACAD
1000
SWISOP1
1071
        2
  0
ENDTAB
  0
TABLE
  2
VIEW
  5
6
330
0
100
AcDbSymbolTable
 70
     0
  0
ENDTAB
  0
TABLE
  2
UCS
  5
7
330
0
100
AcDbSymbolTable
 70
     0
  0
ENDTAB
  0
TABLE
  2
APPID
  5
9
330
0
100
AcDbSymbolTable
 70
     1
  0
APPID
  5
12
330
9
100
AcDbSymbolTableRecord
100
AcDbRegAppTableRecord
  2
ACAD
 70
     0
  0
ENDTAB
  0
TABLE
  2
DIMSTYLE
  5
A
330
0
100
AcDbSymbolTable
 70
     1
100
AcDbDimStyleTable
  0
DIMSTYLE
105
27
330
A
100
AcDbSymbolTableRecord
100
AcDbDimStyleTableRecord
  2
ISO-25
 70
     0
 41
2.5
 42
0.625
 43
3.75
 44
1.25
 73
     0
 74
     0
 77
     1
 78
     8
140
2.5
141
2.5
143
0.0393700787
147
0.625
171
     3
172
     1
178
     0
271
     2
272
     2
274
     3
278
    44
283
     0
284
     8
340
11
  0
ENDTAB
  0
TABLE
  2
BLOCK_RECORD
  5
1
330
0
100
AcDbSymbolTable
 70
     1
  0
BLOCK_RECORD
  5
1F
330
1
100
AcDbSymbolTableRecord
100
AcDbBlockTableRecord
  2
*Model_Space
340
22
  0
BLOCK_RECORD
  5
1B
330
1
100
AcDbSymbolTableRecord
100
AcDbBlockTableRecord
  2
*Paper_Space
340
1E
  0
BLOCK_RECORD
  5
23
330
1
100
AcDbSymbolTableRecord
100
AcDbBlockTableRecord
  2
*Paper_Space0
340
26
  0
ENDTAB
  0
ENDSEC
  0
SECTION
  2
BLOCKS
  0
BLOCK
  5
20
330
1F
100
AcDbEntity
  8
0
100
AcDbBlockBegin
  2
*Model_Space
 70
     0
 10
0.0
 20
0.0
 30
0.0
  3
*Model_Space
  1

  0
ENDBLK
  5
21
330
1F
100
AcDbEntity
  8
0
100
AcDbBlockEnd
  0
BLOCK
  5
1C
330
1B
100
AcDbEntity
 67
     1
  8
0
100
AcDbBlockBegin
  2
*Paper_Space
 70
     0
 10
0.0
 20
0.0
 30
0.0
  3
*Paper_Space
  1

  0
ENDBLK
  5
1D
330
1B
100
AcDbEntity
 67
     1
  8
0
100
AcDbBlockEnd
  0
BLOCK
  5
24
330
23
100
AcDbEntity
  8
0
100
AcDbBlockBegin
  2
*Paper_Space0
 70
     0
 10
0.0
 20
0.0
 30
0.0
  3
*Paper_Space0
  1

  0
ENDBLK
  5
25
330
23
100
AcDbEntity
  8
0
100
AcDbBlockEnd
  0
ENDSEC
  0
SECTION
  2
ENTITIES
  0
LINE
  5
83
330
1F
100
AcDbEntity
  8
0
  6
SLD-Plná
 62
     7
370
    25
100
AcDbLine
 10
6227.8074465929
 20
5242.0231370121
 30
0.0
 11
6229.1282010196
 21
5240.5164311099
 31
0.0
  0
CIRCLE
  5
84
330
1F
100
AcDbEntity
  8
0
  6
SLD-Plná
 62
     7
370
    25
100
AcDbCircle
 10
6233.5187553361
 20
5245.6994545926
 30
0.0
 40
8.399999999998865
  0
LINE
  5
85
330
1F
100
AcDbEntity
  8
0
  6
SLD-Plná
 62
     7
370
    25
100
AcDbLine
 10
6227.8074465929
 20
5280.0231370121
 30
0.0
 11
6229.1282010196
 21
5278.5164311099
 31
0.0
  0
CIRCLE
  5
86
330
1F
100
AcDbEntity
  8
0
  6
SLD-Plná
 62
     7
370
    25
100
AcDbCircle
 10
6233.5187553361
 20
5283.6994545926
 30
0.0
 40
8.399999999999654
  0
LINE
  5
87
330
1F
100
AcDbEntity
  8
0
  6
SLD-Plná
 62
     7
370
    25
100
AcDbLine
 10
6227.8074465929
 20
5261.0231370121
 30
0.0
 11
6229.1282010196
 21
5259.5164311099
 31
0.0
  0
CIRCLE
  5
88
330
1F
100
AcDbEntity
  8
0
  6
SLD-Plná
 62
     7
370
    25
100
AcDbCircle
 10
6233.5187553361
 20
5264.6994545926
 30
0.0
 40
8.399999999999654
  0
LINE
  5
89
330
1F
100
AcDbEntity
  8
0
  6
SLD-Plná
 62
     7
370
    25
100
AcDbLine
 10
6223.9854220028
 20
5367.8494545926
 30
0.0
 11
6215.6520886694
 21
5367.8494545926
 31
0.0
  0
LINE
  5
8A
330
1F
100
AcDbEntity
  8
0
  6
SLD-Plná
 62
     7
370
    25
100
AcDbLine
 10
6240.6520886694
 20
5367.8494545926
 30
0.0
 11
6232.3187553361
 21
5367.8494545926
 31
0.0
  0
LINE
  5
8B
330
1F
100
AcDbEntity
  8
0
  6
SLD-Plná
 62
     7
370
    25
100
AcDbLine
 10
6257.3187553361
 20
5367.8494545926
 30
0.0
 11
6248.9854220028
 21
5367.8494545926
 31
0.0
  0
ARC
  5
8C
330
1F
100
AcDbEntity
  8
0
  6
SLD-Plná
 62
     7
370
    25
100
AcDbCircle
 10
6257.535400015
 20
5367.4328099137
 30
0.0
 40
0.2166446789415204
100
AcDbArc
 50
37.0509748057
 51
180.0
  0
ARC
  5
8D
330
1F
100
AcDbEntity
  8
0
  6
SLD-Plná
 62
     7
370
    25
100
AcDbCircle
 10
6253.3187553361
 20
5364.2494545926
 30
0.0
 40
5.500000000000812
100
AcDbArc
 50
354.2608295225
 51
37.0509748058
  0
LINE
  5
8E
330
1F
100
AcDbEntity
  8
0
  6
SLD-Plná
 62
     7
370
    25
100
AcDbLine
 10
6307.3854220029
 20
5367.8494545926
 30
0.0
 11
6299.0520886695
 21
5367.8494545926
 31
0.0
  0
LINE
  5
8F
330
1F
100
AcDbEntity
  8
0
  6
SLD-Plná
 62
     7
370
    25
100
AcDbLine
 10
6324.0520886695
 20
5367.8494545926
 30
0.0
 11
6315.7187553362
 21
5367.8494545926
 31
0.0
  0
LINE
  5
90
330
1F
100
AcDbEntity
  8
0
  6
SLD-Plná
 62
     7
370
    25
100
AcDbLine
 10
6340.7187553362
 20
5367.8494545926
 30
0.0
 11
6332.3854220029
 21
5367.8494545926
 31
0.0
  0
ARC
  5
91
330
1F
100
AcDbEntity
  8
0
  6
SLD-Plná
 62
     7
370
    25
100
AcDbCircle
 10
6340.9354000151
 20
5367.4328099137
 30
0.0
 40
0.2166446789415204
100
AcDbArc
 50
37.0509748057
 51
180.0
  0
ARC
  5
92
330
1F
100
AcDbEntity
  8
0
  6
SLD-Plná
 62
     7
370
    25
100
AcDbCircle
 10
6336.7187553362
 20
5364.2494545926
 30
0.0
 40
5.499999999999907
100
AcDbArc
 50
354.2608295225
 51
37.0509748058
  0
LINE
  5
93
330
1F
100
AcDbEntity
  8
0
  6
SLD-Plná
 62
     7
370
    25
100
AcDbLine
 10
6215.6520886694
 20
5367.8494545927
 30
0.0
 11
6207.3187553361
 21
5367.8494545927
 31
0.0
  0
LINE
  5
94
330
1F
100
AcDbEntity
  8
0
  6
SLD-Plná
 62
     7
370
    25
100
AcDbLine
 10
6232.3187553361
 20
5367.8494545927
 30
0.0
 11
6223.9854220028
 21
5367.8494545927
 31
0.0
  0
LINE
  5
95
330
1F
100
AcDbEntity
  8
0
  6
SLD-Plná
 62
     7
370
    25
100
AcDbLine
 10
6248.9854220028
 20
5367.8494545927
 30
0.0
 11
6240.6520886694
 21
5367.8494545927
 31
0.0
  0
ARC
  5
96
330
1F
100
AcDbEntity
  8
0
  6
SLD-Plná
 62
     7
370
    25
100
AcDbCircle
 10
6207.1021106571
 20
5367.4328099137
 30
0.0
 40
0.2166446789415204
100
AcDbArc
 50
0.0
 51
142.9490251943
  0
ARC
  5
97
330
1F
100
AcDbEntity
  8
0
  6
SLD-Plná
 62
     7
370
    25
100
AcDbCircle
 10
6211.3187553361
 20
5364.2494545927
 30
0.0
 40
5.500000000000196
100
AcDbArc
 50
142.9490251942
 51
185.7391704777
  0
LINE
  5
98
330
1F
100
AcDbEntity
  8
0
  6
SLD-Plná
 62
     7
370
    25
100
AcDbLine
 10
6299.0520886695
 20
5367.8494545927
 30
0.0
 11
6290.7187553362
 21
5367.8494545927
 31
0.0
  0
LINE
  5
99
330
1F
100
AcDbEntity
  8
0
  6
SLD-Plná
 62
     7
370
    25
100
AcDbLine
 10
6315.7187553362
 20
5367.8494545927
 30
0.0
 11
6307.3854220029
 21
5367.8494545927
 31
0.0
  0
LINE
  5
9A
330
1F
100
AcDbEntity
  8
0
  6
SLD-Plná
 62
     7
370
    25
100
AcDbLine
 10
6332.3854220029
 20
5367.8494545927
 30
0.0
 11
6324.0520886695
 21
5367.8494545927
 31
0.0
  0
ARC
  5
9B
330
1F
100
AcDbEntity
  8
0
  6
SLD-Plná
 62
     7
370
    25
100
AcDbCircle
 10
6290.5021106573
 20
5367.4328099137
 30
0.0
 40
0.2166446789424299
100
AcDbArc
 50
0.0
 51
142.9490251943
  0
ARC
  5
9C
330
1F
100
AcDbEntity
  8
0
  6
SLD-Plná
 62
     7
370
    25
100
AcDbCircle
 10
6294.7187553362
 20
5364.2494545927
 30
0.0
 40
5.500000000000196
100
AcDbArc
 50
142.9490251942
 51
185.7391704777
  0
LINE
  5
9D
330
1F
100
AcDbEntity
  8
0
  6
SLD-Plná
 62
     7
370
    25
100
AcDbLine
 10
6170.829427504
 20
5384.9537876875
 30
0.0
 11
6170.7820603313
 21
5384.4361495973
 31
0.0
  0
LINE
  5
9E
330
1F
100
AcDbEntity
  8
0
  6
SLD-Plná
 62
     7
370
    25
100
AcDbLine
 10
6377.7730884312
 20
5384.3887824245
 30
0.0
 11
6377.255450341
 21
5384.4361495973
 31
0.0
  0
LINE
  5
9F
330
1F
100
AcDbEntity
  8
0
  6
SLD-Plná
 62
     7
370
    25
100
AcDbLine
 10
6377.7730884312
 20
5384.3887824245
 30
0.0
 11
6377.7730884312
 21
5043.0101267603
 31
0.0
  0
LINE
  5
A0
330
1F
100
AcDbEntity
  8
0
  6
SLD-Plná
 62
     7
370
    25
100
AcDbLine
 10
6377.2554503409
 20
5042.9627595877
 30
0.0
 11
6377.7730884312
 21
5043.0101267603
 31
0.0
  0
LINE
  5
A1
330
1F
100
AcDbEntity
  8
0
  6
SLD-Plná
 62
     7
370
    25
100
AcDbLine
 10
6377.255450341
 20
5384.4361495973
 30
0.0
 11
6377.2554503409
 21
5042.9627595876
 31
0.0
  0
LINE
  5
A2
330
1F
100
AcDbEntity
  8
0
  6
SLD-Plná
 62
     7
370
    25
100
AcDbLine
 10
6170.7820603313
 20
5384.4361495973
 30
0.0
 11
6170.2644222411
 21
5384.3887824245
 31
0.0
  0
LINE
  5
A3
330
1F
100
AcDbEntity
  8
0
  6
SLD-Plná
 62
     7
370
    25
100
AcDbLine
 10
6170.2644222411
 20
5043.0101267604
 30
0.0
 11
6170.7820603313
 21
5042.9627595877
 31
0.0
  0
LINE
  5
A4
330
1F
100
AcDbEntity
  8
0
  6
SLD-Plná
 62
     7
370
    25
100
AcDbLine
 10
6170.2644222411
 20
5043.0101267604
 30
0.0
 11
6170.2644222411
 21
5384.3887824245
 31
0.0
  0
LINE
  5
A5
330
1F
100
AcDbEntity
  8
0
  6
SLD-Plná
 62
     7
370
    25
100
AcDbLine
 10
6170.7820603313
 20
5042.9627595876
 30
0.0
 11
6170.7820603313
 21
5384.4361495973
 31
0.0
  0
LINE
  5
A6
330
1F
100
AcDbEntity
  8
0
  6
SLD-Plná
 62
     7
370
    25
100
AcDbLine
 10
6170.829427504
 20
5384.9537876875
 30
0.0
 11
6377.2080831682
 21
5384.9537876875
 31
0.0
  0
LINE
  5
A7
330
1F
100
AcDbEntity
  8
0
  6
SLD-Plná
 62
     7
370
    25
100
AcDbLine
 10
6377.255450341
 20
5384.4361495973
 30
0.0
 11
6377.2080831682
 21
5384.9537876875
 31
0.0
  0
LINE
  5
A8
330
1F
100
AcDbEntity
  8
0
  6
SLD-Plná
 62
     7
370
    25
100
AcDbLine
 10
6170.7820603313
 20
5384.4361495973
 30
0.0
 11
6377.255450341
 21
5384.4361495973
 31
0.0
  0
LINE
  5
A9
330
1F
100
AcDbEntity
  8
0
  6
SLD-Plná
 62
     7
370
    25
100
AcDbLine
 10
6377.2080831683
 20
5042.4451214974
 30
0.0
 11
6377.2554503409
 21
5042.9627595876
 31
0.0
  0
LINE
  5
AA
330
1F
100
AcDbEntity
  8
0
  6
SLD-Plná
 62
     7
370
    25
100
AcDbLine
 10
6377.2080831683
 20
5042.4451214974
 30
0.0
 11
6170.829427504
 21
5042.4451214974
 31
0.0
  0
LINE
  5
AB
330
1F
100
AcDbEntity
  8
0
  6
SLD-Plná
 62
     7
370
    25
100
AcDbLine
 10
6170.7820603313
 20
5042.9627595876
 30
0.0
 11
6170.829427504
 21
5042.4451214974
 31
0.0
  0
LINE
  5
AC
330
1F
100
AcDbEntity
  8
0
  6
SLD-Plná
 62
     7
370
    25
100
AcDbLine
 10
6377.2554503409
 20
5042.9627595876
 30
0.0
 11
6170.7820603313
 21
5042.9627595876
 31
0.0
  0
ARC
  5
AD
330
1F
100
AcDbEntity
  8
0
  6
SLD-Plná
 62
     7
370
    25
100
AcDbCircle
 10
6355.5187553361
 20
5362.6994545925
 30
0.0
 40
2.000000000000909
100
AcDbArc
 50
0.0
 51
90.0
  0
ARC
  5
AE
330
1F
100
AcDbEntity
  8
0
  6
SLD-Plná
 62
     7
370
    25
100
AcDbCircle
 10
6192.5187553361
 20
5362.6994545925
 30
0.0
 40
2.000000000000909
100
AcDbArc
 50
90.0
 51
180.0
  0
LINE
  5
AF
330
1F
100
AcDbEntity
  8
0
  6
SLD-Plná
 62
     7
370
    25
100
AcDbLine
 10
6190.5187553361
 20
5362.6994545925
 30
0.0
 11
6190.5187553361
 21
5064.6994545925
 31
0.0
  0
LINE
  5
B0
330
1F
100
AcDbEntity
  8
0
  6
SLD-Plná
 62
     7
370
    25
100
AcDbLine
 10
6192.5187553361
 20
5062.6994545925
 30
0.0
 11
6355.5187553361
 21
5062.6994545925
 31
0.0
  0
LINE
  5
B1
330
1F
100
AcDbEntity
  8
0
  6
SLD-Plná
 62
     7
370
    25
100
AcDbLine
 10
6355.5187553361
 20
5364.6994545925
 30
0.0
 11
6342.2003153332
 21
5364.6994545925
 31
0.0
  0
LINE
  5
B2
330
1F
100
AcDbEntity
  8
0
  6
SLD-Plná
 62
     7
370
    25
100
AcDbLine
 10
6289.2371953392
 20
5364.6994545925
 30
0.0
 11
6258.800315333
 21
5364.6994545925
 31
0.0
  0
LINE
  5
B3
330
1F
100
AcDbEntity
  8
0
  6
SLD-Plná
 62
     7
370
    25
100
AcDbLine
 10
6205.8371953391
 20
5364.6994545925
 30
0.0
 11
6192.5187553361
 21
5364.6994545925
 31
0.0
  0
LINE
  5
B4
330
1F
100
AcDbEntity
  8
0
  6
SLD-Plná
 62
     7
370
    25
100
AcDbLine
 10
6357.5187553361
 20
5064.6994545925
 30
0.0
 11
6357.5187553361
 21
5362.6994545925
 31
0.0
  0
ARC
  5
B5
330
1F
100
AcDbEntity
  8
0
  6
SLD-Plná
 62
     7
370
    25
100
AcDbCircle
 10
6355.5187553361
 20
5064.6994545925
 30
0.0
 40
2.0
100
AcDbArc
 50
270.0
 51
0.0
  0
ARC
  5
B6
330
1F
100
AcDbEntity
  8
0
  6
SLD-Plná
 62
     7
370
    25
100
AcDbCircle
 10
6192.5187553361
 20
5064.6994545925
 30
0.0
 40
2.0
100
AcDbArc
 50
180.0
 51
270.0
  0
LINE
  5
B7
330
1F
100
AcDbEntity
  8
0
  6
SLD-Plná
 62
     7
370
    25
100
AcDbLine
 10
6161.4245023361
 20
5033.0401963295
 30
0.0
 11
6161.4245023361
 21
5033.4284248972
 31
0.0
  0
LINE
  5
B8
330
1F
100
AcDbEntity
  8
0
  6
SLD-Plná
 62
     7
370
    25
100
AcDbLine
 10
6170.7968803919
 20
5042.800802953
 30
0.0
 11
6161.4245023361
 21
5033.4284248972
 31
0.0
  0
LINE
  5
B9
330
1F
100
AcDbEntity
  8
0
  6
SLD-Plná
 62
     7
370
    25
100
AcDbLine
 10
6170.829427504
 20
5042.4451214974
 30
0.0
 11
6161.4245023361
 21
5033.0401963295
 31
0.0
  0
LINE
  5
BA
330
1F
100
AcDbEntity
  8
0
  6
SLD-Plná
 62
     7
370
    25
100
AcDbLine
 10
6386.6130083362
 20
5033.0401963295
 30
0.0
 11
6377.2080831683
 21
5042.4451214974
 31
0.0
  0
LINE
  5
BB
330
1F
100
AcDbEntity
  8
0
  6
SLD-Plná
 62
     7
370
    25
100
AcDbLine
 10
6386.6130083362
 20
5033.0401963295
 30
0.0
 11
6161.4245023361
 21
5033.0401963295
 31
0.0
  0
LINE
  5
BC
330
1F
100
AcDbEntity
  8
0
  6
SLD-Plná
 62
     7
370
    25
100
AcDbLine
 10
6160.8594970732
 20
5393.7937075924
 30
0.0
 11
6161.2477256409
 21
5393.7937075924
 31
0.0
  0
LINE
  5
BD
330
1F
100
AcDbEntity
  8
0
  6
SLD-Plná
 62
     7
370
    25
100
AcDbLine
 10
6170.6201036966
 20
5384.4213295366
 30
0.0
 11
6161.2477256409
 21
5393.7937075924
 31
0.0
  0
LINE
  5
BE
330
1F
100
AcDbEntity
  8
0
  6
SLD-Plná
 62
     7
370
    25
100
AcDbLine
 10
6170.2644222411
 20
5384.3887824245
 30
0.0
 11
6160.8594970732
 21
5393.7937075924
 31
0.0
  0
LINE
  5
BF
330
1F
100
AcDbEntity
  8
0
  6
SLD-Plná
 62
     7
370
    25
100
AcDbLine
 10
6387.1780135991
 20
5393.7937075924
 30
0.0
 11
6377.7730884312
 21
5384.3887824245
 31
0.0
  0
LINE
  5
C0
330
1F
100
AcDbEntity
  8
0
  6
SLD-Plná
 62
     7
370
    25
100
AcDbLine
 10
6387.1780135991
 20
5393.7937075924
 30
0.0
 11
6387.1780135991
 21
5033.6052015925
 31
0.0
  0
LINE
  5
C1
330
1F
100
AcDbEntity
  8
0
  6
SLD-Plná
 62
     7
370
    25
100
AcDbLine
 10
6377.7730884312
 20
5043.0101267603
 30
0.0
 11
6387.1780135991
 21
5033.6052015925
 31
0.0
  0
LINE
  5
C2
330
1F
100
AcDbEntity
  8
0
  6
SLD-Plná
 62
     7
370
    25
100
AcDbLine
 10
6387.1780135991
 20
5033.6052015925
 30
0.0
 11
6386.7897850314
 21
5033.6052015925
 31
0.0
  0
LINE
  5
C3
330
1F
100
AcDbEntity
  8
0
  6
SLD-Plná
 62
     7
370
    25
100
AcDbLine
 10
6377.4174069756
 20
5042.9775796483
 30
0.0
 11
6386.7897850314
 21
5033.6052015925
 31
0.0
  0
LINE
  5
C4
330
1F
100
AcDbEntity
  8
0
  6
SLD-Plná
 62
     7
370
    25
100
AcDbLine
 10
6160.8594970732
 20
5033.6052015925
 30
0.0
 11
6170.2644222411
 21
5043.0101267604
 31
0.0
  0
LINE
  5
C5
330
1F
100
AcDbEntity
  8
0
  6
SLD-Plná
 62
     7
370
    25
100
AcDbLine
 10
6160.8594970732
 20
5033.6052015925
 30
0.0
 11
6160.8594970732
 21
5393.7937075924
 31
0.0
  0
LINE
  5
C6
330
1F
100
AcDbEntity
  8
0
  6
SLD-Plná
 62
     7
370
    25
100
AcDbLine
 10
6386.6130083362
 20
5033.4284248972
 30
0.0
 11
6377.2406302803
 21
5042.800802953
 31
0.0
  0
LINE
  5
C7
330
1F
100
AcDbEntity
  8
0
  6
SLD-Plná
 62
     7
370
    25
100
AcDbLine
 10
6386.6130083362
 20
5033.0401963295
 30
0.0
 11
6386.6130083362
 21
5033.4284248972
 31
0.0
  0
LINE
  5
C8
330
1F
100
AcDbEntity
  8
0
  6
SLD-Plná
 62
     7
370
    25
100
AcDbLine
 10
6386.7897850314
 20
5393.7937075924
 30
0.0
 11
6377.4174069756
 21
5384.4213295366
 31
0.0
  0
LINE
  5
C9
330
1F
100
AcDbEntity
  8
0
  6
SLD-Plná
 62
     7
370
    25
100
AcDbLine
 10
6387.1780135991
 20
5393.7937075924
 30
0.0
 11
6386.7897850314
 21
5393.7937075924
 31
0.0
  0
LINE
  5
CA
330
1F
100
AcDbEntity
  8
0
  6
SLD-Plná
 62
     7
370
    25
100
AcDbLine
 10
6161.4245023361
 20
5394.3587128554
 30
0.0
 11
6170.829427504
 21
5384.9537876875
 31
0.0
  0
LINE
  5
CB
330
1F
100
AcDbEntity
  8
0
  6
SLD-Plná
 62
     7
370
    25
100
AcDbLine
 10
6161.4245023361
 20
5393.9704842877
 30
0.0
 11
6170.7968803919
 21
5384.5981062319
 31
0.0
  0
LINE
  5
CC
330
1F
100
AcDbEntity
  8
0
  6
SLD-Plná
 62
     7
370
    25
100
AcDbLine
 10
6161.4245023361
 20
5394.3587128554
 30
0.0
 11
6161.4245023361
 21
5393.9704842877
 31
0.0
  0
LINE
  5
CD
330
1F
100
AcDbEntity
  8
0
  6
SLD-Plná
 62
     7
370
    25
100
AcDbLine
 10
6161.4245023361
 20
5394.3587128554
 30
0.0
 11
6386.6130083361
 21
5394.3587128554
 31
0.0
  0
LINE
  5
CE
330
1F
100
AcDbEntity
  8
0
  6
SLD-Plná
 62
     7
370
    25
100
AcDbLine
 10
6377.2080831682
 20
5384.9537876875
 30
0.0
 11
6386.6130083361
 21
5394.3587128554
 31
0.0
  0
LINE
  5
CF
330
1F
100
AcDbEntity
  8
0
  6
SLD-Plná
 62
     7
370
    25
100
AcDbLine
 10
6161.2477256409
 20
5033.6052015925
 30
0.0
 11
6170.6201036967
 21
5042.9775796483
 31
0.0
  0
LINE
  5
D0
330
1F
100
AcDbEntity
  8
0
  6
SLD-Plná
 62
     7
370
    25
100
AcDbLine
 10
6160.8594970732
 20
5033.6052015925
 30
0.0
 11
6161.2477256409
 21
5033.6052015925
 31
0.0
  0
LINE
  5
D1
330
1F
100
AcDbEntity
  8
0
  6
SLD-Plná
 62
     7
370
    25
100
AcDbLine
 10
6386.6130083361
 20
5394.3587128554
 30
0.0
 11
6386.6130083361
 21
5393.9704842877
 31
0.0
  0
LINE
  5
D2
330
1F
100
AcDbEntity
  8
0
  6
SLD-Plná
 62
     7
370
    25
100
AcDbLine
 10
6377.2406302803
 20
5384.598106232
 30
0.0
 11
6386.6130083361
 21
5393.9704842877
 31
0.0
  0
LWPOLYLINE
  5
D3
330
1F
100
AcDbEntity
  8
0
  6
SLD-Plná
 62
     7
370
    25
100
AcDbPolyline
 90
        3
 70
   128
 43
0.0
 10
6225.6379241617
 20
5260.1494545926
 10
6226.6081705945
 20
5258.7788280608
 10
6227.7557183795
 20
5257.6569120804
  0
ARC
  5
D4
330
1F
100
AcDbEntity
  8
0
  6
SLD-Plná
 62
     7
370
    25
100
AcDbCircle
 10
6233.5187553361
 20
5264.6994545926
 30
0.0
 40
9.100000000000653
100
AcDbArc
 50
250.0355278173
 51
288.7023021302
  0
ARC
  5
D5
330
1F
100
AcDbEntity
  8
0
  6
SLD-Plná
 62
     7
370
    25
100
AcDbCircle
 10
6233.5187553361
 20
5264.6994545926
 30
0.0
 40
9.100000000000389
100
AcDbArc
 50
310.9186723001
 51
348.164205765
  0
ARC
  5
D6
330
1F
100
AcDbEntity
  8
0
  6
SLD-Plná
 62
     7
370
    25
100
AcDbCircle
 10
6233.5187553361
 20
5264.6994545926
 30
0.0
 40
9.100000000000598
100
AcDbArc
 50
71.8427460101
 51
108.965055905
  0
ARC
  5
D7
330
1F
100
AcDbEntity
  8
0
  6
SLD-Plná
 62
     7
370
    25
100
AcDbCircle
 10
6233.5187553361
 20
5264.6994545926
 30
0.0
 40
9.100000000000275
100
AcDbArc
 50
131.4473141098
 51
169.8198644118
  0
LWPOLYLINE
  5
D8
330
1F
100
AcDbEntity
  8
0
  6
SLD-Plná
 62
     7
370
    25
100
AcDbPolyline
 90
        3
 70
   128
 43
0.0
 10
6224.550084941
 20
5263.1590159072
 10
6224.9360499824
 20
5261.6750259174
 10
6225.6379241617
 20
5260.1494545926
  0
LWPOLYLINE
  5
D9
330
1F
100
AcDbEntity
  8
0
  6
SLD-Plná
 62
     7
370
    25
100
AcDbPolyline
 90
        3
 70
   128
 43
0.0
 10
6225.6379241617
 20
5279.1494545926
 10
6226.6081705945
 20
5277.7788280608
 10
6227.7557183795
 20
5276.6569120804
  0
ARC
  5
DA
330
1F
100
AcDbEntity
  8
0
  6
SLD-Plná
 62
     7
370
    25
100
AcDbCircle
 10
6233.5187553361
 20
5283.6994545926
 30
0.0
 40
9.100000000000653
100
AcDbArc
 50
250.0355278173
 51
288.7023021302
  0
ARC
  5
DB
330
1F
100
AcDbEntity
  8
0
  6
SLD-Plná
 62
     7
370
    25
100
AcDbCircle
 10
6233.5187553361
 20
5283.6994545926
 30
0.0
 40
9.100000000000389
100
AcDbArc
 50
310.9186723001
 51
348.164205765
  0
ARC
  5
DC
330
1F
100
AcDbEntity
  8
0
  6
SLD-Plná
 62
     7
370
    25
100
AcDbCircle
 10
6233.5187553361
 20
5283.6994545926
 30
0.0
 40
9.099999999999739
100
AcDbArc
 50
71.8427460101
 51
108.965055905
  0
ARC
  5
DD
330
1F
100
AcDbEntity
  8
0
  6
SLD-Plná
 62
     7
370
    25
100
AcDbCircle
 10
6233.5187553361
 20
5283.6994545926
 30
0.0
 40
9.100000000000435
100
AcDbArc
 50
131.4473141098
 51
169.8198644118
  0
LWPOLYLINE
  5
DE
330
1F
100
AcDbEntity
  8
0
  6
SLD-Plná
 62
     7
370
    25
100
AcDbPolyline
 90
        3
 70
   128
 43
0.0
 10
6224.550084941
 20
5282.1590159072
 10
6224.9360499824
 20
5280.6750259174
 10
6225.6379241617
 20
5279.1494545926
  0
LWPOLYLINE
  5
DF
330
1F
100
AcDbEntity
  8
0
  6
SLD-Plná
 62
     7
370
    25
100
AcDbPolyline
 90
        3
 70
   128
 43
0.0
 10
6225.6379241617
 20
5241.1494545926
 10
6226.6081705945
 20
5239.7788280608
 10
6227.7557183795
 20
5238.6569120804
  0
ARC
  5
E0
330
1F
100
AcDbEntity
  8
0
  6
SLD-Plná
 62
     7
370
    25
100
AcDbCircle
 10
6233.5187553361
 20
5245.6994545926
 30
0.0
 40
9.100000000000625
100
AcDbArc
 50
250.0355278173
 51
288.7023021302
  0
ARC
  5
E1
330
1F
100
AcDbEntity
  8
0
  6
SLD-Plná
 62
     7
370
    25
100
AcDbCircle
 10
6233.5187553361
 20
5245.6994545926
 30
0.0
 40
9.099999999999499
100
AcDbArc
 50
310.9186723001
 51
348.164205765
  0
ARC
  5
E2
330
1F
100
AcDbEntity
  8
0
  6
SLD-Plná
 62
     7
370
    25
100
AcDbCircle
 10
6233.5187553361
 20
5245.6994545926
 30
0.0
 40
9.10000000000018
100
AcDbArc
 50
71.8427460101
 51
108.965055905
  0
ARC
  5
E3
330
1F
100
AcDbEntity
  8
0
  6
SLD-Plná
 62
     7
370
    25
100
AcDbCircle
 10
6233.5187553361
 20
5245.6994545926
 30
0.0
 40
9.100000000000435
100
AcDbArc
 50
131.4473141099
 51
169.8198644118
  0
LWPOLYLINE
  5
E4
330
1F
100
AcDbEntity
  8
0
  6
SLD-Plná
 62
     7
370
    25
100
AcDbPolyline
 90
        3
 70
   128
 43
0.0
 10
6224.550084941
 20
5244.1590159072
 10
6224.9360499824
 20
5242.6750259174
 10
6225.6379241617
 20
5241.1494545926
  0
SPLINE
  5
E5
330
1F
100
AcDbEntity
  8
0
  6
SLD-Plná
 62
     7
370
    25
100
AcDbSpline
210
0.0
220
0.0
230
1.0
 70
    11
 71
     3
 72
    31
 73
    27
 74
     0
 42
0.00000001
 43
0.00000001
 40
0.0
 40
0.0
 40
0.0
 40
0.0
 40
0.0598642110986526
 40
0.0920901650595473
 40
0.1250000000000048
 40
0.1579098349404625
 40
0.1901357889013573
 40
0.250000000000005
 40
0.3098642110986528
 40
0.3420901650595475
 40
0.375000000000005
 40
0.4079098349404625
 40
0.4401357889013572
 40
0.5000000000000048
 40
0.5598642110986526
 40
0.5920901650595473
 40
0.625000000000005
 40
0.6579098349404625
 40
0.6901357889013573
 40
0.7500000000000051
 40
0.8098642110986528
 40
0.8420901650595476
 40
0.875000000000005
 40
0.9079098349404622
 40
0.9401357889013572
 40
1.0
 40
1.0
 40
1.0
 40
1.0
 10
6231.668755336091
 20
5248.903748586623
 30
0.0
 10
6232.096527155139
 20
5249.093652204805
 30
0.0
 10
6232.754576041127
 20
5249.385784268734
 30
0.0
 10
6233.731495595764
 20
5249.417051921235
 30
0.0
 10
6234.48289844851
 20
5249.299472415939
 30
0.0
 10
6235.195496099344
 20
5249.026423732096
 30
0.0
 10
6236.013264651175
 20
5248.503886678019
 30
0.0
 10
6236.800458875256
 20
5247.594112235146
 30
0.0
 10
6237.194673089141
 20
5246.45762723897
 30
0.0
 10
6237.238449779522
 20
5245.48792416052
 30
0.0
 10
6237.118206674643
 20
5244.734984674671
 30
0.0
 10
6236.845869756196
 20
5244.022797641586
 30
0.0
 10
6236.323110662141
 20
5243.20490099657
 30
0.0
 10
6235.413439073176
 20
5242.417766095714
 30
0.0
 10
6234.276924458348
 20
5242.023534840998
 30
0.0
 10
6233.307225639065
 20
5241.979760507994
 30
0.0
 10
6232.554285116945
 20
5242.100003334773
 30
0.0
 10
6231.842098842248
 20
5242.372339494243
 30
0.0
 10
6231.024199687372
 20
5242.895102759431
 30
0.0
 10
6230.237081916605
 20
5243.804744781277
 30
0.0
 10
6229.842791249405
 20
5244.94136219848
 30
0.0
 10
6229.799145162071
 20
5245.910839065819
 30
0.0
 10
6229.918976890811
 20
5246.664491076041
 30
0.0
 10
6230.192851478632
 20
5247.374014787642
 30
0.0
 10
6230.708389837334
 20
5248.204418113162
 30
0.0
 10
6231.29040806895
 20
5248.628239133395
 30
0.0
 10
6231.668755336091
 20
5248.903748586623
 30
0.0
  0
CIRCLE
  5
E6
330
1F
100
AcDbEntity
  8
0
  6
SLD-Plná
 62
     7
370
    25
100
AcDbCircle
 10
6233.5187553361
 20
5245.6994545926
 30
0.0
 40
5.300000000000196
  0
CIRCLE
  5
E7
330
1F
100
AcDbEntity
  8
0
  6
SLD-Plná
 62
     7
370
    25
100
AcDbCircle
 10
6233.5172858107
 20
5245.6988259618
 30
0.0
 40
5.814856184858939
  0
ARC
  5
E8
330
1F
100
AcDbEntity
  8
0
  6
SLD-Plná
 62
     7
370
    25
100
AcDbCircle
 10
6233.5186242043
 20
5245.6996656688
 30
0.0
 40
6.84999197910924
100
AcDbArc
 50
210.0020775496
 51
232.4979227527
  0
SPLINE
  5
E9
330
1F
100
AcDbEntity
  8
0
  6
SLD-Plná
 62
     7
370
    25
100
AcDbSpline
210
0.0
220
0.0
230
1.0
 70
     8
 71
     3
 72
    12
 73
     8
 74
     0
 42
0.00000001
 43
0.00000001
 40
0.0
 40
0.0
 40
0.0
 40
0.0
 40
0.2265072236492468
 40
0.4816261054125739
 40
0.6332574974727527
 40
0.7387923862891703
 40
1.0
 40
1.0
 40
1.0
 40
1.0
 10
6223.703800748463
 20
5245.699454612372
 30
0.0
 10
6224.072898097652
 20
5245.060159250596
 30
0.0
 10
6224.857715976498
 20
5243.700814809655
 30
0.0
 10
6225.897347256227
 20
5241.90012061267
 30
0.0
 10
6226.738068560138
 20
5240.443948597844
 30
0.0
 10
6227.587690338032
 20
5238.972360516042
 30
0.0
 10
6228.185497552699
 20
5237.936928021824
 30
0.0
 10
6228.611278025171
 20
5237.199454592621
 30
0.0
  0
SPLINE
  5
EA
330
1F
100
AcDbEntity
  8
0
  6
SLD-Plná
 62
     7
370
    25
100
AcDbSpline
210
0.0
220
0.0
230
1.0
 70
     8
 71
     3
 72
    12
 73
     8
 74
     0
 42
0.00000001
 43
0.00000001
 40
0.0
 40
0.0
 40
0.0
 40
0.0
 40
0.1745294396701531
 40
0.3363657348802778
 40
0.4741564371644916
 40
0.727646518633749
 40
0.9999999999999999
 40
0.9999999999999999
 40
0.9999999999999999
 40
0.9999999999999999
 10
6228.611278059382
 20
5254.199454612372
 30
0.0
 10
6228.327009059584
 20
5253.707086261736
 30
0.0
 10
6227.779145322662
 20
5252.75815843382
 30
0.0
 10
6227.002659945812
 20
5251.413246309385
 30
0.0
 10
6226.095254633125
 20
5249.841574206362
 30
0.0
 10
6225.005067715969
 20
5247.95331506483
 30
0.0
 10
6224.147807139319
 20
5246.468496223338
 30
0.0
 10
6223.703800748463
 20
5245.699454612372
 30
0.0
  0
SPLINE
  5
EB
330
1F
100
AcDbEntity
  8
0
  6
SLD-Plná
 62
     7
370
    25
100
AcDbSpline
210
0.0
220
0.0
230
1.0
 70
     8
 71
     3
 72
    12
 73
     8
 74
     0
 42
0.00000001
 43
0.00000001
 40
0.0
 40
0.0
 40
0.0
 40
0.0
 40
0.240552469473182
 40
0.4836113364225988
 40
0.7301063981877945
 40
0.8542700026489961
 40
0.9999999999999999
 40
0.9999999999999999
 40
0.9999999999999999
 40
0.9999999999999999
 10
6238.426232647009
 20
5254.19945459262
 30
0.0
 10
6237.642147579339
 20
5254.199454592684
 30
0.0
 10
6236.065807796689
 20
5254.19945459281
 30
0.0
 10
6233.66872762166
 20
5254.199454591851
 30
0.0
 10
6231.653931958735
 20
5254.199454594936
 30
0.0
 10
6229.964871031898
 20
5254.199454588302
 30
0.0
 10
6229.085888020646
 20
5254.199454603932
 30
0.0
 10
6228.611278059382
 20
5254.199454612372
 30
0.0
  0
SPLINE
  5
EC
330
1F
100
AcDbEntity
  8
0
  6
SLD-Plná
 62
     7
370
    25
100
AcDbSpline
210
0.0
220
0.0
230
1.0
 70
     8
 71
     3
 72
    12
 73
     8
 74
     0
 42
0.00000001
 43
0.00000001
 40
0.0
 40
0.0
 40
0.0
 40
0.0
 40
0.2995997118090454
 40
0.4630258884691801
 40
0.6300392001072477
 40
0.8986883733373053
 40
1.0
 40
1.0
 40
1.0
 40
1.0
 10
6243.333709888132
 20
5245.699454634504
 30
0.0
 10
6242.845147142291
 20
5246.545670133258
 30
0.0
 10
6242.090082332315
 20
5247.853480747563
 30
0.0
 10
6241.056111568467
 20
5249.644370642019
 30
0.0
 10
6240.072809947847
 20
5251.347499016278
 30
0.0
 10
6239.19334981371
 20
5252.870768613777
 30
0.0
 10
6238.591143394213
 20
5253.91382078454
 30
0.0
 10
6238.426232647009
 20
5254.19945459262
 30
0.0
  0
SPLINE
  5
ED
330
1F
100
AcDbEntity
  8
0
  6
SLD-Plná
 62
     7
370
    25
100
AcDbSpline
210
0.0
220
0.0
230
1.0
 70
     8
 71
     3
 72
    12
 73
     8
 74
     0
 42
0.00000001
 43
0.00000001
 40
0.0
 40
0.0
 40
0.0
 40
0.0
 40
0.1544468765157278
 40
0.4334831849255237
 40
0.684034737178619
 40
0.8418911673997549
 40
0.9999999999999999
 40
0.9999999999999999
 40
0.9999999999999999
 40
0.9999999999999999
 10
6238.426232612799
 20
5237.199454572869
 30
0.0
 10
6238.677743810537
 20
5237.635084746148
 30
0.0
 10
6239.3836556263
 20
5238.857759877058
 30
0.0
 10
6240.505487978628
 20
5240.800830504829
 30
0.0
 10
6241.634417938548
 20
5242.756194567012
 30
0.0
 10
6242.561655581566
 20
5244.362217243501
 30
0.0
 10
6243.076221435812
 20
5245.253471517429
 30
0.0
 10
6243.333709888132
 20
5245.699454634504
 30
0.0
  0
SPLINE
  5
EE
330
1F
100
AcDbEntity
  8
0
  6
SLD-Plná
 62
     7
370
    25
100
AcDbSpline
210
0.0
220
0.0
230
1.0
 70
     8
 71
     3
 72
    12
 73
     8
 74
     0
 42
0.00000001
 43
0.00000001
 40
0.0
 40
0.0
 40
0.0
 40
0.0
 40
0.1548517589853619
 40
0.30991149991096
 40
0.450591407946811
 40
0.7283591531466005
 40
1.0
 40
1.0
 40
1.0
 40
1.0
 10
6228.611278025171
 20
5237.199454592621
 30
0.0
 10
6229.115624226475
 20
5237.199454592608
 30
0.0
 10
6230.124994018232
 20
5237.199454592583
 30
0.0
 10
6231.599959164618
 20
5237.199454592769
 30
0.0
 10
6233.48116096445
 20
5237.19945459192
 30
0.0
 10
6235.749262250721
 20
5237.199454598162
 30
0.0
 10
6237.540567923564
 20
5237.199454581237
 30
0.0
 10
6238.426232612799
 20
5237.199454572869
 30
0.0
  0
SPLINE
  5
EF
330
1F
100
AcDbEntity
  8
0
  6
SLD-Plná
 62
     7
370
    25
100
AcDbSpline
210
0.0
220
0.0
230
1.0
 70
    11
 71
     3
 72
    31
 73
    27
 74
     0
 42
0.00000001
 43
0.00000001
 40
0.0
 40
0.0
 40
0.0
 40
0.0
 40
0.0598642110986526
 40
0.0920901650595473
 40
0.1250000000000048
 40
0.1579098349404626
 40
0.190135788901357
 40
0.2500000000000048
 40
0.3098642110986528
 40
0.3420901650595476
 40
0.3750000000000048
 40
0.4079098349404625
 40
0.4401357889013572
 40
0.500000000000005
 40
0.5598642110986527
 40
0.5920901650595474
 40
0.6250000000000051
 40
0.6579098349404626
 40
0.6901357889013574
 40
0.7500000000000048
 40
0.8098642110986528
 40
0.8420901650595476
 40
0.8750000000000047
 40
0.9079098349404623
 40
0.9401357889013571
 40
1.0
 40
1.0
 40
1.0
 40
1.0
 10
6231.668755336091
 20
5286.903748586624
 30
0.0
 10
6232.096527155139
 20
5287.093652204804
 30
0.0
 10
6232.754576041127
 20
5287.385784268734
 30
0.0
 10
6233.731495595765
 20
5287.417051921235
 30
0.0
 10
6234.48289844851
 20
5287.299472415938
 30
0.0
 10
6235.195496099345
 20
5287.026423732096
 30
0.0
 10
6236.013264651175
 20
5286.503886678019
 30
0.0
 10
6236.800458875256
 20
5285.594112235146
 30
0.0
 10
6237.194673089141
 20
5284.45762723897
 30
0.0
 10
6237.238449779523
 20
5283.487924160519
 30
0.0
 10
6237.118206674644
 20
5282.734984674671
 30
0.0
 10
6236.845869756196
 20
5282.022797641587
 30
0.0
 10
6236.323110662141
 20
5281.204900996569
 30
0.0
 10
6235.413439073177
 20
5280.417766095713
 30
0.0
 10
6234.276924458348
 20
5280.023534840998
 30
0.0
 10
6233.307225639065
 20
5279.979760507994
 30
0.0
 10
6232.554285116945
 20
5280.100003334773
 30
0.0
 10
6231.842098842248
 20
5280.372339494243
 30
0.0
 10
6231.024199687373
 20
5280.89510275943
 30
0.0
 10
6230.237081916606
 20
5281.804744781277
 30
0.0
 10
6229.842791249406
 20
5282.94136219848
 30
0.0
 10
6229.799145162071
 20
5283.910839065819
 30
0.0
 10
6229.918976890812
 20
5284.664491076041
 30
0.0
 10
6230.192851478633
 20
5285.374014787642
 30
0.0
 10
6230.708389837334
 20
5286.204418113162
 30
0.0
 10
6231.29040806895
 20
5286.628239133395
 30
0.0
 10
6231.668755336091
 20
5286.903748586624
 30
0.0
  0
CIRCLE
  5
F0
330
1F
100
AcDbEntity
  8
0
  6
SLD-Plná
 62
     7
370
    25
100
AcDbCircle
 10
6233.5187553361
 20
5283.6994545926
 30
0.0
 40
5.300000000000196
  0
CIRCLE
  5
F1
330
1F
100
AcDbEntity
  8
0
  6
SLD-Plná
 62
     7
370
    25
100
AcDbCircle
 10
6233.5172858107
 20
5283.6988259618
 30
0.0
 40
5.814856184859515
  0
ARC
  5
F2
330
1F
100
AcDbEntity
  8
0
  6
SLD-Plná
 62
     7
370
    25
100
AcDbCircle
 10
6233.5186242043
 20
5283.6996656688
 30
0.0
 40
6.849991979108907
100
AcDbArc
 50
210.0020775496
 51
232.4979227527
  0
SPLINE
  5
F3
330
1F
100
AcDbEntity
  8
0
  6
SLD-Plná
 62
     7
370
    25
100
AcDbSpline
210
0.0
220
0.0
230
1.0
 70
     8
 71
     3
 72
    12
 73
     8
 74
     0
 42
0.00000001
 43
0.00000001
 40
0.0
 40
0.0
 40
0.0
 40
0.0
 40
0.2265072236492466
 40
0.4816261054125728
 40
0.6332574974727517
 40
0.7387923862891693
 40
1.0
 40
1.0
 40
1.0
 40
1.0
 10
6223.703800748463
 20
5283.699454612372
 30
0.0
 10
6224.072898097653
 20
5283.060159250596
 30
0.0
 10
6224.857715976498
 20
5281.700814809655
 30
0.0
 10
6225.897347256227
 20
5279.90012061267
 30
0.0
 10
6226.738068560138
 20
5278.443948597844
 30
0.0
 10
6227.587690338033
 20
5276.972360516042
 30
0.0
 10
6228.185497552699
 20
5275.936928021824
 30
0.0
 10
6228.611278025172
 20
5275.199454592621
 30
0.0
  0
SPLINE
  5
F4
330
1F
100
AcDbEntity
  8
0
  6
SLD-Plná
 62
     7
370
    25
100
AcDbSpline
210
0.0
220
0.0
230
1.0
 70
     8
 71
     3
 72
    12
 73
     8
 74
     0
 42
0.00000001
 43
0.00000001
 40
0.0
 40
0.0
 40
0.0
 40
0.0
 40
0.1745294396701535
 40
0.3363657348802779
 40
0.474156437164492
 40
0.7276465186337481
 40
1.0
 40
1.0
 40
1.0
 40
1.0
 10
6228.611278059382
 20
5292.199454612372
 30
0.0
 10
6228.327009059584
 20
5291.707086261737
 30
0.0
 10
6227.779145322662
 20
5290.75815843382
 30
0.0
 10
6227.002659945812
 20
5289.413246309385
 30
0.0
 10
6226.095254633125
 20
5287.841574206361
 30
0.0
 10
6225.005067715969
 20
5285.95331506483
 30
0.0
 10
6224.147807139319
 20
5284.468496223338
 30
0.0
 10
6223.703800748463
 20
5283.699454612372
 30
0.0
  0
SPLINE
  5
F5
330
1F
100
AcDbEntity
  8
0
  6
SLD-Plná
 62
     7
370
    25
100
AcDbSpline
210
0.0
220
0.0
230
1.0
 70
     8
 71
     3
 72
    12
 73
     8
 74
     0
 42
0.00000001
 43
0.00000001
 40
0.0
 40
0.0
 40
0.0
 40
0.0
 40
0.240552469473182
 40
0.4836113364225988
 40
0.7301063981877945
 40
0.8542700026489961
 40
0.9999999999999999
 40
0.9999999999999999
 40
0.9999999999999999
 40
0.9999999999999999
 10
6238.42623264701
 20
5292.199454592621
 30
0.0
 10
6237.64214757934
 20
5292.199454592684
 30
0.0
 10
6236.065807796689
 20
5292.19945459281
 30
0.0
 10
6233.66872762166
 20
5292.199454591851
 30
0.0
 10
6231.653931958735
 20
5292.199454594936
 30
0.0
 10
6229.964871031899
 20
5292.199454588303
 30
0.0
 10
6229.085888020647
 20
5292.199454603932
 30
0.0
 10
6228.611278059382
 20
5292.199454612372
 30
0.0
  0
SPLINE
  5
F6
330
1F
100
AcDbEntity
  8
0
  6
SLD-Plná
 62
     7
370
    25
100
AcDbSpline
210
0.0
220
0.0
230
1.0
 70
     8
 71
     3
 72
    12
 73
     8
 74
     0
 42
0.00000001
 43
0.00000001
 40
0.0
 40
0.0
 40
0.0
 40
0.0
 40
0.2995997118090455
 40
0.463025888469181
 40
0.6300392001072486
 40
0.8986883733373053
 40
1.0
 40
1.0
 40
1.0
 40
1.0
 10
6243.333709888133
 20
5283.699454634504
 30
0.0
 10
6242.845147142291
 20
5284.545670133258
 30
0.0
 10
6242.090082332315
 20
5285.853480747563
 30
0.0
 10
6241.056111568467
 20
5287.644370642019
 30
0.0
 10
6240.072809947847
 20
5289.347499016278
 30
0.0
 10
6239.19334981371
 20
5290.870768613777
 30
0.0
 10
6238.591143394213
 20
5291.91382078454
 30
0.0
 10
6238.42623264701
 20
5292.199454592621
 30
0.0
  0
SPLINE
  5
F7
330
1F
100
AcDbEntity
  8
0
  6
SLD-Plná
 62
     7
370
    25
100
AcDbSpline
210
0.0
220
0.0
230
1.0
 70
     8
 71
     3
 72
    12
 73
     8
 74
     0
 42
0.00000001
 43
0.00000001
 40
0.0
 40
0.0
 40
0.0
 40
0.0
 40
0.1544468765157289
 40
0.4334831849255241
 40
0.6840347371786197
 40
0.8418911673997556
 40
1.0
 40
1.0
 40
1.0
 40
1.0
 10
6238.426232612799
 20
5275.199454572868
 30
0.0
 10
6238.677743810537
 20
5275.635084746148
 30
0.0
 10
6239.383655626301
 20
5276.857759877057
 30
0.0
 10
6240.505487978629
 20
5278.800830504828
 30
0.0
 10
6241.634417938548
 20
5280.756194567012
 30
0.0
 10
6242.561655581567
 20
5282.362217243501
 30
0.0
 10
6243.076221435813
 20
5283.253471517428
 30
0.0
 10
6243.333709888133
 20
5283.699454634504
 30
0.0
  0
SPLINE
  5
F8
330
1F
100
AcDbEntity
  8
0
  6
SLD-Plná
 62
     7
370
    25
100
AcDbSpline
210
0.0
220
0.0
230
1.0
 70
     8
 71
     3
 72
    12
 73
     8
 74
     0
 42
0.00000001
 43
0.00000001
 40
0.0
 40
0.0
 40
0.0
 40
0.0
 40
0.1548517589853619
 40
0.30991149991096
 40
0.450591407946811
 40
0.7283591531466005
 40
1.0
 40
1.0
 40
1.0
 40
1.0
 10
6228.611278025172
 20
5275.199454592621
 30
0.0
 10
6229.115624226475
 20
5275.199454592608
 30
0.0
 10
6230.124994018232
 20
5275.199454592583
 30
0.0
 10
6231.599959164618
 20
5275.199454592768
 30
0.0
 10
6233.48116096445
 20
5275.199454591921
 30
0.0
 10
6235.749262250721
 20
5275.199454598162
 30
0.0
 10
6237.540567923564
 20
5275.199454581238
 30
0.0
 10
6238.426232612799
 20
5275.199454572868
 30
0.0
  0
SPLINE
  5
F9
330
1F
100
AcDbEntity
  8
0
  6
SLD-Plná
 62
     7
370
    25
100
AcDbSpline
210
0.0
220
0.0
230
1.0
 70
    11
 71
     3
 72
    31
 73
    27
 74
     0
 42
0.00000001
 43
0.00000001
 40
0.0
 40
0.0
 40
0.0
 40
0.0
 40
0.0598642110986526
 40
0.0920901650595474
 40
0.1250000000000048
 40
0.1579098349404625
 40
0.1901357889013573
 40
0.2500000000000051
 40
0.3098642110986529
 40
0.3420901650595476
 40
0.3750000000000051
 40
0.4079098349404626
 40
0.4401357889013573
 40
0.5000000000000051
 40
0.5598642110986526
 40
0.5920901650595474
 40
0.6250000000000051
 40
0.6579098349404626
 40
0.6901357889013572
 40
0.750000000000005
 40
0.8098642110986528
 40
0.8420901650595476
 40
0.8750000000000049
 40
0.9079098349404623
 40
0.9401357889013571
 40
1.0
 40
1.0
 40
1.0
 40
1.0
 10
6231.668755336091
 20
5267.903748586624
 30
0.0
 10
6232.096527155139
 20
5268.093652204805
 30
0.0
 10
6232.754576041127
 20
5268.385784268734
 30
0.0
 10
6233.731495595765
 20
5268.417051921235
 30
0.0
 10
6234.48289844851
 20
5268.299472415938
 30
0.0
 10
6235.195496099345
 20
5268.026423732096
 30
0.0
 10
6236.013264651175
 20
5267.503886678019
 30
0.0
 10
6236.800458875256
 20
5266.594112235146
 30
0.0
 10
6237.194673089141
 20
5265.45762723897
 30
0.0
 10
6237.238449779523
 20
5264.48792416052
 30
0.0
 10
6237.118206674644
 20
5263.734984674671
 30
0.0
 10
6236.845869756196
 20
5263.022797641587
 30
0.0
 10
6236.323110662141
 20
5262.204900996569
 30
0.0
 10
6235.413439073176
 20
5261.417766095713
 30
0.0
 10
6234.276924458348
 20
5261.023534840998
 30
0.0
 10
6233.307225639065
 20
5260.979760507994
 30
0.0
 10
6232.554285116945
 20
5261.100003334774
 30
0.0
 10
6231.842098842248
 20
5261.372339494244
 30
0.0
 10
6231.024199687373
 20
5261.895102759431
 30
0.0
 10
6230.237081916606
 20
5262.804744781277
 30
0.0
 10
6229.842791249406
 20
5263.94136219848
 30
0.0
 10
6229.799145162071
 20
5264.910839065819
 30
0.0
 10
6229.918976890811
 20
5265.664491076041
 30
0.0
 10
6230.192851478633
 20
5266.374014787642
 30
0.0
 10
6230.708389837334
 20
5267.204418113162
 30
0.0
 10
6231.29040806895
 20
5267.628239133395
 30
0.0
 10
6231.668755336091
 20
5267.903748586624
 30
0.0
  0
CIRCLE
  5
FA
330
1F
100
AcDbEntity
  8
0
  6
SLD-Plná
 62
     7
370
    25
100
AcDbCircle
 10
6233.5187553361
 20
5264.6994545926
 30
0.0
 40
5.300000000000196
  0
CIRCLE
  5
FB
330
1F
100
AcDbEntity
  8
0
  6
SLD-Plná
 62
     7
370
    25
100
AcDbCircle
 10
6233.5172858107
 20
5264.6988259618
 30
0.0
 40
5.81485618485997
  0
ARC
  5
FC
330
1F
100
AcDbEntity
  8
0
  6
SLD-Plná
 62
     7
370
    25
100
AcDbCircle
 10
6233.5186242043
 20
5264.6996656688
 30
0.0
 40
6.849991979108907
100
AcDbArc
 50
210.0020775496
 51
232.4979227527
  0
SPLINE
  5
FD
330
1F
100
AcDbEntity
  8
0
  6
SLD-Plná
 62
     7
370
    25
100
AcDbSpline
210
0.0
220
0.0
230
1.0
 70
     8
 71
     3
 72
    12
 73
     8
 74
     0
 42
0.00000001
 43
0.00000001
 40
0.0
 40
0.0
 40
0.0
 40
0.0
 40
0.2265072236492471
 40
0.4816261054125737
 40
0.6332574974727525
 40
0.73879238628917
 40
1.0
 40
1.0
 40
1.0
 40
1.0
 10
6223.703800748463
 20
5264.699454612373
 30
0.0
 10
6224.072898097652
 20
5264.060159250596
 30
0.0
 10
6224.857715976498
 20
5262.700814809655
 30
0.0
 10
6225.897347256227
 20
5260.90012061267
 30
0.0
 10
6226.738068560138
 20
5259.443948597844
 30
0.0
 10
6227.587690338033
 20
5257.972360516042
 30
0.0
 10
6228.185497552699
 20
5256.936928021824
 30
0.0
 10
6228.611278025171
 20
5256.199454592621
 30
0.0
  0
SPLINE
  5
FE
330
1F
100
AcDbEntity
  8
0
  6
SLD-Plná
 62
     7
370
    25
100
AcDbSpline
210
0.0
220
0.0
230
1.0
 70
     8
 71
     3
 72
    12
 73
     8
 74
     0
 42
0.00000001
 43
0.00000001
 40
0.0
 40
0.0
 40
0.0
 40
0.0
 40
0.1745294396701531
 40
0.3363657348802778
 40
0.4741564371644919
 40
0.727646518633749
 40
0.9999999999999999
 40
0.9999999999999999
 40
0.9999999999999999
 40
0.9999999999999999
 10
6228.611278059382
 20
5273.199454612372
 30
0.0
 10
6228.327009059584
 20
5272.707086261736
 30
0.0
 10
6227.779145322662
 20
5271.75815843382
 30
0.0
 10
6227.002659945812
 20
5270.413246309385
 30
0.0
 10
6226.095254633125
 20
5268.841574206362
 30
0.0
 10
6225.005067715969
 20
5266.95331506483
 30
0.0
 10
6224.147807139319
 20
5265.468496223338
 30
0.0
 10
6223.703800748463
 20
5264.699454612373
 30
0.0
  0
SPLINE
  5
FF
330
1F
100
AcDbEntity
  8
0
  6
SLD-Plná
 62
     7
370
    25
100
AcDbSpline
210
0.0
220
0.0
230
1.0
 70
     8
 71
     3
 72
    12
 73
     8
 74
     0
 42
0.00000001
 43
0.00000001
 40
0.0
 40
0.0
 40
0.0
 40
0.0
 40
0.240552469473182
 40
0.4836113364225988
 40
0.7301063981877945
 40
0.8542700026489961
 40
0.9999999999999999
 40
0.9999999999999999
 40
0.9999999999999999
 40
0.9999999999999999
 10
6238.42623264701
 20
5273.19945459262
 30
0.0
 10
6237.64214757934
 20
5273.199454592684
 30
0.0
 10
6236.065807796689
 20
5273.199454592809
 30
0.0
 10
6233.66872762166
 20
5273.199454591851
 30
0.0
 10
6231.653931958735
 20
5273.199454594936
 30
0.0
 10
6229.964871031899
 20
5273.199454588302
 30
0.0
 10
6229.085888020646
 20
5273.199454603932
 30
0.0
 10
6228.611278059382
 20
5273.199454612372
 30
0.0
  0
SPLINE
  5
100
330
1F
100
AcDbEntity
  8
0
  6
SLD-Plná
 62
     7
370
    25
100
AcDbSpline
210
0.0
220
0.0
230
1.0
 70
     8
 71
     3
 72
    12
 73
     8
 74
     0
 42
0.00000001
 43
0.00000001
 40
0.0
 40
0.0
 40
0.0
 40
0.0
 40
0.299599711809045
 40
0.4630258884691801
 40
0.6300392001072482
 40
0.8986883733373053
 40
1.0
 40
1.0
 40
1.0
 40
1.0
 10
6243.333709888133
 20
5264.699454634505
 30
0.0
 10
6242.845147142291
 20
5265.545670133258
 30
0.0
 10
6242.090082332315
 20
5266.853480747563
 30
0.0
 10
6241.056111568467
 20
5268.644370642019
 30
0.0
 10
6240.072809947847
 20
5270.347499016278
 30
0.0
 10
6239.19334981371
 20
5271.870768613777
 30
0.0
 10
6238.591143394213
 20
5272.91382078454
 30
0.0
 10
6238.42623264701
 20
5273.19945459262
 30
0.0
  0
SPLINE
  5
101
330
1F
100
AcDbEntity
  8
0
  6
SLD-Plná
 62
     7
370
    25
100
AcDbSpline
210
0.0
220
0.0
230
1.0
 70
     8
 71
     3
 72
    12
 73
     8
 74
     0
 42
0.00000001
 43
0.00000001
 40
0.0
 40
0.0
 40
0.0
 40
0.0
 40
0.1544468765157282
 40
0.4334831849255237
 40
0.6840347371786192
 40
0.8418911673997549
 40
0.9999999999999999
 40
0.9999999999999999
 40
0.9999999999999999
 40
0.9999999999999999
 10
6238.426232612799
 20
5256.199454572869
 30
0.0
 10
6238.677743810537
 20
5256.635084746148
 30
0.0
 10
6239.383655626301
 20
5257.857759877057
 30
0.0
 10
6240.505487978629
 20
5259.800830504829
 30
0.0
 10
6241.634417938548
 20
5261.756194567012
 30
0.0
 10
6242.561655581567
 20
5263.362217243501
 30
0.0
 10
6243.076221435812
 20
5264.253471517429
 30
0.0
 10
6243.333709888133
 20
5264.699454634505
 30
0.0
  0
SPLINE
  5
102
330
1F
100
AcDbEntity
  8
0
  6
SLD-Plná
 62
     7
370
    25
100
AcDbSpline
210
0.0
220
0.0
230
1.0
 70
     8
 71
     3
 72
    12
 73
     8
 74
     0
 42
0.00000001
 43
0.00000001
 40
0.0
 40
0.0
 40
0.0
 40
0.0
 40
0.1548517589853619
 40
0.30991149991096
 40
0.450591407946811
 40
0.7283591531466005
 40
1.0
 40
1.0
 40
1.0
 40
1.0
 10
6228.611278025171
 20
5256.199454592621
 30
0.0
 10
6229.115624226475
 20
5256.199454592608
 30
0.0
 10
6230.124994018232
 20
5256.199454592583
 30
0.0
 10
6231.599959164618
 20
5256.199454592769
 30
0.0
 10
6233.48116096445
 20
5256.199454591921
 30
0.0
 10
6235.749262250721
 20
5256.199454598162
 30
0.0
 10
6237.540567923564
 20
5256.199454581237
 30
0.0
 10
6238.426232612799
 20
5256.199454572869
 30
0.0
  0
ARC
  5
103
330
1F
100
AcDbEntity
  8
0
  6
SLD-Plná
 62
     7
370
    25
100
AcDbCircle
 10
6274.0187553361
 20
5102.6994545926
 30
0.0
 40
5.599999999999954
100
AcDbArc
 50
94.4980126049
 51
84.2523695851
  0
SPLINE
  5
104
330
1F
100
AcDbEntity
  8
0
  6
SLD-Plná
 62
     7
370
    25
100
AcDbSpline
210
0.0
220
0.0
230
1.0
 70
    24
 71
     3
 72
    17
 73
    13
 74
     0
 42
0.00000001
 43
0.00000001
 40
0.0
 40
0.0
 40
0.0
 40
0.0
 40
0.0253571442935778
 40
0.1307383348640909
 40
0.239174918360734
 40
0.3445785161991796
 40
0.453027371787969
 40
0.5586419514010674
 40
0.6673015875144184
 40
0.7732338113800754
 40
0.8822211025307902
 40
1.0
 40
1.0
 40
1.0
 40
1.0
 10
6273.579578046369
 20
5108.282206898441
 30
0.0
 10
6273.579578046369
 20
5108.282173485771
 30
0.0
 10
6273.579578046369
 20
5108.282001214127
 30
0.0
 10
6273.579578046369
 20
5108.278814915308
 30
0.0
 10
6273.579578046369
 20
5108.269181227656
 30
0.0
 10
6273.579578046369
 20
5108.254103972658
 30
0.0
 10
6273.579578046369
 20
5108.234327081632
 30
0.0
 10
6273.579578046369
 20
5108.210034914086
 30
0.0
 10
6273.579578046369
 20
5108.182321095765
 30
0.0
 10
6273.579578046369
 20
5108.151474691117
 30
0.0
 10
6273.579578046369
 20
5108.117714760117
 30
0.0
 10
6273.579578046369
 20
5108.093923057266
 30
0.0
 10
6273.579578046369
 20
5108.081566009912
 30
0.0
  0
ARC
  5
105
330
1F
100
AcDbEntity
  8
0
  6
SLD-Plná
 62
     7
370
    25
100
AcDbCircle
 10
6274.0187553361
 20
5102.6994545926
 30
0.0
 40
5.400000000000178
100
AcDbArc
 50
94.6649681226
 51
84.0387368535
  0
SPLINE
  5
106
330
1F
100
AcDbEntity
  8
0
  6
SLD-Plná
 62
     7
370
    25
100
AcDbSpline
210
0.0
220
0.0
230
1.0
 70
    24
 71
     3
 72
    17
 73
    13
 74
     0
 42
0.00000001
 43
0.00000001
 40
0.0
 40
0.0
 40
0.0
 40
0.0
 40
0.0078073190121752
 40
0.1145011616914063
 40
0.2242909192266178
 40
0.3309340350182562
 40
0.4406907406641694
 40
0.5469530993788027
 40
0.6563273815079167
 40
0.7620565771751255
 40
0.8708786071615192
 40
1.0
 40
1.0
 40
1.0
 40
1.0
 10
6274.57957804637
 20
5108.070253219226
 30
0.0
 10
6274.57957804637
 20
5108.071071895756
 30
0.0
 10
6274.57957804637
 20
5108.083078503086
 30
0.0
 10
6274.57957804637
 20
5108.106617161184
 30
0.0
 10
6274.57957804637
 20
5108.139482997591
 30
0.0
 10
6274.57957804637
 20
5108.17067616259
 30
0.0
 10
6274.57957804637
 20
5108.198700267908
 30
0.0
 10
6274.57957804637
 20
5108.22326280932
 30
0.0
 10
6274.57957804637
 20
5108.243230489982
 30
0.0
 10
6274.57957804637
 20
5108.258284858311
 30
0.0
 10
6274.57957804637
 20
5108.269043234545
 30
0.0
 10
6274.57957804637
 20
5108.270507111925
 30
0.0
 10
6274.57957804637
 20
5108.271301493563
 30
0.0
  0
ARC
  5
107
330
1F
100
AcDbEntity
  8
0
  6
SLD-Plná
 62
     7
370
    25
100
AcDbCircle
 10
6273.5795780464
 20
5104.4847829441
 30
0.0
 40
0.5331629282974953
100
AcDbArc
 50
310.711185677
 51
90.0
  0
LINE
  5
108
330
1F
100
AcDbEntity
  8
0
  6
SLD-Plná
 62
     7
370
    25
100
AcDbLine
 10
6274.7658047081
 20
5100.0760594805
 30
0.0
 11
6274.7658047081
 21
5102.9910854708
 31
0.0
  0
LINE
  5
109
330
1F
100
AcDbEntity
  8
0
  6
SLD-Plná
 62
     7
370
    25
100
AcDbLine
 10
6274.7658047081
 20
5102.9910854708
 30
0.0
 11
6274.5795780464
 21
5103.1732984684
 31
0.0
  0
ARC
  5
10A
330
1F
100
AcDbEntity
  8
0
  6
SLD-Plná
 62
     7
370
    25
100
AcDbCircle
 10
6274.5795780464
 20
5103.32263469
 30
0.0
 40
1.000000000000909
100
AcDbArc
 50
130.7111856769
 51
180.0
  0
LINE
  5
10B
330
1F
100
AcDbEntity
  8
0
  6
SLD-Plná
 62
     7
370
    25
100
AcDbLine
 10
6273.7658047081
 20
5102.5704762981
 30
0.0
 11
6273.7658047081
 21
5100.0760594805
 31
0.0
  0
LINE
  5
10C
330
1F
100
AcDbEntity
  8
0
  6
SLD-Plná
 62
     7
370
    25
100
AcDbLine
 10
6273.5795780464
 20
5102.7526892956
 30
0.0
 11
6273.7658047081
 21
5102.5704762981
 31
0.0
  0
ARC
  5
10D
330
1F
100
AcDbEntity
  8
0
  6
SLD-Plná
 62
     7
370
    25
100
AcDbCircle
 10
6273.5795780464
 20
5104.4847829441
 30
0.0
 40
1.533162928297243
100
AcDbArc
 50
310.7111856769
 51
49.2888143231
  0
LINE
  5
10E
330
1F
100
AcDbEntity
  8
0
  6
SLD-Plná
 62
     7
370
    25
100
AcDbLine
 10
6273.5795780464
 20
5103.32263469
 30
0.0
 11
6273.5795780464
 21
5102.7526892956
 31
0.0
  0
ARC
  5
10F
330
1F
100
AcDbEntity
  8
0
  6
SLD-Plná
 62
     7
370
    25
100
AcDbCircle
 10
6274.2658047081
 20
5100.0760594805
 30
0.0
 40
0.5000000000009095
100
AcDbArc
 50
180.0
 51
0.0
  0
LINE
  5
110
330
1F
100
AcDbEntity
  8
0
  6
SLD-Plná
 62
     7
370
    25
100
AcDbLine
 10
6274.5795780464
 20
5103.1732984684
 30
0.0
 11
6274.5795780464
 21
5103.32263469
 31
0.0
  0
LINE
  5
111
330
1F
100
AcDbEntity
  8
0
  6
SLD-Plná
 62
     7
370
    25
100
AcDbLine
 10
6273.5795780464
 20
5108.0815660099
 30
0.0
 11
6273.5795780464
 21
5105.0179458724
 31
0.0
  0
LINE
  5
112
330
1F
100
AcDbEntity
  8
0
  6
SLD-Plná
 62
     7
370
    25
100
AcDbLine
 10
6274.5795780464
 20
5105.6469311983
 30
0.0
 11
6274.5795780464
 21
5108.0702532192
 31
0.0
  0
ARC
  5
113
330
1F
100
AcDbEntity
  8
0
  6
SLD-Plná
 62
     7
370
    25
100
AcDbCircle
 10
6274.0187553361
 20
5102.6994545926
 30
0.0
 40
5.599999999999954
100
AcDbArc
 50
84.2523695851
 51
94.4980126049
  0
CIRCLE
  5
114
330
1F
100
AcDbEntity
  8
0
  6
SLD-Plná
 62
     7
370
    25
100
AcDbCircle
 10
6274.0187553361
 20
5098.6994545926
 30
0.0
 40
11.0
  0
CIRCLE
  5
115
330
1F
100
AcDbEntity
  8
0
  6
SLD-Plná
 62
     7
370
    25
100
AcDbCircle
 10
6274.0187553361
 20
5098.6994545926
 30
0.0
 40
12.0
  0
LINE
  5
116
330
1F
100
AcDbEntity
  8
0
  6
SLD-Plná
 62
     7
370
    25
100
AcDbLine
 10
6266.4187553361
 20
5338.5994545926
 30
0.0
 11
6206.6187553361
 21
5338.5994545926
 31
0.0
  0
LINE
  5
117
330
1F
100
AcDbEntity
  8
0
  6
SLD-Plná
 62
     7
370
    25
100
AcDbLine
 10
6266.4187553361
 20
5308.7994545926
 30
0.0
 11
6266.4187553361
 21
5338.5994545926
 31
0.0
  0
LINE
  5
118
330
1F
100
AcDbEntity
  8
0
  6
SLD-Plná
 62
     7
370
    25
100
AcDbLine
 10
6206.6187553361
 20
5308.7994545926
 30
0.0
 11
6266.4187553361
 21
5308.7994545926
 31
0.0
  0
LINE
  5
119
330
1F
100
AcDbEntity
  8
0
  6
SLD-Plná
 62
     7
370
    25
100
AcDbLine
 10
6206.6187553361
 20
5338.5994545926
 30
0.0
 11
6206.6187553361
 21
5308.7994545926
 31
0.0
  0
LINE
  5
11A
330
1F
100
AcDbEntity
  8
0
  6
SLD-Plná
 62
     7
370
    25
100
AcDbLine
 10
6309.0120491257
 20
5215.1326838838
 30
0.0
 11
6308.4342320045
 21
5215.1326838838
 31
0.0
  0
ELLIPSE
  5
11B
330
1F
100
AcDbEntity
  8
0
  6
SLD-Plná
 62
     7
370
    25
100
AcDbEllipse
 10
6309.1342345802
 20
5215.1326838838
 30
0.0
 11
-3.637978807091712E-12
 21
7.000000000003637
 31
0.0
210
0.0
220
0.0
230
1.0
 40
0.0174550649
 41
1.570796327061369
 42
3.124139361071398
  0
LINE
  5
11C
330
1F
100
AcDbEntity
  8
0
  6
SLD-Plná
 62
     7
370
    25
100
AcDbLine
 10
6308.2798585186
 20
5208.1337500177
 30
0.0
 11
6309.13210215
 21
5208.1337500177
 31
0.0
  0
SPLINE
  5
11D
330
1F
100
AcDbEntity
  8
0
  6
SLD-Plná
 62
     7
370
    25
100
AcDbSpline
210
0.0
220
0.0
230
1.0
 70
     8
 71
     3
 72
    13
 73
     9
 74
     0
 42
0.00000001
 43
0.00000001
 40
0.0
 40
0.0
 40
0.0
 40
0.0
 40
0.1541635107559928
 40
0.3000602986949164
 40
0.4376848620389385
 40
0.5670321451156388
 40
0.79991808050736
 40
1.0
 40
1.0
 40
1.0
 40
1.0
 10
6308.279858519119
 20
5208.133750017745
 30
0.0
 10
6308.292133936348
 20
5208.182079690793
 30
0.0
 10
6308.316026525081
 20
5208.276147450794
 30
0.0
 10
6308.347313551906
 20
5208.873639907993
 30
0.0
 10
6308.374033243622
 20
5209.704908587762
 30
0.0
 10
6308.401880016347
 20
5211.004457921666
 30
0.0
 10
6308.427443932464
 20
5212.837258295432
 30
0.0
 10
6308.432086564193
 20
5214.407190918879
 30
0.0
 10
6308.434232004455
 20
5215.132683883839
 30
0.0
  0
LINE
  5
11E
330
1F
100
AcDbEntity
  8
0
  6
SLD-Plná
 62
     7
370
    25
100
AcDbLine
 10
6315.9015786624
 20
5215.1326838838
 30
0.0
 11
6315.3237615412
 21
5215.1326838838
 31
0.0
  0
LINE
  5
11F
330
1F
100
AcDbEntity
  8
0
  6
SLD-Plná
 62
     7
370
    25
100
AcDbLine
 10
6315.3237615412
 20
5215.2985497717
 30
0.0
 11
6315.3237615412
 21
5215.1326838838
 31
0.0
  0
LINE
  5
120
330
1F
100
AcDbEntity
  8
0
  6
SLD-Plná
 62
     7
370
    25
100
AcDbLine
 10
6309.0120491257
 20
5215.2985497717
 30
0.0
 11
6315.3237615412
 21
5215.2985497717
 31
0.0
  0
LINE
  5
121
330
1F
100
AcDbEntity
  8
0
  6
SLD-Plná
 62
     7
370
    25
100
AcDbLine
 10
6309.0120491257
 20
5215.132683882
 30
0.0
 11
6309.0120491257
 21
5215.2985497717
 31
0.0
  0
LINE
  5
122
330
1F
100
AcDbEntity
  8
0
  6
SLD-Plná
 62
     7
370
    25
100
AcDbLine
 10
6308.4342320045
 20
5215.1326838838
 30
0.0
 11
6308.4342320045
 21
5218.1504332477
 31
0.0
  0
LINE
  5
123
330
1F
100
AcDbEntity
  8
0
  6
SLD-Plná
 62
     7
370
    25
100
AcDbLine
 10
6308.4342320045
 20
5218.1504332477
 30
0.0
 11
6315.9015786624
 21
5218.1504332477
 31
0.0
  0
LINE
  5
124
330
1F
100
AcDbEntity
  8
0
  6
SLD-Plná
 62
     7
370
    25
100
AcDbLine
 10
6315.9015786624
 20
5218.1504332477
 30
0.0
 11
6315.9015786624
 21
5215.1326838838
 31
0.0
  0
SPLINE
  5
125
330
1F
100
AcDbEntity
  8
0
  6
SLD-Plná
 62
     7
370
    25
100
AcDbSpline
210
0.0
220
0.0
230
1.0
 70
    24
 71
     3
 72
    11
 73
     7
 74
     0
 42
0.00000001
 43
0.00000001
 40
0.0
 40
0.0
 40
0.0
 40
0.0
 40
0.2500000000000124
 40
0.5000000000000085
 40
0.7500000000000088
 40
1.0
 40
1.0
 40
1.0
 40
1.0
 10
6307.43457467948
 20
5215.132683883839
 30
0.0
 10
6307.452467262567
 20
5215.132683883839
 30
0.0
 10
6307.488252428743
 20
5215.132683883839
 30
0.0
 10
6307.720679889576
 20
5215.132683883839
 30
0.0
 10
6308.047677280635
 20
5215.132683883839
 30
0.0
 10
6308.305380429848
 20
5215.132683883839
 30
0.0
 10
6308.434232004455
 20
5215.132683883839
 30
0.0
  0
LINE
  5
126
330
1F
100
AcDbEntity
  8
0
  6
SLD-Plná
 62
     7
370
    25
100
AcDbLine
 10
6307.4345746795
 20
5218.235631725
 30
0.0
 11
6307.4345746795
 21
5215.1326838838
 31
0.0
  0
ELLIPSE
  5
127
330
1F
100
AcDbEntity
  8
0
  6
SLD-Plná
 62
     7
370
    25
100
AcDbEllipse
 10
6308.4342320045
 20
5218.2379219112
 30
0.0
 11
1.0
 21
9.094947017729282E-13
 31
0.0
210
0.0
220
0.0
230
1.0
 40
0.0874886635
 41
3.167772592363786
 42
4.712388980384612
  0
LINE
  5
128
330
1F
100
AcDbEntity
  8
0
  6
SLD-Plná
 62
     7
370
    25
100
AcDbLine
 10
6315.2037085169
 20
5208.1337500177
 30
0.0
 11
6316.0559521484
 21
5208.1337500177
 31
0.0
  0
ELLIPSE
  5
129
330
1F
100
AcDbEntity
  8
0
  6
SLD-Plná
 62
     7
370
    25
100
AcDbEllipse
 10
6315.2015760867
 20
5215.1326838838
 30
0.0
 11
-4.547473508864641E-12
 21
7.000000000003637
 31
0.0
210
0.0
220
0.0
230
1.0
 40
0.0174550649
 41
3.159045946094265
 42
4.712388980384679
  0
SPLINE
  5
12A
330
1F
100
AcDbEntity
  8
0
  6
SLD-Plná
 62
     7
370
    25
100
AcDbSpline
210
0.0
220
0.0
230
1.0
 70
     8
 71
     3
 72
    13
 73
     9
 74
     0
 42
0.00000001
 43
0.00000001
 40
0.0
 40
0.0
 40
0.0
 40
0.0
 40
0.2000819194929248
 40
0.4329678548847424
 40
0.5623151379614181
 40
0.6999397013053695
 40
0.8458364892441715
 40
0.9999999999999999
 40
0.9999999999999999
 40
0.9999999999999999
 40
0.9999999999999999
 10
6315.901578662449
 20
5215.132683883844
 30
0.0
 10
6315.903724102712
 20
5214.407190918881
 30
0.0
 10
6315.908366734442
 20
5212.837258295434
 30
0.0
 10
6315.933930650562
 20
5211.00445792167
 30
0.0
 10
6315.961777423287
 20
5209.704908587767
 30
0.0
 10
6315.988497115003
 20
5208.873639907999
 30
0.0
 10
6316.019784141829
 20
5208.276147450801
 30
0.0
 10
6316.043676730563
 20
5208.182079690799
 30
0.0
 10
6316.055952147791
 20
5208.13375001775
 30
0.0
  0
LINE
  5
12B
330
1F
100
AcDbEntity
  8
0
  6
SLD-Plná
 62
     7
370
    25
100
AcDbLine
 10
6316.9012359874
 20
5215.1326838838
 30
0.0
 11
6316.9012359874
 21
5218.235631725
 31
0.0
  0
SPLINE
  5
12C
330
1F
100
AcDbEntity
  8
0
  6
SLD-Plná
 62
     7
370
    25
100
AcDbSpline
210
0.0
220
0.0
230
1.0
 70
    24
 71
     3
 72
    11
 73
     7
 74
     0
 42
0.00000001
 43
0.00000001
 40
0.0
 40
0.0
 40
0.0
 40
0.0
 40
0.2500000000000091
 40
0.5000000000000178
 40
0.7500000000000184
 40
1.0
 40
1.0
 40
1.0
 40
1.0
 10
6315.901578662449
 20
5215.132683883844
 30
0.0
 10
6316.030430237055
 20
5215.132683883844
 30
0.0
 10
6316.288133386269
 20
5215.132683883844
 30
0.0
 10
6316.615130777328
 20
5215.132683883844
 30
0.0
 10
6316.847558238161
 20
5215.132683883844
 30
0.0
 10
6316.883343404337
 20
5215.132683883844
 30
0.0
 10
6316.901235987424
 20
5215.132683883844
 30
0.0
  0
ELLIPSE
  5
12D
330
1F
100
AcDbEntity
  8
0
  6
SLD-Plná
 62
     7
370
    25
100
AcDbEllipse
 10
6315.9015786624
 20
5218.2379219112
 30
0.0
 11
1.000000000000909
 21
9.094947017729282E-13
 31
0.0
210
0.0
220
0.0
230
1.0
 40
0.0874886635
 41
4.712388980384612
 42
6.257005368395255
  0
ELLIPSE
  5
12E
330
1F
100
AcDbEntity
  8
0
  6
SLD-Plná
 62
     7
370
    25
100
AcDbEllipse
 10
6317.0583515168
 20
5215.1326838838
 30
0.0
 11
-3.637978807091713E-12
 21
6.000000000000909
 31
0.0
210
0.0
220
0.0
230
1.0
 40
0.0261859216
 41
1.570796326794881
 42
3.124139361066205
  0
SPLINE
  5
12F
330
1F
100
AcDbEntity
  8
0
  6
SLD-Plná
 62
     7
370
    25
100
AcDbSpline
210
0.0
220
0.0
230
1.0
 70
     8
 71
     3
 72
    11
 73
     7
 74
     0
 42
0.00000001
 43
0.00000001
 40
0.0
 40
0.0
 40
0.0
 40
0.0
 40
0.2500000000000043
 40
0.5000000000000068
 40
0.7500000000000064
 40
1.0
 40
1.0
 40
1.0
 40
1.0
 10
6316.055952148354
 20
5208.133750017751
 30
0.0
 10
6316.186906179331
 20
5208.148830215406
 30
0.0
 10
6316.448814241287
 20
5208.178990610716
 30
0.0
 10
6316.779184882635
 20
5208.410227249504
 30
0.0
 10
6317.010377493889
 20
5208.740660805316
 30
0.0
 10
6317.040532146473
 20
5209.002618743872
 30
0.0
 10
6317.055609472765
 20
5209.13359771315
 30
0.0
  0
ELLIPSE
  5
130
330
1F
100
AcDbEntity
  8
0
  6
SLD-Plná
 62
     7
370
    25
100
AcDbEllipse
 10
6307.2774591501
 20
5215.1326838838
 30
0.0
 11
-3.637978807091713E-12
 21
5.999999999995452
 31
0.0
210
0.0
220
0.0
230
1.0
 40
0.0261859216
 41
3.159045946108134
 42
4.712388980385128
  0
SPLINE
  5
131
330
1F
100
AcDbEntity
  8
0
  6
SLD-Plná
 62
     7
370
    25
100
AcDbSpline
210
0.0
220
0.0
230
1.0
 70
     8
 71
     3
 72
    11
 73
     7
 74
     0
 42
0.00000001
 43
0.00000001
 40
0.0
 40
0.0
 40
0.0
 40
0.0
 40
0.2499999999999993
 40
0.4999999999999956
 40
0.749999999999998
 40
0.9999999999999999
 40
0.9999999999999999
 40
0.9999999999999999
 40
0.9999999999999999
 10
6307.280201194144
 20
5209.133597713146
 30
0.0
 10
6307.295278520436
 20
5209.002618743868
 30
0.0
 10
6307.32543317302
 20
5208.740660805311
 30
0.0
 10
6307.556625784275
 20
5208.410227249498
 30
0.0
 10
6307.886996425624
 20
5208.178990610711
 30
0.0
 10
6308.148904487579
 20
5208.148830215401
 30
0.0
 10
6308.279858518557
 20
5208.133750017746
 30
0.0
  0
LINE
  5
132
330
1F
100
AcDbEntity
  8
0
  6
SLD-Plná
 62
     7
370
    25
100
AcDbLine
 10
6309.0120491257
 20
5215.2985497717
 30
0.0
 11
6309.1982364824
 21
5214.7395334669
 31
0.0
  0
LINE
  5
133
330
1F
100
AcDbEntity
  8
0
  6
SLD-Plná
 62
     7
370
    25
100
AcDbLine
 10
6309.1982364824
 20
5214.7395334669
 30
0.0
 11
6309.5357010735
 21
5213.7263163932
 31
0.0
  0
LINE
  5
134
330
1F
100
AcDbEntity
  8
0
  6
SLD-Plná
 62
     7
370
    25
100
AcDbLine
 10
6309.5357010735
 20
5209.7207831502
 30
0.0
 11
6309.5357010735
 21
5213.7263163932
 31
0.0
  0
LINE
  5
135
330
1F
100
AcDbEntity
  8
0
  6
SLD-Plná
 62
     7
370
    25
100
AcDbLine
 10
6309.1863746666
 20
5209.0219174064
 30
0.0
 11
6309.5357010735
 21
5209.7207831502
 31
0.0
  0
LINE
  5
136
330
1F
100
AcDbEntity
  8
0
  6
SLD-Plná
 62
     7
370
    25
100
AcDbLine
 10
6309.1863746666
 20
5209.0219174064
 30
0.0
 11
6309.1863746666
 21
5208.0794775011
 31
0.0
  0
LINE
  5
137
330
1F
100
AcDbEntity
  8
0
  6
SLD-Plná
 62
     7
370
    25
100
AcDbLine
 10
6309.1863746666
 20
5208.0794775011
 30
0.0
 11
6309.13210215
 21
5208.1337500177
 31
0.0
  0
LINE
  5
138
330
1F
100
AcDbEntity
  8
0
  6
SLD-Plná
 62
     7
370
    25
100
AcDbLine
 10
6306.9887285453
 20
5219.7252291912
 30
0.0
 11
6307.4345746795
 21
5218.235631725
 31
0.0
  0
LINE
  5
139
330
1F
100
AcDbEntity
  8
0
  6
SLD-Plná
 62
     7
370
    25
100
AcDbLine
 10
6306.9887285453
 20
5219.7252291912
 30
0.0
 11
6309.0702326704
 21
5219.7252291912
 31
0.0
  0
LINE
  5
13A
330
1F
100
AcDbEntity
  8
0
  6
SLD-Plná
 62
     7
370
    25
100
AcDbLine
 10
6309.3439650648
 20
5218.3532216137
 30
0.0
 11
6309.0702326704
 21
5219.7252291912
 31
0.0
  0
LINE
  5
13B
330
1F
100
AcDbEntity
  8
0
  6
SLD-Plná
 62
     7
370
    25
100
AcDbLine
 10
6309.3439650648
 20
5218.3532216137
 30
0.0
 11
6314.9918456021
 21
5218.3532216137
 31
0.0
  0
LINE
  5
13C
330
1F
100
AcDbEntity
  8
0
  6
SLD-Plná
 62
     7
370
    25
100
AcDbLine
 10
6315.2655779965
 20
5219.7252291912
 30
0.0
 11
6314.9918456021
 21
5218.3532216137
 31
0.0
  0
LINE
  5
13D
330
1F
100
AcDbEntity
  8
0
  6
SLD-Plná
 62
     7
370
    25
100
AcDbLine
 10
6315.2655779965
 20
5219.7252291912
 30
0.0
 11
6317.3470821216
 21
5219.7252291912
 31
0.0
  0
LINE
  5
13E
330
1F
100
AcDbEntity
  8
0
  6
SLD-Plná
 62
     7
370
    25
100
AcDbLine
 10
6317.3470821216
 20
5219.7252291912
 30
0.0
 11
6316.9012359874
 21
5218.235631725
 31
0.0
  0
LINE
  5
13F
330
1F
100
AcDbEntity
  8
0
  6
SLD-Plná
 62
     7
370
    25
100
AcDbLine
 10
6315.3237615412
 20
5215.2985497717
 30
0.0
 11
6315.1375741845
 21
5214.7395334669
 31
0.0
  0
LINE
  5
140
330
1F
100
AcDbEntity
  8
0
  6
SLD-Plná
 62
     7
370
    25
100
AcDbLine
 10
6314.9918456021
 20
5215.1770747428
 30
0.0
 11
6315.1375741845
 21
5214.7395334669
 31
0.0
  0
LINE
  5
141
330
1F
100
AcDbEntity
  8
0
  6
SLD-Plná
 62
     7
370
    25
100
AcDbLine
 10
6309.3439650648
 20
5215.1770747428
 30
0.0
 11
6314.9918456021
 21
5215.1770747428
 31
0.0
  0
LINE
  5
142
330
1F
100
AcDbEntity
  8
0
  6
SLD-Plná
 62
     7
370
    25
100
AcDbLine
 10
6309.1982364824
 20
5214.7395334669
 30
0.0
 11
6309.3439650648
 21
5215.1770747428
 31
0.0
  0
LINE
  5
143
330
1F
100
AcDbEntity
  8
0
  6
SLD-Plná
 62
     7
370
    25
100
AcDbLine
 10
6315.2037085169
 20
5208.1337500177
 30
0.0
 11
6315.1494360003
 21
5208.0794775011
 31
0.0
  0
LINE
  5
144
330
1F
100
AcDbEntity
  8
0
  6
SLD-Plná
 62
     7
370
    25
100
AcDbLine
 10
6315.1494360003
 20
5209.0219174064
 30
0.0
 11
6315.1494360003
 21
5208.0794775011
 31
0.0
  0
LINE
  5
145
330
1F
100
AcDbEntity
  8
0
  6
SLD-Plná
 62
     7
370
    25
100
AcDbLine
 10
6314.8001095934
 20
5209.7207831502
 30
0.0
 11
6315.1494360003
 21
5209.0219174064
 31
0.0
  0
LINE
  5
146
330
1F
100
AcDbEntity
  8
0
  6
SLD-Plná
 62
     7
370
    25
100
AcDbLine
 10
6314.8001095934
 20
5209.7207831502
 30
0.0
 11
6314.8001095934
 21
5213.7263163932
 31
0.0
  0
LINE
  5
147
330
1F
100
AcDbEntity
  8
0
  6
SLD-Plná
 62
     7
370
    25
100
AcDbLine
 10
6315.1375741845
 20
5214.7395334669
 30
0.0
 11
6314.8001095934
 21
5213.7263163932
 31
0.0
  0
LINE
  5
148
330
1F
100
AcDbEntity
  8
0
  6
SLD-Plná
 62
     7
370
    25
100
AcDbLine
 10
6317.3994539647
 20
5247.5841574782
 30
0.0
 11
6317.4570629922
 21
5247.6994545926
 31
0.0
  0
LINE
  5
149
330
1F
100
AcDbEntity
  8
0
  6
SLD-Plná
 62
     7
370
    25
100
AcDbLine
 10
6317.3994539647
 20
5246.614751707
 30
0.0
 11
6317.3994539647
 21
5247.5841574782
 31
0.0
  0
LINE
  5
14A
330
1F
100
AcDbEntity
  8
0
  6
SLD-Plná
 62
     7
370
    25
100
AcDbLine
 10
6317.4570629922
 20
5246.4994545926
 30
0.0
 11
6317.3994539647
 21
5246.614751707
 31
0.0
  0
LINE
  5
14B
330
1F
100
AcDbEntity
  8
0
  6
SLD-Plná
 62
     7
370
    25
100
AcDbLine
 10
6317.3994539648
 20
5215.1841574782
 30
0.0
 11
6317.4570629922
 21
5215.2994545926
 31
0.0
  0
LINE
  5
14C
330
1F
100
AcDbEntity
  8
0
  6
SLD-Plná
 62
     7
370
    25
100
AcDbLine
 10
6317.3994539648
 20
5214.214751707
 30
0.0
 11
6317.3994539648
 21
5215.1841574782
 31
0.0
  0
LINE
  5
14D
330
1F
100
AcDbEntity
  8
0
  6
SLD-Plná
 62
     7
370
    25
100
AcDbLine
 10
6317.4570629922
 20
5214.0994545926
 30
0.0
 11
6317.3994539648
 21
5214.214751707
 31
0.0
  0
LINE
  5
14E
330
1F
100
AcDbEntity
  8
0
  6
SLD-Plná
 62
     7
370
    25
100
AcDbLine
 10
6317.3470821216
 20
5219.7252291912
 30
0.0
 11
6317.3470821216
 21
5248.1606048621
 31
0.0
  0
LINE
  5
14F
330
1F
100
AcDbEntity
  8
0
  6
SLD-Plná
 62
     7
370
    25
100
AcDbLine
 10
6317.3470821216
 20
5248.1606048621
 30
0.0
 11
6317.4570629922
 21
5248.2705857327
 31
0.0
  0
LINE
  5
150
330
1F
100
AcDbEntity
  8
0
  6
SLD-Plná
 62
     7
370
    25
100
AcDbLine
 10
6306.9887285453
 20
5248.1606048621
 30
0.0
 11
6306.9887285453
 21
5219.7252291912
 31
0.0
  0
LINE
  5
151
330
1F
100
AcDbEntity
  8
0
  6
SLD-Plná
 62
     7
370
    25
100
AcDbLine
 10
6306.9363567022
 20
5214.214751707
 30
0.0
 11
6306.8787476747
 21
5214.0994545926
 31
0.0
  0
LINE
  5
152
330
1F
100
AcDbEntity
  8
0
  6
SLD-Plná
 62
     7
370
    25
100
AcDbLine
 10
6306.9363567021
 20
5215.1841574782
 30
0.0
 11
6306.9363567022
 21
5214.214751707
 31
0.0
  0
LINE
  5
153
330
1F
100
AcDbEntity
  8
0
  6
SLD-Plná
 62
     7
370
    25
100
AcDbLine
 10
6306.8787476747
 20
5215.2994545926
 30
0.0
 11
6306.9363567021
 21
5215.1841574782
 31
0.0
  0
LINE
  5
154
330
1F
100
AcDbEntity
  8
0
  6
SLD-Plná
 62
     7
370
    25
100
AcDbLine
 10
6306.8787476747
 20
5248.2705857327
 30
0.0
 11
6306.9887285453
 21
5248.1606048621
 31
0.0
  0
LINE
  5
155
330
1F
100
AcDbEntity
  8
0
  6
SLD-Plná
 62
     7
370
    25
100
AcDbLine
 10
6315.1494360003
 20
5208.0794775011
 30
0.0
 11
6309.1863746666
 21
5208.0794775011
 31
0.0
  0
LINE
  5
156
330
1F
100
AcDbEntity
  8
0
  6
SLD-Plná
 62
     7
370
    25
100
AcDbLine
 10
6309.5357010735
 20
5209.7207831502
 30
0.0
 11
6314.8001095934
 21
5209.7207831502
 31
0.0
  0
LINE
  5
157
330
1F
100
AcDbEntity
  8
0
  6
SLD-Plná
 62
     7
370
    25
100
AcDbLine
 10
6309.1863746666
 20
5209.0219174064
 30
0.0
 11
6315.1494360003
 21
5209.0219174064
 31
0.0
  0
LINE
  5
158
330
1F
100
AcDbEntity
  8
0
  6
SLD-Plná
 62
     7
370
    25
100
AcDbLine
 10
6322.9263439902
 20
5289.0633766609
 30
0.0
 11
6322.8041526101
 21
5288.9411847337
 31
0.0
  0
ARC
  5
159
330
1F
100
AcDbEntity
  8
0
  6
SLD-Plná
 62
     7
370
    25
100
AcDbCircle
 10
6322.9263515963
 20
5288.4634065675
 30
0.0
 40
0.5999700934671731
100
AcDbArc
 50
359.9992736378
 51
90.0007263622
  0
LINE
  5
15A
330
1F
100
AcDbEntity
  8
0
  6
SLD-Plná
 62
     7
370
    25
100
AcDbLine
 10
6323.4041297626
 20
5288.3412075813
 30
0.0
 11
6323.5263216897
 21
5288.4633989614
 31
0.0
  0
ARC
  5
15B
330
1F
100
AcDbEntity
  8
0
  6
SLD-Plná
 62
     7
370
    25
100
AcDbCircle
 10
6322.8041409737
 20
5288.3411959448
 30
0.0
 40
0.5999887890012082
100
AcDbArc
 50
0.0011112162
 51
89.9988887835
  0
LINE
  5
15C
330
1F
100
AcDbEntity
  8
0
  6
SLD-Plná
 62
     7
370
    25
100
AcDbLine
 10
6323.5263216897
 20
5272.9355102238
 30
0.0
 11
6323.4041297626
 21
5273.0577016039
 31
0.0
  0
ARC
  5
15D
330
1F
100
AcDbEntity
  8
0
  6
SLD-Plná
 62
     7
370
    25
100
AcDbCircle
 10
6322.9263515963
 20
5272.9355026177
 30
0.0
 40
0.5999700934662636
100
AcDbArc
 50
269.9992736378
 51
0.0007263623
  0
LINE
  5
15E
330
1F
100
AcDbEntity
  8
0
  6
SLD-Plná
 62
     7
370
    25
100
AcDbLine
 10
6322.8041526101
 20
5272.4577244515
 30
0.0
 11
6322.9263439902
 21
5272.3355325243
 31
0.0
  0
ARC
  5
15F
330
1F
100
AcDbEntity
  8
0
  6
SLD-Plná
 62
     7
370
    25
100
AcDbCircle
 10
6322.8041409737
 20
5273.0577132404
 30
0.0
 40
0.5999887890021177
100
AcDbArc
 50
270.0011112166
 51
359.9988887836
  0
LINE
  5
160
330
1F
100
AcDbEntity
  8
0
  6
SLD-Plná
 62
     7
370
    25
100
AcDbLine
 10
6305.2984775531
 20
5288.4633989614
 30
0.0
 11
6305.4206694803
 21
5288.3412075813
 31
0.0
  0
ARC
  5
161
330
1F
100
AcDbEntity
  8
0
  6
SLD-Plná
 62
     7
370
    25
100
AcDbCircle
 10
6305.8984476466
 20
5288.4634065675
 30
0.0
 40
0.5999700934653541
100
AcDbArc
 50
89.9992736378
 51
180.0007263623
  0
LINE
  5
162
330
1F
100
AcDbEntity
  8
0
  6
SLD-Plná
 62
     7
370
    25
100
AcDbLine
 10
6306.0206466328
 20
5288.9411847337
 30
0.0
 11
6305.8984552526
 21
5289.0633766609
 31
0.0
  0
ARC
  5
163
330
1F
100
AcDbEntity
  8
0
  6
SLD-Plná
 62
     7
370
    25
100
AcDbCircle
 10
6306.0206582692
 20
5288.3411959448
 30
0.0
 40
0.5999887890002987
100
AcDbArc
 50
90.0011112164
 51
179.9988887836
  0
LINE
  5
164
330
1F
100
AcDbEntity
  8
0
  6
SLD-Plná
 62
     7
370
    25
100
AcDbLine
 10
6305.8984552526
 20
5272.3355325243
 30
0.0
 11
6306.0206466328
 21
5272.4577244515
 31
0.0
  0
ARC
  5
165
330
1F
100
AcDbEntity
  8
0
  6
SLD-Plná
 62
     7
370
    25
100
AcDbCircle
 10
6305.8984476466
 20
5272.9355026177
 30
0.0
 40
0.5999700934653541
100
AcDbArc
 50
179.9992736378
 51
270.0007263623
  0
LINE
  5
166
330
1F
100
AcDbEntity
  8
0
  6
SLD-Plná
 62
     7
370
    25
100
AcDbLine
 10
6305.4206694803
 20
5273.0577016039
 30
0.0
 11
6305.2984775532
 21
5272.9355102238
 31
0.0
  0
ARC
  5
167
330
1F
100
AcDbEntity
  8
0
  6
SLD-Plná
 62
     7
370
    25
100
AcDbCircle
 10
6306.0206582692
 20
5273.0577132404
 30
0.0
 40
0.5999887890021177
100
AcDbArc
 50
180.0011112165
 51
269.9988887835
  0
LINE
  5
168
330
1F
100
AcDbEntity
  8
0
  6
SLD-Plná
 62
     7
370
    25
100
AcDbLine
 10
6305.2984775531
 20
5288.4633989614
 30
0.0
 11
6305.2984775532
 21
5272.9355102238
 31
0.0
  0
LINE
  5
169
330
1F
100
AcDbEntity
  8
0
  6
SLD-Plná
 62
     7
370
    25
100
AcDbLine
 10
6305.4206694803
 20
5288.3412075813
 30
0.0
 11
6305.4206694803
 21
5273.0577016039
 31
0.0
  0
LINE
  5
16A
330
1F
100
AcDbEntity
  8
0
  6
SLD-Plná
 62
     7
370
    25
100
AcDbLine
 10
6303.8623996214
 20
5271.3908032242
 30
0.0
 11
6303.8623996214
 21
5290.008105961
 31
0.0
  0
LINE
  5
16B
330
1F
100
AcDbEntity
  8
0
  6
SLD-Plná
 62
     7
370
    25
100
AcDbLine
 10
6303.8623996214
 20
5290.008105961
 30
0.0
 11
6324.9623996214
 21
5290.008105961
 31
0.0
  0
LINE
  5
16C
330
1F
100
AcDbEntity
  8
0
  6
SLD-Plná
 62
     7
370
    25
100
AcDbLine
 10
6324.9623996214
 20
5290.008105961
 30
0.0
 11
6324.9623996214
 21
5271.3908032242
 31
0.0
  0
LINE
  5
16D
330
1F
100
AcDbEntity
  8
0
  6
SLD-Plná
 62
     7
370
    25
100
AcDbLine
 10
6324.9623996214
 20
5271.3908032242
 30
0.0
 11
6303.8623996214
 21
5271.3908032242
 31
0.0
  0
LINE
  5
16E
330
1F
100
AcDbEntity
  8
0
  6
SLD-Plná
 62
     7
370
    25
100
AcDbLine
 10
6305.8984552526
 20
5272.3355325243
 30
0.0
 11
6322.9263439902
 21
5272.3355325243
 31
0.0
  0
LINE
  5
16F
330
1F
100
AcDbEntity
  8
0
  6
SLD-Plná
 62
     7
370
    25
100
AcDbLine
 10
6323.5263216897
 20
5272.9355102238
 30
0.0
 11
6323.5263216897
 21
5288.4633989614
 31
0.0
  0
LINE
  5
170
330
1F
100
AcDbEntity
  8
0
  6
SLD-Plná
 62
     7
370
    25
100
AcDbLine
 10
6322.9263439902
 20
5289.0633766609
 30
0.0
 11
6305.8984552526
 21
5289.0633766609
 31
0.0
  0
LINE
  5
171
330
1F
100
AcDbEntity
  8
0
  6
SLD-Plná
 62
     7
370
    25
100
AcDbLine
 10
6306.0206466328
 20
5272.4577244515
 30
0.0
 11
6308.9401837025
 21
5272.4577244501
 31
0.0
  0
LINE
  5
172
330
1F
100
AcDbEntity
  8
0
  6
SLD-Plná
 62
     7
370
    25
100
AcDbLine
 10
6309.0623996214
 20
5272.3966211445
 30
0.0
 11
6308.9401837025
 21
5272.4577244501
 31
0.0
  0
LINE
  5
173
330
1F
100
AcDbEntity
  8
0
  6
SLD-Plná
 62
     7
370
    25
100
AcDbLine
 10
6314.6623996214
 20
5272.3966211445
 30
0.0
 11
6309.0623996214
 21
5272.3966211445
 31
0.0
  0
LINE
  5
174
330
1F
100
AcDbEntity
  8
0
  6
SLD-Plná
 62
     7
370
    25
100
AcDbLine
 10
6314.7846155404
 20
5272.4577244501
 30
0.0
 11
6314.6623996214
 21
5272.3966211445
 31
0.0
  0
LINE
  5
175
330
1F
100
AcDbEntity
  8
0
  6
SLD-Plná
 62
     7
370
    25
100
AcDbLine
 10
6314.7846155404
 20
5272.4577244501
 30
0.0
 11
6322.8041526101
 21
5272.4577244515
 31
0.0
  0
LINE
  5
176
330
1F
100
AcDbEntity
  8
0
  6
SLD-Plná
 62
     7
370
    25
100
AcDbLine
 10
6323.4041297626
 20
5273.0577016039
 30
0.0
 11
6323.4041297626
 21
5288.3412075813
 31
0.0
  0
LINE
  5
177
330
1F
100
AcDbEntity
  8
0
  6
SLD-Plná
 62
     7
370
    25
100
AcDbLine
 10
6322.6123996214
 20
5289.0022880407
 30
0.0
 11
6322.7346155404
 21
5288.9411847351
 31
0.0
  0
LINE
  5
178
330
1F
100
AcDbEntity
  8
0
  6
SLD-Plná
 62
     7
370
    25
100
AcDbLine
 10
6317.0123996214
 20
5289.0022880407
 30
0.0
 11
6322.6123996214
 21
5289.0022880407
 31
0.0
  0
LINE
  5
179
330
1F
100
AcDbEntity
  8
0
  6
SLD-Plná
 62
     7
370
    25
100
AcDbLine
 10
6316.8901837025
 20
5288.9411847351
 30
0.0
 11
6317.0123996214
 21
5289.0022880407
 31
0.0
  0
LINE
  5
17A
330
1F
100
AcDbEntity
  8
0
  6
SLD-Plná
 62
     7
370
    25
100
AcDbLine
 10
6316.8901837025
 20
5288.9411847351
 30
0.0
 11
6306.0206466328
 21
5288.9411847337
 31
0.0
  0
LINE
  5
17B
330
1F
100
AcDbEntity
  8
0
  6
SLD-Plná
 62
     7
370
    25
100
AcDbLine
 10
6322.8041526101
 20
5288.9411847337
 30
0.0
 11
6322.7346155404
 21
5288.9411847351
 31
0.0
  0
LINE
  5
17C
330
1F
100
AcDbEntity
  8
0
  6
SLD-Plná
 62
     7
370
    25
100
AcDbLine
 10
6303.7489622482
 20
5270.7860172194
 30
0.0
 11
6303.8538244054
 21
5270.8908793766
 31
0.0
  0
LINE
  5
17D
330
1F
100
AcDbEntity
  8
0
  6
SLD-Plná
 62
     7
370
    25
100
AcDbLine
 10
6303.7454506864
 20
5276.3994545926
 30
0.0
 11
6303.722759102
 21
5276.3767630082
 31
0.0
  0
LINE
  5
17E
330
1F
100
AcDbEntity
  8
0
  6
SLD-Plná
 62
     7
370
    25
100
AcDbLine
 10
6303.7454506864
 20
5284.9994545926
 30
0.0
 11
6303.7454506864
 21
5276.3994545926
 31
0.0
  0
LINE
  5
17F
330
1F
100
AcDbEntity
  8
0
  6
SLD-Plná
 62
     7
370
    25
100
AcDbLine
 10
6303.722759102
 20
5285.022146177
 30
0.0
 11
6303.7454506864
 21
5284.9994545926
 31
0.0
  0
LINE
  5
180
330
1F
100
AcDbEntity
  8
0
  6
SLD-Plná
 62
     7
370
    25
100
AcDbLine
 10
6303.722759102
 20
5290.639095112
 30
0.0
 11
6303.8538244054
 21
5290.5080298086
 31
0.0
  0
ELLIPSE
  5
181
330
1F
100
AcDbEntity
  8
0
  6
SLD-Plná
 62
     7
370
    25
100
AcDbEllipse
 10
6303.853672089
 20
5290.008105961
 30
0.0
 11
0.0
 21
0.5
 31
0.0
210
0.0
220
0.0
230
1.0
 40
0.0174550649
 41
4.71238898038469
 42
6.265732014661721
  0
ELLIPSE
  5
182
330
1F
100
AcDbEntity
  8
0
  6
SLD-Plná
 62
     7
370
    25
100
AcDbEllipse
 10
6303.853672089
 20
5271.3908032242
 30
0.0
 11
0.0
 21
0.5000000000009095
 31
0.0
210
0.0
220
0.0
230
1.0
 40
0.0174550649
 41
3.159045946109322
 42
4.71238898038469
  0
ELLIPSE
  5
183
330
1F
100
AcDbEntity
  8
0
  6
SLD-Plná
 62
     7
370
    25
100
AcDbEllipse
 10
6324.9711271539
 20
5290.008105961
 30
0.0
 11
-9.094947017729282E-13
 21
0.5
 31
0.0
210
0.0
220
0.0
230
1.0
 40
0.0174550649
 41
0.0174532925187068
 42
1.570796326794865
  0
LINE
  5
184
330
1F
100
AcDbEntity
  8
0
  6
SLD-Plná
 62
     7
370
    25
100
AcDbLine
 10
6325.0793485563
 20
5290.6164035275
 30
0.0
 11
6324.9709748374
 21
5290.5080298086
 31
0.0
  0
LINE
  5
185
330
1F
100
AcDbEntity
  8
0
  6
SLD-Plná
 62
     7
370
    25
100
AcDbLine
 10
6325.0758369946
 20
5270.7860172194
 30
0.0
 11
6324.9709748375
 21
5270.8908793766
 31
0.0
  0
ELLIPSE
  5
186
330
1F
100
AcDbEntity
  8
0
  6
SLD-Plná
 62
     7
370
    25
100
AcDbEllipse
 10
6324.9711271539
 20
5271.3908032242
 30
0.0
 11
-9.094947017729282E-13
 21
0.4999999999990905
 31
0.0
210
0.0
220
0.0
230
1.0
 40
0.0174550649
 41
1.570796326794865
 42
3.124139360860978
  0
LINE
  5
187
330
1F
100
AcDbEntity
  8
0
  6
SLD-Plná
 62
     7
370
    25
100
AcDbLine
 10
6324.9709748374
 20
5290.5080298086
 30
0.0
 11
6303.8538244054
 21
5290.5080298086
 31
0.0
  0
LINE
  5
188
330
1F
100
AcDbEntity
  8
0
  6
SLD-Plná
 62
     7
370
    25
100
AcDbLine
 10
6303.8538244054
 20
5270.8908793766
 30
0.0
 11
6324.9709748375
 21
5270.8908793766
 31
0.0
  0
LINE
  5
189
330
1F
100
AcDbEntity
  8
0
  6
SLD-Plná
 62
     7
370
    25
100
AcDbLine
 10
6318.747102507
 20
5270.798215216
 30
0.0
 11
6318.7837262559
 21
5270.7860172194
 31
0.0
  0
LINE
  5
18A
330
1F
100
AcDbEntity
  8
0
  6
SLD-Plná
 62
     7
370
    25
100
AcDbLine
 10
6317.7776967359
 20
5270.798215216
 30
0.0
 11
6318.747102507
 21
5270.798215216
 31
0.0
  0
LINE
  5
18B
330
1F
100
AcDbEntity
  8
0
  6
SLD-Plná
 62
     7
370
    25
100
AcDbLine
 10
6317.741072987
 20
5270.7860172194
 30
0.0
 11
6317.7776967359
 21
5270.798215216
 31
0.0
  0
LINE
  5
18C
330
1F
100
AcDbEntity
  8
0
  6
SLD-Plná
 62
     7
370
    25
100
AcDbLine
 10
6303.722759102
 20
5290.639095112
 30
0.0
 11
6307.5187553362
 21
5290.639095112
 31
0.0
  0
LINE
  5
18D
330
1F
100
AcDbEntity
  8
0
  6
SLD-Plná
 62
     7
370
    25
100
AcDbLine
 10
6307.5187553362
 20
5290.639095112
 30
0.0
 11
6307.5920666089
 21
5290.5657838393
 31
0.0
  0
LINE
  5
18E
330
1F
100
AcDbEntity
  8
0
  6
SLD-Plná
 62
     7
370
    25
100
AcDbLine
 10
6307.5920666089
 20
5290.5657838393
 30
0.0
 11
6315.5699725512
 21
5290.5657838393
 31
0.0
  0
LINE
  5
18F
330
1F
100
AcDbEntity
  8
0
  6
SLD-Plná
 62
     7
370
    25
100
AcDbLine
 10
6315.5699725512
 20
5290.5657838393
 30
0.0
 11
6315.6432838239
 21
5290.639095112
 31
0.0
  0
LINE
  5
190
330
1F
100
AcDbEntity
  8
0
  6
SLD-Plná
 62
     7
370
    25
100
AcDbLine
 10
6315.6432838239
 20
5290.639095112
 30
0.0
 11
6316.9949445565
 21
5290.639095112
 31
0.0
  0
LINE
  5
191
330
1F
100
AcDbEntity
  8
0
  6
SLD-Plná
 62
     7
370
    25
100
AcDbLine
 10
6317.0123996214
 20
5290.6216400471
 30
0.0
 11
6316.9949445565
 21
5290.639095112
 31
0.0
  0
LINE
  5
192
330
1F
100
AcDbEntity
  8
0
  6
SLD-Plná
 62
     7
370
    25
100
AcDbLine
 10
6322.6123996214
 20
5290.6216400471
 30
0.0
 11
6317.0123996214
 21
5290.6216400471
 31
0.0
  0
LINE
  5
193
330
1F
100
AcDbEntity
  8
0
  6
SLD-Plná
 62
     7
370
    25
100
AcDbLine
 10
6322.6298546864
 20
5290.639095112
 30
0.0
 11
6322.6123996214
 21
5290.6216400471
 31
0.0
  0
LINE
  5
194
330
1F
100
AcDbEntity
  8
0
  6
SLD-Plná
 62
     7
370
    25
100
AcDbLine
 10
6322.6298546864
 20
5290.639095112
 30
0.0
 11
6325.0793485563
 21
5290.639095112
 31
0.0
  0
LINE
  5
195
330
1F
100
AcDbEntity
  8
0
  6
SLD-Plná
 62
     7
370
    25
100
AcDbLine
 10
6309.4388911836
 20
5293.117324474
 30
0.0
 11
6309.4388911836
 21
5299.8578636948
 31
0.0
  0
LINE
  5
196
330
1F
100
AcDbEntity
  8
0
  6
SLD-Plná
 62
     7
370
    25
100
AcDbLine
 10
6309.3341687701
 20
5292.9078636948
 30
0.0
 11
6309.4388911836
 21
5293.117324474
 31
0.0
  0
LINE
  5
197
330
1F
100
AcDbEntity
  8
0
  6
SLD-Plná
 62
     7
370
    25
100
AcDbLine
 10
6309.3341687701
 20
5322.41058471
 30
0.0
 11
6309.3341687701
 21
5292.9078636948
 31
0.0
  0
LINE
  5
198
330
1F
100
AcDbEntity
  8
0
  6
SLD-Plná
 62
     7
370
    25
100
AcDbLine
 10
6309.3682104655
 20
5322.3424961336
 30
0.0
 11
6309.3341687701
 21
5322.41058471
 31
0.0
  0
LINE
  5
199
330
1F
100
AcDbEntity
  8
0
  6
SLD-Plná
 62
     7
370
    25
100
AcDbLine
 10
6309.6103243618
 20
5321.3736716063
 30
0.0
 11
6309.3682104655
 21
5322.3424961336
 31
0.0
  0
ELLIPSE
  5
19A
330
1F
100
AcDbEntity
  8
0
  6
SLD-Plná
 62
     7
370
    25
100
AcDbEllipse
 10
6309.6081924187
 20
5314.3779358172
 30
0.0
 11
-3.637978807091713E-12
 21
7.000000000010913
 31
0.0
210
0.0
220
0.0
230
1.0
 40
0.0087268678
 41
4.712388980384945
 42
6.248278722120218
  0
LINE
  5
19B
330
1F
100
AcDbEntity
  8
0
  6
SLD-Plná
 62
     7
370
    25
100
AcDbLine
 10
6309.6692804932
 20
5312.1213629072
 30
0.0
 11
6309.6692804932
 21
5314.3779358172
 31
0.0
  0
LINE
  5
19C
330
1F
100
AcDbEntity
  8
0
  6
SLD-Plná
 62
     7
370
    25
100
AcDbLine
 10
6309.4388911836
 20
5311.1994545926
 30
0.0
 11
6309.6692804932
 21
5312.1213629072
 31
0.0
  0
LINE
  5
19D
330
1F
100
AcDbEntity
  8
0
  6
SLD-Plná
 62
     7
370
    25
100
AcDbLine
 10
6309.4388911836
 20
5299.8578636948
 30
0.0
 11
6309.4388911836
 21
5311.1994545926
 31
0.0
  0
ELLIPSE
  5
19E
330
1F
100
AcDbEntity
  8
0
  6
SLD-Plná
 62
     7
370
    25
100
AcDbEllipse
 10
6307.8790904672
 20
5248.2699002652
 30
0.0
 11
-0.707591479952498
 21
0.7075914799333987
 31
0.0
210
0.0
220
0.0
230
1.0
 40
0.999315002
 41
5.498129760107609
 42
7.068240854225495
  0
LINE
  5
19F
330
1F
100
AcDbEntity
  8
0
  6
SLD-Plná
 62
     7
370
    25
100
AcDbLine
 10
6307.9883858702
 20
5249.1602621871
 30
0.0
 11
6307.8784049997
 21
5249.2702430577
 31
0.0
  0
ELLIPSE
  5
1A0
330
1F
100
AcDbEntity
  8
0
  6
SLD-Plná
 62
     7
370
    25
100
AcDbEllipse
 10
6307.9890713378
 20
5248.1599193946
 30
0.0
 11
-0.7075914799743259
 21
0.7075914799124802
 31
0.0
210
0.0
220
0.0
230
1.0
 40
0.999315002
 41
5.49812976007767
 42
7.068240854195933
  0
LINE
  5
1A1
330
1F
100
AcDbEntity
  8
0
  6
SLD-Plná
 62
     7
370
    25
100
AcDbLine
 10
6316.4574056672
 20
5249.2702430577
 30
0.0
 11
6316.3474247966
 21
5249.1602621871
 31
0.0
  0
ELLIPSE
  5
1A2
330
1F
100
AcDbEntity
  8
0
  6
SLD-Plná
 62
     7
370
    25
100
AcDbEllipse
 10
6316.4567201997
 20
5248.2699002652
 30
0.0
 11
0.7075914799388554
 21
0.707591479947041
 31
0.0
210
0.0
220
0.0
230
1.0
 40
0.999315002
 41
5.498129760113769
 42
7.068240854233849
  0
ELLIPSE
  5
1A3
330
1F
100
AcDbEntity
  8
0
  6
SLD-Plná
 62
     7
370
    25
100
AcDbEllipse
 10
6316.3467393291
 20
5248.1599193946
 30
0.0
 11
0.7075914799506791
 21
0.707591479936127
 31
0.0
210
0.0
220
0.0
230
1.0
 40
0.999315002
 41
5.498129760131067
 42
7.068240854249595
  0
LINE
  5
1A4
330
1F
100
AcDbEntity
  8
0
  6
SLD-Plná
 62
     7
370
    25
100
AcDbLine
 10
6309.3631749439
 20
5219.7252291912
 30
0.0
 11
6309.3631749439
 21
5246.6591363689
 31
0.0
  0
LINE
  5
1A5
330
1F
100
AcDbEntity
  8
0
  6
SLD-Plná
 62
     7
370
    25
100
AcDbLine
 10
6309.3631749439
 20
5246.6591363689
 30
0.0
 11
6309.572635723
 21
5246.4496755898
 31
0.0
  0
LINE
  5
1A6
330
1F
100
AcDbEntity
  8
0
  6
SLD-Plná
 62
     7
370
    25
100
AcDbLine
 10
6309.572635723
 20
5246.4496755898
 30
0.0
 11
6309.572635723
 21
5220.7750931535
 31
0.0
  0
LINE
  5
1A7
330
1F
100
AcDbEntity
  8
0
  6
SLD-Plná
 62
     7
370
    25
100
AcDbLine
 10
6309.572635723
 20
5220.7750931535
 30
0.0
 11
6309.3631749439
 21
5219.7252291912
 31
0.0
  0
LINE
  5
1A8
330
1F
100
AcDbEntity
  8
0
  6
SLD-Plná
 62
     7
370
    25
100
AcDbLine
 10
6315.5699725512
 20
5290.5657838393
 30
0.0
 11
6315.5699725512
 21
5322.4526803258
 31
0.0
  0
LINE
  5
1A9
330
1F
100
AcDbEntity
  8
0
  6
SLD-Plná
 62
     7
370
    25
100
AcDbLine
 10
6307.5920666089
 20
5322.4526803258
 30
0.0
 11
6307.5920666089
 21
5290.5657838393
 31
0.0
  0
ELLIPSE
  5
1AA
330
1F
100
AcDbEntity
  8
0
  6
SLD-Plná
 62
     7
370
    25
100
AcDbEllipse
 10
6308.5922189369
 20
5322.451765684
 30
0.0
 11
-0.3164782047242625
 21
0.9502067146440822
 31
0.0
210
0.0
220
0.0
230
1.0
 40
0.9984778551
 41
5.962134956624194
 42
7.532017894912436
  0
LINE
  5
1AB
330
1F
100
AcDbEntity
  8
0
  6
SLD-Plná
 62
     7
370
    25
100
AcDbLine
 10
6314.5707337506
 20
5323.45313803
 30
0.0
 11
6308.5913054094
 21
5323.45313803
 31
0.0
  0
ELLIPSE
  5
1AC
330
1F
100
AcDbEntity
  8
0
  6
SLD-Plná
 62
     7
370
    25
100
AcDbEllipse
 10
6314.5698202231
 20
5322.451765684
 30
0.0
 11
0.3164782046906112
 21
0.9502067146549963
 31
0.0
210
0.0
220
0.0
230
1.0
 40
0.9984778551
 41
5.034352719411296
 42
6.604235657700707
  0
LINE
  5
1AD
330
1F
100
AcDbEntity
  8
0
  6
SLD-Plná
 62
     7
370
    25
100
AcDbLine
 10
6309.3341687701
 20
5292.9078636948
 30
0.0
 11
6309.3341687701
 21
5290.9078636948
 31
0.0
  0
LINE
  5
1AE
330
1F
100
AcDbEntity
  8
0
  6
SLD-Plná
 62
     7
370
    25
100
AcDbLine
 10
6313.8277789931
 20
5292.9078636948
 30
0.0
 11
6313.8277789931
 21
5290.9078636948
 31
0.0
  0
LINE
  5
1AF
330
1F
100
AcDbEntity
  8
0
  6
SLD-Plná
 62
     7
370
    25
100
AcDbLine
 10
6313.8277789931
 20
5292.9078636948
 30
0.0
 11
6313.8277789931
 21
5322.41058471
 31
0.0
  0
LINE
  5
1B0
330
1F
100
AcDbEntity
  8
0
  6
SLD-Plná
 62
     7
370
    25
100
AcDbLine
 10
6313.8277789931
 20
5322.41058471
 30
0.0
 11
6309.3341687701
 21
5322.41058471
 31
0.0
  0
LINE
  5
1B1
330
1F
100
AcDbEntity
  8
0
  6
SLD-Plná
 62
     7
370
    25
100
AcDbLine
 10
6313.8277789931
 20
5290.9078636948
 30
0.0
 11
6309.3341687701
 21
5290.9078636948
 31
0.0
  0
LINE
  5
1B2
330
1F
100
AcDbEntity
  8
0
  6
SLD-Plná
 62
     7
370
    25
100
AcDbLine
 10
6307.5187553362
 20
5290.639095112
 30
0.0
 11
6307.5187553362
 21
5290.6652982582
 31
0.0
  0
LINE
  5
1B3
330
1F
100
AcDbEntity
  8
0
  6
SLD-Plná
 62
     7
370
    25
100
AcDbLine
 10
6307.557156479
 20
5296.814751707
 30
0.0
 11
6307.5187553362
 21
5296.6994545926
 31
0.0
  0
LINE
  5
1B4
330
1F
100
AcDbEntity
  8
0
  6
SLD-Plná
 62
     7
370
    25
100
AcDbLine
 10
6307.557156479
 20
5297.7841574782
 30
0.0
 11
6307.557156479
 21
5296.814751707
 31
0.0
  0
LINE
  5
1B5
330
1F
100
AcDbEntity
  8
0
  6
SLD-Plná
 62
     7
370
    25
100
AcDbLine
 10
6307.5187553362
 20
5297.8994545926
 30
0.0
 11
6307.557156479
 21
5297.7841574782
 31
0.0
  0
LINE
  5
1B6
330
1F
100
AcDbEntity
  8
0
  6
SLD-Plná
 62
     7
370
    25
100
AcDbLine
 10
6307.557156479
 20
5314.214751707
 30
0.0
 11
6307.5187553362
 21
5314.0994545926
 31
0.0
  0
LINE
  5
1B7
330
1F
100
AcDbEntity
  8
0
  6
SLD-Plná
 62
     7
370
    25
100
AcDbLine
 10
6307.557156479
 20
5315.1841574782
 30
0.0
 11
6307.557156479
 21
5314.214751707
 31
0.0
  0
LINE
  5
1B8
330
1F
100
AcDbEntity
  8
0
  6
SLD-Plná
 62
     7
370
    25
100
AcDbLine
 10
6307.5187553362
 20
5315.2994545926
 30
0.0
 11
6307.557156479
 21
5315.1841574782
 31
0.0
  0
LINE
  5
1B9
330
1F
100
AcDbEntity
  8
0
  6
SLD-Plná
 62
     7
370
    25
100
AcDbLine
 10
6307.5187553362
 20
5322.6727929988
 30
0.0
 11
6307.5920666089
 21
5322.4526803258
 31
0.0
  0
LINE
  5
1BA
330
1F
100
AcDbEntity
  8
0
  6
SLD-Plná
 62
     7
370
    25
100
AcDbLine
 10
6316.3474247966
 20
5249.1602621871
 30
0.0
 11
6307.9883858702
 21
5249.1602621871
 31
0.0
  0
LINE
  5
1BB
330
1F
100
AcDbEntity
  8
0
  6
SLD-Plná
 62
     7
370
    25
100
AcDbLine
 10
6307.8784049997
 20
5249.2702430577
 30
0.0
 11
6308.3623996214
 21
5249.2702430577
 31
0.0
  0
LINE
  5
1BC
330
1F
100
AcDbEntity
  8
0
  6
SLD-Plná
 62
     7
370
    25
100
AcDbLine
 10
6308.4776967359
 20
5249.2126340303
 30
0.0
 11
6308.3623996214
 21
5249.2702430577
 31
0.0
  0
LINE
  5
1BD
330
1F
100
AcDbEntity
  8
0
  6
SLD-Plná
 62
     7
370
    25
100
AcDbLine
 10
6309.447102507
 20
5249.2126340303
 30
0.0
 11
6308.4776967359
 21
5249.2126340303
 31
0.0
  0
LINE
  5
1BE
330
1F
100
AcDbEntity
  8
0
  6
SLD-Plná
 62
     7
370
    25
100
AcDbLine
 10
6309.5623996214
 20
5249.2702430577
 30
0.0
 11
6309.447102507
 21
5249.2126340303
 31
0.0
  0
LINE
  5
1BF
330
1F
100
AcDbEntity
  8
0
  6
SLD-Plná
 62
     7
370
    25
100
AcDbLine
 10
6309.5623996214
 20
5249.2702430577
 30
0.0
 11
6316.4574056672
 21
5249.2702430577
 31
0.0
  0
LINE
  5
1C0
330
1F
100
AcDbEntity
  8
0
  6
SLD-Plná
 62
     7
370
    25
100
AcDbLine
 10
6315.604882681
 20
5315.1841574782
 30
0.0
 11
6315.6432838239
 21
5315.2994545926
 31
0.0
  0
LINE
  5
1C1
330
1F
100
AcDbEntity
  8
0
  6
SLD-Plná
 62
     7
370
    25
100
AcDbLine
 10
6315.604882681
 20
5314.214751707
 30
0.0
 11
6315.604882681
 21
5315.1841574782
 31
0.0
  0
LINE
  5
1C2
330
1F
100
AcDbEntity
  8
0
  6
SLD-Plná
 62
     7
370
    25
100
AcDbLine
 10
6315.6432838239
 20
5314.0994545926
 30
0.0
 11
6315.604882681
 21
5314.214751707
 31
0.0
  0
LINE
  5
1C3
330
1F
100
AcDbEntity
  8
0
  6
SLD-Plná
 62
     7
370
    25
100
AcDbLine
 10
6315.604882681
 20
5297.7841574782
 30
0.0
 11
6315.6432838239
 21
5297.8994545926
 31
0.0
  0
LINE
  5
1C4
330
1F
100
AcDbEntity
  8
0
  6
SLD-Plná
 62
     7
370
    25
100
AcDbLine
 10
6315.604882681
 20
5296.814751707
 30
0.0
 11
6315.604882681
 21
5297.7841574782
 31
0.0
  0
LINE
  5
1C5
330
1F
100
AcDbEntity
  8
0
  6
SLD-Plná
 62
     7
370
    25
100
AcDbLine
 10
6315.6432838239
 20
5296.6994545926
 30
0.0
 11
6315.604882681
 21
5296.814751707
 31
0.0
  0
LINE
  5
1C6
330
1F
100
AcDbEntity
  8
0
  6
SLD-Plná
 62
     7
370
    25
100
AcDbLine
 10
6315.6432838239
 20
5290.6652982582
 30
0.0
 11
6315.6432838239
 21
5290.639095112
 31
0.0
  0
LINE
  5
1C7
330
1F
100
AcDbEntity
  8
0
  6
SLD-Plná
 62
     7
370
    25
100
AcDbLine
 10
6315.5699725512
 20
5322.4526803258
 30
0.0
 11
6315.6432838239
 21
5322.6727929988
 31
0.0
  0
LINE
  5
1C8
330
1F
100
AcDbEntity
  8
0
  6
SLD-Plná
 62
     7
370
    25
100
AcDbLine
 10
6315.2655779965
 20
5219.7252291912
 30
0.0
 11
6314.972635723
 21
5219.7252291912
 31
0.0
  0
LINE
  5
1C9
330
1F
100
AcDbEntity
  8
0
  6
SLD-Plná
 62
     7
370
    25
100
AcDbLine
 10
6314.972635723
 20
5219.7252291912
 30
0.0
 11
6314.972635723
 21
5246.6591363689
 31
0.0
  0
LINE
  5
1CA
330
1F
100
AcDbEntity
  8
0
  6
SLD-Plná
 62
     7
370
    25
100
AcDbLine
 10
6309.3631749439
 20
5246.6591363689
 30
0.0
 11
6314.972635723
 21
5246.6591363689
 31
0.0
  0
LINE
  5
1CB
330
1F
100
AcDbEntity
  8
0
  6
SLD-Plná
 62
     7
370
    25
100
AcDbLine
 10
6309.0702326704
 20
5219.7252291912
 30
0.0
 11
6309.3631749439
 21
5219.7252291912
 31
0.0
  0
LINE
  5
1CC
330
1F
100
AcDbEntity
  8
0
  6
SLD-Plná
 62
     7
370
    25
100
AcDbLine
 10
6314.7631749439
 20
5246.4496755898
 30
0.0
 11
6314.972635723
 21
5246.6591363689
 31
0.0
  0
LINE
  5
1CD
330
1F
100
AcDbEntity
  8
0
  6
SLD-Plná
 62
     7
370
    25
100
AcDbLine
 10
6314.7631749439
 20
5246.4496755898
 30
0.0
 11
6309.572635723
 21
5246.4496755898
 31
0.0
  0
LINE
  5
1CE
330
1F
100
AcDbEntity
  8
0
  6
SLD-Plná
 62
     7
370
    25
100
AcDbLine
 10
6313.7230565796
 20
5311.1994545926
 30
0.0
 11
6313.7230565796
 21
5299.8578636948
 31
0.0
  0
LINE
  5
1CF
330
1F
100
AcDbEntity
  8
0
  6
SLD-Plná
 62
     7
370
    25
100
AcDbLine
 10
6313.49266727
 20
5312.1213629072
 30
0.0
 11
6313.7230565796
 21
5311.1994545926
 31
0.0
  0
LINE
  5
1D0
330
1F
100
AcDbEntity
  8
0
  6
SLD-Plná
 62
     7
370
    25
100
AcDbLine
 10
6313.49266727
 20
5314.3779358172
 30
0.0
 11
6313.49266727
 21
5312.1213629072
 31
0.0
  0
ELLIPSE
  5
1D1
330
1F
100
AcDbEntity
  8
0
  6
SLD-Plná
 62
     7
370
    25
100
AcDbEllipse
 10
6313.5537553445
 20
5314.3779358172
 30
0.0
 11
-4.547473508864642E-12
 21
7.000000000000909
 31
0.0
210
0.0
220
0.0
230
1.0
 40
0.0087268678
 41
0.0349065850164043
 42
1.570796326794501
  0
LINE
  5
1D2
330
1F
100
AcDbEntity
  8
0
  6
SLD-Plná
 62
     7
370
    25
100
AcDbLine
 10
6313.7937372977
 20
5322.3424961336
 30
0.0
 11
6313.5516234014
 21
5321.3736716063
 31
0.0
  0
LINE
  5
1D3
330
1F
100
AcDbEntity
  8
0
  6
SLD-Plná
 62
     7
370
    25
100
AcDbLine
 10
6313.7937372977
 20
5322.3424961336
 30
0.0
 11
6313.8277789931
 21
5322.41058471
 31
0.0
  0
LINE
  5
1D4
330
1F
100
AcDbEntity
  8
0
  6
SLD-Plná
 62
     7
370
    25
100
AcDbLine
 10
6313.7230565796
 20
5299.8578636948
 30
0.0
 11
6313.7230565797
 21
5293.117324474
 31
0.0
  0
LINE
  5
1D5
330
1F
100
AcDbEntity
  8
0
  6
SLD-Plná
 62
     7
370
    25
100
AcDbLine
 10
6313.7230565797
 20
5293.117324474
 30
0.0
 11
6313.8277789931
 21
5292.9078636948
 31
0.0
  0
LINE
  5
1D6
330
1F
100
AcDbEntity
  8
0
  6
SLD-Plná
 62
     7
370
    25
100
AcDbLine
 10
6314.7631749439
 20
5220.7750931535
 30
0.0
 11
6314.7631749439
 21
5246.4496755898
 31
0.0
  0
LINE
  5
1D7
330
1F
100
AcDbEntity
  8
0
  6
SLD-Plná
 62
     7
370
    25
100
AcDbLine
 10
6314.7631749439
 20
5220.7750931535
 30
0.0
 11
6314.972635723
 21
5219.7252291912
 31
0.0
  0
ELLIPSE
  5
1D8
330
1F
100
AcDbEntity
  8
0
  6
SLD-Plná
 62
     7
370
    25
100
AcDbEllipse
 10
6308.5189076642
 20
5322.671878357
 30
0.0
 11
-0.3164782046915207
 21
0.9502067146559057
 31
0.0
210
0.0
220
0.0
230
1.0
 40
0.9984778551
 41
5.962134956659635
 42
7.532017894947402
  0
LINE
  5
1D9
330
1F
100
AcDbEntity
  8
0
  6
SLD-Plná
 62
     7
370
    25
100
AcDbLine
 10
6308.5913054094
 20
5323.45313803
 30
0.0
 11
6308.5179941367
 21
5323.673250703
 31
0.0
  0
LINE
  5
1DA
330
1F
100
AcDbEntity
  8
0
  6
SLD-Plná
 62
     7
370
    25
100
AcDbLine
 10
6309.3682104655
 20
5322.3424961336
 30
0.0
 11
6313.7937372977
 21
5322.3424961336
 31
0.0
  0
LINE
  5
1DB
330
1F
100
AcDbEntity
  8
0
  6
SLD-Plná
 62
     7
370
    25
100
AcDbLine
 10
6314.6440450233
 20
5323.673250703
 30
0.0
 11
6314.5707337506
 21
5323.45313803
 31
0.0
  0
ELLIPSE
  5
1DC
330
1F
100
AcDbEntity
  8
0
  6
SLD-Plná
 62
     7
370
    25
100
AcDbEllipse
 10
6314.6431314958
 20
5322.671878357
 30
0.0
 11
0.3164782047306289
 21
0.9502067146422633
 31
0.0
210
0.0
220
0.0
230
1.0
 40
0.9984778551
 41
5.034352719452913
 42
6.604235657742035
  0
LINE
  5
1DD
330
1F
100
AcDbEntity
  8
0
  6
SLD-Plná
 62
     7
370
    25
100
AcDbLine
 10
6308.5179941367
 20
5323.673250703
 30
0.0
 11
6308.2913325239
 21
5323.673250703
 31
0.0
  0
LINE
  5
1DE
330
1F
100
AcDbEntity
  8
0
  6
SLD-Plná
 62
     7
370
    25
100
AcDbLine
 10
6314.8707066359
 20
5323.673250703
 30
0.0
 11
6314.6440450233
 21
5323.673250703
 31
0.0
  0
LINE
  5
1DF
330
1F
100
AcDbEntity
  8
0
  6
SLD-Plná
 62
     7
370
    25
100
AcDbLine
 10
6315.604882681
 20
5315.1841574782
 30
0.0
 11
6315.6432838238
 21
5315.1841574782
 31
0.0
  0
LINE
  5
1E0
330
1F
100
AcDbEntity
  8
0
  6
SLD-Plná
 62
     7
370
    25
100
AcDbLine
 10
6307.5187553361
 20
5315.1841574782
 30
0.0
 11
6307.557156479
 21
5315.1841574782
 31
0.0
  0
LINE
  5
1E1
330
1F
100
AcDbEntity
  8
0
  6
SLD-Plná
 62
     7
370
    25
100
AcDbLine
 10
6315.6432838238
 20
5296.814751707
 30
0.0
 11
6315.604882681
 21
5296.814751707
 31
0.0
  0
LINE
  5
1E2
330
1F
100
AcDbEntity
  8
0
  6
SLD-Plná
 62
     7
370
    25
100
AcDbLine
 10
6315.604882681
 20
5297.7841574782
 30
0.0
 11
6315.6432838238
 21
5297.7841574782
 31
0.0
  0
LINE
  5
1E3
330
1F
100
AcDbEntity
  8
0
  6
SLD-Plná
 62
     7
370
    25
100
AcDbLine
 10
6315.6432838238
 20
5314.214751707
 30
0.0
 11
6315.604882681
 21
5314.214751707
 31
0.0
  0
LINE
  5
1E4
330
1F
100
AcDbEntity
  8
0
  6
SLD-Plná
 62
     7
370
    25
100
AcDbLine
 10
6317.3994539648
 20
5215.1841574782
 30
0.0
 11
6317.4570629921
 21
5215.1841574782
 31
0.0
  0
LINE
  5
1E5
330
1F
100
AcDbEntity
  8
0
  6
SLD-Plná
 62
     7
370
    25
100
AcDbLine
 10
6308.4776967359
 20
5249.2126340303
 30
0.0
 11
6308.4776967359
 21
5249.2964454605
 31
0.0
  0
LINE
  5
1E6
330
1F
100
AcDbEntity
  8
0
  6
SLD-Plná
 62
     7
370
    25
100
AcDbLine
 10
6308.3623996214
 20
5249.2702430577
 30
0.0
 11
6308.3623996214
 21
5249.2964454605
 31
0.0
  0
LINE
  5
1E7
330
1F
100
AcDbEntity
  8
0
  6
SLD-Plná
 62
     7
370
    25
100
AcDbLine
 10
6309.5623996214
 20
5249.2964454605
 30
0.0
 11
6309.5623996214
 21
5249.2702430577
 31
0.0
  0
LINE
  5
1E8
330
1F
100
AcDbEntity
  8
0
  6
SLD-Plná
 62
     7
370
    25
100
AcDbLine
 10
6309.447102507
 20
5249.2964454605
 30
0.0
 11
6309.447102507
 21
5249.2126340303
 31
0.0
  0
LINE
  5
1E9
330
1F
100
AcDbEntity
  8
0
  6
SLD-Plná
 62
     7
370
    25
100
AcDbLine
 10
6307.557156479
 20
5296.814751707
 30
0.0
 11
6307.5187553361
 21
5296.814751707
 31
0.0
  0
LINE
  5
1EA
330
1F
100
AcDbEntity
  8
0
  6
SLD-Plná
 62
     7
370
    25
100
AcDbLine
 10
6317.7776967359
 20
5270.798215216
 30
0.0
 11
6317.7776967359
 21
5270.7860172194
 31
0.0
  0
LINE
  5
1EB
330
1F
100
AcDbEntity
  8
0
  6
SLD-Plná
 62
     7
370
    25
100
AcDbLine
 10
6317.4570629921
 20
5247.5841574782
 30
0.0
 11
6317.3994539647
 21
5247.5841574782
 31
0.0
  0
LINE
  5
1EC
330
1F
100
AcDbEntity
  8
0
  6
SLD-Plná
 62
     7
370
    25
100
AcDbLine
 10
6307.5187553361
 20
5297.7841574782
 30
0.0
 11
6307.557156479
 21
5297.7841574782
 31
0.0
  0
LINE
  5
1ED
330
1F
100
AcDbEntity
  8
0
  6
SLD-Plná
 62
     7
370
    25
100
AcDbLine
 10
6317.4570629921
 20
5214.214751707
 30
0.0
 11
6317.3994539648
 21
5214.214751707
 31
0.0
  0
LINE
  5
1EE
330
1F
100
AcDbEntity
  8
0
  6
SLD-Plná
 62
     7
370
    25
100
AcDbLine
 10
6318.747102507
 20
5270.7860172194
 30
0.0
 11
6318.747102507
 21
5270.798215216
 31
0.0
  0
LINE
  5
1EF
330
1F
100
AcDbEntity
  8
0
  6
SLD-Plná
 62
     7
370
    25
100
AcDbLine
 10
6317.3994539647
 20
5246.614751707
 30
0.0
 11
6317.4570629921
 21
5246.614751707
 31
0.0
  0
LINE
  5
1F0
330
1F
100
AcDbEntity
  8
0
  6
SLD-Plná
 62
     7
370
    25
100
AcDbLine
 10
6307.557156479
 20
5314.214751707
 30
0.0
 11
6307.5187553361
 21
5314.214751707
 31
0.0
  0
LINE
  5
1F1
330
1F
100
AcDbEntity
  8
0
  6
SLD-Plná
 62
     7
370
    25
100
AcDbLine
 10
6306.8787476746
 20
5215.1841574782
 30
0.0
 11
6306.9363567021
 21
5215.1841574782
 31
0.0
  0
LINE
  5
1F2
330
1F
100
AcDbEntity
  8
0
  6
SLD-Plná
 62
     7
370
    25
100
AcDbLine
 10
6306.9363567022
 20
5214.214751707
 30
0.0
 11
6306.8787476746
 21
5214.214751707
 31
0.0
  0
LINE
  5
1F3
330
1F
100
AcDbEntity
  8
0
  6
SLD-Plná
 62
     7
370
    25
100
AcDbLine
 10
6313.5516234014
 20
5321.3736716063
 30
0.0
 11
6309.6103243618
 21
5321.3736716063
 31
0.0
  0
LINE
  5
1F4
330
1F
100
AcDbEntity
  8
0
  6
SLD-Plná
 62
     7
370
    25
100
AcDbLine
 10
6316.9949445565
 20
5290.639095112
 30
0.0
 11
6316.9949445565
 21
5290.6652982582
 31
0.0
  0
LINE
  5
1F5
330
1F
100
AcDbEntity
  8
0
  6
SLD-Plná
 62
     7
370
    25
100
AcDbLine
 10
6322.6298546864
 20
5290.6652982582
 30
0.0
 11
6322.6298546864
 21
5290.639095112
 31
0.0
  0
LINE
  5
1F6
330
1F
100
AcDbEntity
  8
0
  6
SLD-Plná
 62
     7
370
    25
100
AcDbLine
 10
6322.8041526101
 20
5272.4577244515
 30
0.0
 11
6322.8041526101
 21
5272.6577168384
 31
0.0
  0
ARC
  5
1F7
330
1F
100
AcDbEntity
  8
0
  6
SLD-Plná
 62
     7
370
    25
100
AcDbCircle
 10
6322.8041593031
 20
5273.057694911
 30
0.0
 40
0.3999780726749763
100
AcDbArc
 50
269.9990412496
 51
0.0009587504
  0
LINE
  5
1F8
330
1F
100
AcDbEntity
  8
0
  6
SLD-Plná
 62
     7
370
    25
100
AcDbLine
 10
6323.4041297626
 20
5273.0577016039
 30
0.0
 11
6323.2041373757
 21
5273.0577016039
 31
0.0
  0
LINE
  5
1F9
330
1F
100
AcDbEntity
  8
0
  6
SLD-Plná
 62
     7
370
    25
100
AcDbLine
 10
6323.4041297626
 20
5288.3412075813
 30
0.0
 11
6323.2041373757
 21
5288.3412075813
 31
0.0
  0
ARC
  5
1FA
330
1F
100
AcDbEntity
  8
0
  6
SLD-Plná
 62
     7
370
    25
100
AcDbCircle
 10
6322.8041593031
 20
5288.3412142742
 30
0.0
 40
0.3999780726758858
100
AcDbArc
 50
359.9990412496
 51
90.0009587502
  0
LINE
  5
1FB
330
1F
100
AcDbEntity
  8
0
  6
SLD-Plná
 62
     7
370
    25
100
AcDbLine
 10
6322.8041526101
 20
5288.9411847337
 30
0.0
 11
6322.8041526101
 21
5288.7411923469
 31
0.0
  0
ARC
  5
1FC
330
1F
100
AcDbEntity
  8
0
  6
SLD-Plná
 62
     7
370
    25
100
AcDbCircle
 10
6306.0206399398
 20
5288.3412142742
 30
0.0
 40
0.3999780726749763
100
AcDbArc
 50
89.9990412498
 51
180.0009587504
  0
LINE
  5
1FD
330
1F
100
AcDbEntity
  8
0
  6
SLD-Plná
 62
     7
370
    25
100
AcDbLine
 10
6305.6206618672
 20
5288.3412075813
 30
0.0
 11
6305.4206694803
 21
5288.3412075813
 31
0.0
  0
LINE
  5
1FE
330
1F
100
AcDbEntity
  8
0
  6
SLD-Plná
 62
     7
370
    25
100
AcDbLine
 10
6306.0206466328
 20
5288.7411923468
 30
0.0
 11
6306.0206466328
 21
5288.9411847337
 31
0.0
  0
ARC
  5
1FF
330
1F
100
AcDbEntity
  8
0
  6
SLD-Plná
 62
     7
370
    25
100
AcDbCircle
 10
6306.0206399398
 20
5273.057694911
 30
0.0
 40
0.3999780726758858
100
AcDbArc
 50
179.9990412498
 51
270.0009587502
  0
LINE
  5
200
330
1F
100
AcDbEntity
  8
0
  6
SLD-Plná
 62
     7
370
    25
100
AcDbLine
 10
6306.0206466328
 20
5272.6577168383
 30
0.0
 11
6306.0206466328
 21
5272.4577244515
 31
0.0
  0
LINE
  5
201
330
1F
100
AcDbEntity
  8
0
  6
SLD-Plná
 62
     7
370
    25
100
AcDbLine
 10
6305.6206618672
 20
5273.0577016039
 30
0.0
 11
6305.4206694803
 21
5273.0577016039
 31
0.0
  0
LINE
  5
202
330
1F
100
AcDbEntity
  8
0
  6
SLD-Plná
 62
     7
370
    25
100
AcDbLine
 10
6322.7380760889
 20
5288.7411923505
 30
0.0
 11
6322.8041526101
 21
5288.7411923469
 31
0.0
  0
ELLIPSE
  5
203
330
1F
100
AcDbEntity
  8
0
  6
SLD-Plná
 62
     7
370
    25
100
AcDbEllipse
 10
6322.7345850759
 20
5288.7411923505
 30
0.0
 11
0.0
 21
0.1999999999989086
 31
0.0
210
0.0
220
0.0
230
1.0
 40
0.0174550649
 41
4.71238898038469
 42
6.27445866082491
  0
LINE
  5
204
330
1F
100
AcDbEntity
  8
0
  6
SLD-Plná
 62
     7
370
    25
100
AcDbLine
 10
6306.0206466328
 20
5288.7411923468
 30
0.0
 11
6316.8867231539
 21
5288.7411923505
 31
0.0
  0
ELLIPSE
  5
205
330
1F
100
AcDbEntity
  8
0
  6
SLD-Plná
 62
     7
370
    25
100
AcDbEllipse
 10
6316.8902141669
 20
5288.7411923505
 30
0.0
 11
0.0
 21
0.1999999999998181
 31
0.0
210
0.0
220
0.0
230
1.0
 40
0.0174550649
 41
0.0087266463555068
 42
1.570796326794897
  0
LINE
  5
206
330
1F
100
AcDbEntity
  8
0
  6
SLD-Plná
 62
     7
370
    25
100
AcDbLine
 10
6308.936723154
 20
5272.6577168347
 30
0.0
 11
6306.0206466328
 21
5272.6577168383
 31
0.0
  0
ELLIPSE
  5
207
330
1F
100
AcDbEntity
  8
0
  6
SLD-Plná
 62
     7
370
    25
100
AcDbEllipse
 10
6308.9402141669
 20
5272.6577168347
 30
0.0
 11
0.0
 21
0.1999999999998181
 31
0.0
210
0.0
220
0.0
230
1.0
 40
0.0174550649
 41
1.570796326794897
 42
3.132866007492578
  0
LINE
  5
208
330
1F
100
AcDbEntity
  8
0
  6
SLD-Plná
 62
     7
370
    25
100
AcDbLine
 10
6322.8041526101
 20
5272.6577168384
 30
0.0
 11
6314.7880760889
 21
5272.6577168347
 31
0.0
  0
ELLIPSE
  5
209
330
1F
100
AcDbEntity
  8
0
  6
SLD-Plná
 62
     7
370
    25
100
AcDbEllipse
 10
6314.7845850759
 20
5272.6577168347
 30
0.0
 11
0.0
 21
0.2000000000007276
 31
0.0
210
0.0
220
0.0
230
1.0
 40
0.0174550649
 41
3.150319299687848
 42
4.71238898038469
  0
LINE
  5
20A
330
1F
100
AcDbEntity
  8
0
  6
SLD-Plná
 62
     7
370
    25
100
AcDbLine
 10
6323.2041373757
 20
5288.3412075813
 30
0.0
 11
6323.2041373757
 21
5273.0577016039
 31
0.0
  0
LINE
  5
20B
330
1F
100
AcDbEntity
  8
0
  6
SLD-Plná
 62
     7
370
    25
100
AcDbLine
 10
6305.6206618672
 20
5273.0577016039
 30
0.0
 11
6305.6206618672
 21
5288.3412075813
 31
0.0
  0
LINE
  5
20C
330
1F
100
AcDbEntity
  8
0
  6
SLD-Plná
 62
     7
370
    25
100
AcDbLine
 10
6314.7880760889
 20
5272.7702680493
 30
0.0
 11
6314.7880760889
 21
5272.6577168347
 31
0.0
  0
LINE
  5
20D
330
1F
100
AcDbEntity
  8
0
  6
SLD-Plná
 62
     7
370
    25
100
AcDbLine
 10
6308.936723154
 20
5272.6577168347
 30
0.0
 11
6308.936723154
 21
5272.7702680493
 31
0.0
  0
LINE
  5
20E
330
1F
100
AcDbEntity
  8
0
  6
SLD-Plná
 62
     7
370
    25
100
AcDbLine
 10
6316.8867231539
 20
5288.6829993714
 30
0.0
 11
6316.8867231539
 21
5288.7411923505
 31
0.0
  0
LINE
  5
20F
330
1F
100
AcDbEntity
  8
0
  6
SLD-Plná
 62
     7
370
    25
100
AcDbLine
 10
6322.7380760889
 20
5288.7411923505
 30
0.0
 11
6322.7380760889
 21
5288.6610667174
 31
0.0
  0
LINE
  5
210
330
1F
100
AcDbEntity
  8
0
  6
SLD-Plná
 62
     7
370
    25
100
AcDbLine
 10
6309.6692804932
 20
5314.3779358172
 30
0.0
 11
6313.49266727
 21
5314.3779358172
 31
0.0
  0
LINE
  5
211
330
1F
100
AcDbEntity
  8
0
  6
SLD-Plná
 62
     7
370
    25
100
AcDbLine
 10
6309.6692804932
 20
5312.1213629072
 30
0.0
 11
6313.49266727
 21
5312.1213629072
 31
0.0
  0
LINE
  5
212
330
1F
100
AcDbEntity
  8
0
  6
SLD-Plná
 62
     7
370
    25
100
AcDbLine
 10
6305.7356175609
 20
5285.6479776651
 30
0.0
 11
6305.7356175609
 21
5275.8052897549
 31
0.0
  0
SPLINE
  5
213
330
1F
100
AcDbEntity
  8
0
  6
SLD-Plná
 62
     7
370
    25
100
AcDbSpline
210
0.0
220
0.0
230
1.0
 70
    24
 71
     3
 72
    11
 73
     7
 74
     0
 42
0.00000001
 43
0.00000001
 40
0.0
 40
0.0
 40
0.0
 40
0.0
 40
0.2499999999999908
 40
0.4999999999999994
 40
0.7500000000000278
 40
1.0
 40
1.0
 40
1.0
 40
1.0
 10
6305.735617560907
 20
5285.647977665095
 30
0.0
 10
6305.743616634893
 20
5285.647977665095
 30
0.0
 10
6305.759614782864
 20
5285.647977665095
 30
0.0
 10
6305.875449125941
 20
5285.647977665095
 30
0.0
 10
6306.040135672911
 20
5285.647977665095
 30
0.0
 10
6306.170444238831
 20
5285.647977665095
 30
0.0
 10
6306.23559852179
 20
5285.647977665095
 30
0.0
  0
LINE
  5
214
330
1F
100
AcDbEntity
  8
0
  6
SLD-Plná
 62
     7
370
    25
100
AcDbLine
 10
6306.2355985224
 20
5275.8052897556
 30
0.0
 11
6306.2355985224
 21
5285.6479776657
 31
0.0
  0
SPLINE
  5
215
330
1F
100
AcDbEntity
  8
0
  6
SLD-Plná
 62
     7
370
    25
100
AcDbSpline
210
0.0
220
0.0
230
1.0
 70
    24
 71
     3
 72
    11
 73
     7
 74
     0
 42
0.00000001
 43
0.00000001
 40
0.0
 40
0.0
 40
0.0
 40
0.0
 40
0.2499999999999681
 40
0.4999999999999952
 40
0.7500000000000027
 40
1.0
 40
1.0
 40
1.0
 40
1.0
 10
6305.735617560914
 20
5275.805289754898
 30
0.0
 10
6305.743616634931
 20
5275.805289754898
 30
0.0
 10
6305.759614782964
 20
5275.805289754898
 30
0.0
 10
6305.875449126231
 20
5275.805289754898
 30
0.0
 10
6306.040135673415
 20
5275.805289754898
 30
0.0
 10
6306.170444239436
 20
5275.805289754899
 30
0.0
 10
6306.235598522446
 20
5275.805289754899
 30
0.0
  0
LINE
  5
216
330
1F
100
AcDbEntity
  8
0
  6
SLD-Plná
 62
     7
370
    25
100
AcDbLine
 10
6322.5348424849
 20
5275.8052897557
 30
0.0
 11
6306.2355985224
 21
5275.8052897556
 31
0.0
  0
LINE
  5
217
330
1F
100
AcDbEntity
  8
0
  6
SLD-Plná
 62
     7
370
    25
100
AcDbLine
 10
6306.2355985218
 20
5285.6479776651
 30
0.0
 11
6322.5348424855
 21
5285.6479776651
 31
0.0
  0
LINE
  5
218
330
1F
100
AcDbEntity
  8
0
  6
SLD-Plná
 62
     7
370
    25
100
AcDbLine
 10
6322.5348424849
 20
5285.6479776651
 30
0.0
 11
6322.5348424849
 21
5275.8052897548
 31
0.0
  0
SPLINE
  5
219
330
1F
100
AcDbEntity
  8
0
  6
SLD-Plná
 62
     7
370
    25
100
AcDbSpline
210
0.0
220
0.0
230
1.0
 70
     8
 71
     3
 72
    13
 73
     9
 74
     0
 42
0.00000001
 43
0.00000001
 40
0.0
 40
0.0
 40
0.0
 40
0.0
 40
0.1993624729093069
 40
0.4320079366433492
 40
0.5614183591822872
 40
0.6992244946358035
 40
0.8454204602180126
 40
1.0
 40
1.0
 40
1.0
 40
1.0
 10
6306.23559852244
 20
5285.647977665694
 30
0.0
 10
6306.235297269384
 20
5285.959485839167
 30
0.0
 10
6306.234644469941
 20
5286.634507578742
 30
0.0
 10
6306.231062823989
 20
5287.422664366263
 30
0.0
 10
6306.227163686073
 20
5287.981211529869
 30
0.0
 10
6306.223420312276
 20
5288.337699522379
 30
0.0
 10
6306.219036985941
 20
5288.592110410739
 30
0.0
 10
6306.215691241688
 20
5288.628936935471
 30
0.0
 10
6306.21397174127
 20
5288.647863434282
 30
0.0
  0
LINE
  5
21A
330
1F
100
AcDbEntity
  8
0
  6
SLD-Plná
 62
     7
370
    25
100
AcDbLine
 10
6322.556469266
 20
5288.6478634343
 30
0.0
 11
6306.2139717413
 21
5288.6478634343
 31
0.0
  0
SPLINE
  5
21B
330
1F
100
AcDbEntity
  8
0
  6
SLD-Plná
 62
     7
370
    25
100
AcDbSpline
210
0.0
220
0.0
230
1.0
 70
     8
 71
     3
 72
    13
 73
     9
 74
     0
 42
0.00000001
 43
0.00000001
 40
0.0
 40
0.0
 40
0.0
 40
0.0
 40
0.1545795397755803
 40
0.3007755053532432
 40
0.4385816408040795
 40
0.5679920633422043
 40
0.8006375270796832
 40
1.0
 40
1.0
 40
1.0
 40
1.0
 10
6322.556469266038
 20
5288.647863434296
 30
0.0
 10
6322.554749765622
 20
5288.628936935524
 30
0.0
 10
6322.551404021367
 20
5288.592110410869
 30
0.0
 10
6322.547020695031
 20
5288.337699522527
 30
0.0
 10
6322.543277321233
 20
5287.981211529972
 30
0.0
 10
6322.539378183317
 20
5287.422664366235
 30
0.0
 10
6322.535796537366
 20
5286.634507578459
 30
0.0
 10
6322.535143737923
 20
5285.959485838678
 30
0.0
 10
6322.534842484867
 20
5285.647977665103
 30
0.0
  0
SPLINE
  5
21C
330
1F
100
AcDbEntity
  8
0
  6
SLD-Plná
 62
     7
370
    25
100
AcDbSpline
210
0.0
220
0.0
230
1.0
 70
    24
 71
     3
 72
    11
 73
     7
 74
     0
 42
0.00000001
 43
0.00000001
 40
0.0
 40
0.0
 40
0.0
 40
0.0
 40
0.2499999999999641
 40
0.4999999999999793
 40
0.7499999999999897
 40
1.0
 40
1.0
 40
1.0
 40
1.0
 10
6322.534842485517
 20
5285.647977665103
 30
0.0
 10
6322.599996768477
 20
5285.647977665103
 30
0.0
 10
6322.730305334397
 20
5285.647977665103
 30
0.0
 10
6322.894991881366
 20
5285.647977665103
 30
0.0
 10
6323.010826224443
 20
5285.647977665103
 30
0.0
 10
6323.026824372414
 20
5285.647977665103
 30
0.0
 10
6323.034823446401
 20
5285.647977665103
 30
0.0
  0
LINE
  5
21D
330
1F
100
AcDbEntity
  8
0
  6
SLD-Plná
 62
     7
370
    25
100
AcDbLine
 10
6323.0348234464
 20
5275.8052897557
 30
0.0
 11
6323.0348234464
 21
5285.6479776651
 31
0.0
  0
SPLINE
  5
21E
330
1F
100
AcDbEntity
  8
0
  6
SLD-Plná
 62
     7
370
    25
100
AcDbSpline
210
0.0
220
0.0
230
1.0
 70
    24
 71
     3
 72
    11
 73
     7
 74
     0
 42
0.00000001
 43
0.00000001
 40
0.0
 40
0.0
 40
0.0
 40
0.0
 40
0.2499999999998224
 40
0.4999999999998914
 40
0.7499999999999543
 40
1.0
 40
1.0
 40
1.0
 40
1.0
 10
6322.534842484873
 20
5275.805289755652
 30
0.0
 10
6322.599996767883
 20
5275.805289755652
 30
0.0
 10
6322.730305333902
 20
5275.805289755652
 30
0.0
 10
6322.894991881087
 20
5275.805289755652
 30
0.0
 10
6323.010826224353
 20
5275.805289755652
 30
0.0
 10
6323.026824372387
 20
5275.805289755652
 30
0.0
 10
6323.034823446405
 20
5275.805289755652
 30
0.0
  0
LINE
  5
21F
330
1F
100
AcDbEntity
  8
0
  6
SLD-Plná
 62
     7
370
    25
100
AcDbLine
 10
6306.2139717404
 20
5272.8054039865
 30
0.0
 11
6322.5564692665
 21
5272.8054039865
 31
0.0
  0
SPLINE
  5
220
330
1F
100
AcDbEntity
  8
0
  6
SLD-Plná
 62
     7
370
    25
100
AcDbSpline
210
0.0
220
0.0
230
1.0
 70
     8
 71
     3
 72
    13
 73
     9
 74
     0
 42
0.00000001
 43
0.00000001
 40
0.0
 40
0.0
 40
0.0
 40
0.0
 40
0.1545795397826588
 40
0.300775505365381
 40
0.4385816408192658
 40
0.5679920633584242
 40
0.8006375270917713
 40
1.0
 40
1.0
 40
1.0
 40
1.0
 10
6306.213971741271
 20
5272.805403986447
 30
0.0
 10
6306.215691241689
 20
5272.824330485189
 30
0.0
 10
6306.219036985944
 20
5272.861157009784
 30
0.0
 10
6306.223420312279
 20
5273.115567898098
 30
0.0
 10
6306.227163686078
 20
5273.472055890656
 30
0.0
 10
6306.231062823995
 20
5274.030603054419
 30
0.0
 10
6306.234644469947
 20
5274.818759842239
 30
0.0
 10
6306.23529726939
 20
5275.493781582059
 30
0.0
 10
6306.235598522446
 20
5275.805289755643
 30
0.0
  0
SPLINE
  5
221
330
1F
100
AcDbEntity
  8
0
  6
SLD-Plná
 62
     7
370
    25
100
AcDbSpline
210
0.0
220
0.0
230
1.0
 70
     8
 71
     3
 72
    13
 73
     9
 74
     0
 42
0.00000001
 43
0.00000001
 40
0.0
 40
0.0
 40
0.0
 40
0.0
 40
0.1993624728936777
 40
0.4320079366225366
 40
0.5614183591627514
 40
0.699224494620166
 40
0.8454204602088886
 40
1.0
 40
1.0
 40
1.0
 40
1.0
 10
6322.534842484873
 20
5275.805289754816
 30
0.0
 10
6322.535143737929
 20
5275.493781581378
 30
0.0
 10
6322.535796537371
 20
5274.818759841859
 30
0.0
 10
6322.539378183324
 20
5274.030603054402
 30
0.0
 10
6322.54327732124
 20
5273.472055890826
 30
0.0
 10
6322.547020695038
 20
5273.11556789833
 30
0.0
 10
6322.551404021373
 20
5272.861157009982
 30
0.0
 10
6322.554749765626
 20
5272.824330485267
 30
0.0
 10
6322.556469266044
 20
5272.805403986463
 30
0.0
  0
ELLIPSE
  5
222
330
1F
100
AcDbEntity
  8
0
  6
SLD-Plná
 62
     7
370
    25
100
AcDbEllipse
 10
6323.0566406159
 20
5275.8052897557
 30
0.0
 11
5.456968210637569E-12
 21
2.499999999996362
 31
0.0
210
0.0
220
0.0
230
1.0
 40
0.0087268678
 41
1.570796326794916
 42
3.132866007660134
  0
SPLINE
  5
223
330
1F
100
AcDbEntity
  8
0
  6
SLD-Plná
 62
     7
370
    25
100
AcDbSpline
210
0.0
220
0.0
230
1.0
 70
     8
 71
     3
 72
    11
 73
     7
 74
     0
 42
0.00000001
 43
0.00000001
 40
0.0
 40
0.0
 40
0.0
 40
0.0
 40
0.2499999999998455
 40
0.4999999999998747
 40
0.7499999999999224
 40
1.0
 40
1.0
 40
1.0
 40
1.0
 10
6322.556469266477
 20
5272.805403986459
 30
0.0
 10
6322.621982115441
 20
5272.812923731764
 30
0.0
 10
6322.75300781337
 20
5272.827963222374
 30
0.0
 10
6322.918268899573
 20
5272.943585314892
 30
0.0
 10
6323.033890991895
 20
5273.108846401232
 30
0.0
 10
6323.04893048235
 20
5273.239872099178
 30
0.0
 10
6323.056450227579
 20
5273.30538494815
 30
0.0
  0
ELLIPSE
  5
224
330
1F
100
AcDbEntity
  8
0
  6
SLD-Plná
 62
     7
370
    25
100
AcDbEllipse
 10
6305.7138003914
 20
5275.8052897556
 30
0.0
 11
-9.094947017729282E-13
 21
2.500000000002728
 31
0.0
210
0.0
220
0.0
230
1.0
 40
0.0087268678
 41
3.150319299895877
 42
4.712388980086736
  0
SPLINE
  5
225
330
1F
100
AcDbEntity
  8
0
  6
SLD-Plná
 62
     7
370
    25
100
AcDbSpline
210
0.0
220
0.0
230
1.0
 70
     8
 71
     3
 72
    11
 73
     7
 74
     0
 42
0.00000001
 43
0.00000001
 40
0.0
 40
0.0
 40
0.0
 40
0.0
 40
0.2500000000000037
 40
0.4999999999999976
 40
0.7499999999999871
 40
1.0
 40
1.0
 40
1.0
 40
1.0
 10
6305.713990779743
 20
5273.305384948143
 30
0.0
 10
6305.721510524962
 20
5273.239872099206
 30
0.0
 10
6305.736550015401
 20
5273.108846401332
 30
0.0
 10
6305.852172107601
 20
5272.943585315049
 30
0.0
 10
6306.017433193649
 20
5272.82796322251
 30
0.0
 10
6306.148458891492
 20
5272.812923731805
 30
0.0
 10
6306.213971740414
 20
5272.805403986451
 30
0.0
  0
ELLIPSE
  5
226
330
1F
100
AcDbEntity
  8
0
  6
SLD-Plná
 62
     7
370
    25
100
AcDbEllipse
 10
6305.7138003914
 20
5285.6479776651
 30
0.0
 11
6.366462912410498E-12
 21
2.499999999995453
 31
0.0
210
0.0
220
0.0
230
1.0
 40
0.0087268678
 41
4.712388980384712
 42
6.274458661252468
  0
SPLINE
  5
227
330
1F
100
AcDbEntity
  8
0
  6
SLD-Plná
 62
     7
370
    25
100
AcDbSpline
210
0.0
220
0.0
230
1.0
 70
     8
 71
     3
 72
    11
 73
     7
 74
     0
 42
0.00000001
 43
0.00000001
 40
0.0
 40
0.0
 40
0.0
 40
0.0
 40
0.2500000000000779
 40
0.5000000000000702
 40
0.7500000000000655
 40
0.9999999999999999
 40
0.9999999999999999
 40
0.9999999999999999
 40
0.9999999999999999
 10
6305.713990779735
 20
5288.147882472755
 30
0.0
 10
6305.721510524988
 20
5288.213395321748
 30
0.0
 10
6305.736550015496
 20
5288.344421019735
 30
0.0
 10
6305.852172107946
 20
5288.509682106074
 30
0.0
 10
6306.017433194285
 20
5288.625304198526
 30
0.0
 10
6306.148458892272
 20
5288.640343689034
 30
0.0
 10
6306.213971741265
 20
5288.647863434288
 30
0.0
  0
SPLINE
  5
228
330
1F
100
AcDbEntity
  8
0
  6
SLD-Plná
 62
     7
370
    25
100
AcDbSpline
210
0.0
220
0.0
230
1.0
 70
     8
 71
     3
 72
    11
 73
     7
 74
     0
 42
0.00000001
 43
0.00000001
 40
0.0
 40
0.0
 40
0.0
 40
0.0
 40
0.2499999999999133
 40
0.4999999999999079
 40
0.7499999999998828
 40
1.0
 40
1.0
 40
1.0
 40
1.0
 10
6322.556469266038
 20
5288.647863434296
 30
0.0
 10
6322.621982115032
 20
5288.640343689042
 30
0.0
 10
6322.753007813018
 20
5288.625304198535
 30
0.0
 10
6322.918268899359
 20
5288.509682106084
 30
0.0
 10
6323.033890991809
 20
5288.344421019744
 30
0.0
 10
6323.048930482317
 20
5288.213395321757
 30
0.0
 10
6323.056450227571
 20
5288.147882472764
 30
0.0
  0
ELLIPSE
  5
229
330
1F
100
AcDbEntity
  8
0
  6
SLD-Plná
 62
     7
370
    25
100
AcDbEllipse
 10
6323.0566406159
 20
5285.6479776651
 30
0.0
 11
-1.818989403545856E-12
 21
2.499999999997272
 31
0.0
210
0.0
220
0.0
230
1.0
 40
0.0087268678
 41
0.0087266462201611
 42
1.57079632679489
  0
LINE
  5
22A
330
1F
100
AcDbEntity
  8
0
  6
SLD-Plná
 62
     7
370
    25
100
AcDbLine
 10
6305.7139907797
 20
5273.305384948
 30
0.0
 11
6305.6352205037
 21
5273.2266146719
 31
0.0
  0
LINE
  5
22B
330
1F
100
AcDbEntity
  8
0
  6
SLD-Plná
 62
     7
370
    25
100
AcDbLine
 10
6305.6352205037
 20
5288.2266527488
 30
0.0
 11
6305.6352205037
 21
5273.2266146719
 31
0.0
  0
LINE
  5
22C
330
1F
100
AcDbEntity
  8
0
  6
SLD-Plná
 62
     7
370
    25
100
AcDbLine
 10
6305.6352205037
 20
5288.2266527488
 30
0.0
 11
6305.7139907797
 21
5288.1478824728
 31
0.0
  0
LINE
  5
22D
330
1F
100
AcDbEntity
  8
0
  6
SLD-Plná
 62
     7
370
    25
100
AcDbLine
 10
6323.0564502276
 20
5288.1478824728
 30
0.0
 11
6323.0915861647
 21
5288.1830184099
 31
0.0
  0
LINE
  5
22E
330
1F
100
AcDbEntity
  8
0
  6
SLD-Plná
 62
     7
370
    25
100
AcDbLine
 10
6323.0915861647
 20
5285.4214428893
 30
0.0
 11
6323.0915866194
 21
5288.1830184099
 31
0.0
  0
ELLIPSE
  5
22F
330
1F
100
AcDbEntity
  8
0
  6
SLD-Plná
 62
     7
370
    25
100
AcDbEllipse
 10
6323.094204225
 20
5285.4214428893
 30
0.0
 11
0.0
 21
0.3000000000001819
 31
0.0
210
0.0
220
0.0
230
1.0
 40
0.0087268678
 41
1.570796326794897
 42
3.124139361053909
  0
LINE
  5
230
330
1F
100
AcDbEntity
  8
0
  6
SLD-Plná
 62
     7
370
    25
100
AcDbLine
 10
6323.1352205037
 20
5285.0393583857
 30
0.0
 11
6323.0941585336
 21
5285.1214885808
 31
0.0
  0
LINE
  5
231
330
1F
100
AcDbEntity
  8
0
  6
SLD-Plná
 62
     7
370
    25
100
AcDbLine
 10
6323.1352205037
 20
5273.2266146719
 30
0.0
 11
6323.1352205037
 21
5285.0393583857
 31
0.0
  0
LINE
  5
232
330
1F
100
AcDbEntity
  8
0
  6
SLD-Plná
 62
     7
370
    25
100
AcDbLine
 10
6323.1352205037
 20
5273.2266146719
 30
0.0
 11
6323.0564502276
 21
5273.305384948
 31
0.0
  0
LINE
  5
233
330
1F
100
AcDbEntity
  8
0
  6
SLD-Plná
 62
     7
370
    25
100
AcDbLine
 10
6323.1352205015
 20
5273.2265575601
 30
0.0
 11
6323.1352205037
 21
5273.2266146719
 31
0.0
  0
ELLIPSE
  5
234
330
1F
100
AcDbEntity
  8
0
  6
SLD-Plná
 62
     7
370
    25
100
AcDbEllipse
 10
6322.6351824238
 20
5273.2266717902
 30
0.0
 11
0.3536072405386221
 21
-0.3536072405377126
 31
0.0
210
0.0
220
0.0
230
1.0
 40
0.9998477126
 41
5.497939439796781
 42
7.068431177329446
  0
LINE
  5
235
330
1F
100
AcDbEntity
  8
0
  6
SLD-Plná
 62
     7
370
    25
100
AcDbLine
 10
6322.6352395421
 20
5272.7266337104
 30
0.0
 11
6322.6352966553
 21
5272.7266337115
 31
0.0
  0
LINE
  5
236
330
1F
100
AcDbEntity
  8
0
  6
SLD-Plná
 62
     7
370
    25
100
AcDbLine
 10
6322.556469266
 20
5272.8054039865
 30
0.0
 11
6322.6352395421
 21
5272.7266337104
 31
0.0
  0
LINE
  5
237
330
1F
100
AcDbEntity
  8
0
  6
SLD-Plná
 62
     7
370
    25
100
AcDbLine
 10
6306.1352014652
 20
5272.7266337104
 30
0.0
 11
6306.2139717413
 21
5272.8054039864
 31
0.0
  0
LINE
  5
238
330
1F
100
AcDbEntity
  8
0
  6
SLD-Plná
 62
     7
370
    25
100
AcDbLine
 10
6306.1351443534
 20
5272.7266337125
 30
0.0
 11
6306.1352014652
 21
5272.7266337104
 31
0.0
  0
ELLIPSE
  5
239
330
1F
100
AcDbEntity
  8
0
  6
SLD-Plná
 62
     7
370
    25
100
AcDbEllipse
 10
6306.1352585835
 20
5273.2266717902
 30
0.0
 11
0.3536072405377126
 21
0.3536072405377126
 31
0.0
210
0.0
220
0.0
230
1.0
 40
0.9998477126
 41
2.356346786210721
 42
3.92683852373849
  0
LINE
  5
23A
330
1F
100
AcDbEntity
  8
0
  6
SLD-Plná
 62
     7
370
    25
100
AcDbLine
 10
6305.6352205037
 20
5273.2266146719
 30
0.0
 11
6305.6352205047
 21
5273.2265575587
 31
0.0
  0
LINE
  5
23B
330
1F
100
AcDbEntity
  8
0
  6
SLD-Plná
 62
     7
370
    25
100
AcDbLine
 10
6315.9224958283
 20
5272.7266337104
 30
0.0
 11
6322.6352395421
 21
5272.7266337104
 31
0.0
  0
LINE
  5
23C
330
1F
100
AcDbEntity
  8
0
  6
SLD-Plná
 62
     7
370
    25
100
AcDbLine
 10
6315.8403656333
 20
5272.7676956804
 30
0.0
 11
6315.9224958283
 21
5272.7266337104
 31
0.0
  0
ELLIPSE
  5
23D
330
1F
100
AcDbEntity
  8
0
  6
SLD-Plná
 62
     7
370
    25
100
AcDbEllipse
 10
6315.5404113247
 20
5272.767649989
 30
0.0
 11
0.3000000000001819
 21
0.0
 31
0.0
210
0.0
220
0.0
230
1.0
 40
0.0087268678
 41
0.017453292535814
 42
1.570796326794897
  0
LINE
  5
23E
330
1F
100
AcDbEntity
  8
0
  6
SLD-Plná
 62
     7
370
    25
100
AcDbLine
 10
6314.6300296826
 20
5272.7702680493
 30
0.0
 11
6315.5404113247
 21
5272.7702680493
 31
0.0
  0
ELLIPSE
  5
23F
330
1F
100
AcDbEntity
  8
0
  6
SLD-Plná
 62
     7
370
    25
100
AcDbEllipse
 10
6314.6300296826
 20
5272.767649989
 30
0.0
 11
0.3000000000001819
 21
0.0
 31
0.0
210
0.0
220
0.0
230
1.0
 40
0.0087268678
 41
1.570796326794897
 42
3.124139361059971
  0
LINE
  5
240
330
1F
100
AcDbEntity
  8
0
  6
SLD-Plná
 62
     7
370
    25
100
AcDbLine
 10
6314.247945179
 20
5272.7266337104
 30
0.0
 11
6314.330075374
 21
5272.7676956804
 31
0.0
  0
LINE
  5
241
330
1F
100
AcDbEntity
  8
0
  6
SLD-Plná
 62
     7
370
    25
100
AcDbLine
 10
6309.4224958283
 20
5272.7266337104
 30
0.0
 11
6314.247945179
 21
5272.7266337104
 31
0.0
  0
LINE
  5
242
330
1F
100
AcDbEntity
  8
0
  6
SLD-Plná
 62
     7
370
    25
100
AcDbLine
 10
6309.3403656333
 20
5272.7676956804
 30
0.0
 11
6309.4224958283
 21
5272.7266337104
 31
0.0
  0
ELLIPSE
  5
243
330
1F
100
AcDbEntity
  8
0
  6
SLD-Plná
 62
     7
370
    25
100
AcDbEllipse
 10
6309.0404113247
 20
5272.767649989
 30
0.0
 11
0.3000000000001819
 21
0.0
 31
0.0
210
0.0
220
0.0
230
1.0
 40
0.0087268678
 41
0.0174532928770917
 42
1.570796326794897
  0
LINE
  5
244
330
1F
100
AcDbEntity
  8
0
  6
SLD-Plná
 62
     7
370
    25
100
AcDbLine
 10
6308.1300296826
 20
5272.7702680493
 30
0.0
 11
6309.0404113247
 21
5272.7702680493
 31
0.0
  0
ELLIPSE
  5
245
330
1F
100
AcDbEntity
  8
0
  6
SLD-Plná
 62
     7
370
    25
100
AcDbEllipse
 10
6308.1300296826
 20
5272.767649989
 30
0.0
 11
0.3000000000001819
 21
9.094947017729282E-13
 31
0.0
210
0.0
220
0.0
230
1.0
 40
0.0087268678
 41
1.57079632679487
 42
3.124139360365415
  0
LINE
  5
246
330
1F
100
AcDbEntity
  8
0
  6
SLD-Plná
 62
     7
370
    25
100
AcDbLine
 10
6307.747945179
 20
5272.7266337104
 30
0.0
 11
6307.830075374
 21
5272.7676956804
 31
0.0
  0
LINE
  5
247
330
1F
100
AcDbEntity
  8
0
  6
SLD-Plná
 62
     7
370
    25
100
AcDbLine
 10
6306.1352014652
 20
5272.7266337104
 30
0.0
 11
6307.747945179
 21
5272.7266337104
 31
0.0
  0
LINE
  5
248
330
1F
100
AcDbEntity
  8
0
  6
SLD-Plná
 62
     7
370
    25
100
AcDbLine
 10
6306.2139717413
 20
5288.6478634343
 30
0.0
 11
6306.1352014652
 21
5288.7266337104
 31
0.0
  0
LINE
  5
249
330
1F
100
AcDbEntity
  8
0
  6
SLD-Plná
 62
     7
370
    25
100
AcDbLine
 10
6315.197945179
 20
5288.7266337104
 30
0.0
 11
6306.1352014652
 21
5288.7266337104
 31
0.0
  0
LINE
  5
24A
330
1F
100
AcDbEntity
  8
0
  6
SLD-Plná
 62
     7
370
    25
100
AcDbLine
 10
6315.280075374
 20
5288.6855717403
 30
0.0
 11
6315.197945179
 21
5288.7266337104
 31
0.0
  0
ELLIPSE
  5
24B
330
1F
100
AcDbEntity
  8
0
  6
SLD-Plná
 62
     7
370
    25
100
AcDbEllipse
 10
6315.5800296826
 20
5288.6856174318
 30
0.0
 11
0.3000000000001819
 21
0.0
 31
0.0
210
0.0
220
0.0
230
1.0
 40
0.0087268678
 41
3.159045946127276
 42
4.71238898038469
  0
LINE
  5
24C
330
1F
100
AcDbEntity
  8
0
  6
SLD-Plná
 62
     7
370
    25
100
AcDbLine
 10
6316.9904113247
 20
5288.6829993714
 30
0.0
 11
6315.5800296826
 21
5288.6829993714
 31
0.0
  0
ELLIPSE
  5
24D
330
1F
100
AcDbEntity
  8
0
  6
SLD-Plná
 62
     7
370
    25
100
AcDbEllipse
 10
6316.9904113247
 20
5288.6856174318
 30
0.0
 11
0.2999999999992724
 21
0.0
 31
0.0
210
0.0
220
0.0
230
1.0
 40
0.0087268678
 41
4.71238898038469
 42
6.265732014645369
  0
LINE
  5
24E
330
1F
100
AcDbEntity
  8
0
  6
SLD-Plná
 62
     7
370
    25
100
AcDbLine
 10
6317.3724958283
 20
5288.7266337104
 30
0.0
 11
6317.2903656333
 21
5288.6855717403
 31
0.0
  0
LINE
  5
24F
330
1F
100
AcDbEntity
  8
0
  6
SLD-Plná
 62
     7
370
    25
100
AcDbLine
 10
6322.197945179
 20
5288.7266337104
 30
0.0
 11
6317.3724958283
 21
5288.7266337104
 31
0.0
  0
LINE
  5
250
330
1F
100
AcDbEntity
  8
0
  6
SLD-Plná
 62
     7
370
    25
100
AcDbLine
 10
6322.280075374
 20
5288.6855717403
 30
0.0
 11
6322.197945179
 21
5288.7266337104
 31
0.0
  0
ELLIPSE
  5
251
330
1F
100
AcDbEntity
  8
0
  6
SLD-Plná
 62
     7
370
    25
100
AcDbEllipse
 10
6322.5800296826
 20
5288.6856174318
 30
0.0
 11
0.3000000000001819
 21
0.0
 31
0.0
210
0.0
220
0.0
230
1.0
 40
0.0087268678
 41
3.159045946127226
 42
4.71238898038469
  0
LINE
  5
252
330
1F
100
AcDbEntity
  8
0
  6
SLD-Plná
 62
     7
370
    25
100
AcDbLine
 10
6322.5916052032
 20
5288.6829998261
 30
0.0
 11
6322.5800296826
 21
5288.6829993714
 31
0.0
  0
LINE
  5
253
330
1F
100
AcDbEntity
  8
0
  6
SLD-Plná
 62
     7
370
    25
100
AcDbLine
 10
6322.5916052032
 20
5288.6829993715
 30
0.0
 11
6322.556469266
 21
5288.6478634343
 31
0.0
  0
ARC
  5
254
330
1F
100
AcDbEntity
  8
0
  6
SLD-Plná
 62
     7
370
    25
100
AcDbCircle
 10
6322.5916115416
 20
5288.1830247483
 30
0.0
 40
0.4999750778890077
100
AcDbArc
 50
359.9992736379
 51
90.0007263621
  0
LINE
  5
255
330
1F
100
AcDbEntity
  8
0
  6
SLD-Plná
 62
     7
370
    25
100
AcDbLine
 10
6305.6352205058
 20
5288.2267098606
 30
0.0
 11
6305.6352205037
 21
5288.2266527488
 31
0.0
  0
ELLIPSE
  5
256
330
1F
100
AcDbEntity
  8
0
  6
SLD-Plná
 62
     7
370
    25
100
AcDbEllipse
 10
6306.1352585835
 20
5288.2265956305
 30
0.0
 11
0.3536072405386221
 21
-0.3536072405368031
 31
0.0
210
0.0
220
0.0
230
1.0
 40
0.9998477126
 41
2.356346786206973
 42
3.926838523735275
  0
LINE
  5
257
330
1F
100
AcDbEntity
  8
0
  6
SLD-Plná
 62
     7
370
    25
100
AcDbLine
 10
6306.1352014652
 20
5288.7266337104
 30
0.0
 11
6306.135144352
 21
5288.7266337093
 31
0.0
  0
LINE
  5
258
330
1F
100
AcDbEntity
  8
0
  6
SLD-Plná
 62
     7
370
    25
100
AcDbLine
 10
6322.197945179
 20
5289.0022880407
 30
0.0
 11
6322.197945179
 21
5288.7266337104
 31
0.0
  0
LINE
  5
259
330
1F
100
AcDbEntity
  8
0
  6
SLD-Plná
 62
     7
370
    25
100
AcDbLine
 10
6317.3724958283
 20
5288.7266337104
 30
0.0
 11
6317.3724958283
 21
5289.0022880407
 31
0.0
  0
LINE
  5
25A
330
1F
100
AcDbEntity
  8
0
  6
SLD-Plná
 62
     7
370
    25
100
AcDbLine
 10
6314.247945179
 20
5272.3966211445
 30
0.0
 11
6314.247945179
 21
5272.7266337104
 31
0.0
  0
LINE
  5
25B
330
1F
100
AcDbEntity
  8
0
  6
SLD-Plná
 62
     7
370
    25
100
AcDbLine
 10
6309.4224958283
 20
5272.7266337104
 30
0.0
 11
6309.4224958283
 21
5272.3966211445
 31
0.0
  0
LWPOLYLINE
  5
25C
330
1F
100
AcDbEntity
  8
0
  6
SLD-Plná
 62
     7
370
    25
100
AcDbPolyline
 90
        3
 70
   128
 43
0.0
 10
6354.3619394629
 20
5066.010469016
 10
6354.2865222898
 20
5065.9316876394
 10
6354.2054988375
 20
5065.8542184658
  0
LWPOLYLINE
  5
25D
330
1F
100
AcDbEntity
  8
0
  6
SLD-Plná
 62
     7
370
    25
100
AcDbPolyline
 90
        3
 70
   128
 43
0.0
 10
6193.6748969529
 20
5066.0112051263
 10
6193.7509883837
 20
5065.9316876397
 10
6193.8313977201
 20
5065.8547800215
  0
LINE
  5
25E
330
1F
100
AcDbEntity
  8
0
  6
SLD-Plná
 62
     7
370
    25
100
AcDbLine
 10
6215.6520886694
 20
5367.8494545926
 30
0.0
 11
6215.6520886694
 21
5363.6994545926
 31
0.0
  0
LINE
  5
25F
330
1F
100
AcDbEntity
  8
0
  6
SLD-Plná
 62
     7
370
    25
100
AcDbLine
 10
6223.9854220028
 20
5363.6994545926
 30
0.0
 11
6223.9854220028
 21
5367.8494545926
 31
0.0
  0
LINE
  5
260
330
1F
100
AcDbEntity
  8
0
  6
SLD-Plná
 62
     7
370
    25
100
AcDbLine
 10
6240.6520886694
 20
5363.6994545926
 30
0.0
 11
6240.6520886694
 21
5367.8494545926
 31
0.0
  0
LINE
  5
261
330
1F
100
AcDbEntity
  8
0
  6
SLD-Plná
 62
     7
370
    25
100
AcDbLine
 10
6232.3187553361
 20
5367.8494545926
 30
0.0
 11
6232.3187553361
 21
5363.6994545926
 31
0.0
  0
LINE
  5
262
330
1F
100
AcDbEntity
  8
0
  6
SLD-Plná
 62
     7
370
    25
100
AcDbLine
 10
6257.3187553361
 20
5363.6994545926
 30
0.0
 11
6257.3187553361
 21
5367.8494545926
 31
0.0
  0
LINE
  5
263
330
1F
100
AcDbEntity
  8
0
  6
SLD-Plná
 62
     7
370
    25
100
AcDbLine
 10
6248.9854220028
 20
5367.8494545926
 30
0.0
 11
6248.9854220028
 21
5363.6994545926
 31
0.0
  0
LINE
  5
264
330
1F
100
AcDbEntity
  8
0
  6
SLD-Plná
 62
     7
370
    25
100
AcDbLine
 10
6299.0520886695
 20
5367.8494545926
 30
0.0
 11
6299.0520886695
 21
5363.6994545926
 31
0.0
  0
LINE
  5
265
330
1F
100
AcDbEntity
  8
0
  6
SLD-Plná
 62
     7
370
    25
100
AcDbLine
 10
6307.3854220029
 20
5363.6994545926
 30
0.0
 11
6307.3854220029
 21
5367.8494545926
 31
0.0
  0
LINE
  5
266
330
1F
100
AcDbEntity
  8
0
  6
SLD-Plná
 62
     7
370
    25
100
AcDbLine
 10
6324.0520886695
 20
5363.6994545926
 30
0.0
 11
6324.0520886695
 21
5367.8494545926
 31
0.0
  0
LINE
  5
267
330
1F
100
AcDbEntity
  8
0
  6
SLD-Plná
 62
     7
370
    25
100
AcDbLine
 10
6315.7187553362
 20
5367.8494545926
 30
0.0
 11
6315.7187553362
 21
5363.6994545926
 31
0.0
  0
LINE
  5
268
330
1F
100
AcDbEntity
  8
0
  6
SLD-Plná
 62
     7
370
    25
100
AcDbLine
 10
6340.7187553362
 20
5363.6994545926
 30
0.0
 11
6340.7187553362
 21
5367.8494545926
 31
0.0
  0
LINE
  5
269
330
1F
100
AcDbEntity
  8
0
  6
SLD-Plná
 62
     7
370
    25
100
AcDbLine
 10
6332.3854220029
 20
5367.8494545926
 30
0.0
 11
6332.3854220029
 21
5363.6994545926
 31
0.0
  0
LINE
  5
26A
330
1F
100
AcDbEntity
  8
0
  6
SLD-Plná
 62
     7
370
    25
100
AcDbLine
 10
6207.3187553361
 20
5367.8494545927
 30
0.0
 11
6207.3187553361
 21
5363.6994545926
 31
0.0
  0
LINE
  5
26B
330
1F
100
AcDbEntity
  8
0
  6
SLD-Plná
 62
     7
370
    25
100
AcDbLine
 10
6290.7187553362
 20
5367.8494545927
 30
0.0
 11
6290.7187553362
 21
5363.6994545926
 31
0.0
  0
SPLINE
  5
26C
330
1F
100
AcDbEntity
  8
0
  6
SLD-Plná
 62
     7
370
    25
100
AcDbSpline
210
0.0
220
0.0
230
1.0
 70
     8
 71
     3
 72
    11
 73
     7
 74
     0
 42
0.00000001
 43
0.00000001
 40
0.0
 40
0.0
 40
0.0
 40
0.0
 40
0.2500000000000007
 40
0.5000000000000084
 40
0.7500000000000014
 40
1.0
 40
1.0
 40
1.0
 40
1.0
 10
6193.195532031274
 20
5065.199454592611
 30
0.0
 10
6193.264133973342
 20
5065.214486165399
 30
0.0
 10
6193.401337857478
 20
5065.244549310974
 30
0.0
 10
6193.607143683683
 20
5065.475798524095
 30
0.0
 10
6193.812949509887
 20
5065.80634346119
 30
0.0
 10
6193.950153394023
 20
5066.068417548802
 30
0.0
 10
6194.018755336091
 20
5066.199454592608
 30
0.0
  0
SPLINE
  5
26D
330
1F
100
AcDbEntity
  8
0
  6
SLD-Plná
 62
     7
370
    25
100
AcDbSpline
210
0.0
220
0.0
230
1.0
 70
     8
 71
     3
 72
    11
 73
     7
 74
     0
 42
0.00000001
 43
0.00000001
 40
0.0
 40
0.0
 40
0.0
 40
0.0
 40
0.2500000000000007
 40
0.5000000000000043
 40
0.7500000000000036
 40
1.0
 40
1.0
 40
1.0
 40
1.0
 10
6193.195532031274
 20
5063.699454592611
 30
0.0
 10
6193.264133973342
 20
5063.73703352458
 30
0.0
 10
6193.401337857478
 20
5063.812191388517
 30
0.0
 10
6193.607143683683
 20
5064.390314421321
 30
0.0
 10
6193.812949509887
 20
5065.216676764059
 30
0.0
 10
6193.950153394023
 20
5065.871861983088
 30
0.0
 10
6194.018755336091
 20
5066.199454592603
 30
0.0
  0
LINE
  5
26E
330
1F
100
AcDbEntity
  8
0
  6
SLD-Plná
 62
     7
370
    25
100
AcDbLine
 10
6193.1955320313
 20
5063.6994545926
 30
0.0
 11
6193.1955320313
 21
5065.1994545926
 31
0.0
  0
SPLINE
  5
26F
330
1F
100
AcDbEntity
  8
0
  6
SLD-Plná
 62
     7
370
    25
100
AcDbSpline
210
0.0
220
0.0
230
1.0
 70
     8
 71
     3
 72
    24
 73
    20
 74
     0
 42
0.00000001
 43
0.00000001
 40
0.0
 40
0.0
 40
0.0
 40
0.0
 40
0.0596202522290341
 40
0.119655306928557
 40
0.1809960831724019
 40
0.2427889339445992
 40
0.3024091859348802
 40
0.3624442377254862
 40
0.4237850063075554
 40
0.4855778500783892
 40
0.5451759507159776
 40
0.605188382790792
 40
0.6665050144532392
 40
0.7282731844537962
 40
0.7878713229971267
 40
0.8478837919145714
 40
0.9092004624177519
 40
0.9709686728539378
 40
1.0
 40
1.0
 40
1.0
 40
1.0
 10
6194.018755336091
 20
5066.199454592623
 30
0.0
 10
6193.987538666364
 20
5066.183093875915
 30
0.0
 10
6193.924888139779
 20
5066.150258614305
 30
0.0
 10
6193.830951844358
 20
5066.100593219097
 30
0.0
 10
6193.737595718547
 20
5066.050331712102
 30
0.0
 10
6193.647049698229
 20
5066.00017959862
 30
0.0
 10
6193.560528237804
 20
5065.950388068984
 30
0.0
 10
6193.478296535196
 20
5065.900721997185
 30
0.0
 10
6193.400008308236
 20
5065.850460972433
 30
0.0
 10
6193.327627025
 20
5065.800314913495
 30
0.0
 10
6193.262035743089
 20
5065.750535849718
 30
0.0
 10
6193.203343149538
 20
5065.700888080292
 30
0.0
 10
6193.151385875022
 20
5065.650646977546
 30
0.0
 10
6193.107558044165
 20
5065.60051454027
 30
0.0
 10
6193.072299367505
 20
5065.550742415305
 30
0.0
 10
6193.045513112631
 20
5065.501093734084
 30
0.0
 10
6193.027404860006
 20
5065.450854122962
 30
0.0
 10
6193.019624467053
 20
5065.409105804797
 30
0.0
 10
6193.018965899733
 20
5065.384195770634
 30
0.0
 10
6193.018755336068
 20
5065.37623128788
 30
0.0
  0
LINE
  5
270
330
1F
100
AcDbEntity
  8
0
  6
SLD-Plná
 62
     7
370
    25
100
AcDbLine
 10
6191.5187553361
 20
5065.3762312879
 30
0.0
 11
6193.0187553361
 21
5065.3762312879
 31
0.0
  0
SPLINE
  5
271
330
1F
100
AcDbEntity
  8
0
  6
SLD-Plná
 62
     7
370
    25
100
AcDbSpline
210
0.0
220
0.0
230
1.0
 70
     8
 71
     3
 72
    24
 73
    20
 74
     0
 42
0.00000001
 43
0.00000001
 40
0.0
 40
0.0
 40
0.0
 40
0.0
 40
0.0632913133951329
 40
0.1270427606642797
 40
0.1912628818996275
 40
0.2585045791172245
 40
0.2965830969309699
 40
0.3367530073368609
 40
0.4107375541697125
 40
0.4693538006098256
 40
0.5476696473810931
 40
0.5964138503372644
 40
0.6302192129215073
 40
0.6974873161751244
 40
0.7355532368633175
 40
0.7757053230740727
 40
0.8497014127773057
 40
0.9243479856708574
 40
1.0
 40
1.0
 40
1.0
 40
1.0
 10
6194.018755336088
 20
5066.199454592615
 30
0.0
 10
6193.93590862193
 20
5066.182086524926
 30
0.0
 10
6193.769612890115
 20
5066.147224122044
 30
0.0
 10
6193.521730030734
 20
5066.094741909488
 30
0.0
 10
6193.273835378193
 20
5066.04117822378
 30
0.0
 10
6193.065282344452
 20
5065.994644650988
 30
0.0
 10
6192.892629731296
 20
5065.954732306442
 30
0.0
 10
6192.717473722815
 20
5065.912972357743
 30
0.0
 10
6192.528782148925
 20
5065.865545678824
 30
0.0
 10
6192.315895761865
 20
5065.807683750647
 30
0.0
 10
6192.145938929797
 20
5065.756705402153
 30
0.0
 10
6192.014748096066
 20
5065.7125727897
 30
0.0
 10
6191.902821266565
 20
5065.671480377706
 30
0.0
 10
6191.810887358942
 20
5065.633286754901
 30
0.0
 10
6191.728868545686
 20
5065.593376605366
 30
0.0
 10
6191.654157046527
 20
5065.551620218743
 30
0.0
 10
6191.582812602011
 20
5065.499796880558
 30
0.0
 10
6191.528905434464
 20
5065.438246991804
 30
0.0
 10
6191.522153757601
 20
5065.396995175604
 30
0.0
 10
6191.518755336068
 20
5065.37623128788
 30
0.0
  0
LINE
  5
272
330
1F
100
AcDbEntity
  8
0
  6
SLD-Plná
 62
     7
370
    25
100
AcDbLine
 10
6194.0187553361
 20
5361.1994545926
 30
0.0
 11
6194.0187553361
 21
5066.1994545926
 31
0.0
  0
LINE
  5
273
330
1F
100
AcDbEntity
  8
0
  6
SLD-Plná
 62
     7
370
    25
100
AcDbLine
 10
6354.0187553361
 20
5361.1994545926
 30
0.0
 11
6194.0187553361
 21
5361.1994545926
 31
0.0
  0
LINE
  5
274
330
1F
100
AcDbEntity
  8
0
  6
SLD-Plná
 62
     7
370
    25
100
AcDbLine
 10
6354.0187553361
 20
5066.1994545926
 30
0.0
 11
6354.0187553361
 21
5361.1994545926
 31
0.0
  0
LINE
  5
275
330
1F
100
AcDbEntity
  8
0
  6
SLD-Plná
 62
     7
370
    25
100
AcDbLine
 10
6194.0187553361
 20
5066.1994545926
 30
0.0
 11
6354.0187553361
 21
5066.1994545926
 31
0.0
  0
LINE
  5
276
330
1F
100
AcDbEntity
  8
0
  6
SLD-Plná
 62
     7
370
    25
100
AcDbLine
 10
6206.5187553361
 20
5308.6994545926
 30
0.0
 11
6266.5187553361
 21
5308.6994545926
 31
0.0
  0
LINE
  5
277
330
1F
100
AcDbEntity
  8
0
  6
SLD-Plná
 62
     7
370
    25
100
AcDbLine
 10
6266.5187553361
 20
5308.6994545926
 30
0.0
 11
6266.5187553361
 21
5338.6994545926
 31
0.0
  0
LINE
  5
278
330
1F
100
AcDbEntity
  8
0
  6
SLD-Plná
 62
     7
370
    25
100
AcDbLine
 10
6266.5187553361
 20
5338.6994545926
 30
0.0
 11
6206.5187553361
 21
5338.6994545926
 31
0.0
  0
LINE
  5
279
330
1F
100
AcDbEntity
  8
0
  6
SLD-Plná
 62
     7
370
    25
100
AcDbLine
 10
6206.5187553361
 20
5338.6994545926
 30
0.0
 11
6206.5187553361
 21
5308.6994545926
 31
0.0
  0
LINE
  5
27A
330
1F
100
AcDbEntity
  8
0
  6
SLD-Plná
 62
     7
370
    25
100
AcDbLine
 10
6307.8784049995
 20
5207.8925029853
 30
0.0
 11
6316.4574056671
 21
5207.8925029853
 31
0.0
  0
ARC
  5
27B
330
1F
100
AcDbEntity
  8
0
  6
SLD-Plná
 62
     7
370
    25
100
AcDbCircle
 10
6316.4574056671
 20
5208.8921603103
 30
0.0
 40
0.9996573249763969
100
AcDbArc
 50
270.0
 51
0.0000000001
  0
LINE
  5
27C
330
1F
100
AcDbEntity
  8
0
  6
SLD-Plná
 62
     7
370
    25
100
AcDbLine
 10
6317.4570629921
 20
5208.8921603103
 30
0.0
 11
6317.4570629921
 21
5248.2967881355
 31
0.0
  0
ARC
  5
27D
330
1F
100
AcDbEntity
  8
0
  6
SLD-Plná
 62
     7
370
    25
100
AcDbCircle
 10
6316.4574056671
 20
5248.2967881355
 30
0.0
 40
0.9996573249763969
100
AcDbArc
 50
0.0
 51
90.0
  0
LINE
  5
27E
330
1F
100
AcDbEntity
  8
0
  6
SLD-Plná
 62
     7
370
    25
100
AcDbLine
 10
6316.4574056671
 20
5249.2964454605
 30
0.0
 11
6307.8784049995
 21
5249.2964454605
 31
0.0
  0
ARC
  5
27F
330
1F
100
AcDbEntity
  8
0
  6
SLD-Plná
 62
     7
370
    25
100
AcDbCircle
 10
6307.8784049995
 20
5248.2967881355
 30
0.0
 40
0.9996573249763969
100
AcDbArc
 50
90.0
 51
180.0
  0
LINE
  5
280
330
1F
100
AcDbEntity
  8
0
  6
SLD-Plná
 62
     7
370
    25
100
AcDbLine
 10
6306.8787476746
 20
5248.2967881355
 30
0.0
 11
6306.8787476746
 21
5208.8921603103
 31
0.0
  0
ARC
  5
281
330
1F
100
AcDbEntity
  8
0
  6
SLD-Plná
 62
     7
370
    25
100
AcDbCircle
 10
6307.8784049995
 20
5208.8921603103
 30
0.0
 40
0.9996573249763969
100
AcDbArc
 50
180.0
 51
270.0
  0
LINE
  5
282
330
1F
100
AcDbEntity
  8
0
  6
SLD-Plná
 62
     7
370
    25
100
AcDbLine
 10
6325.0793485563
 20
5290.6652982582
 30
0.0
 11
6315.6432838238
 21
5290.6652982582
 31
0.0
  0
LINE
  5
283
330
1F
100
AcDbEntity
  8
0
  6
SLD-Plná
 62
     7
370
    25
100
AcDbLine
 10
6315.6432838238
 20
5290.6652982582
 30
0.0
 11
6315.6432838238
 21
5322.6994545926
 31
0.0
  0
ARC
  5
284
330
1F
100
AcDbEntity
  8
0
  6
SLD-Plná
 62
     7
370
    25
100
AcDbCircle
 10
6314.6432838238
 20
5322.6994545926
 30
0.0
 40
1.0
100
AcDbArc
 50
0.0
 51
90.0
  0
LINE
  5
285
330
1F
100
AcDbEntity
  8
0
  6
SLD-Plná
 62
     7
370
    25
100
AcDbLine
 10
6314.6432838238
 20
5323.6994545926
 30
0.0
 11
6308.5187553361
 21
5323.6994545926
 31
0.0
  0
ARC
  5
286
330
1F
100
AcDbEntity
  8
0
  6
SLD-Plná
 62
     7
370
    25
100
AcDbCircle
 10
6308.5187553361
 20
5322.6994545926
 30
0.0
 40
0.9999999999990905
100
AcDbArc
 50
90.0
 51
180.0
  0
LINE
  5
287
330
1F
100
AcDbEntity
  8
0
  6
SLD-Plná
 62
     7
370
    25
100
AcDbLine
 10
6307.5187553361
 20
5322.6994545926
 30
0.0
 11
6307.5187553361
 21
5290.6652982582
 31
0.0
  0
LINE
  5
288
330
1F
100
AcDbEntity
  8
0
  6
SLD-Plná
 62
     7
370
    25
100
AcDbLine
 10
6307.5187553361
 20
5290.6652982582
 30
0.0
 11
6303.7227591019
 21
5290.6652982582
 31
0.0
  0
LINE
  5
289
330
1F
100
AcDbEntity
  8
0
  6
SLD-Plná
 62
     7
370
    25
100
AcDbLine
 10
6303.7227591019
 20
5290.6652982582
 30
0.0
 11
6303.7227591019
 21
5270.7860172194
 31
0.0
  0
LINE
  5
28A
330
1F
100
AcDbEntity
  8
0
  6
SLD-Plná
 62
     7
370
    25
100
AcDbLine
 10
6303.7227591019
 20
5270.7860172194
 30
0.0
 11
6325.0793485563
 21
5270.7860172194
 31
0.0
  0
LINE
  5
28B
330
1F
100
AcDbEntity
  8
0
  6
SLD-Plná
 62
     7
370
    25
100
AcDbLine
 10
6325.0793485563
 20
5270.7860172194
 30
0.0
 11
6325.0793485563
 21
5290.6652982582
 31
0.0
  0
SPLINE
  5
28C
330
1F
100
AcDbEntity
  8
0
  6
SLD-Plná
 62
     7
370
    25
100
AcDbSpline
210
0.0
220
0.0
230
1.0
 70
     8
 71
     3
 72
    24
 73
    20
 74
     0
 42
0.00000001
 43
0.00000001
 40
0.0
 40
0.0
 40
0.0
 40
0.0
 40
0.063082631138512
 40
0.1268176574475672
 40
0.1912628119255112
 40
0.2544580041157331
 40
0.3320744583179767
 40
0.3735580998364742
 40
0.4107360596487028
 40
0.4648026210959005
 40
0.5423199483380124
 40
0.5930413495937854
 40
0.6302206536556405
 40
0.6934179650610618
 40
0.7710370856692685
 40
0.8125221788628277
 40
0.8497014604138127
 40
0.9243480096485764
 40
1.0
 40
1.0
 40
1.0
 40
1.0
 10
6354.018755336071
 20
5066.199454592595
 30
0.0
 10
6354.036066167858
 20
5066.116880933907
 30
0.0
 10
6354.07086685857
 20
5065.950879646824
 30
0.0
 10
6354.123347891767
 20
5065.702989331403
 30
0.0
 10
6354.175863179399
 20
5065.459935136794
 30
0.0
 10
6354.232181789963
 20
5065.207270326675
 30
0.0
 10
6354.282230975306
 20
5064.993023652193
 30
0.0
 10
6354.325098120858
 20
5064.819046955366
 30
0.0
 10
6354.361508160808
 20
5064.677215392985
 30
0.0
 10
6354.407809856847
 20
5064.50638170457
 30
0.0
 10
6354.457860006643
 20
5064.338199640675
 30
0.0
 10
6354.503242475294
 20
5064.202126270447
 30
0.0
 10
6354.544689314852
 20
5064.088797798362
 30
0.0
 10
6354.593530829401
 20
5063.970602857255
 30
0.0
 10
6354.643579359501
 20
5063.872970055623
 30
0.0
 10
6354.686452732585
 20
5063.807171881628
 30
0.0
 10
6354.72850688696
 20
5063.75477573134
 30
0.0
 10
6354.779965906746
 20
5063.709568597392
 30
0.0
 10
6354.821215747401
 20
5063.702840929397
 30
0.0
 10
6354.841978640745
 20
5063.699454592607
 30
0.0
  0
LINE
  5
28D
330
1F
100
AcDbEntity
  8
0
  6
SLD-Plná
 62
     7
370
    25
100
AcDbLine
 10
6193.1955320313
 20
5063.6994545926
 30
0.0
 11
6354.8419786407
 21
5063.6994545926
 31
0.0
  0
SPLINE
  5
28E
330
1F
100
AcDbEntity
  8
0
  6
SLD-Plná
 62
     7
370
    25
100
AcDbSpline
210
0.0
220
0.0
230
1.0
 70
     8
 71
     3
 72
    11
 73
     7
 74
     0
 42
0.00000001
 43
0.00000001
 40
0.0
 40
0.0
 40
0.0
 40
0.0
 40
0.2500000000000083
 40
0.4999999999999921
 40
0.7499999999999982
 40
1.0
 40
1.0
 40
1.0
 40
1.0
 10
6355.018755336118
 20
5065.376231287781
 30
0.0
 10
6355.00372376333
 20
5065.444833229849
 30
0.0
 10
6354.973660617751
 20
5065.582037113983
 30
0.0
 10
6354.742411404602
 20
5065.787842940187
 30
0.0
 10
6354.411866467471
 20
5065.993648766391
 30
0.0
 10
6354.14979237984
 20
5066.130852650526
 30
0.0
 10
6354.018755336024
 20
5066.199454592594
 30
0.0
  0
SPLINE
  5
28F
330
1F
100
AcDbEntity
  8
0
  6
SLD-Plná
 62
     7
370
    25
100
AcDbSpline
210
0.0
220
0.0
230
1.0
 70
     8
 71
     3
 72
    11
 73
     7
 74
     0
 42
0.00000001
 43
0.00000001
 40
0.0
 40
0.0
 40
0.0
 40
0.0
 40
0.2499999999999998
 40
0.4999999999999996
 40
0.7499999999999998
 40
1.0
 40
1.0
 40
1.0
 40
1.0
 10
6356.518755336118
 20
5065.376231287781
 30
0.0
 10
6356.481176404146
 20
5065.444833229849
 30
0.0
 10
6356.4060185402
 20
5065.582037113983
 30
0.0
 10
6355.827895507327
 20
5065.787842940187
 30
0.0
 10
6355.001533164499
 20
5065.993648766391
 30
0.0
 10
6354.346347945421
 20
5066.130852650526
 30
0.0
 10
6354.018755335882
 20
5066.199454592594
 30
0.0
  0
LINE
  5
290
330
1F
100
AcDbEntity
  8
0
  6
SLD-Plná
 62
     7
370
    25
100
AcDbLine
 10
6356.518755336
 20
5065.3762312878
 30
0.0
 11
6355.0187553361
 21
5065.3762312878
 31
0.0
  0
SPLINE
  5
291
330
1F
100
AcDbEntity
  8
0
  6
SLD-Plná
 62
     7
370
    25
100
AcDbSpline
210
0.0
220
0.0
230
1.0
 70
     8
 71
     3
 72
    24
 73
    20
 74
     0
 42
0.00000001
 43
0.00000001
 40
0.0
 40
0.0
 40
0.0
 40
0.0
 40
0.0596202522232841
 40
0.1196553069243961
 40
0.18099608316987
 40
0.2427889339437186
 40
0.3024091859355945
 40
0.3624442377277844
 40
0.4237850063114643
 40
0.4855778500839444
 40
0.5451759507230891
 40
0.6051883827994686
 40
0.6665050144635255
 40
0.7282731844657069
 40
0.787871323010593
 40
0.8478837919296064
 40
0.9092004624343856
 40
0.9709686728722072
 40
1.0
 40
1.0
 40
1.0
 40
1.0
 10
6354.018755336071
 20
5066.19945459261
 30
0.0
 10
6354.035116052759
 20
5066.168237922878
 30
0.0
 10
6354.067951314331
 20
5066.105587396277
 30
0.0
 10
6354.117616709551
 20
5066.011651100867
 30
0.0
 10
6354.167878216542
 20
5065.918294975056
 30
0.0
 10
6354.218030330024
 20
5065.827748954739
 30
0.0
 10
6354.267821859661
 20
5065.741227494315
 30
0.0
 10
6354.317487931459
 20
5065.658995791709
 30
0.0
 10
6354.367748956211
 20
5065.58070756475
 30
0.0
 10
6354.417895015148
 20
5065.508326281516
 30
0.0
 10
6354.467674078925
 20
5065.442734999607
 30
0.0
 10
6354.517321848351
 20
5065.384042406059
 30
0.0
 10
6354.567562951096
 20
5065.332085131545
 30
0.0
 10
6354.617695388373
 20
5065.288257300691
 30
0.0
 10
6354.667467513337
 20
5065.252998624033
 30
0.0
 10
6354.717116194558
 20
5065.226212369163
 30
0.0
 10
6354.767355805678
 20
5065.208104116539
 30
0.0
 10
6354.809104123839
 20
5065.20032372359
 30
0.0
 10
6354.834014157997
 20
5065.19966515627
 30
0.0
 10
6354.841978640745
 20
5065.199454592607
 30
0.0
  0
LINE
  5
292
330
1F
100
AcDbEntity
  8
0
  6
SLD-Plná
 62
     7
370
    25
100
AcDbLine
 10
6354.8419786408
 20
5063.6994545926
 30
0.0
 11
6354.8419786408
 21
5065.1994545926
 31
0.0
  0
SPLINE
  5
293
330
1F
100
AcDbEntity
  8
0
  6
SLD-Plná
 62
     7
370
    25
100
AcDbSpline
210
0.0
220
0.0
230
1.0
 70
     8
 71
     3
 72
    11
 73
     7
 74
     0
 42
0.00000001
 43
0.00000001
 40
0.0
 40
0.0
 40
0.0
 40
0.0
 40
0.2499999999999981
 40
0.4999999999999983
 40
0.7499999999999982
 40
1.0
 40
1.0
 40
1.0
 40
1.0
 10
6354.018755335987
 20
5361.199454592618
 30
0.0
 10
6354.346347945518
 20
5361.26805653468
 30
0.0
 10
6355.001533164577
 20
5361.405260418805
 30
0.0
 10
6355.827895507371
 20
5361.611066244992
 30
0.0
 10
6356.406018540218
 20
5361.816872071178
 30
0.0
 10
6356.481176404161
 20
5361.954075955302
 30
0.0
 10
6356.518755336131
 20
5362.022677897366
 30
0.0
  0
LINE
  5
294
330
1F
100
AcDbEntity
  8
0
  6
SLD-Plná
 62
     7
370
    25
100
AcDbLine
 10
6356.518755336
 20
5065.3762312878
 30
0.0
 11
6356.518755336
 21
5362.0226778974
 31
0.0
  0
SPLINE
  5
295
330
1F
100
AcDbEntity
  8
0
  6
SLD-Plná
 62
     7
370
    25
100
AcDbSpline
210
0.0
220
0.0
230
1.0
 70
     8
 71
     3
 72
    11
 73
     7
 74
     0
 42
0.00000001
 43
0.00000001
 40
0.0
 40
0.0
 40
0.0
 40
0.0
 40
0.2499999999999894
 40
0.5000000000000042
 40
0.7500000000000153
 40
0.9999999999999999
 40
0.9999999999999999
 40
0.9999999999999999
 40
0.9999999999999999
 10
6354.018755336074
 20
5361.199454592618
 30
0.0
 10
6354.149792379886
 20
5361.26805653468
 30
0.0
 10
6354.411866467509
 20
5361.405260418805
 30
0.0
 10
6354.742411404628
 20
5361.611066244992
 30
0.0
 10
6354.973660617766
 20
5361.816872071178
 30
0.0
 10
6355.003723763342
 20
5361.954075955303
 30
0.0
 10
6355.018755336131
 20
5362.022677897366
 30
0.0
  0
LINE
  5
296
330
1F
100
AcDbEntity
  8
0
  6
SLD-Plná
 62
     7
370
    25
100
AcDbLine
 10
6356.518755336
 20
5362.0226778974
 30
0.0
 11
6355.018755336
 21
5362.0226778974
 31
0.0
  0
SPLINE
  5
297
330
1F
100
AcDbEntity
  8
0
  6
SLD-Plná
 62
     7
370
    25
100
AcDbSpline
210
0.0
220
0.0
230
1.0
 70
     8
 71
     3
 72
    24
 73
    20
 74
     0
 42
0.00000001
 43
0.00000001
 40
0.0
 40
0.0
 40
0.0
 40
0.0
 40
0.0596202522290819
 40
0.1196553069311861
 40
0.1809960831777004
 40
0.2427889339525835
 40
0.3024091859454309
 40
0.362444237738616
 40
0.4237850063233415
 40
0.4855778500968588
 40
0.5451759507370312
 40
0.6051883828144232
 40
0.6665050144795307
 40
0.7282731844827485
 40
0.7878713230286766
 40
0.8478837919486876
 40
0.9092004624545293
 40
0.9709686728933811
 40
1.0
 40
1.0
 40
1.0
 40
1.0
 10
6354.841978640829
 20
5362.199454592617
 30
0.0
 10
6354.825617924121
 20
5362.198609540837
 30
0.0
 10
6354.792782662508
 20
5362.196913557906
 30
0.0
 10
6354.743117267296
 20
5362.183095844566
 30
0.0
 10
6354.692855760296
 20
5362.160770822119
 30
0.0
 10
6354.64270364681
 20
5362.129431253972
 30
0.0
 10
6354.592912117168
 20
5362.089948652284
 30
0.0
 10
6354.543246045365
 20
5362.04262558989
 30
0.0
 10
6354.49298502061
 20
5361.987029975336
 30
0.0
 10
6354.442838961666
 20
5361.924283139342
 30
0.0
 10
6354.393059897885
 20
5361.855443413139
 30
0.0
 10
6354.343412128455
 20
5361.780948151713
 30
0.0
 10
6354.293171025704
 20
5361.700243706458
 30
0.0
 10
6354.243038588423
 20
5361.615093367465
 30
0.0
 10
6354.193266463453
 20
5361.526803883646
 30
0.0
 10
6354.143617782226
 20
5361.435819119349
 30
0.0
 10
6354.09337817111
 20
5361.341579734594
 30
0.0
 10
6354.051629852921
 20
5361.26218091835
 30
0.0
 10
6354.026719818812
 20
5361.214651249054
 30
0.0
 10
6354.018755336084
 20
5361.199454592618
 30
0.0
  0
SPLINE
  5
298
330
1F
100
AcDbEntity
  8
0
  6
SLD-Plná
 62
     7
370
    25
100
AcDbSpline
210
0.0
220
0.0
230
1.0
 70
     8
 71
     3
 72
    24
 73
    20
 74
     0
 42
0.00000001
 43
0.00000001
 40
0.0
 40
0.0
 40
0.0
 40
0.0
 40
0.063719937857258
 40
0.1281124898018182
 40
0.1932374545901691
 40
0.2428609909396107
 40
0.292776049537456
 40
0.3340932583064317
 40
0.4127215192926454
 40
0.4667896604288765
 40
0.5443092524672359
 40
0.6321635779981399
 40
0.6862316869245317
 40
0.763751233686939
 40
0.8516055053671054
 40
0.8884935527555137
 40
0.9255008014974777
 40
0.9626893266398158
 40
1.0
 40
1.0
 40
1.0
 40
1.0
 10
6354.841978640829
 20
5363.699454592617
 30
0.0
 10
6354.824493257947
 20
5363.697040921145
 30
0.0
 10
6354.789337920207
 20
5363.6921881
 30
0.0
 10
6354.736316786973
 20
5363.652733562432
 30
0.0
 10
6354.687157742167
 20
5363.594468025836
 30
0.0
 10
6354.641982897152
 20
5363.521966879486
 30
0.0
 10
6354.603333932421
 20
5363.446639475424
 30
0.0
 10
6354.556742273588
 20
5363.34153700119
 30
0.0
 10
6354.508967717403
 20
5363.21515906648
 30
0.0
 10
6354.451301811564
 20
5363.039745722543
 30
0.0
 10
6354.39106988325
 20
5362.834465471247
 30
0.0
 10
6354.330820218715
 20
5362.604548756179
 30
0.0
 10
6354.270625894042
 20
5362.357340586632
 30
0.0
 10
6354.210395823233
 20
5362.095954485992
 30
0.0
 10
6354.154854841078
 20
5361.842403676523
 30
0.0
 10
6354.110491520147
 20
5361.635069723724
 30
0.0
 10
6354.08001828086
 20
5361.491186449514
 30
0.0
 10
6354.049428660553
 20
5361.345769893718
 30
0.0
 10
6354.028990947404
 20
5361.248279641033
 30
0.0
 10
6354.018755336084
 20
5361.199454592619
 30
0.0
  0
LINE
  5
299
330
1F
100
AcDbEntity
  8
0
  6
SLD-Plná
 62
     7
370
    25
100
AcDbLine
 10
6354.8419786408
 20
5363.6994545926
 30
0.0
 11
6354.8419786408
 21
5362.1994545926
 31
0.0
  0
SPLINE
  5
29A
330
1F
100
AcDbEntity
  8
0
  6
SLD-Plná
 62
     7
370
    25
100
AcDbSpline
210
0.0
220
0.0
230
1.0
 70
     8
 71
     3
 72
    24
 73
    20
 74
     0
 42
0.00000001
 43
0.00000001
 40
0.0
 40
0.0
 40
0.0
 40
0.0
 40
0.0710959341069447
 40
0.150980044213265
 40
0.1912803029535534
 40
0.2183140541048838
 40
0.2726053657299662
 40
0.3736230811299904
 40
0.4107499964717233
 40
0.437784665769818
 40
0.4920778374623814
 40
0.5745852185925819
 40
0.6302617542869665
 40
0.6572964078905007
 40
0.7115895485716764
 40
0.812610773047538
 40
0.8497390042916431
 40
0.8871167011042975
 40
1.0
 40
1.0
 40
1.0
 40
1.0
 10
6194.018755336091
 20
5361.199454592619
 30
0.0
 10
6193.999248280709
 20
5361.292504624183
 30
0.0
 10
6193.957822900749
 20
5361.49010661164
 30
0.0
 10
6193.90532067568
 20
5361.737256590744
 30
0.0
 10
6193.8649443065
 20
5361.923041972352
 30
0.0
 10
6193.831585148395
 20
5362.074040638668
 30
0.0
 10
6193.781572156598
 20
5362.295309895881
 30
0.0
 10
6193.728698293808
 20
5362.516431257381
 30
0.0
 10
6193.683403334037
 20
5362.6928616854
 30
0.0
 10
6193.650915035103
 20
5362.814711964109
 30
0.0
 10
6193.60597129381
 20
5362.97458127494
 30
0.0
 10
6193.553132233771
 20
5363.143602366839
 30
0.0
 10
6193.507811365684
 20
5363.270143174948
 30
0.0
 10
6193.470238237359
 20
5363.365324333398
 30
0.0
 10
6193.420223510865
 20
5363.478920902799
 30
0.0
 10
6193.367346258005
 20
5363.571449036416
 30
0.0
 10
6193.319210750966
 20
5363.631399322277
 30
0.0
 10
6193.26782202009
 20
5363.682948142237
 30
0.0
 10
6193.226542897167
 20
5363.692373676899
 30
0.0
 10
6193.195532031377
 20
5363.699454592617
 30
0.0
  0
LINE
  5
29B
330
1F
100
AcDbEntity
  8
0
  6
SLD-Plná
 62
     7
370
    25
100
AcDbLine
 10
6354.8419786408
 20
5363.6994545926
 30
0.0
 11
6193.1955320314
 21
5363.6994545926
 31
0.0
  0
LINE
  5
29C
330
1F
100
AcDbEntity
  8
0
  6
SLD-Plná
 62
     7
370
    25
100
AcDbLine
 10
6191.5187553361
 20
5362.0226778974
 30
0.0
 11
6191.5187553361
 21
5065.3762312879
 31
0.0
  0
SPLINE
  5
29D
330
1F
100
AcDbEntity
  8
0
  6
SLD-Plná
 62
     7
370
    25
100
AcDbSpline
210
0.0
220
0.0
230
1.0
 70
     8
 71
     3
 72
    11
 73
     7
 74
     0
 42
0.00000001
 43
0.00000001
 40
0.0
 40
0.0
 40
0.0
 40
0.0
 40
0.2500000000000017
 40
0.5000000000000013
 40
0.749999999999999
 40
1.0
 40
1.0
 40
1.0
 40
1.0
 10
6191.518755336073
 20
5362.022677897414
 30
0.0
 10
6191.556334268042
 20
5361.954075955347
 30
0.0
 10
6191.631492131981
 20
5361.816872071214
 30
0.0
 10
6192.209615164799
 20
5361.611066245012
 30
0.0
 10
6193.035977507558
 20
5361.405260418812
 30
0.0
 10
6193.691162726598
 20
5361.268056534678
 30
0.0
 10
6194.018755336117
 20
5361.199454592612
 30
0.0
  0
SPLINE
  5
29E
330
1F
100
AcDbEntity
  8
0
  6
SLD-Plná
 62
     7
370
    25
100
AcDbSpline
210
0.0
220
0.0
230
1.0
 70
     8
 71
     3
 72
    11
 73
     7
 74
     0
 42
0.00000001
 43
0.00000001
 40
0.0
 40
0.0
 40
0.0
 40
0.0
 40
0.2499999999999834
 40
0.4999999999999993
 40
0.749999999999988
 40
0.9999999999999999
 40
0.9999999999999999
 40
0.9999999999999999
 40
0.9999999999999999
 10
6193.018755336073
 20
5362.022677897414
 30
0.0
 10
6193.033786908861
 20
5361.954075955347
 30
0.0
 10
6193.063850054436
 20
5361.816872071213
 30
0.0
 10
6193.295099267563
 20
5361.611066245012
 30
0.0
 10
6193.625644204666
 20
5361.405260418812
 30
0.0
 10
6193.887718292282
 20
5361.268056534678
 30
0.0
 10
6194.018755336091
 20
5361.199454592612
 30
0.0
  0
LINE
  5
29F
330
1F
100
AcDbEntity
  8
0
  6
SLD-Plná
 62
     7
370
    25
100
AcDbLine
 10
6191.5187553361
 20
5362.0226778974
 30
0.0
 11
6193.0187553361
 21
5362.0226778974
 31
0.0
  0
SPLINE
  5
2A0
330
1F
100
AcDbEntity
  8
0
  6
SLD-Plná
 62
     7
370
    25
100
AcDbSpline
210
0.0
220
0.0
230
1.0
 70
     8
 71
     3
 72
    24
 73
    20
 74
     0
 42
0.00000001
 43
0.00000001
 40
0.0
 40
0.0
 40
0.0
 40
0.0
 40
0.0596202522271018
 40
0.1196553069271345
 40
0.1809960831715341
 40
0.2427889339443024
 40
0.3024091859351122
 40
0.3624442377262824
 40
0.4237850063089326
 40
0.4855778500803427
 40
0.5451759507184746
 40
0.6051883827938048
 40
0.6665050144567776
 40
0.7282731844578724
 40
0.7878713230017205
 40
0.8478837919196701
 40
0.9092004624233703
 40
0.9709686728601014
 40
1.0
 40
1.0
 40
1.0
 40
1.0
 10
6194.01875533609
 20
5361.19945459262
 30
0.0
 10
6194.002394619382
 20
5361.230671262342
 30
0.0
 10
6193.969559357771
 20
5361.293321788925
 30
0.0
 10
6193.919893962567
 20
5361.387258084345
 30
0.0
 10
6193.869632455573
 20
5361.480614210155
 30
0.0
 10
6193.819480342093
 20
5361.571160230472
 30
0.0
 10
6193.769688812456
 20
5361.657681690896
 30
0.0
 10
6193.72002274066
 20
5361.739913393502
 30
0.0
 10
6193.66976171591
 20
5361.818201620462
 30
0.0
 10
6193.619615656973
 20
5361.890582903697
 30
0.0
 10
6193.569836593198
 20
5361.956174185607
 30
0.0
 10
6193.520188823774
 20
5362.014866779155
 30
0.0
 10
6193.46994772103
 20
5362.066824053671
 30
0.0
 10
6193.419815283754
 20
5362.110651884526
 30
0.0
 10
6193.370043158791
 20
5362.145910561185
 30
0.0
 10
6193.320394477572
 20
5362.172696816057
 30
0.0
 10
6193.270154866452
 20
5362.190805068682
 30
0.0
 10
6193.22840654829
 20
5362.198585461633
 30
0.0
 10
6193.203496514128
 20
5362.199244028954
 30
0.0
 10
6193.195532031377
 20
5362.199454592617
 30
0.0
  0
LINE
  5
2A1
330
1F
100
AcDbEntity
  8
0
  6
SLD-Plná
 62
     7
370
    25
100
AcDbLine
 10
6193.1955320314
 20
5363.6994545926
 30
0.0
 11
6193.1955320314
 21
5362.1994545926
 31
0.0
  0
LINE
  5
2A2
330
1F
100
AcDbEntity
  8
0
  6
SLD-Plná
 62
     7
370
    25
100
AcDbLine
 10
6355.768755336
 20
5063.6994545926
 30
0.0
 11
6355.768755336
 21
5065.1994545926
 31
0.0
  0
LINE
  5
2A3
330
1F
100
AcDbEntity
  8
0
  6
SLD-Plná
 62
     7
370
    25
100
AcDbLine
 10
6354.8419786407
 20
5063.6994545926
 30
0.0
 11
6355.768755336
 21
5063.6994545926
 31
0.0
  0
LINE
  5
2A4
330
1F
100
AcDbEntity
  8
0
  6
SLD-Plná
 62
     7
370
    25
100
AcDbLine
 10
6354.8419786407
 20
5065.1994545926
 30
0.0
 11
6355.768755336
 21
5065.1994545926
 31
0.0
  0
LINE
  5
2A5
330
1F
100
AcDbEntity
  8
0
  6
SLD-Plná
 62
     7
370
    25
100
AcDbLine
 10
6193.1955320313
 20
5063.6994545926
 30
0.0
 11
6192.2687553361
 21
5063.6994545926
 31
0.0
  0
LINE
  5
2A6
330
1F
100
AcDbEntity
  8
0
  6
SLD-Plná
 62
     7
370
    25
100
AcDbLine
 10
6192.2687553361
 20
5063.6994545926
 30
0.0
 11
6192.2687553361
 21
5065.1994545926
 31
0.0
  0
LINE
  5
2A7
330
1F
100
AcDbEntity
  8
0
  6
SLD-Plná
 62
     7
370
    25
100
AcDbLine
 10
6193.1955320313
 20
5065.1994545926
 30
0.0
 11
6192.2687553361
 21
5065.1994545926
 31
0.0
  0
LINE
  5
2A8
330
1F
100
AcDbEntity
  8
0
  6
SLD-Plná
 62
     7
370
    25
100
AcDbLine
 10
6355.018755336
 20
5065.2994545926
 30
0.0
 11
6356.518755336
 21
5065.2994545926
 31
0.0
  0
LINE
  5
2A9
330
1F
100
AcDbEntity
  8
0
  6
SLD-Plná
 62
     7
370
    25
100
AcDbLine
 10
6356.518755336
 20
5065.3762312878
 30
0.0
 11
6356.518755336
 21
5065.2994545926
 31
0.0
  0
LINE
  5
2AA
330
1F
100
AcDbEntity
  8
0
  6
SLD-Plná
 62
     7
370
    25
100
AcDbLine
 10
6355.018755336
 20
5065.3762312878
 30
0.0
 11
6355.018755336
 21
5065.2994545926
 31
0.0
  0
LINE
  5
2AB
330
1F
100
AcDbEntity
  8
0
  6
SLD-Plná
 62
     7
370
    25
100
AcDbLine
 10
6193.0187553361
 20
5065.3762312879
 30
0.0
 11
6193.0187553361
 21
5065.2994545926
 31
0.0
  0
LINE
  5
2AC
330
1F
100
AcDbEntity
  8
0
  6
SLD-Plná
 62
     7
370
    25
100
AcDbLine
 10
6193.0187553361
 20
5065.2994545926
 30
0.0
 11
6191.5187553361
 21
5065.2994545926
 31
0.0
  0
LINE
  5
2AD
330
1F
100
AcDbEntity
  8
0
  6
SLD-Plná
 62
     7
370
    25
100
AcDbLine
 10
6191.5187553361
 20
5065.3762312879
 30
0.0
 11
6191.5187553361
 21
5065.2994545926
 31
0.0
  0
LINE
  5
2AE
330
1F
100
AcDbEntity
  8
0
  6
SLD-Plná
 62
     7
370
    25
100
AcDbLine
 10
6355.018755336
 20
5362.0994545926
 30
0.0
 11
6356.518755336
 21
5362.0994545926
 31
0.0
  0
LINE
  5
2AF
330
1F
100
AcDbEntity
  8
0
  6
SLD-Plná
 62
     7
370
    25
100
AcDbLine
 10
6356.518755336
 20
5362.0226778974
 30
0.0
 11
6356.518755336
 21
5362.0994545926
 31
0.0
  0
LINE
  5
2B0
330
1F
100
AcDbEntity
  8
0
  6
SLD-Plná
 62
     7
370
    25
100
AcDbLine
 10
6355.018755336
 20
5362.0226778974
 30
0.0
 11
6355.018755336
 21
5362.0994545926
 31
0.0
  0
LINE
  5
2B1
330
1F
100
AcDbEntity
  8
0
  6
SLD-Plná
 62
     7
370
    25
100
AcDbLine
 10
6193.0187553361
 20
5362.0994545926
 30
0.0
 11
6191.5187553361
 21
5362.0994545926
 31
0.0
  0
LINE
  5
2B2
330
1F
100
AcDbEntity
  8
0
  6
SLD-Plná
 62
     7
370
    25
100
AcDbLine
 10
6193.0187553361
 20
5362.0226778974
 30
0.0
 11
6193.0187553361
 21
5362.0994545926
 31
0.0
  0
LINE
  5
2B3
330
1F
100
AcDbEntity
  8
0
  6
SLD-Plná
 62
     7
370
    25
100
AcDbLine
 10
6191.5187553361
 20
5362.0226778974
 30
0.0
 11
6191.5187553361
 21
5362.0994545926
 31
0.0
  0
LINE
  5
2B4
330
1F
100
AcDbEntity
  8
0
  6
SLD-Plná
 62
     7
370
    25
100
AcDbLine
 10
6192.2687553361
 20
5363.6994545926
 30
0.0
 11
6192.2687553361
 21
5362.1994545926
 31
0.0
  0
LINE
  5
2B5
330
1F
100
AcDbEntity
  8
0
  6
SLD-Plná
 62
     7
370
    25
100
AcDbLine
 10
6193.1955320314
 20
5363.6994545926
 30
0.0
 11
6192.2687553361
 21
5363.6994545926
 31
0.0
  0
LINE
  5
2B6
330
1F
100
AcDbEntity
  8
0
  6
SLD-Plná
 62
     7
370
    25
100
AcDbLine
 10
6193.1955320314
 20
5362.1994545926
 30
0.0
 11
6192.2687553361
 21
5362.1994545926
 31
0.0
  0
LINE
  5
2B7
330
1F
100
AcDbEntity
  8
0
  6
SLD-Plná
 62
     7
370
    25
100
AcDbLine
 10
6355.7687553361
 20
5363.6994545926
 30
0.0
 11
6355.7687553361
 21
5362.1994545926
 31
0.0
  0
LINE
  5
2B8
330
1F
100
AcDbEntity
  8
0
  6
SLD-Plná
 62
     7
370
    25
100
AcDbLine
 10
6354.8419786408
 20
5362.1994545926
 30
0.0
 11
6355.7687553361
 21
5362.1994545926
 31
0.0
  0
LINE
  5
2B9
330
1F
100
AcDbEntity
  8
0
  6
SLD-Plná
 62
     7
370
    25
100
AcDbLine
 10
6354.8419786408
 20
5363.6994545926
 30
0.0
 11
6355.7687553361
 21
5363.6994545926
 31
0.0
  0
LINE
  5
2BA
330
1F
100
AcDbEntity
  8
0
  6
SLD-Plná
 62
     8
370
    25
100
AcDbLine
 10
6317.4567263803
 20
5208.8662203878
 30
0.0
 11
6317.0556094728
 21
5209.1335977129
 31
0.0
  0
LINE
  5
2BB
330
1F
100
AcDbEntity
  8
0
  6
SLD-Plná
 62
     8
370
    25
100
AcDbLine
 10
6307.2802011941
 20
5209.1335977129
 30
0.0
 11
6306.8790842864
 21
5208.8662203876
 31
0.0
  0
LINE
  5
2BC
330
1F
100
AcDbEntity
  8
0
  6
SLD-Plná
 62
     8
370
    25
100
AcDbLine
 10
6316.0559521478
 20
5208.1337500177
 30
0.0
 11
6316.41786864
 21
5207.8925029853
 31
0.0
  0
LINE
  5
2BD
330
1F
100
AcDbEntity
  8
0
  6
SLD-Plná
 62
     8
370
    25
100
AcDbLine
 10
6307.9179420269
 20
5207.8925029853
 30
0.0
 11
6308.2798585191
 21
5208.1337500177
 31
0.0
  0
LINE
  5
2BE
330
1F
100
AcDbEntity
  8
0
  6
SLD-Plná
 62
     8
370
    25
100
AcDbLine
 10
6257.708304084
 20
5367.5633438168
 30
0.0
 11
6257.708304084
 21
5363.6994545926
 31
0.0
  0
LINE
  5
2BF
330
1F
100
AcDbEntity
  8
0
  6
SLD-Plná
 62
     8
370
    25
100
AcDbLine
 10
6341.1083040841
 20
5367.5633438168
 30
0.0
 11
6341.1083040841
 21
5363.6994545926
 31
0.0
  0
LINE
  5
2C0
330
1F
100
AcDbEntity
  8
0
  6
SLD-Plná
 62
     8
370
    25
100
AcDbLine
 10
6206.9292065882
 20
5363.6994545926
 30
0.0
 11
6206.9292065882
 21
5367.5633438168
 31
0.0
  0
LINE
  5
2C1
330
1F
100
AcDbEntity
  8
0
  6
SLD-Plná
 62
     8
370
    25
100
AcDbLine
 10
6290.3292065883
 20
5363.6994545926
 30
0.0
 11
6290.3292065883
 21
5367.5633438168
 31
0.0
  0
ARC
  5
2C2
330
1F
100
AcDbEntity
  8
0
  6
SLD-Plná
 62
     7
370
    25
100
AcDbCircle
 10
6584.5991891538
 20
5232.1994545928
 30
0.0
 40
2.0
100
AcDbArc
 50
120.0000000007
 51
179.9999999999
  0
ARC
  5
2C3
330
1F
100
AcDbEntity
  8
0
  6
SLD-Plná
 62
     7
370
    25
100
AcDbCircle
 10
6584.5991891538
 20
5195.1994545928
 30
0.0
 40
2.0
100
AcDbArc
 50
179.9999999999
 51
240.0000000007
  0
LINE
  5
2C4
330
1F
100
AcDbEntity
  8
0
  6
SLD-Plná
 62
     7
370
    25
100
AcDbLine
 10
6722.0991891544
 20
5270.6994545926
 30
0.0
 11
6717.3991891531
 21
5270.6994545926
 31
0.0
  0
LINE
  5
2C5
330
1F
100
AcDbEntity
  8
0
  6
SLD-Plná
 62
     7
370
    25
100
AcDbLine
 10
6717.3991891531
 20
5258.6994545926
 30
0.0
 11
6722.0991891544
 21
5258.6994545926
 31
0.0
  0
LINE
  5
2C6
330
1F
100
AcDbEntity
  8
0
  6
SLD-Plná
 62
     7
370
    25
100
AcDbLine
 10
6722.0991891544
 20
5289.6994545926
 30
0.0
 11
6717.3991891531
 21
5289.6994545926
 31
0.0
  0
LINE
  5
2C7
330
1F
100
AcDbEntity
  8
0
  6
SLD-Plná
 62
     7
370
    25
100
AcDbLine
 10
6717.3991891531
 20
5277.6994545926
 30
0.0
 11
6722.0991891544
 21
5277.6994545926
 31
0.0
  0
LINE
  5
2C8
330
1F
100
AcDbEntity
  8
0
  6
SLD-Plná
 62
     7
370
    25
100
AcDbLine
 10
6716.3991891544
 20
5255.5994545926
 30
0.0
 11
6717.3991891544
 21
5255.5994545926
 31
0.0
  0
LINE
  5
2C9
330
1F
100
AcDbEntity
  8
0
  6
SLD-Plná
 62
     7
370
    25
100
AcDbLine
 10
6717.3991891544
 20
5273.7994545926
 30
0.0
 11
6716.3991891544
 21
5273.7994545926
 31
0.0
  0
LINE
  5
2CA
330
1F
100
AcDbEntity
  8
0
  6
SLD-Plná
 62
     7
370
    25
100
AcDbLine
 10
6716.3991891544
 20
5274.5994545926
 30
0.0
 11
6717.3991891544
 21
5274.5994545926
 31
0.0
  0
LINE
  5
2CB
330
1F
100
AcDbEntity
  8
0
  6
SLD-Plná
 62
     7
370
    25
100
AcDbLine
 10
6717.3991891544
 20
5292.7994545926
 30
0.0
 11
6716.3991891544
 21
5292.7994545926
 31
0.0
  0
LINE
  5
2CC
330
1F
100
AcDbEntity
  8
0
  6
SLD-Plná
 62
     7
370
    25
100
AcDbLine
 10
6716.3991891544
 20
5236.5994545926
 30
0.0
 11
6717.3991891544
 21
5236.5994545926
 31
0.0
  0
LINE
  5
2CD
330
1F
100
AcDbEntity
  8
0
  6
SLD-Plná
 62
     7
370
    25
100
AcDbLine
 10
6717.3991891544
 20
5254.7994545926
 30
0.0
 11
6716.3991891544
 21
5254.7994545926
 31
0.0
  0
LINE
  5
2CE
330
1F
100
AcDbEntity
  8
0
  6
SLD-Plná
 62
     7
370
    25
100
AcDbLine
 10
6717.4664025594
 20
5254.2002984388
 30
0.0
 11
6717.3991891531
 21
5253.949454593
 31
0.0
  0
LINE
  5
2CF
330
1F
100
AcDbEntity
  8
0
  6
SLD-Plná
 62
     7
370
    25
100
AcDbLine
 10
6717.3991891531
 20
5237.4494545923
 30
0.0
 11
6717.4664025594
 21
5237.1986107465
 31
0.0
  0
ARC
  5
2D0
330
1F
100
AcDbEntity
  8
0
  6
SLD-Plná
 62
     7
370
    25
100
AcDbCircle
 10
6719.6991891544
 20
5252.5494545926
 30
0.0
 40
1.550000000001091
100
AcDbArc
 50
0.0
 51
91.4807501636
  0
ARC
  5
2D1
330
1F
100
AcDbEntity
  8
0
  6
SLD-Plná
 62
     7
370
    25
100
AcDbCircle
 10
6719.6991891544
 20
5238.8494545926
 30
0.0
 40
1.550000000001091
100
AcDbArc
 50
268.5192498364
 51
0.0
  0
LINE
  5
2D2
330
1F
100
AcDbEntity
  8
0
  6
SLD-Plná
 62
     7
370
    25
100
AcDbLine
 10
6722.9547515856
 20
5252.5494545926
 30
0.0
 11
6721.2491891544
 21
5252.5494545926
 31
0.0
  0
LINE
  5
2D3
330
1F
100
AcDbEntity
  8
0
  6
SLD-Plná
 62
     7
370
    25
100
AcDbLine
 10
6721.2491891544
 20
5238.8494545926
 30
0.0
 11
6722.9547515856
 21
5238.8494545926
 31
0.0
  0
SPLINE
  5
2D4
330
1F
100
AcDbEntity
  8
0
  6
SLD-Plná
 62
     7
370
    25
100
AcDbSpline
210
0.0
220
0.0
230
1.0
 70
     8
 71
     3
 72
    11
 73
     7
 74
     0
 42
0.00000001
 43
0.00000001
 40
0.0
 40
0.0
 40
0.0
 40
0.0
 40
0.2961233066076293
 40
0.5612606992985898
 40
0.7958906039520454
 40
0.9999999999999999
 40
0.9999999999999999
 40
0.9999999999999999
 40
0.9999999999999999
 10
6722.954751585644
 20
5238.850162771659
 30
0.0
 10
6723.146275193307
 20
5238.870281112965
 30
0.0
 10
6723.509281655719
 20
5238.908412641483
 30
0.0
 10
6723.959548848736
 20
5239.176776558686
 30
0.0
 10
6724.276699027399
 20
5239.50863934732
 30
0.0
 10
6724.395687653827
 20
5239.764817652474
 30
0.0
 10
6724.451043298143
 20
5239.883996397259
 30
0.0
  0
SPLINE
  5
2D5
330
1F
100
AcDbEntity
  8
0
  6
SLD-Plná
 62
     7
370
    25
100
AcDbSpline
210
0.0
220
0.0
230
1.0
 70
     8
 71
     3
 72
    11
 73
     7
 74
     0
 42
0.00000001
 43
0.00000001
 40
0.0
 40
0.0
 40
0.0
 40
0.0
 40
0.2034763135538287
 40
0.437985638646071
 40
0.7033907770139769
 40
1.0
 40
1.0
 40
1.0
 40
1.0
 10
6724.451043298142
 20
5251.51106035228
 30
0.0
 10
6724.39563613739
 20
5251.630066168919
 30
0.0
 10
6724.27637144135
 20
5251.886227869971
 30
0.0
 10
6723.959250345373
 20
5252.217382054335
 30
0.0
 10
6723.50912266968
 20
5252.485393174518
 30
0.0
 10
6723.146257595356
 20
5252.523446344186
 30
0.0
 10
6722.954751585644
 20
5252.543529320465
 30
0.0
  0
ARC
  5
2D6
330
1F
100
AcDbEntity
  8
0
  6
SLD-Plná
 62
     7
370
    25
100
AcDbCircle
 10
6725.1991891544
 20
5251.7994545926
 30
0.0
 40
0.7999999999992724
100
AcDbArc
 50
202.0631951252
 51
270.0
  0
ARC
  5
2D7
330
1F
100
AcDbEntity
  8
0
  6
SLD-Plná
 62
     7
370
    25
100
AcDbCircle
 10
6725.1991891544
 20
5239.5994545926
 30
0.0
 40
0.8000000000001819
100
AcDbArc
 50
90.0
 51
156.9583873689
  0
ARC
  5
2D8
330
1F
100
AcDbEntity
  8
0
  6
SLD-Plná
 62
     7
370
    25
100
AcDbCircle
 10
6729.0991891544
 20
5249.3994545926
 30
0.0
 40
1.600000000000364
100
AcDbArc
 50
0.0
 51
90.0
  0
ARC
  5
2D9
330
1F
100
AcDbEntity
  8
0
  6
SLD-Plná
 62
     7
370
    25
100
AcDbCircle
 10
6729.0991891544
 20
5241.9994545926
 30
0.0
 40
1.600000000000364
100
AcDbArc
 50
270.0
 51
0.0
  0
LINE
  5
2DA
330
1F
100
AcDbEntity
  8
0
  6
SLD-Plná
 62
     7
370
    25
100
AcDbLine
 10
6729.0991891544
 20
5250.9994545926
 30
0.0
 11
6725.1991891544
 21
5250.9994545926
 31
0.0
  0
LINE
  5
2DB
330
1F
100
AcDbEntity
  8
0
  6
SLD-Plná
 62
     7
370
    25
100
AcDbLine
 10
6725.1991891544
 20
5240.3994545926
 30
0.0
 11
6729.0991891544
 21
5240.3994545926
 31
0.0
  0
LINE
  5
2DC
330
1F
100
AcDbEntity
  8
0
  6
SLD-Plná
 62
     7
370
    25
100
AcDbLine
 10
6717.4664025594
 20
5292.2002984388
 30
0.0
 11
6717.3991891531
 21
5291.949454593
 31
0.0
  0
LINE
  5
2DD
330
1F
100
AcDbEntity
  8
0
  6
SLD-Plná
 62
     7
370
    25
100
AcDbLine
 10
6717.3991891531
 20
5275.4494545923
 30
0.0
 11
6717.4664025594
 21
5275.1986107465
 31
0.0
  0
ARC
  5
2DE
330
1F
100
AcDbEntity
  8
0
  6
SLD-Plná
 62
     7
370
    25
100
AcDbCircle
 10
6719.6991891544
 20
5290.5494545926
 30
0.0
 40
1.550000000001091
100
AcDbArc
 50
0.0
 51
91.4807501636
  0
ARC
  5
2DF
330
1F
100
AcDbEntity
  8
0
  6
SLD-Plná
 62
     7
370
    25
100
AcDbCircle
 10
6719.6991891544
 20
5276.8494545926
 30
0.0
 40
1.550000000001091
100
AcDbArc
 50
268.5192498364
 51
0.0
  0
LINE
  5
2E0
330
1F
100
AcDbEntity
  8
0
  6
SLD-Plná
 62
     7
370
    25
100
AcDbLine
 10
6722.9547515856
 20
5290.5494545926
 30
0.0
 11
6721.2491891544
 21
5290.5494545926
 31
0.0
  0
LINE
  5
2E1
330
1F
100
AcDbEntity
  8
0
  6
SLD-Plná
 62
     7
370
    25
100
AcDbLine
 10
6721.2491891544
 20
5276.8494545926
 30
0.0
 11
6722.9547515856
 21
5276.8494545926
 31
0.0
  0
SPLINE
  5
2E2
330
1F
100
AcDbEntity
  8
0
  6
SLD-Plná
 62
     7
370
    25
100
AcDbSpline
210
0.0
220
0.0
230
1.0
 70
     8
 71
     3
 72
    11
 73
     7
 74
     0
 42
0.00000001
 43
0.00000001
 40
0.0
 40
0.0
 40
0.0
 40
0.0
 40
0.2961233066076293
 40
0.5612606992985889
 40
0.7958906039520471
 40
1.0
 40
1.0
 40
1.0
 40
1.0
 10
6722.954751585644
 20
5276.850162771659
 30
0.0
 10
6723.146275193307
 20
5276.870281112965
 30
0.0
 10
6723.509281655719
 20
5276.908412641484
 30
0.0
 10
6723.959548848736
 20
5277.176776558686
 30
0.0
 10
6724.276699027399
 20
5277.508639347319
 30
0.0
 10
6724.395687653827
 20
5277.764817652474
 30
0.0
 10
6724.451043298143
 20
5277.883996397259
 30
0.0
  0
SPLINE
  5
2E3
330
1F
100
AcDbEntity
  8
0
  6
SLD-Plná
 62
     7
370
    25
100
AcDbSpline
210
0.0
220
0.0
230
1.0
 70
     8
 71
     3
 72
    11
 73
     7
 74
     0
 42
0.00000001
 43
0.00000001
 40
0.0
 40
0.0
 40
0.0
 40
0.0
 40
0.2034763135538318
 40
0.4379856386460713
 40
0.703390777013977
 40
1.0
 40
1.0
 40
1.0
 40
1.0
 10
6724.451043298142
 20
5289.51106035228
 30
0.0
 10
6724.39563613739
 20
5289.630066168919
 30
0.0
 10
6724.27637144135
 20
5289.886227869971
 30
0.0
 10
6723.959250345373
 20
5290.217382054335
 30
0.0
 10
6723.50912266968
 20
5290.485393174518
 30
0.0
 10
6723.146257595356
 20
5290.523446344186
 30
0.0
 10
6722.954751585644
 20
5290.543529320465
 30
0.0
  0
ARC
  5
2E4
330
1F
100
AcDbEntity
  8
0
  6
SLD-Plná
 62
     7
370
    25
100
AcDbCircle
 10
6725.1991891544
 20
5289.7994545926
 30
0.0
 40
0.7999999999992724
100
AcDbArc
 50
202.0631951252
 51
270.0
  0
ARC
  5
2E5
330
1F
100
AcDbEntity
  8
0
  6
SLD-Plná
 62
     7
370
    25
100
AcDbCircle
 10
6725.1991891544
 20
5277.5994545926
 30
0.0
 40
0.8000000000001819
100
AcDbArc
 50
90.0
 51
156.9583873689
  0
ARC
  5
2E6
330
1F
100
AcDbEntity
  8
0
  6
SLD-Plná
 62
     7
370
    25
100
AcDbCircle
 10
6729.0991891544
 20
5287.3994545926
 30
0.0
 40
1.600000000000364
100
AcDbArc
 50
0.0
 51
90.0
  0
ARC
  5
2E7
330
1F
100
AcDbEntity
  8
0
  6
SLD-Plná
 62
     7
370
    25
100
AcDbCircle
 10
6729.0991891544
 20
5279.9994545926
 30
0.0
 40
1.599999999999454
100
AcDbArc
 50
270.0
 51
0.0
  0
LINE
  5
2E8
330
1F
100
AcDbEntity
  8
0
  6
SLD-Plná
 62
     7
370
    25
100
AcDbLine
 10
6729.0991891544
 20
5288.9994545926
 30
0.0
 11
6725.1991891544
 21
5288.9994545926
 31
0.0
  0
LINE
  5
2E9
330
1F
100
AcDbEntity
  8
0
  6
SLD-Plná
 62
     7
370
    25
100
AcDbLine
 10
6725.1991891544
 20
5278.3994545926
 30
0.0
 11
6729.0991891544
 21
5278.3994545926
 31
0.0
  0
LINE
  5
2EA
330
1F
100
AcDbEntity
  8
0
  6
SLD-Plná
 62
     7
370
    25
100
AcDbLine
 10
6717.4664025594
 20
5273.2002984388
 30
0.0
 11
6717.3991891531
 21
5272.949454593
 31
0.0
  0
LINE
  5
2EB
330
1F
100
AcDbEntity
  8
0
  6
SLD-Plná
 62
     7
370
    25
100
AcDbLine
 10
6717.3991891531
 20
5256.4494545923
 30
0.0
 11
6717.4664025594
 21
5256.1986107465
 31
0.0
  0
ARC
  5
2EC
330
1F
100
AcDbEntity
  8
0
  6
SLD-Plná
 62
     7
370
    25
100
AcDbCircle
 10
6719.6991891544
 20
5271.5494545926
 30
0.0
 40
1.550000000001091
100
AcDbArc
 50
0.0
 51
91.4807501636
  0
ARC
  5
2ED
330
1F
100
AcDbEntity
  8
0
  6
SLD-Plná
 62
     7
370
    25
100
AcDbCircle
 10
6719.6991891544
 20
5257.8494545926
 30
0.0
 40
1.550000000001091
100
AcDbArc
 50
268.5192498364
 51
0.0
  0
LINE
  5
2EE
330
1F
100
AcDbEntity
  8
0
  6
SLD-Plná
 62
     7
370
    25
100
AcDbLine
 10
6722.9547515856
 20
5271.5494545926
 30
0.0
 11
6721.2491891544
 21
5271.5494545926
 31
0.0
  0
LINE
  5
2EF
330
1F
100
AcDbEntity
  8
0
  6
SLD-Plná
 62
     7
370
    25
100
AcDbLine
 10
6721.2491891544
 20
5257.8494545926
 30
0.0
 11
6722.9547515856
 21
5257.8494545926
 31
0.0
  0
SPLINE
  5
2F0
330
1F
100
AcDbEntity
  8
0
  6
SLD-Plná
 62
     7
370
    25
100
AcDbSpline
210
0.0
220
0.0
230
1.0
 70
     8
 71
     3
 72
    11
 73
     7
 74
     0
 42
0.00000001
 43
0.00000001
 40
0.0
 40
0.0
 40
0.0
 40
0.0
 40
0.2961233066076293
 40
0.5612606992985889
 40
0.7958906039520471
 40
1.0
 40
1.0
 40
1.0
 40
1.0
 10
6722.954751585644
 20
5257.850162771659
 30
0.0
 10
6723.146275193307
 20
5257.870281112965
 30
0.0
 10
6723.509281655719
 20
5257.908412641484
 30
0.0
 10
6723.959548848736
 20
5258.176776558686
 30
0.0
 10
6724.276699027399
 20
5258.508639347319
 30
0.0
 10
6724.395687653827
 20
5258.764817652473
 30
0.0
 10
6724.451043298143
 20
5258.883996397259
 30
0.0
  0
SPLINE
  5
2F1
330
1F
100
AcDbEntity
  8
0
  6
SLD-Plná
 62
     7
370
    25
100
AcDbSpline
210
0.0
220
0.0
230
1.0
 70
     8
 71
     3
 72
    11
 73
     7
 74
     0
 42
0.00000001
 43
0.00000001
 40
0.0
 40
0.0
 40
0.0
 40
0.0
 40
0.2034763135538314
 40
0.4379856386460705
 40
0.7033907770139776
 40
1.0
 40
1.0
 40
1.0
 40
1.0
 10
6724.451043298142
 20
5270.51106035228
 30
0.0
 10
6724.39563613739
 20
5270.63006616892
 30
0.0
 10
6724.27637144135
 20
5270.886227869971
 30
0.0
 10
6723.959250345373
 20
5271.217382054335
 30
0.0
 10
6723.50912266968
 20
5271.485393174518
 30
0.0
 10
6723.146257595356
 20
5271.523446344186
 30
0.0
 10
6722.954751585644
 20
5271.543529320465
 30
0.0
  0
ARC
  5
2F2
330
1F
100
AcDbEntity
  8
0
  6
SLD-Plná
 62
     7
370
    25
100
AcDbCircle
 10
6725.1991891544
 20
5270.7994545926
 30
0.0
 40
0.7999999999992724
100
AcDbArc
 50
202.0631951252
 51
270.0
  0
ARC
  5
2F3
330
1F
100
AcDbEntity
  8
0
  6
SLD-Plná
 62
     7
370
    25
100
AcDbCircle
 10
6725.1991891544
 20
5258.5994545926
 30
0.0
 40
0.8000000000001819
100
AcDbArc
 50
90.0
 51
156.9583873689
  0
ARC
  5
2F4
330
1F
100
AcDbEntity
  8
0
  6
SLD-Plná
 62
     7
370
    25
100
AcDbCircle
 10
6729.0991891544
 20
5268.3994545926
 30
0.0
 40
1.600000000000364
100
AcDbArc
 50
0.0
 51
90.0
  0
ARC
  5
2F5
330
1F
100
AcDbEntity
  8
0
  6
SLD-Plná
 62
     7
370
    25
100
AcDbCircle
 10
6729.0991891544
 20
5260.9994545926
 30
0.0
 40
1.599999999999454
100
AcDbArc
 50
270.0
 51
0.0
  0
LINE
  5
2F6
330
1F
100
AcDbEntity
  8
0
  6
SLD-Plná
 62
     7
370
    25
100
AcDbLine
 10
6729.0991891544
 20
5269.9994545926
 30
0.0
 11
6725.1991891544
 21
5269.9994545926
 31
0.0
  0
LINE
  5
2F7
330
1F
100
AcDbEntity
  8
0
  6
SLD-Plná
 62
     7
370
    25
100
AcDbLine
 10
6725.1991891544
 20
5259.3994545926
 30
0.0
 11
6729.0991891544
 21
5259.3994545926
 31
0.0
  0
LINE
  5
2F8
330
1F
100
AcDbEntity
  8
0
  6
SLD-Plná
 62
     7
370
    25
100
AcDbLine
 10
6716.3991891544
 20
5086.6994545926
 30
0.0
 11
6717.4991891544
 21
5086.6994545926
 31
0.0
  0
LINE
  5
2F9
330
1F
100
AcDbEntity
  8
0
  6
SLD-Plná
 62
     7
370
    25
100
AcDbLine
 10
6717.4991891544
 20
5110.6994545926
 30
0.0
 11
6716.3991891544
 21
5110.6994545926
 31
0.0
  0
LINE
  5
2FA
330
1F
100
AcDbEntity
  8
0
  6
SLD-Plná
 62
     7
370
    25
100
AcDbLine
 10
6717.4991891544
 20
5086.6994545926
 30
0.0
 11
6718.4991891544
 21
5087.6994545926
 31
0.0
  0
LINE
  5
2FB
330
1F
100
AcDbEntity
  8
0
  6
SLD-Plná
 62
     7
370
    25
100
AcDbLine
 10
6718.4991891544
 20
5109.6994545926
 30
0.0
 11
6717.4991891544
 21
5110.6994545926
 31
0.0
  0
ARC
  5
2FC
330
1F
100
AcDbEntity
  8
0
  6
SLD-Plná
 62
     7
370
    25
100
AcDbCircle
 10
6718.4991891544
 20
5097.2994545926
 30
0.0
 40
0.2000000000007276
100
AcDbArc
 50
270.0
 51
0.0
  0
ARC
  5
2FD
330
1F
100
AcDbEntity
  8
0
  6
SLD-Plná
 62
     7
370
    25
100
AcDbCircle
 10
6695.7991891545
 20
5364.2494545927
 30
0.0
 40
3.400000000000546
100
AcDbArc
 50
359.9999999999
 51
189.3093409217
  0
LINE
  5
2FE
330
1F
100
AcDbEntity
  8
0
  6
SLD-Plná
 62
     7
370
    25
100
AcDbLine
 10
6693.0867179565
 20
5362.1994545926
 30
0.0
 11
6693.2298574224
 21
5362.0226778974
 31
0.0
  0
LINE
  5
2FF
330
1F
100
AcDbEntity
  8
0
  6
SLD-Plná
 62
     7
370
    25
100
AcDbLine
 10
6698.3685208866
 20
5362.0226778974
 30
0.0
 11
6698.5116603525
 21
5362.1994545926
 31
0.0
  0
LINE
  5
300
330
1F
100
AcDbEntity
  8
0
  6
SLD-Plná
 62
     7
370
    25
100
AcDbLine
 10
6699.1544089685
 20
5363.6994545926
 30
0.0
 11
6699.1991891545
 21
5364.2494545926
 31
0.0
  0
LINE
  5
301
330
1F
100
AcDbEntity
  8
0
  6
SLD-Plná
 62
     7
370
    25
100
AcDbLine
 10
6673.5109987027
 20
5033.6052015925
 30
0.0
 11
6673.5109987027
 21
5393.7937075924
 31
0.0
  0
LINE
  5
302
330
1F
100
AcDbEntity
  8
0
  6
SLD-Plná
 62
     7
370
    25
100
AcDbLine
 10
6673.5109987027
 20
5033.6052015925
 30
0.0
 11
6672.0621099633
 21
5033.6052015925
 31
0.0
  0
LINE
  5
303
330
1F
100
AcDbEntity
  8
0
  6
SLD-Plná
 62
     7
370
    25
100
AcDbLine
 10
6672.0621099633
 20
5033.6052015925
 30
0.0
 11
6672.0621099633
 21
5393.7937075924
 31
0.0
  0
LINE
  5
304
330
1F
100
AcDbEntity
  8
0
  6
SLD-Plná
 62
     7
370
    25
100
AcDbLine
 10
6673.5109987027
 20
5393.7937075924
 30
0.0
 11
6672.0621099633
 21
5393.7937075924
 31
0.0
  0
LINE
  5
305
330
1F
100
AcDbEntity
  8
0
  6
SLD-Plná
 62
     7
370
    25
100
AcDbLine
 10
6673.5109987027
 20
5033.6052015925
 30
0.0
 11
6676.0310408063
 21
5043.0101267604
 31
0.0
  0
LINE
  5
306
330
1F
100
AcDbEntity
  8
0
  6
SLD-Plná
 62
     7
370
    25
100
AcDbLine
 10
6676.0310408063
 20
5384.3887824245
 30
0.0
 11
6673.5109987027
 21
5393.7937075924
 31
0.0
  0
LINE
  5
307
330
1F
100
AcDbEntity
  8
0
  6
SLD-Plná
 62
     7
370
    25
100
AcDbLine
 10
6676.0310408063
 20
5043.0101267604
 30
0.0
 11
6676.0310408063
 21
5384.3887824245
 31
0.0
  0
LINE
  5
308
330
1F
100
AcDbEntity
  8
0
  6
SLD-Plná
 62
     7
370
    25
100
AcDbLine
 10
6673.5109987027
 20
5033.0401963295
 30
0.0
 11
6672.0621099633
 21
5033.4284248972
 31
0.0
  0
LINE
  5
309
330
1F
100
AcDbEntity
  8
0
  6
SLD-Plná
 62
     7
370
    25
100
AcDbLine
 10
6672.1094771361
 20
5033.6052015925
 30
0.0
 11
6672.0621099633
 21
5033.4284248972
 31
0.0
  0
LINE
  5
30A
330
1F
100
AcDbEntity
  8
0
  6
SLD-Plná
 62
     7
370
    25
100
AcDbLine
 10
6676.0310408063
 20
5042.4451214974
 30
0.0
 11
6675.8897894906
 21
5042.4829696734
 31
0.0
  0
LINE
  5
30B
330
1F
100
AcDbEntity
  8
0
  6
SLD-Plná
 62
     7
370
    25
100
AcDbLine
 10
6676.0310408063
 20
5042.4451214974
 30
0.0
 11
6673.5109987027
 21
5033.0401963295
 31
0.0
  0
LINE
  5
30C
330
1F
100
AcDbEntity
  8
0
  6
SLD-Plná
 62
     7
370
    25
100
AcDbLine
 10
6673.5109987027
 20
5394.3587128554
 30
0.0
 11
6676.0310408063
 21
5384.9537876875
 31
0.0
  0
LINE
  5
30D
330
1F
100
AcDbEntity
  8
0
  6
SLD-Plná
 62
     7
370
    25
100
AcDbLine
 10
6676.0310408063
 20
5384.9537876875
 30
0.0
 11
6675.8897894906
 21
5384.9159395115
 31
0.0
  0
LINE
  5
30E
330
1F
100
AcDbEntity
  8
0
  6
SLD-Plná
 62
     7
370
    25
100
AcDbLine
 10
6672.0621099633
 20
5393.9704842877
 30
0.0
 11
6672.1094771361
 21
5393.7937075924
 31
0.0
  0
LINE
  5
30F
330
1F
100
AcDbEntity
  8
0
  6
SLD-Plná
 62
     7
370
    25
100
AcDbLine
 10
6673.5109987027
 20
5394.3587128554
 30
0.0
 11
6672.0621099633
 21
5393.9704842877
 31
0.0
  0
ARC
  5
310
330
1F
100
AcDbEntity
  8
0
  6
SLD-Plná
 62
     7
370
    25
100
AcDbCircle
 10
6676.0226607598
 20
5042.9253632153
 30
0.0
 40
0.0851767794035725
100
AcDbArc
 50
26.042914237
 51
84.3538687301
  0
LINE
  5
311
330
1F
100
AcDbEntity
  8
0
  6
SLD-Plná
 62
     7
370
    25
100
AcDbLine
 10
6676.0991891538
 20
5042.9627595876
 30
0.0
 11
6676.0183488106
 21
5042.9627595876
 31
0.0
  0
ELLIPSE
  5
312
330
1F
100
AcDbEntity
  8
0
  6
SLD-Plná
 62
     7
370
    25
100
AcDbEllipse
 10
6674.0991891538
 20
5384.4361495973
 30
0.0
 11
2.0
 21
0.0
 31
0.0
210
0.0
220
0.0
230
1.0
 40
0.091506351
 41
6.021385919414697
 42
6.283185307179586
  0
LINE
  5
313
330
1F
100
AcDbEntity
  8
0
  6
SLD-Plná
 62
     7
370
    25
100
AcDbLine
 10
6676.0991891538
 20
5042.9627595876
 30
0.0
 11
6676.0991891538
 21
5384.4361495973
 31
0.0
  0
LINE
  5
314
330
1F
100
AcDbEntity
  8
0
  6
SLD-Plná
 62
     7
370
    25
100
AcDbLine
 10
6676.0991891538
 20
5384.4361495973
 30
0.0
 11
6676.0183488107
 21
5384.4361495973
 31
0.0
  0
ARC
  5
315
330
1F
100
AcDbEntity
  8
0
  6
SLD-Plná
 62
     7
370
    25
100
AcDbCircle
 10
6674.0991891538
 20
5384.4361495973
 30
0.0
 40
2.000000000000002
100
AcDbArc
 50
0.0
 51
15.0
  0
ARC
  5
316
330
1F
100
AcDbEntity
  8
0
  6
SLD-Plná
 62
     7
370
    25
100
AcDbCircle
 10
6674.0991891538
 20
5042.9627595876
 30
0.0
 40
2.0
100
AcDbArc
 50
345.0
 51
0.0
  0
LINE
  5
317
330
1F
100
AcDbEntity
  8
0
  6
SLD-Plná
 62
     7
370
    25
100
AcDbLine
 10
6585.0991891538
 20
5047.376231288
 30
0.0
 11
6585.0991891538
 21
5380.0226778975
 31
0.0
  0
LINE
  5
318
330
1F
100
AcDbEntity
  8
0
  6
SLD-Plná
 62
     7
370
    25
100
AcDbLine
 10
6585.0991891538
 20
5380.0226778975
 30
0.0
 11
6672.0621099633
 21
5380.0226778975
 31
0.0
  0
LINE
  5
319
330
1F
100
AcDbEntity
  8
0
  6
SLD-Plná
 62
     7
370
    25
100
AcDbLine
 10
6672.0621099633
 20
5047.3762312881
 30
0.0
 11
6585.0991891538
 21
5047.376231288
 31
0.0
  0
ELLIPSE
  5
31A
330
1F
100
AcDbEntity
  8
0
  6
SLD-Plná
 62
     7
370
    25
100
AcDbEllipse
 10
6585.0991891538
 20
5047.6994545927
 30
0.0
 11
1.5
 21
0.0
 31
0.0
210
0.0
220
0.0
230
1.0
 40
0.2154822031
 41
3.141592653589793
 42
4.712388980385299
  0
LINE
  5
31B
330
1F
100
AcDbEntity
  8
0
  6
SLD-Plná
 62
     7
370
    25
100
AcDbLine
 10
6583.5991891538
 20
5047.6994545927
 30
0.0
 11
6583.5991891538
 21
5379.6994545928
 31
0.0
  0
ELLIPSE
  5
31C
330
1F
100
AcDbEntity
  8
0
  6
SLD-Plná
 62
     7
370
    25
100
AcDbEllipse
 10
6585.0991891538
 20
5379.6994545928
 30
0.0
 11
1.5
 21
0.0
 31
0.0
210
0.0
220
0.0
230
1.0
 40
0.2154822031
 41
1.57079632679429
 42
3.141592653533518
  0
LINE
  5
31D
330
1F
100
AcDbEntity
  8
0
  6
SLD-Plná
 62
     7
370
    25
100
AcDbLine
 10
6585.0991891538
 20
5046.1994545927
 30
0.0
 11
6585.0991891538
 21
5047.1994545927
 31
0.0
  0
LINE
  5
31E
330
1F
100
AcDbEntity
  8
0
  6
SLD-Plná
 62
     7
370
    25
100
AcDbLine
 10
6585.0991891538
 20
5047.1994545927
 30
0.0
 11
6672.0621099633
 21
5047.1994545927
 31
0.0
  0
LINE
  5
31F
330
1F
100
AcDbEntity
  8
0
  6
SLD-Plná
 62
     7
370
    25
100
AcDbLine
 10
6585.0991891538
 20
5046.1994545927
 30
0.0
 11
6672.0621099633
 21
5046.1994545927
 31
0.0
  0
ARC
  5
320
330
1F
100
AcDbEntity
  8
0
  6
SLD-Plná
 62
     7
370
    25
100
AcDbCircle
 10
6585.0991891538
 20
5047.6994545927
 30
0.0
 40
1.5
100
AcDbArc
 50
179.9999999973
 51
270.0
  0
ARC
  5
321
330
1F
100
AcDbEntity
  8
0
  6
SLD-Plná
 62
     7
370
    25
100
AcDbCircle
 10
6585.0991891538
 20
5047.6994545927
 30
0.0
 40
0.5
100
AcDbArc
 50
218.6189546181
 51
270.0
  0
LINE
  5
322
330
1F
100
AcDbEntity
  8
0
  6
SLD-Plná
 62
     7
370
    25
100
AcDbLine
 10
6672.0621099633
 20
5381.1994545928
 30
0.0
 11
6585.0991891538
 21
5381.1994545928
 31
0.0
  0
LINE
  5
323
330
1F
100
AcDbEntity
  8
0
  6
SLD-Plná
 62
     7
370
    25
100
AcDbLine
 10
6672.0621099633
 20
5380.1994545928
 30
0.0
 11
6585.0991891538
 21
5380.1994545928
 31
0.0
  0
LINE
  5
324
330
1F
100
AcDbEntity
  8
0
  6
SLD-Plná
 62
     7
370
    25
100
AcDbLine
 10
6585.0991891538
 20
5381.1994545928
 30
0.0
 11
6585.0991891538
 21
5380.1994545928
 31
0.0
  0
ARC
  5
325
330
1F
100
AcDbEntity
  8
0
  6
SLD-Plná
 62
     7
370
    25
100
AcDbCircle
 10
6585.0991891538
 20
5379.6994545928
 30
0.0
 40
1.5
100
AcDbArc
 50
90.0
 51
180.0000000009
  0
ARC
  5
326
330
1F
100
AcDbEntity
  8
0
  6
SLD-Plná
 62
     7
370
    25
100
AcDbCircle
 10
6585.0991891538
 20
5379.6994545928
 30
0.0
 40
0.4999999999995655
100
AcDbArc
 50
90.0
 51
141.3810453733
  0
LINE
  5
327
330
1F
100
AcDbEntity
  8
0
  6
SLD-Plná
 62
     7
370
    25
100
AcDbLine
 10
6582.5991891538
 20
5232.1994545928
 30
0.0
 11
6582.5991891538
 21
5195.1994545928
 31
0.0
  0
LINE
  5
328
330
1F
100
AcDbEntity
  8
0
  6
SLD-Plná
 62
     7
370
    25
100
AcDbLine
 10
6717.3991891544
 20
5260.1494545926
 30
0.0
 11
6717.3991891544
 21
5255.5994545926
 31
0.0
  0
LINE
  5
329
330
1F
100
AcDbEntity
  8
0
  6
SLD-Plná
 62
     7
370
    25
100
AcDbLine
 10
6717.3991891544
 20
5273.7994545926
 30
0.0
 11
6717.3991891544
 21
5260.1494545926
 31
0.0
  0
LINE
  5
32A
330
1F
100
AcDbEntity
  8
0
  6
SLD-Plná
 62
     7
370
    25
100
AcDbLine
 10
6717.3991891544
 20
5279.1494545926
 30
0.0
 11
6717.3991891544
 21
5274.5994545926
 31
0.0
  0
LINE
  5
32B
330
1F
100
AcDbEntity
  8
0
  6
SLD-Plná
 62
     7
370
    25
100
AcDbLine
 10
6717.3991891544
 20
5292.7994545926
 30
0.0
 11
6717.3991891544
 21
5279.1494545926
 31
0.0
  0
LINE
  5
32C
330
1F
100
AcDbEntity
  8
0
  6
SLD-Plná
 62
     7
370
    25
100
AcDbLine
 10
6717.3991891544
 20
5241.1494545926
 30
0.0
 11
6717.3991891544
 21
5236.5994545926
 31
0.0
  0
LINE
  5
32D
330
1F
100
AcDbEntity
  8
0
  6
SLD-Plná
 62
     7
370
    25
100
AcDbLine
 10
6717.3991891544
 20
5254.7994545926
 30
0.0
 11
6717.3991891544
 21
5241.1494545926
 31
0.0
  0
SPLINE
  5
32E
330
1F
100
AcDbEntity
  8
0
  6
SLD-Plná
 62
     7
370
    25
100
AcDbSpline
210
0.0
220
0.0
230
1.0
 70
     8
 71
     3
 72
     9
 73
     5
 74
     0
 42
0.00000001
 43
0.00000001
 40
0.0
 40
0.0
 40
0.0
 40
0.0
 40
0.4952156616863531
 40
1.0
 40
1.0
 40
1.0
 40
1.0
 10
6719.279860835458
 20
5245.699454612372
 30
0.0
 10
6719.454900739172
 20
5244.29644771096
 30
0.0
 10
6719.808362709899
 20
5241.463324669911
 30
0.0
 10
6719.457148345831
 20
5238.629782368382
 30
0.0
 10
6719.279860835459
 20
5237.199454592621
 30
0.0
  0
SPLINE
  5
32F
330
1F
100
AcDbEntity
  8
0
  6
SLD-Plná
 62
     7
370
    25
100
AcDbSpline
210
0.0
220
0.0
230
1.0
 70
     8
 71
     3
 72
     9
 73
     5
 74
     0
 42
0.00000001
 43
0.00000001
 40
0.0
 40
0.0
 40
0.0
 40
0.0
 40
0.495215661686355
 40
1.0
 40
1.0
 40
1.0
 40
1.0
 10
6719.279860835458
 20
5254.199454612372
 30
0.0
 10
6719.454900739172
 20
5252.796447709361
 30
0.0
 10
6719.808362709899
 20
5249.963324665082
 30
0.0
 10
6719.457148345831
 20
5247.129782379888
 30
0.0
 10
6719.279860835458
 20
5245.699454612372
 30
0.0
  0
SPLINE
  5
330
330
1F
100
AcDbEntity
  8
0
  6
SLD-Plná
 62
     7
370
    25
100
AcDbSpline
210
0.0
220
0.0
230
1.0
 70
    11
 71
     3
 72
     9
 73
     5
 74
     0
 42
0.00000001
 43
0.00000001
 40
0.0
 40
0.0
 40
0.0
 40
0.0
 40
0.4952156616863496
 40
0.9999999999999999
 40
0.9999999999999999
 40
0.9999999999999999
 40
0.9999999999999999
 10
6719.279860835458
 20
5254.19945459262
 30
0.0
 10
6719.454900739172
 20
5254.199454591022
 30
0.0
 10
6719.808362709899
 20
5254.199454587792
 30
0.0
 10
6719.457148345831
 20
5254.199454604127
 30
0.0
 10
6719.279860835458
 20
5254.199454612372
 30
0.0
  0
LINE
  5
331
330
1F
100
AcDbEntity
  8
0
  6
SLD-Plná
 62
     7
370
    25
100
AcDbLine
 10
6719.4851253735
 20
5251.6994545926
 30
0.0
 11
6719.2798608355
 21
5254.1994545926
 31
0.0
  0
LINE
  5
332
330
1F
100
AcDbEntity
  8
0
  6
SLD-Plná
 62
     7
370
    25
100
AcDbLine
 10
6719.2798608355
 20
5237.1994545729
 30
0.0
 11
6719.4891121818
 21
5239.6994545926
 31
0.0
  0
SPLINE
  5
333
330
1F
100
AcDbEntity
  8
0
  6
SLD-Plná
 62
     7
370
    25
100
AcDbSpline
210
0.0
220
0.0
230
1.0
 70
    11
 71
     3
 72
     9
 73
     5
 74
     0
 42
0.00000001
 43
0.00000001
 40
0.0
 40
0.0
 40
0.0
 40
0.0
 40
0.4952156616863587
 40
1.0
 40
1.0
 40
1.0
 40
1.0
 10
6719.279860835459
 20
5237.199454592621
 30
0.0
 10
6719.454900739172
 20
5237.199454594221
 30
0.0
 10
6719.808362709899
 20
5237.199454597449
 30
0.0
 10
6719.457148345831
 20
5237.199454581115
 30
0.0
 10
6719.279860835459
 20
5237.199454572869
 30
0.0
  0
LINE
  5
334
330
1F
100
AcDbEntity
  8
0
  6
SLD-Plná
 62
     7
370
    25
100
AcDbLine
 10
6719.6591354665
 20
5254.0989369907
 30
0.0
 11
6719.6591354665
 21
5237.2999721945
 31
0.0
  0
LINE
  5
335
330
1F
100
AcDbEntity
  8
0
  6
SLD-Plná
 62
     7
370
    25
100
AcDbLine
 10
6719.2798608355
 20
5245.6994546124
 30
0.0
 11
6717.8185174704
 21
5245.6994545926
 31
0.0
  0
SPLINE
  5
336
330
1F
100
AcDbEntity
  8
0
  6
SLD-Plná
 62
     7
370
    25
100
AcDbSpline
210
0.0
220
0.0
230
1.0
 70
     8
 71
     3
 72
     9
 73
     5
 74
     0
 42
0.00000001
 43
0.00000001
 40
0.0
 40
0.0
 40
0.0
 40
0.0
 40
0.4952156671610942
 40
1.0
 40
1.0
 40
1.0
 40
1.0
 10
6717.818517470369
 20
5254.199454592558
 30
0.0
 10
6717.643477566868
 20
5252.796447676371
 30
0.0
 10
6717.29001560048
 20
5249.963324636806
 30
0.0
 10
6717.641229962801
 20
5247.129782346968
 30
0.0
 10
6717.818517470369
 20
5245.699454592621
 30
0.0
  0
LINE
  5
337
330
1F
100
AcDbEntity
  8
0
  6
SLD-Plná
 62
     7
370
    25
100
AcDbLine
 10
6719.2798608355
 20
5254.1994546124
 30
0.0
 11
6717.8185174704
 21
5254.1994545926
 31
0.0
  0
SPLINE
  5
338
330
1F
100
AcDbEntity
  8
0
  6
SLD-Plná
 62
     7
370
    25
100
AcDbSpline
210
0.0
220
0.0
230
1.0
 70
     8
 71
     3
 72
     9
 73
     5
 74
     0
 42
0.00000001
 43
0.00000001
 40
0.0
 40
0.0
 40
0.0
 40
0.0
 40
0.4952156671610903
 40
1.0
 40
1.0
 40
1.0
 40
1.0
 10
6717.818517470369
 20
5245.699454592621
 30
0.0
 10
6717.643477566868
 20
5244.296447676402
 30
0.0
 10
6717.29001560048
 20
5241.463324636775
 30
0.0
 10
6717.641229962801
 20
5238.629782346999
 30
0.0
 10
6717.818517470369
 20
5237.199454592684
 30
0.0
  0
SPLINE
  5
339
330
1F
100
AcDbEntity
  8
0
  6
SLD-Plná
 62
     7
370
    25
100
AcDbSpline
210
0.0
220
0.0
230
1.0
 70
    24
 71
     3
 72
     9
 73
     5
 74
     0
 42
0.00000001
 43
0.00000001
 40
0.0
 40
0.0
 40
0.0
 40
0.0
 40
0.9904281444070528
 40
1.0
 40
1.0
 40
1.0
 40
1.0
 10
6717.818517470369
 20
5237.199454592684
 30
0.0
 10
6717.585873335925
 20
5237.199454592642
 30
0.0
 10
6717.350980844471
 20
5237.1994545926
 30
0.0
 10
6717.468427652164
 20
5237.199454592622
 30
0.0
 10
6717.469551836048
 20
5237.199454592622
 30
0.0
  0
LINE
  5
33A
330
1F
100
AcDbEntity
  8
0
  6
SLD-Plná
 62
     7
370
    25
100
AcDbLine
 10
6717.469551836
 20
5254.1994545926
 30
0.0
 11
6717.8185174704
 21
5254.1994545926
 31
0.0
  0
LINE
  5
33B
330
1F
100
AcDbEntity
  8
0
  6
SLD-Plná
 62
     7
370
    25
100
AcDbLine
 10
6721.2491891544
 20
5252.5494545926
 30
0.0
 11
6721.2491891544
 21
5238.8494545926
 31
0.0
  0
LINE
  5
33C
330
1F
100
AcDbEntity
  8
0
  6
SLD-Plná
 62
     7
370
    25
100
AcDbLine
 10
6719.2798608355
 20
5237.1994545926
 30
0.0
 11
6717.8185174704
 21
5237.1994545927
 31
0.0
  0
SPLINE
  5
33D
330
1F
100
AcDbEntity
  8
0
  6
SLD-Plná
 62
     7
370
    25
100
AcDbSpline
210
0.0
220
0.0
230
1.0
 70
     8
 71
     3
 72
    19
 73
    15
 74
     0
 42
0.00000001
 43
0.00000001
 40
0.0
 40
0.0
 40
0.0
 40
0.0
 40
0.0595442499738136
 40
0.149370906885587
 40
0.1813129236377348
 40
0.2142284455044852
 40
0.2480502311693333
 40
0.3248284399489224
 40
0.3911163057538259
 40
0.4759502232364949
 40
0.5792971786704446
 40
0.7011184111144891
 40
0.8413694244180563
 40
1.0
 40
1.0
 40
1.0
 40
1.0
 10
6724.452496291371
 20
5251.493529334633
 30
0.0
 10
6724.451925692117
 20
5251.491695959913
 30
0.0
 10
6724.450494304066
 20
5251.48709681147
 30
0.0
 10
6724.449165569597
 20
5251.309189202826
 30
0.0
 10
6724.449163888911
 20
5251.094845808656
 30
0.0
 10
6724.449355061593
 20
5250.931330450313
 30
0.0
 10
6724.45016707483
 20
5250.656793210691
 30
0.0
 10
6724.450486191262
 20
5250.248049214358
 30
0.0
 10
6724.450734529474
 20
5249.616034736196
 30
0.0
 10
6724.450903413182
 20
5248.799922011295
 30
0.0
 10
6724.451030525885
 20
5247.671188868037
 30
0.0
 10
6724.451110812928
 20
5246.222514986904
 30
0.0
 10
6724.451147398968
 20
5244.486685998711
 30
0.0
 10
6724.451134718054
 20
5243.379087725848
 30
0.0
 10
6724.451127987693
 20
5242.791233009895
 30
0.0
  0
LINE
  5
33E
330
1F
100
AcDbEntity
  8
0
  6
SLD-Plná
 62
     7
370
    25
100
AcDbLine
 10
6730.6991891544
 20
5248.9037485866
 30
0.0
 11
6730.6991891544
 21
5249.2576647254
 31
0.0
  0
SPLINE
  5
33F
330
1F
100
AcDbEntity
  8
0
  6
SLD-Plná
 62
     7
370
    25
100
AcDbSpline
210
0.0
220
0.0
230
1.0
 70
    24
 71
     3
 72
    17
 73
    13
 74
     0
 42
0.00000001
 43
0.00000001
 40
0.0
 40
0.0
 40
0.0
 40
0.0
 40
0.080679189667643
 40
0.1613583793352854
 40
0.2403610196261209
 40
0.3871194597784326
 40
0.5338778999307444
 40
0.61288054022158
 40
0.6935597298892223
 40
0.7742389195568641
 40
0.8532415598477004
 40
1.0
 40
1.0
 40
1.0
 40
1.0
 10
6730.699189154392
 20
5242.005136859253
 30
0.0
 10
6730.699189154392
 20
5242.034419291703
 30
0.0
 10
6730.699189154392
 20
5242.092984156603
 30
0.0
 10
6730.699189154392
 20
5242.374139630439
 30
0.0
 10
6730.699189154392
 20
5242.894151660986
 30
0.0
 10
6730.699189154391
 20
5243.805068049836
 30
0.0
 10
6730.699189154392
 20
5244.941318717546
 30
0.0
 10
6730.699189154391
 20
5245.910847823338
 30
0.0
 10
6730.699189154392
 20
5246.664488711152
 30
0.0
 10
6730.699189154391
 20
5247.374015391394
 30
0.0
 10
6730.699189154392
 20
5248.204417807267
 30
0.0
 10
6730.699189154391
 20
5248.628239012884
 30
0.0
 10
6730.699189154391
 20
5248.903748586623
 30
0.0
  0
SPLINE
  5
340
330
1F
100
AcDbEntity
  8
0
  6
SLD-Plná
 62
     7
370
    25
100
AcDbSpline
210
0.0
220
0.0
230
1.0
 70
     8
 71
     3
 72
     9
 73
     5
 74
     0
 42
0.00000001
 43
0.00000001
 40
0.0
 40
0.0
 40
0.0
 40
0.0
 40
0.4952156616863522
 40
1.0
 40
1.0
 40
1.0
 40
1.0
 10
6719.279860835458
 20
5283.699454612372
 30
0.0
 10
6719.454900739172
 20
5282.296447710961
 30
0.0
 10
6719.808362709899
 20
5279.463324669911
 30
0.0
 10
6719.457148345831
 20
5276.629782368382
 30
0.0
 10
6719.279860835459
 20
5275.199454592621
 30
0.0
  0
SPLINE
  5
341
330
1F
100
AcDbEntity
  8
0
  6
SLD-Plná
 62
     7
370
    25
100
AcDbSpline
210
0.0
220
0.0
230
1.0
 70
     8
 71
     3
 72
     9
 73
     5
 74
     0
 42
0.00000001
 43
0.00000001
 40
0.0
 40
0.0
 40
0.0
 40
0.0
 40
0.4952156616863549
 40
1.0
 40
1.0
 40
1.0
 40
1.0
 10
6719.279860835458
 20
5292.199454612372
 30
0.0
 10
6719.454900739172
 20
5290.79644770936
 30
0.0
 10
6719.808362709899
 20
5287.963324665082
 30
0.0
 10
6719.457148345831
 20
5285.129782379888
 30
0.0
 10
6719.279860835458
 20
5283.699454612372
 30
0.0
  0
SPLINE
  5
342
330
1F
100
AcDbEntity
  8
0
  6
SLD-Plná
 62
     7
370
    25
100
AcDbSpline
210
0.0
220
0.0
230
1.0
 70
    11
 71
     3
 72
     9
 73
     5
 74
     0
 42
0.00000001
 43
0.00000001
 40
0.0
 40
0.0
 40
0.0
 40
0.0
 40
0.4952156616863496
 40
0.9999999999999999
 40
0.9999999999999999
 40
0.9999999999999999
 40
0.9999999999999999
 10
6719.279860835458
 20
5292.199454592621
 30
0.0
 10
6719.454900739172
 20
5292.199454591021
 30
0.0
 10
6719.808362709899
 20
5292.199454587792
 30
0.0
 10
6719.457148345831
 20
5292.199454604127
 30
0.0
 10
6719.279860835458
 20
5292.199454612372
 30
0.0
  0
LINE
  5
343
330
1F
100
AcDbEntity
  8
0
  6
SLD-Plná
 62
     7
370
    25
100
AcDbLine
 10
6719.4851253735
 20
5289.6994545926
 30
0.0
 11
6719.2798608355
 21
5292.1994545926
 31
0.0
  0
LINE
  5
344
330
1F
100
AcDbEntity
  8
0
  6
SLD-Plná
 62
     7
370
    25
100
AcDbLine
 10
6719.2798608355
 20
5275.1994545729
 30
0.0
 11
6719.4891121818
 21
5277.6994545926
 31
0.0
  0
SPLINE
  5
345
330
1F
100
AcDbEntity
  8
0
  6
SLD-Plná
 62
     7
370
    25
100
AcDbSpline
210
0.0
220
0.0
230
1.0
 70
    11
 71
     3
 72
     9
 73
     5
 74
     0
 42
0.00000001
 43
0.00000001
 40
0.0
 40
0.0
 40
0.0
 40
0.0
 40
0.4952156616863587
 40
1.0
 40
1.0
 40
1.0
 40
1.0
 10
6719.279860835459
 20
5275.199454592621
 30
0.0
 10
6719.454900739172
 20
5275.19945459422
 30
0.0
 10
6719.808362709899
 20
5275.19945459745
 30
0.0
 10
6719.457148345831
 20
5275.199454581115
 30
0.0
 10
6719.279860835459
 20
5275.199454572868
 30
0.0
  0
LINE
  5
346
330
1F
100
AcDbEntity
  8
0
  6
SLD-Plná
 62
     7
370
    25
100
AcDbLine
 10
6719.6591354665
 20
5292.0989369907
 30
0.0
 11
6719.6591354665
 21
5275.2999721945
 31
0.0
  0
LINE
  5
347
330
1F
100
AcDbEntity
  8
0
  6
SLD-Plná
 62
     7
370
    25
100
AcDbLine
 10
6719.2798608355
 20
5283.6994546124
 30
0.0
 11
6717.8185174704
 21
5283.6994545926
 31
0.0
  0
SPLINE
  5
348
330
1F
100
AcDbEntity
  8
0
  6
SLD-Plná
 62
     7
370
    25
100
AcDbSpline
210
0.0
220
0.0
230
1.0
 70
     8
 71
     3
 72
     9
 73
     5
 74
     0
 42
0.00000001
 43
0.00000001
 40
0.0
 40
0.0
 40
0.0
 40
0.0
 40
0.4952156671610937
 40
1.0
 40
1.0
 40
1.0
 40
1.0
 10
6717.818517470369
 20
5292.199454592557
 30
0.0
 10
6717.643477566868
 20
5290.79644767637
 30
0.0
 10
6717.29001560048
 20
5287.963324636806
 30
0.0
 10
6717.641229962801
 20
5285.129782346968
 30
0.0
 10
6717.818517470369
 20
5283.699454592621
 30
0.0
  0
LINE
  5
349
330
1F
100
AcDbEntity
  8
0
  6
SLD-Plná
 62
     7
370
    25
100
AcDbLine
 10
6719.2798608355
 20
5292.1994546124
 30
0.0
 11
6717.8185174704
 21
5292.1994545926
 31
0.0
  0
SPLINE
  5
34A
330
1F
100
AcDbEntity
  8
0
  6
SLD-Plná
 62
     7
370
    25
100
AcDbSpline
210
0.0
220
0.0
230
1.0
 70
     8
 71
     3
 72
     9
 73
     5
 74
     0
 42
0.00000001
 43
0.00000001
 40
0.0
 40
0.0
 40
0.0
 40
0.0
 40
0.4952156671610903
 40
1.0
 40
1.0
 40
1.0
 40
1.0
 10
6717.818517470369
 20
5283.699454592621
 30
0.0
 10
6717.643477566868
 20
5282.296447676402
 30
0.0
 10
6717.29001560048
 20
5279.463324636774
 30
0.0
 10
6717.641229962801
 20
5276.629782346999
 30
0.0
 10
6717.818517470369
 20
5275.199454592685
 30
0.0
  0
SPLINE
  5
34B
330
1F
100
AcDbEntity
  8
0
  6
SLD-Plná
 62
     7
370
    25
100
AcDbSpline
210
0.0
220
0.0
230
1.0
 70
    24
 71
     3
 72
     9
 73
     5
 74
     0
 42
0.00000001
 43
0.00000001
 40
0.0
 40
0.0
 40
0.0
 40
0.0
 40
0.9904281444070515
 40
1.0
 40
1.0
 40
1.0
 40
1.0
 10
6717.818517470369
 20
5275.199454592685
 30
0.0
 10
6717.585873335925
 20
5275.199454592643
 30
0.0
 10
6717.350980844472
 20
5275.199454592601
 30
0.0
 10
6717.468427652164
 20
5275.199454592621
 30
0.0
 10
6717.469551836048
 20
5275.199454592622
 30
0.0
  0
LINE
  5
34C
330
1F
100
AcDbEntity
  8
0
  6
SLD-Plná
 62
     7
370
    25
100
AcDbLine
 10
6717.469551836
 20
5292.1994545926
 30
0.0
 11
6717.8185174704
 21
5292.1994545926
 31
0.0
  0
LINE
  5
34D
330
1F
100
AcDbEntity
  8
0
  6
SLD-Plná
 62
     7
370
    25
100
AcDbLine
 10
6721.2491891544
 20
5290.5494545926
 30
0.0
 11
6721.2491891544
 21
5276.8494545926
 31
0.0
  0
LINE
  5
34E
330
1F
100
AcDbEntity
  8
0
  6
SLD-Plná
 62
     7
370
    25
100
AcDbLine
 10
6719.2798608355
 20
5275.1994545926
 30
0.0
 11
6717.8185174704
 21
5275.1994545927
 31
0.0
  0
SPLINE
  5
34F
330
1F
100
AcDbEntity
  8
0
  6
SLD-Plná
 62
     7
370
    25
100
AcDbSpline
210
0.0
220
0.0
230
1.0
 70
     8
 71
     3
 72
    19
 73
    15
 74
     0
 42
0.00000001
 43
0.00000001
 40
0.0
 40
0.0
 40
0.0
 40
0.0
 40
0.0595442499738136
 40
0.1493709068855867
 40
0.1813129236377354
 40
0.214228445504485
 40
0.2480502311693331
 40
0.3248284399489219
 40
0.3911163057538253
 40
0.4759502232364944
 40
0.5792971786704447
 40
0.7011184111144898
 40
0.8413694244180557
 40
1.0
 40
1.0
 40
1.0
 40
1.0
 10
6724.452496291371
 20
5289.493529334633
 30
0.0
 10
6724.451925692117
 20
5289.491695959914
 30
0.0
 10
6724.450494304066
 20
5289.48709681147
 30
0.0
 10
6724.449165569597
 20
5289.309189202826
 30
0.0
 10
6724.449163888911
 20
5289.094845808656
 30
0.0
 10
6724.449355061593
 20
5288.931330450312
 30
0.0
 10
6724.45016707483
 20
5288.656793210691
 30
0.0
 10
6724.450486191262
 20
5288.248049214358
 30
0.0
 10
6724.450734529474
 20
5287.616034736196
 30
0.0
 10
6724.450903413182
 20
5286.799922011295
 30
0.0
 10
6724.451030525885
 20
5285.671188868037
 30
0.0
 10
6724.451110812928
 20
5284.222514986904
 30
0.0
 10
6724.451147398968
 20
5282.486685998711
 30
0.0
 10
6724.451134718054
 20
5281.379087725848
 30
0.0
 10
6724.451127987693
 20
5280.791233009895
 30
0.0
  0
LINE
  5
350
330
1F
100
AcDbEntity
  8
0
  6
SLD-Plná
 62
     7
370
    25
100
AcDbLine
 10
6730.6991891544
 20
5286.9037485866
 30
0.0
 11
6730.6991891544
 21
5287.2576647254
 31
0.0
  0
SPLINE
  5
351
330
1F
100
AcDbEntity
  8
0
  6
SLD-Plná
 62
     7
370
    25
100
AcDbSpline
210
0.0
220
0.0
230
1.0
 70
    24
 71
     3
 72
    17
 73
    13
 74
     0
 42
0.00000001
 43
0.00000001
 40
0.0
 40
0.0
 40
0.0
 40
0.0
 40
0.080679189667643
 40
0.1613583793352855
 40
0.2403610196261212
 40
0.3871194597784318
 40
0.5338778999307443
 40
0.6128805402215799
 40
0.6935597298892214
 40
0.7742389195568644
 40
0.8532415598477001
 40
1.0
 40
1.0
 40
1.0
 40
1.0
 10
6730.699189154392
 20
5280.005136859254
 30
0.0
 10
6730.699189154392
 20
5280.034419291704
 30
0.0
 10
6730.699189154392
 20
5280.092984156603
 30
0.0
 10
6730.699189154392
 20
5280.374139630439
 30
0.0
 10
6730.699189154392
 20
5280.894151660985
 30
0.0
 10
6730.699189154392
 20
5281.805068049836
 30
0.0
 10
6730.699189154391
 20
5282.941318717545
 30
0.0
 10
6730.699189154392
 20
5283.910847823337
 30
0.0
 10
6730.699189154392
 20
5284.664488711151
 30
0.0
 10
6730.699189154391
 20
5285.374015391394
 30
0.0
 10
6730.699189154392
 20
5286.204417807267
 30
0.0
 10
6730.699189154391
 20
5286.628239012884
 30
0.0
 10
6730.699189154391
 20
5286.903748586624
 30
0.0
  0
SPLINE
  5
352
330
1F
100
AcDbEntity
  8
0
  6
SLD-Plná
 62
     7
370
    25
100
AcDbSpline
210
0.0
220
0.0
230
1.0
 70
     8
 71
     3
 72
     9
 73
     5
 74
     0
 42
0.00000001
 43
0.00000001
 40
0.0
 40
0.0
 40
0.0
 40
0.0
 40
0.495215661686353
 40
1.0
 40
1.0
 40
1.0
 40
1.0
 10
6719.279860835458
 20
5264.699454612373
 30
0.0
 10
6719.454900739172
 20
5263.29644771096
 30
0.0
 10
6719.808362709899
 20
5260.463324669911
 30
0.0
 10
6719.457148345831
 20
5257.629782368383
 30
0.0
 10
6719.279860835459
 20
5256.199454592621
 30
0.0
  0
SPLINE
  5
353
330
1F
100
AcDbEntity
  8
0
  6
SLD-Plná
 62
     7
370
    25
100
AcDbSpline
210
0.0
220
0.0
230
1.0
 70
     8
 71
     3
 72
     9
 73
     5
 74
     0
 42
0.00000001
 43
0.00000001
 40
0.0
 40
0.0
 40
0.0
 40
0.0
 40
0.495215661686355
 40
1.0
 40
1.0
 40
1.0
 40
1.0
 10
6719.279860835458
 20
5273.199454612372
 30
0.0
 10
6719.454900739172
 20
5271.796447709361
 30
0.0
 10
6719.808362709899
 20
5268.963324665082
 30
0.0
 10
6719.457148345831
 20
5266.129782379889
 30
0.0
 10
6719.279860835458
 20
5264.699454612373
 30
0.0
  0
SPLINE
  5
354
330
1F
100
AcDbEntity
  8
0
  6
SLD-Plná
 62
     7
370
    25
100
AcDbSpline
210
0.0
220
0.0
230
1.0
 70
    11
 71
     3
 72
     9
 73
     5
 74
     0
 42
0.00000001
 43
0.00000001
 40
0.0
 40
0.0
 40
0.0
 40
0.0
 40
0.4952156616863496
 40
0.9999999999999999
 40
0.9999999999999999
 40
0.9999999999999999
 40
0.9999999999999999
 10
6719.279860835458
 20
5273.19945459262
 30
0.0
 10
6719.454900739172
 20
5273.199454591022
 30
0.0
 10
6719.808362709899
 20
5273.199454587792
 30
0.0
 10
6719.457148345831
 20
5273.199454604127
 30
0.0
 10
6719.279860835458
 20
5273.199454612372
 30
0.0
  0
LINE
  5
355
330
1F
100
AcDbEntity
  8
0
  6
SLD-Plná
 62
     7
370
    25
100
AcDbLine
 10
6719.4851253735
 20
5270.6994545926
 30
0.0
 11
6719.2798608355
 21
5273.1994545926
 31
0.0
  0
LINE
  5
356
330
1F
100
AcDbEntity
  8
0
  6
SLD-Plná
 62
     7
370
    25
100
AcDbLine
 10
6719.2798608355
 20
5256.1994545729
 30
0.0
 11
6719.4891121818
 21
5258.6994545926
 31
0.0
  0
SPLINE
  5
357
330
1F
100
AcDbEntity
  8
0
  6
SLD-Plná
 62
     7
370
    25
100
AcDbSpline
210
0.0
220
0.0
230
1.0
 70
    11
 71
     3
 72
     9
 73
     5
 74
     0
 42
0.00000001
 43
0.00000001
 40
0.0
 40
0.0
 40
0.0
 40
0.0
 40
0.4952156616863587
 40
1.0
 40
1.0
 40
1.0
 40
1.0
 10
6719.279860835459
 20
5256.199454592621
 30
0.0
 10
6719.454900739172
 20
5256.199454594221
 30
0.0
 10
6719.808362709899
 20
5256.19945459745
 30
0.0
 10
6719.457148345831
 20
5256.199454581115
 30
0.0
 10
6719.279860835459
 20
5256.199454572869
 30
0.0
  0
LINE
  5
358
330
1F
100
AcDbEntity
  8
0
  6
SLD-Plná
 62
     7
370
    25
100
AcDbLine
 10
6719.6591354665
 20
5273.0989369907
 30
0.0
 11
6719.6591354665
 21
5256.2999721945
 31
0.0
  0
LINE
  5
359
330
1F
100
AcDbEntity
  8
0
  6
SLD-Plná
 62
     7
370
    25
100
AcDbLine
 10
6719.2798608355
 20
5264.6994546124
 30
0.0
 11
6717.8185174704
 21
5264.6994545926
 31
0.0
  0
SPLINE
  5
35A
330
1F
100
AcDbEntity
  8
0
  6
SLD-Plná
 62
     7
370
    25
100
AcDbSpline
210
0.0
220
0.0
230
1.0
 70
     8
 71
     3
 72
     9
 73
     5
 74
     0
 42
0.00000001
 43
0.00000001
 40
0.0
 40
0.0
 40
0.0
 40
0.0
 40
0.4952156671610937
 40
1.0
 40
1.0
 40
1.0
 40
1.0
 10
6717.818517470369
 20
5273.199454592558
 30
0.0
 10
6717.643477566868
 20
5271.796447676371
 30
0.0
 10
6717.29001560048
 20
5268.963324636806
 30
0.0
 10
6717.641229962801
 20
5266.129782346968
 30
0.0
 10
6717.818517470369
 20
5264.699454592621
 30
0.0
  0
LINE
  5
35B
330
1F
100
AcDbEntity
  8
0
  6
SLD-Plná
 62
     7
370
    25
100
AcDbLine
 10
6719.2798608355
 20
5273.1994546124
 30
0.0
 11
6717.8185174704
 21
5273.1994545926
 31
0.0
  0
SPLINE
  5
35C
330
1F
100
AcDbEntity
  8
0
  6
SLD-Plná
 62
     7
370
    25
100
AcDbSpline
210
0.0
220
0.0
230
1.0
 70
     8
 71
     3
 72
     9
 73
     5
 74
     0
 42
0.00000001
 43
0.00000001
 40
0.0
 40
0.0
 40
0.0
 40
0.0
 40
0.4952156671610903
 40
1.0
 40
1.0
 40
1.0
 40
1.0
 10
6717.818517470369
 20
5264.699454592621
 30
0.0
 10
6717.643477566868
 20
5263.296447676402
 30
0.0
 10
6717.29001560048
 20
5260.463324636775
 30
0.0
 10
6717.641229962801
 20
5257.629782346999
 30
0.0
 10
6717.818517470369
 20
5256.199454592684
 30
0.0
  0
SPLINE
  5
35D
330
1F
100
AcDbEntity
  8
0
  6
SLD-Plná
 62
     7
370
    25
100
AcDbSpline
210
0.0
220
0.0
230
1.0
 70
    24
 71
     3
 72
     9
 73
     5
 74
     0
 42
0.00000001
 43
0.00000001
 40
0.0
 40
0.0
 40
0.0
 40
0.0
 40
0.9904281444070515
 40
1.0
 40
1.0
 40
1.0
 40
1.0
 10
6717.818517470369
 20
5256.199454592684
 30
0.0
 10
6717.585873335925
 20
5256.199454592642
 30
0.0
 10
6717.350980844472
 20
5256.199454592601
 30
0.0
 10
6717.468427652164
 20
5256.199454592621
 30
0.0
 10
6717.469551836048
 20
5256.199454592622
 30
0.0
  0
LINE
  5
35E
330
1F
100
AcDbEntity
  8
0
  6
SLD-Plná
 62
     7
370
    25
100
AcDbLine
 10
6717.469551836
 20
5273.1994545926
 30
0.0
 11
6717.8185174704
 21
5273.1994545926
 31
0.0
  0
LINE
  5
35F
330
1F
100
AcDbEntity
  8
0
  6
SLD-Plná
 62
     7
370
    25
100
AcDbLine
 10
6721.2491891544
 20
5271.5494545926
 30
0.0
 11
6721.2491891544
 21
5257.8494545926
 31
0.0
  0
LINE
  5
360
330
1F
100
AcDbEntity
  8
0
  6
SLD-Plná
 62
     7
370
    25
100
AcDbLine
 10
6719.2798608355
 20
5256.1994545926
 30
0.0
 11
6717.8185174704
 21
5256.1994545927
 31
0.0
  0
SPLINE
  5
361
330
1F
100
AcDbEntity
  8
0
  6
SLD-Plná
 62
     7
370
    25
100
AcDbSpline
210
0.0
220
0.0
230
1.0
 70
     8
 71
     3
 72
    19
 73
    15
 74
     0
 42
0.00000001
 43
0.00000001
 40
0.0
 40
0.0
 40
0.0
 40
0.0
 40
0.0595442499738136
 40
0.1493709068855867
 40
0.1813129236377352
 40
0.2142284455044851
 40
0.2480502311693333
 40
0.3248284399489224
 40
0.3911163057538254
 40
0.4759502232364949
 40
0.5792971786704447
 40
0.7011184111144891
 40
0.8413694244180563
 40
1.0
 40
1.0
 40
1.0
 40
1.0
 10
6724.452496291371
 20
5270.493529334633
 30
0.0
 10
6724.451925692117
 20
5270.491695959913
 30
0.0
 10
6724.450494304066
 20
5270.48709681147
 30
0.0
 10
6724.449165569597
 20
5270.309189202826
 30
0.0
 10
6724.449163888911
 20
5270.094845808655
 30
0.0
 10
6724.449355061593
 20
5269.931330450313
 30
0.0
 10
6724.45016707483
 20
5269.65679321069
 30
0.0
 10
6724.450486191262
 20
5269.248049214357
 30
0.0
 10
6724.450734529474
 20
5268.616034736196
 30
0.0
 10
6724.450903413182
 20
5267.799922011295
 30
0.0
 10
6724.451030525885
 20
5266.671188868037
 30
0.0
 10
6724.451110812928
 20
5265.222514986904
 30
0.0
 10
6724.451147398968
 20
5263.486685998711
 30
0.0
 10
6724.451134718054
 20
5262.379087725848
 30
0.0
 10
6724.451127987693
 20
5261.791233009895
 30
0.0
  0
LINE
  5
362
330
1F
100
AcDbEntity
  8
0
  6
SLD-Plná
 62
     7
370
    25
100
AcDbLine
 10
6730.6991891544
 20
5267.9037485866
 30
0.0
 11
6730.6991891544
 21
5268.2576647254
 31
0.0
  0
SPLINE
  5
363
330
1F
100
AcDbEntity
  8
0
  6
SLD-Plná
 62
     7
370
    25
100
AcDbSpline
210
0.0
220
0.0
230
1.0
 70
    24
 71
     3
 72
    17
 73
    13
 74
     0
 42
0.00000001
 43
0.00000001
 40
0.0
 40
0.0
 40
0.0
 40
0.0
 40
0.080679189667643
 40
0.1613583793352855
 40
0.2403610196261208
 40
0.3871194597784325
 40
0.5338778999307443
 40
0.6128805402215799
 40
0.6935597298892222
 40
0.7742389195568644
 40
0.8532415598477001
 40
1.0
 40
1.0
 40
1.0
 40
1.0
 10
6730.699189154392
 20
5261.005136859254
 30
0.0
 10
6730.699189154392
 20
5261.034419291703
 30
0.0
 10
6730.699189154391
 20
5261.092984156603
 30
0.0
 10
6730.699189154392
 20
5261.374139630439
 30
0.0
 10
6730.699189154392
 20
5261.894151660986
 30
0.0
 10
6730.699189154391
 20
5262.805068049836
 30
0.0
 10
6730.699189154392
 20
5263.941318717546
 30
0.0
 10
6730.699189154391
 20
5264.910847823338
 30
0.0
 10
6730.699189154391
 20
5265.664488711152
 30
0.0
 10
6730.699189154392
 20
5266.374015391394
 30
0.0
 10
6730.699189154392
 20
5267.204417807267
 30
0.0
 10
6730.699189154391
 20
5267.628239012884
 30
0.0
 10
6730.699189154391
 20
5267.903748586624
 30
0.0
  0
LINE
  5
364
330
1F
100
AcDbEntity
  8
0
  6
SLD-Plná
 62
     7
370
    25
100
AcDbLine
 10
6717.4991891544
 20
5086.6994545926
 30
0.0
 11
6717.4991891544
 21
5110.6994545926
 31
0.0
  0
LINE
  5
365
330
1F
100
AcDbEntity
  8
0
  6
SLD-Plná
 62
     7
370
    25
100
AcDbLine
 10
6718.4991891544
 20
5109.6994545926
 30
0.0
 11
6718.4991891544
 21
5087.6994545926
 31
0.0
  0
SPLINE
  5
366
330
1F
100
AcDbEntity
  8
0
  6
SLD-Plná
 62
     7
370
    25
100
AcDbSpline
210
0.0
220
0.0
230
1.0
 70
     8
 71
     3
 72
    13
 73
     9
 74
     0
 42
0.00000001
 43
0.00000001
 40
0.0
 40
0.0
 40
0.0
 40
0.0
 40
0.0254342784919342
 40
0.2391405405228668
 40
0.4528843033372799
 40
0.6670512278740933
 40
0.8818628295038904
 40
1.0
 40
1.0
 40
1.0
 40
1.0
 10
6718.499189154391
 20
5108.282206898441
 30
0.0
 10
6718.501845169551
 20
5108.282172886157
 30
0.0
 10
6718.526817802495
 20
5108.281853092698
 30
0.0
 10
6718.574105636208
 20
5108.271664496185
 30
0.0
 10
6718.632488703806
 20
5108.236280243136
 30
0.0
 10
6718.675718117519
 20
5108.18345948623
 30
0.0
 10
6718.696584034378
 20
5108.128720310415
 30
0.0
 10
6718.698506886384
 20
5108.093915487278
 30
0.0
 10
6718.699189154391
 20
5108.081566009912
 30
0.0
  0
LINE
  5
367
330
1F
100
AcDbEntity
  8
0
  6
SLD-Plná
 62
     7
370
    25
100
AcDbLine
 10
6718.6991891544
 20
5108.0815660099
 30
0.0
 11
6718.6991891544
 21
5097.2994545926
 31
0.0
  0
LINE
  5
368
330
1F
100
AcDbEntity
  8
0
  6
SLD-Plná
 62
     7
370
    25
100
AcDbLine
 10
6720.6991891544
 20
5272.7337265209
 30
0.0
 11
6720.6991891544
 21
5275.6651826644
 31
0.0
  0
SPLINE
  5
369
330
1F
100
AcDbEntity
  8
0
  6
SLD-Plná
 62
     7
370
    25
100
AcDbSpline
210
0.0
220
0.0
230
1.0
 70
     8
 71
     3
 72
    11
 73
     7
 74
     0
 42
0.00000001
 43
0.00000001
 40
0.0
 40
0.0
 40
0.0
 40
0.0
 40
0.2499999999999993
 40
0.4999999999999956
 40
0.749999999999998
 40
0.9999999999999999
 40
0.9999999999999999
 40
0.9999999999999999
 40
0.9999999999999999
 10
6728.030080541318
 20
5209.133597713146
 30
0.0
 10
6728.031971974047
 20
5209.002618743868
 30
0.0
 10
6728.035754839506
 20
5208.740660805311
 30
0.0
 10
6728.035468587092
 20
5208.410227249498
 30
0.0
 10
6728.030853777932
 20
5208.178990610711
 30
0.0
 10
6728.024521925622
 20
5208.148830215401
 30
0.0
 10
6728.021355999466
 20
5208.133750017746
 30
0.0
  0
LINE
  5
36A
330
1F
100
AcDbEntity
  8
0
  6
SLD-Plná
 62
     7
370
    25
100
AcDbLine
 10
6716.3991891544
 20
5207.9308843409
 30
0.0
 11
6728.0213559994
 21
5208.1337500177
 31
0.0
  0
LINE
  5
36B
330
1F
100
AcDbEntity
  8
0
  6
SLD-Plná
 62
     7
370
    25
100
AcDbLine
 10
6716.8991891544
 20
5236.5994545926
 30
0.0
 11
6716.8991891544
 21
5219.7252291912
 31
0.0
  0
LINE
  5
36C
330
1F
100
AcDbEntity
  8
0
  6
SLD-Plná
 62
     7
370
    25
100
AcDbLine
 10
6716.8991891544
 20
5219.7252291912
 30
0.0
 11
6733.9253661027
 21
5218.235631725
 31
0.0
  0
LINE
  5
36D
330
1F
100
AcDbEntity
  8
0
  6
SLD-Plná
 62
     7
370
    25
100
AcDbLine
 10
6733.9253661027
 20
5218.235631725
 30
0.0
 11
6733.9253661027
 21
5215.1326838838
 31
0.0
  0
ARC
  5
36E
330
1F
100
AcDbEntity
  8
0
  6
SLD-Plná
 62
     7
370
    25
100
AcDbCircle
 10
6727.9253661027
 20
5215.1326838838
 30
0.0
 40
5.999999999998181
100
AcDbArc
 50
271.0
 51
0.0
  0
SPLINE
  5
36F
330
1F
100
AcDbEntity
  8
0
  6
SLD-Plná
 62
     7
370
    25
100
AcDbSpline
210
0.0
220
0.0
230
1.0
 70
    24
 71
     3
 72
    11
 73
     7
 74
     0
 42
0.00000001
 43
0.00000001
 40
0.0
 40
0.0
 40
0.0
 40
0.0
 40
0.2500000000000124
 40
0.5000000000000085
 40
0.7500000000000088
 40
1.0
 40
1.0
 40
1.0
 40
1.0
 10
6733.9253661027
 20
5215.132683883839
 30
0.0
 10
6734.053793312881
 20
5215.132683883839
 30
0.0
 10
6734.310647733244
 20
5215.132683883839
 30
0.0
 10
6734.631670889293
 20
5215.132683883839
 30
0.0
 10
6734.855615296478
 20
5215.132683883839
 30
0.0
 10
6734.884664535087
 20
5215.132683883839
 30
0.0
 10
6734.899189154391
 20
5215.132683883839
 30
0.0
  0
SPLINE
  5
370
330
1F
100
AcDbEntity
  8
0
  6
SLD-Plná
 62
     7
370
    25
100
AcDbSpline
210
0.0
220
0.0
230
1.0
 70
     8
 71
     3
 72
    13
 73
     9
 74
     0
 42
0.00000001
 43
0.00000001
 40
0.0
 40
0.0
 40
0.0
 40
0.0
 40
0.1541635107559928
 40
0.3000602986949164
 40
0.4376848620389385
 40
0.5670321451156388
 40
0.79991808050736
 40
1.0
 40
1.0
 40
1.0
 40
1.0
 10
6728.021355999436
 20
5208.133750017745
 30
0.0
 10
6728.57886246984
 20
5208.182079690793
 30
0.0
 10
6729.663980194608
 20
5208.276147450794
 30
0.0
 10
6731.149934230139
 20
5208.873639907993
 30
0.0
 10
6732.400620207851
 20
5209.704908587762
 30
0.0
 10
6733.66414684825
 20
5211.004457921666
 30
0.0
 10
6734.6907991026
 20
5212.837258295432
 30
0.0
 10
6734.833325326216
 20
5214.407190918879
 30
0.0
 10
6734.899189154391
 20
5215.132683883839
 30
0.0
  0
LINE
  5
371
330
1F
100
AcDbEntity
  8
0
  6
SLD-Plná
 62
     7
370
    25
100
AcDbLine
 10
6734.8991891544
 20
5215.1326838838
 30
0.0
 11
6734.8991891544
 21
5218.1504332477
 31
0.0
  0
LINE
  5
372
330
1F
100
AcDbEntity
  8
0
  6
SLD-Plná
 62
     7
370
    25
100
AcDbLine
 10
6734.8991891544
 20
5218.1504332477
 30
0.0
 11
6733.9253661027
 21
5218.235631725
 31
0.0
  0
LINE
  5
373
330
1F
100
AcDbEntity
  8
0
  6
SLD-Plná
 62
     7
370
    25
100
AcDbLine
 10
6716.8991891544
 20
5322.4526803258
 30
0.0
 11
6716.8991891544
 21
5292.7994545926
 31
0.0
  0
LINE
  5
374
330
1F
100
AcDbEntity
  8
0
  6
SLD-Plná
 62
     7
370
    25
100
AcDbLine
 10
6716.8991891544
 20
5322.4526803258
 30
0.0
 11
6716.8991891544
 21
5323.45313803
 31
0.0
  0
LINE
  5
375
330
1F
100
AcDbEntity
  8
0
  6
SLD-Plná
 62
     7
370
    25
100
AcDbLine
 10
6716.8991891544
 20
5323.45313803
 30
0.0
 11
6716.3991891544
 21
5323.4793419196
 31
0.0
  0
ARC
  5
376
330
1F
100
AcDbEntity
  8
0
  6
SLD-Plná
 62
     7
370
    25
100
AcDbCircle
 10
6722.7035524221
 20
5275.8052897556
 30
0.0
 40
2.499999999999091
100
AcDbArc
 50
270.5000000023
 51
359.9999999829
  0
SPLINE
  5
377
330
1F
100
AcDbEntity
  8
0
  6
SLD-Plná
 62
     7
370
    25
100
AcDbSpline
210
0.0
220
0.0
230
1.0
 70
     8
 71
     3
 72
    11
 73
     7
 74
     0
 42
0.00000001
 43
0.00000001
 40
0.0
 40
0.0
 40
0.0
 40
0.0
 40
0.2500000000000037
 40
0.4999999999999976
 40
0.7499999999999871
 40
1.0
 40
1.0
 40
1.0
 40
1.0
 10
6722.725368760985
 20
5273.305384948143
 30
0.0
 10
6722.725874859133
 20
5273.239872099206
 30
0.0
 10
6722.726887055432
 20
5273.108846401332
 30
0.0
 10
6722.72732024837
 20
5272.943585315049
 30
0.0
 10
6722.726887055437
 20
5272.82796322251
 30
0.0
 10
6722.725874859141
 20
5272.812923731805
 30
0.0
 10
6722.725368760994
 20
5272.805403986451
 30
0.0
  0
LINE
  5
378
330
1F
100
AcDbEntity
  8
0
  6
SLD-Plná
 62
     7
370
    25
100
AcDbLine
 10
6720.6991891544
 20
5272.7877217849
 30
0.0
 11
6722.7253687604
 21
5272.8054039864
 31
0.0
  0
SPLINE
  5
379
330
1F
100
AcDbEntity
  8
0
  6
SLD-Plná
 62
     7
370
    25
100
AcDbSpline
210
0.0
220
0.0
230
1.0
 70
    24
 71
     3
 72
    11
 73
     7
 74
     0
 42
0.00000001
 43
0.00000001
 40
0.0
 40
0.0
 40
0.0
 40
0.0
 40
0.2499999999999681
 40
0.4999999999999952
 40
0.7500000000000027
 40
1.0
 40
1.0
 40
1.0
 40
1.0
 10
6725.203552422139
 20
5275.805289754898
 30
0.0
 10
6725.268639379257
 20
5275.805289754898
 30
0.0
 10
6725.398813293496
 20
5275.805289754898
 30
0.0
 10
6725.562495240678
 20
5275.805289754898
 30
0.0
 10
6725.676896797006
 20
5275.805289754898
 30
0.0
 10
6725.691758368595
 20
5275.805289754899
 30
0.0
 10
6725.699189154391
 20
5275.805289754899
 30
0.0
  0
SPLINE
  5
37A
330
1F
100
AcDbEntity
  8
0
  6
SLD-Plná
 62
     7
370
    25
100
AcDbSpline
210
0.0
220
0.0
230
1.0
 70
     8
 71
     3
 72
    13
 73
     9
 74
     0
 42
0.00000001
 43
0.00000001
 40
0.0
 40
0.0
 40
0.0
 40
0.0
 40
0.1545795397826588
 40
0.300775505365381
 40
0.4385816408192658
 40
0.5679920633584242
 40
0.8006375270917713
 40
1.0
 40
1.0
 40
1.0
 40
1.0
 10
6722.725368760447
 20
5272.805403986447
 30
0.0
 10
6722.966491967702
 20
5272.824330485189
 30
0.0
 10
6723.435661138601
 20
5272.861157009784
 30
0.0
 10
6724.079014662932
 20
5273.115567898098
 30
0.0
 10
6724.620299934487
 20
5273.472055890656
 30
0.0
 10
6725.166470910047
 20
5274.030603054419
 30
0.0
 10
6725.609447756406
 20
5274.818759842239
 30
0.0
 10
6725.670852275192
 20
5275.493781582059
 30
0.0
 10
6725.699189154391
 20
5275.805289755643
 30
0.0
  0
LINE
  5
37B
330
1F
100
AcDbEntity
  8
0
  6
SLD-Plná
 62
     7
370
    25
100
AcDbLine
 10
6725.6991891544
 20
5275.8052897556
 30
0.0
 11
6725.6991891544
 21
5278.3994545926
 31
0.0
  0
LINE
  5
37C
330
1F
100
AcDbEntity
  8
0
  6
SLD-Plná
 62
     7
370
    25
100
AcDbLine
 10
6700.5991891536
 20
5065.2994545926
 30
0.0
 11
6700.5991891536
 21
5065.1994545927
 31
0.0
  0
LINE
  5
37D
330
1F
100
AcDbEntity
  8
0
  6
SLD-Plná
 62
     7
370
    25
100
AcDbLine
 10
6689.3248335418
 20
5065.1994545927
 30
0.0
 11
6689.3248335418
 21
5065.3762312878
 31
0.0
  0
ARC
  5
37E
330
1F
100
AcDbEntity
  8
0
  6
SLD-Plná
 62
     7
370
    25
100
AcDbCircle
 10
6700.5991891536
 20
5067.6994545927
 30
0.0
 40
2.500000000000207
100
AcDbArc
 50
269.9999999999
 51
279.9999999999
  0
LINE
  5
37F
330
1F
100
AcDbEntity
  8
0
  6
SLD-Plná
 62
     7
370
    25
100
AcDbLine
 10
6701.385038994
 20
5065.2994545926
 30
0.0
 11
6701.0333095977
 21
5065.2374352101
 31
0.0
  0
LINE
  5
380
330
1F
100
AcDbEntity
  8
0
  6
SLD-Plná
 62
     7
370
    25
100
AcDbLine
 10
6681.4991891535
 20
5065.1994545927
 30
0.0
 11
6681.4991891535
 21
5065.3762312878
 31
0.0
  0
LINE
  5
381
330
1F
100
AcDbEntity
  8
0
  6
SLD-Plná
 62
     7
370
    25
100
AcDbLine
 10
6699.5991891536
 20
5065.3762312878
 30
0.0
 11
6699.599189154
 21
5362.0226778974
 31
0.0
  0
LINE
  5
382
330
1F
100
AcDbEntity
  8
0
  6
SLD-Plná
 62
     7
370
    25
100
AcDbLine
 10
6699.5991891536
 20
5065.3762312878
 30
0.0
 11
6676.0991891538
 21
5065.3762312878
 31
0.0
  0
LINE
  5
383
330
1F
100
AcDbEntity
  8
0
  6
SLD-Plná
 62
     7
370
    25
100
AcDbLine
 10
6676.0991891538
 20
5362.0226778974
 30
0.0
 11
6699.599189154
 21
5362.0226778974
 31
0.0
  0
LINE
  5
384
330
1F
100
AcDbEntity
  8
0
  6
SLD-Plná
 62
     7
370
    25
100
AcDbLine
 10
6699.5218573138
 20
5362.9119220772
 30
0.0
 11
6699.2352189197
 21
5363.6994545926
 31
0.0
  0
LINE
  5
385
330
1F
100
AcDbEntity
  8
0
  6
SLD-Plná
 62
     7
370
    25
100
AcDbLine
 10
6699.2352189197
 20
5363.6994545926
 30
0.0
 11
6676.0991891538
 21
5363.6994545927
 31
0.0
  0
LINE
  5
386
330
1F
100
AcDbEntity
  8
0
  6
SLD-Plná
 62
     7
370
    25
100
AcDbLine
 10
6699.3991891544
 20
5362.1994545926
 30
0.0
 11
6676.0991891538
 21
5362.1994545927
 31
0.0
  0
LINE
  5
387
330
1F
100
AcDbEntity
  8
0
  6
SLD-Plná
 62
     7
370
    25
100
AcDbLine
 10
6676.0991891538
 20
5063.6994545926
 30
0.0
 11
6699.3991891544
 21
5063.6994545926
 31
0.0
  0
LINE
  5
388
330
1F
100
AcDbEntity
  8
0
  6
SLD-Plná
 62
     7
370
    25
100
AcDbLine
 10
6676.0991891538
 20
5065.1994545926
 30
0.0
 11
6699.3991891544
 21
5065.1994545926
 31
0.0
  0
LINE
  5
389
330
1F
100
AcDbEntity
  8
0
  6
SLD-Plná
 62
     7
370
    25
100
AcDbLine
 10
6678.2991891544
 20
5362.1994545927
 30
0.0
 11
6678.2991891544
 21
5362.0226778974
 31
0.0
  0
LINE
  5
38A
330
1F
100
AcDbEntity
  8
0
  6
SLD-Plná
 62
     7
370
    25
100
AcDbLine
 10
6692.1991891544
 20
5362.1994545926
 30
0.0
 11
6692.1991891544
 21
5362.0226778974
 31
0.0
  0
LINE
  5
38B
330
1F
100
AcDbEntity
  8
0
  6
SLD-Plná
 62
     7
370
    25
100
AcDbLine
 10
6713.2991891545
 20
5362.1994545926
 30
0.0
 11
6713.2991891545
 21
5362.0994545926
 31
0.0
  0
LINE
  5
38C
330
1F
100
AcDbEntity
  8
0
  6
SLD-Plná
 62
     7
370
    25
100
AcDbLine
 10
6692.9705029666
 20
5362.0226778974
 30
0.0
 11
6692.8398818031
 21
5362.1994545926
 31
0.0
  0
ARC
  5
38D
330
1F
100
AcDbEntity
  8
0
  6
SLD-Plná
 62
     7
370
    25
100
AcDbCircle
 10
6695.7991891545
 20
5364.2494545927
 30
0.0
 40
3.600000000000369
100
AcDbArc
 50
347.6332883208
 51
188.7879373227
  0
LINE
  5
38E
330
1F
100
AcDbEntity
  8
0
  6
SLD-Plná
 62
     7
370
    25
100
AcDbLine
 10
6713.8991891544
 20
5065.3762312879
 30
0.0
 11
6713.8991891544
 21
5065.2994545926
 31
0.0
  0
LINE
  5
38F
330
1F
100
AcDbEntity
  8
0
  6
SLD-Plná
 62
     7
370
    25
100
AcDbLine
 10
6713.8991891544
 20
5065.2994545926
 30
0.0
 11
6699.3991891544
 21
5065.2994545926
 31
0.0
  0
LINE
  5
390
330
1F
100
AcDbEntity
  8
0
  6
SLD-Plná
 62
     7
370
    25
100
AcDbLine
 10
6699.3991891544
 20
5362.0994545926
 30
0.0
 11
6699.3991891544
 21
5065.2994545926
 31
0.0
  0
LINE
  5
391
330
1F
100
AcDbEntity
  8
0
  6
SLD-Plná
 62
     7
370
    25
100
AcDbLine
 10
6713.8991891544
 20
5362.0994545926
 30
0.0
 11
6699.3991891544
 21
5362.0994545926
 31
0.0
  0
LINE
  5
392
330
1F
100
AcDbEntity
  8
0
  6
SLD-Plná
 62
     7
370
    25
100
AcDbLine
 10
6713.8991891544
 20
5362.0226778974
 30
0.0
 11
6713.8991891544
 21
5362.0994545926
 31
0.0
  0
LINE
  5
393
330
1F
100
AcDbEntity
  8
0
  6
SLD-Plná
 62
     7
370
    25
100
AcDbLine
 10
6713.8991891544
 20
5362.0226778974
 30
0.0
 11
6713.8991891544
 21
5065.3762312879
 31
0.0
  0
SPLINE
  5
394
330
1F
100
AcDbEntity
  8
0
  6
SLD-Plná
 62
     7
370
    25
100
AcDbSpline
210
0.0
220
0.0
230
1.0
 70
     8
 71
     3
 72
    11
 73
     7
 74
     0
 42
0.00000001
 43
0.00000001
 40
0.0
 40
0.0
 40
0.0
 40
0.0
 40
0.2500000000000017
 40
0.5000000000000013
 40
0.749999999999999
 40
1.0
 40
1.0
 40
1.0
 40
1.0
 10
6713.899189154391
 20
5362.022677897414
 30
0.0
 10
6714.22678176391
 20
5361.954075955347
 30
0.0
 10
6714.881966982949
 20
5361.816872071214
 30
0.0
 10
6715.708329325697
 20
5361.611066245012
 30
0.0
 10
6716.286452358501
 20
5361.405260418812
 30
0.0
 10
6716.361610222427
 20
5361.268056534678
 30
0.0
 10
6716.399189154391
 20
5361.199454592612
 30
0.0
  0
LINE
  5
395
330
1F
100
AcDbEntity
  8
0
  6
SLD-Plná
 62
     7
370
    25
100
AcDbLine
 10
6716.3991891544
 20
5361.1994545926
 30
0.0
 11
6716.3991891544
 21
5066.1994545926
 31
0.0
  0
SPLINE
  5
396
330
1F
100
AcDbEntity
  8
0
  6
SLD-Plná
 62
     7
370
    25
100
AcDbSpline
210
0.0
220
0.0
230
1.0
 70
     8
 71
     3
 72
    12
 73
     8
 74
     0
 42
0.00000001
 43
0.00000001
 40
0.0
 40
0.0
 40
0.0
 40
0.0
 40
0.1913660220175103
 40
0.4107021154763883
 40
0.6300458239436406
 40
0.8493894065372661
 40
1.0
 40
1.0
 40
1.0
 40
1.0
 10
6716.399189154391
 20
5066.199454592615
 30
0.0
 10
6716.377149416668
 20
5066.146987153807
 30
0.0
 10
6716.329848611582
 20
5066.034383631591
 30
0.0
 10
6715.933242039925
 20
5065.86130561981
 30
0.0
 10
6715.299616160867
 20
5065.680699938172
 30
0.0
 10
6714.578817078195
 20
5065.518722240043
 30
0.0
 10
6714.09582014237
 20
5065.417456987591
 30
0.0
 10
6713.899189154391
 20
5065.37623128788
 30
0.0
  0
LINE
  5
397
330
1F
100
AcDbEntity
  8
0
  6
SLD-Plná
 62
     7
370
    25
100
AcDbLine
 10
6699.3991891544
 20
5362.6994545926
 30
0.0
 11
6699.3991891544
 21
5362.1994545926
 31
0.0
  0
LINE
  5
398
330
1F
100
AcDbEntity
  8
0
  6
SLD-Plná
 62
     7
370
    25
100
AcDbLine
 10
6699.9765394236
 20
5363.6994545926
 30
0.0
 11
6699.3991891544
 21
5362.6994545926
 31
0.0
  0
LINE
  5
399
330
1F
100
AcDbEntity
  8
0
  6
SLD-Plná
 62
     7
370
    25
100
AcDbLine
 10
6713.8991891544
 20
5363.6994545926
 30
0.0
 11
6713.8991891544
 21
5362.1994545926
 31
0.0
  0
LINE
  5
39A
330
1F
100
AcDbEntity
  8
0
  6
SLD-Plná
 62
     7
370
    25
100
AcDbLine
 10
6713.8991891544
 20
5362.1994545926
 30
0.0
 11
6699.3991891544
 21
5362.1994545926
 31
0.0
  0
LINE
  5
39B
330
1F
100
AcDbEntity
  8
0
  6
SLD-Plná
 62
     7
370
    25
100
AcDbLine
 10
6713.8991891544
 20
5363.6994545926
 30
0.0
 11
6699.9765394236
 21
5363.6994545926
 31
0.0
  0
LINE
  5
39C
330
1F
100
AcDbEntity
  8
0
  6
SLD-Plná
 62
     7
370
    25
100
AcDbLine
 10
6699.3991891544
 20
5063.6994545926
 30
0.0
 11
6699.3991891544
 21
5065.1994545926
 31
0.0
  0
LINE
  5
39D
330
1F
100
AcDbEntity
  8
0
  6
SLD-Plná
 62
     7
370
    25
100
AcDbLine
 10
6713.8991891544
 20
5063.6994545926
 30
0.0
 11
6713.8991891544
 21
5065.1994545926
 31
0.0
  0
LINE
  5
39E
330
1F
100
AcDbEntity
  8
0
  6
SLD-Plná
 62
     7
370
    25
100
AcDbLine
 10
6713.8991891544
 20
5065.1994545926
 30
0.0
 11
6699.3991891544
 21
5065.1994545926
 31
0.0
  0
LINE
  5
39F
330
1F
100
AcDbEntity
  8
0
  6
SLD-Plná
 62
     7
370
    25
100
AcDbLine
 10
6713.8991891544
 20
5063.6994545926
 30
0.0
 11
6699.3991891544
 21
5063.6994545926
 31
0.0
  0
SPLINE
  5
3A0
330
1F
100
AcDbEntity
  8
0
  6
SLD-Plná
 62
     7
370
    25
100
AcDbSpline
210
0.0
220
0.0
230
1.0
 70
     8
 71
     3
 72
    11
 73
     7
 74
     0
 42
0.00000001
 43
0.00000001
 40
0.0
 40
0.0
 40
0.0
 40
0.0
 40
0.0383497256393875
 40
0.4919251904192053
 40
0.9455009402710701
 40
0.9999999999999999
 40
0.9999999999999999
 40
0.9999999999999999
 40
0.9999999999999999
 10
6714.639472705301
 20
5361.863429124219
 30
0.0
 10
6714.633802972964
 20
5361.872499628093
 30
0.0
 10
6714.56107535594
 20
5361.988850117467
 30
0.0
 10
6714.315334713774
 20
5362.125663173649
 30
0.0
 10
6714.056204793408
 20
5362.197300502377
 30
0.0
 10
6713.914399965189
 20
5362.199245916212
 30
0.0
 10
6713.899189154385
 20
5362.199454592617
 30
0.0
  0
SPLINE
  5
3A1
330
1F
100
AcDbEntity
  8
0
  6
SLD-Plná
 62
     7
370
    25
100
AcDbSpline
210
0.0
220
0.0
230
1.0
 70
     8
 71
     3
 72
    12
 73
     8
 74
     0
 42
0.00000001
 43
0.00000001
 40
0.0
 40
0.0
 40
0.0
 40
0.0
 40
0.1913660220253508
 40
0.4107021154852006
 40
0.6300458239534228
 40
0.8493894065480027
 40
1.0
 40
1.0
 40
1.0
 40
1.0
 10
6716.399189154391
 20
5361.199454592619
 30
0.0
 10
6716.377149416661
 20
5361.449693581972
 30
0.0
 10
6716.329848611562
 20
5361.986746509218
 30
0.0
 10
6715.933242039891
 20
5362.733737030303
 30
0.0
 10
6715.299616160823
 20
5363.32828573266
 30
0.0
 10
6714.578817078159
 20
5363.651862051224
 30
0.0
 10
6714.095820142351
 20
5363.685685045919
 30
0.0
 10
6713.899189154386
 20
5363.699454592617
 30
0.0
  0
SPLINE
  5
3A2
330
1F
100
AcDbEntity
  8
0
  6
SLD-Plná
 62
     7
370
    25
100
AcDbSpline
210
0.0
220
0.0
230
1.0
 70
     8
 71
     3
 72
    10
 73
     6
 74
     0
 42
0.00000001
 43
0.00000001
 40
0.0
 40
0.0
 40
0.0
 40
0.0
 40
0.4694893317609826
 40
0.9389786635219786
 40
1.0
 40
1.0
 40
1.0
 40
1.0
 10
6713.899189154408
 20
5065.199454592611
 30
0.0
 10
6714.027745935729
 20
5065.216112423487
 30
0.0
 10
6714.284859498373
 20
5065.249428085239
 30
0.0
 10
6714.545957993754
 20
5065.396293574896
 30
0.0
 10
6714.625339916906
 20
5065.520255765126
 30
0.0
 10
6714.634470724886
 20
5065.534514363442
 30
0.0
  0
SPLINE
  5
3A3
330
1F
100
AcDbEntity
  8
0
  6
SLD-Plná
 62
     7
370
    25
100
AcDbSpline
210
0.0
220
0.0
230
1.0
 70
     8
 71
     3
 72
    11
 73
     7
 74
     0
 42
0.00000001
 43
0.00000001
 40
0.0
 40
0.0
 40
0.0
 40
0.0
 40
0.2500000000000007
 40
0.5000000000000043
 40
0.7500000000000036
 40
1.0
 40
1.0
 40
1.0
 40
1.0
 10
6713.89918915441
 20
5063.699454592611
 30
0.0
 10
6714.226781763925
 20
5063.73703352458
 30
0.0
 10
6714.881966982955
 20
5063.812191388517
 30
0.0
 10
6715.708329325694
 20
5064.390314421321
 30
0.0
 10
6716.286452358499
 20
5065.216676764059
 30
0.0
 10
6716.361610222438
 20
5065.871861983088
 30
0.0
 10
6716.399189154406
 20
5066.199454592603
 30
0.0
  0
SPLINE
  5
3A4
330
1F
100
AcDbEntity
  8
0
  6
SLD-Plná
 62
     8
370
    25
100
AcDbSpline
210
0.0
220
0.0
230
1.0
 70
    24
 71
     3
 72
    10
 73
     6
 74
     0
 42
0.00000001
 43
0.00000001
 40
0.0
 40
0.0
 40
0.0
 40
0.0
 40
0.3748656083145945
 40
0.7497312166291912
 40
1.0
 40
1.0
 40
1.0
 40
1.0
 10
6722.954751585645
 20
5242.274454576975
 30
0.0
 10
6722.954751585645
 20
5241.557306538271
 30
0.0
 10
6722.954751585645
 20
5240.123010460866
 30
0.0
 10
6722.954751585645
 20
5238.967394822697
 30
0.0
 10
6722.954751585645
 20
5238.966512051074
 30
0.0
 10
6722.954751585645
 20
5238.96615863878
 30
0.0
  0
SPLINE
  5
3A5
330
1F
100
AcDbEntity
  8
0
  6
SLD-Plná
 62
     8
370
    25
100
AcDbSpline
210
0.0
220
0.0
230
1.0
 70
    24
 71
     3
 72
    13
 73
     9
 74
     0
 42
0.00000001
 43
0.00000001
 40
0.0
 40
0.0
 40
0.0
 40
0.0
 40
0.062331920039048
 40
0.2498655360312393
 40
0.437399152023431
 40
0.6249327680156223
 40
0.8124663840078136
 40
1.0
 40
1.0
 40
1.0
 40
1.0
 10
6722.954751585645
 20
5252.432750546461
 30
0.0
 10
6722.954751585645
 20
5252.464895787877
 30
0.0
 10
6722.954751585645
 20
5252.593754131601
 30
0.0
 10
6722.954751585645
 20
5251.740995475292
 30
0.0
 10
6722.954751585645
 20
5249.988540829509
 30
0.0
 10
6722.954751585645
 20
5247.521663408656
 30
0.0
 10
6722.954751585645
 20
5244.758995740593
 30
0.0
 10
6722.954751585645
 20
5243.102634964847
 30
0.0
 10
6722.954751585645
 20
5242.274454576975
 30
0.0
  0
SPLINE
  5
3A6
330
1F
100
AcDbEntity
  8
0
  6
SLD-Plná
 62
     8
370
    25
100
AcDbSpline
210
0.0
220
0.0
230
1.0
 70
     8
 71
     3
 72
    11
 73
     7
 74
     0
 42
0.00000001
 43
0.00000001
 40
0.0
 40
0.0
 40
0.0
 40
0.0
 40
0.3425237399258484
 40
0.6405021602849996
 40
0.8937641910891803
 40
0.9999999999999999
 40
0.9999999999999999
 40
0.9999999999999999
 40
0.9999999999999999
 10
6724.451127987693
 20
5242.791233009895
 30
0.0
 10
6724.451116487149
 20
5242.216518059871
 30
0.0
 10
6724.45109498171
 20
5241.141830018926
 30
0.0
 10
6724.45106267823
 20
5240.245621035374
 30
0.0
 10
6724.451037907287
 20
5239.879582527182
 30
0.0
 10
6724.45102237895
 20
5239.909532116219
 30
0.0
 10
6724.451017790145
 20
5239.918382569452
 30
0.0
  0
LINE
  5
3A7
330
1F
100
AcDbEntity
  8
0
  6
SLD-Plná
 62
     8
370
    25
100
AcDbLine
 10
6725.1991891544
 20
5250.2893892327
 30
0.0
 11
6725.1991891544
 21
5240.3994545926
 31
0.0
  0
LINE
  5
3A8
330
1F
100
AcDbEntity
  8
0
  6
SLD-Plná
 62
     8
370
    25
100
AcDbLine
 10
6725.1991891544
 20
5250.9994545926
 30
0.0
 11
6725.1991891544
 21
5250.2893892327
 31
0.0
  0
LINE
  5
3A9
330
1F
100
AcDbEntity
  8
0
  6
SLD-Plná
 62
     8
370
    25
100
AcDbLine
 10
6729.0991891544
 20
5250.2893892327
 30
0.0
 11
6729.0991891544
 21
5250.9994545926
 31
0.0
  0
LINE
  5
3AA
330
1F
100
AcDbEntity
  8
0
  6
SLD-Plná
 62
     8
370
    25
100
AcDbLine
 10
6729.0991891544
 20
5240.3994545926
 30
0.0
 11
6729.0991891544
 21
5250.2893892327
 31
0.0
  0
SPLINE
  5
3AB
330
1F
100
AcDbEntity
  8
0
  6
SLD-Plná
 62
     8
370
    25
100
AcDbSpline
210
0.0
220
0.0
230
1.0
 70
    24
 71
     3
 72
    10
 73
     6
 74
     0
 42
0.00000001
 43
0.00000001
 40
0.0
 40
0.0
 40
0.0
 40
0.0
 40
0.3748656083145949
 40
0.7497312166291911
 40
1.0
 40
1.0
 40
1.0
 40
1.0
 10
6722.954751585645
 20
5280.274454576975
 30
0.0
 10
6722.954751585645
 20
5279.557306538271
 30
0.0
 10
6722.954751585645
 20
5278.123010460866
 30
0.0
 10
6722.954751585645
 20
5276.967394822697
 30
0.0
 10
6722.954751585645
 20
5276.966512051075
 30
0.0
 10
6722.954751585645
 20
5276.96615863878
 30
0.0
  0
SPLINE
  5
3AC
330
1F
100
AcDbEntity
  8
0
  6
SLD-Plná
 62
     8
370
    25
100
AcDbSpline
210
0.0
220
0.0
230
1.0
 70
    24
 71
     3
 72
    13
 73
     9
 74
     0
 42
0.00000001
 43
0.00000001
 40
0.0
 40
0.0
 40
0.0
 40
0.0
 40
0.0623319200390481
 40
0.2498655360312395
 40
0.4373991520234312
 40
0.6249327680156223
 40
0.8124663840078136
 40
1.0
 40
1.0
 40
1.0
 40
1.0
 10
6722.954751585645
 20
5290.432750546462
 30
0.0
 10
6722.954751585645
 20
5290.464895787878
 30
0.0
 10
6722.954751585645
 20
5290.593754131601
 30
0.0
 10
6722.954751585645
 20
5289.740995475293
 30
0.0
 10
6722.954751585645
 20
5287.988540829508
 30
0.0
 10
6722.954751585645
 20
5285.521663408657
 30
0.0
 10
6722.954751585645
 20
5282.758995740593
 30
0.0
 10
6722.954751585645
 20
5281.102634964847
 30
0.0
 10
6722.954751585645
 20
5280.274454576975
 30
0.0
  0
SPLINE
  5
3AD
330
1F
100
AcDbEntity
  8
0
  6
SLD-Plná
 62
     8
370
    25
100
AcDbSpline
210
0.0
220
0.0
230
1.0
 70
     8
 71
     3
 72
    11
 73
     7
 74
     0
 42
0.00000001
 43
0.00000001
 40
0.0
 40
0.0
 40
0.0
 40
0.0
 40
0.3425237399258481
 40
0.6405021602849986
 40
0.8937641910891791
 40
1.0
 40
1.0
 40
1.0
 40
1.0
 10
6724.451127987693
 20
5280.791233009895
 30
0.0
 10
6724.451116487149
 20
5280.216518059871
 30
0.0
 10
6724.45109498171
 20
5279.141830018926
 30
0.0
 10
6724.45106267823
 20
5278.245621035374
 30
0.0
 10
6724.451037907287
 20
5277.879582527182
 30
0.0
 10
6724.45102237895
 20
5277.909532116219
 30
0.0
 10
6724.451017790145
 20
5277.918382569452
 30
0.0
  0
LINE
  5
3AE
330
1F
100
AcDbEntity
  8
0
  6
SLD-Plná
 62
     8
370
    25
100
AcDbLine
 10
6725.1991891544
 20
5288.2893892327
 30
0.0
 11
6725.1991891544
 21
5278.3994545926
 31
0.0
  0
LINE
  5
3AF
330
1F
100
AcDbEntity
  8
0
  6
SLD-Plná
 62
     8
370
    25
100
AcDbLine
 10
6725.1991891544
 20
5288.9994545926
 30
0.0
 11
6725.1991891544
 21
5288.2893892327
 31
0.0
  0
LINE
  5
3B0
330
1F
100
AcDbEntity
  8
0
  6
SLD-Plná
 62
     8
370
    25
100
AcDbLine
 10
6729.0991891544
 20
5288.2893892327
 30
0.0
 11
6729.0991891544
 21
5288.9994545926
 31
0.0
  0
LINE
  5
3B1
330
1F
100
AcDbEntity
  8
0
  6
SLD-Plná
 62
     8
370
    25
100
AcDbLine
 10
6729.0991891544
 20
5278.3994545926
 30
0.0
 11
6729.0991891544
 21
5288.2893892327
 31
0.0
  0
SPLINE
  5
3B2
330
1F
100
AcDbEntity
  8
0
  6
SLD-Plná
 62
     8
370
    25
100
AcDbSpline
210
0.0
220
0.0
230
1.0
 70
    24
 71
     3
 72
    10
 73
     6
 74
     0
 42
0.00000001
 43
0.00000001
 40
0.0
 40
0.0
 40
0.0
 40
0.0
 40
0.3748656083145948
 40
0.7497312166291912
 40
1.0
 40
1.0
 40
1.0
 40
1.0
 10
6722.954751585645
 20
5261.274454576975
 30
0.0
 10
6722.954751585645
 20
5260.557306538271
 30
0.0
 10
6722.954751585645
 20
5259.123010460866
 30
0.0
 10
6722.954751585645
 20
5257.967394822697
 30
0.0
 10
6722.954751585645
 20
5257.966512051075
 30
0.0
 10
6722.954751585645
 20
5257.96615863878
 30
0.0
  0
SPLINE
  5
3B3
330
1F
100
AcDbEntity
  8
0
  6
SLD-Plná
 62
     8
370
    25
100
AcDbSpline
210
0.0
220
0.0
230
1.0
 70
    24
 71
     3
 72
    13
 73
     9
 74
     0
 42
0.00000001
 43
0.00000001
 40
0.0
 40
0.0
 40
0.0
 40
0.0
 40
0.0623319200390481
 40
0.2498655360312395
 40
0.4373991520234308
 40
0.6249327680156223
 40
0.8124663840078137
 40
1.0
 40
1.0
 40
1.0
 40
1.0
 10
6722.954751585645
 20
5271.432750546462
 30
0.0
 10
6722.954751585645
 20
5271.464895787877
 30
0.0
 10
6722.954751585645
 20
5271.593754131601
 30
0.0
 10
6722.954751585645
 20
5270.740995475292
 30
0.0
 10
6722.954751585645
 20
5268.988540829508
 30
0.0
 10
6722.954751585645
 20
5266.521663408657
 30
0.0
 10
6722.954751585645
 20
5263.758995740593
 30
0.0
 10
6722.954751585645
 20
5262.102634964847
 30
0.0
 10
6722.954751585645
 20
5261.274454576975
 30
0.0
  0
SPLINE
  5
3B4
330
1F
100
AcDbEntity
  8
0
  6
SLD-Plná
 62
     8
370
    25
100
AcDbSpline
210
0.0
220
0.0
230
1.0
 70
     8
 71
     3
 72
    11
 73
     7
 74
     0
 42
0.00000001
 43
0.00000001
 40
0.0
 40
0.0
 40
0.0
 40
0.0
 40
0.3425237399258482
 40
0.6405021602849988
 40
0.8937641910891794
 40
1.0
 40
1.0
 40
1.0
 40
1.0
 10
6724.451127987693
 20
5261.791233009895
 30
0.0
 10
6724.451116487149
 20
5261.216518059871
 30
0.0
 10
6724.45109498171
 20
5260.141830018926
 30
0.0
 10
6724.45106267823
 20
5259.245621035374
 30
0.0
 10
6724.451037907287
 20
5258.879582527183
 30
0.0
 10
6724.45102237895
 20
5258.909532116219
 30
0.0
 10
6724.451017790145
 20
5258.918382569451
 30
0.0
  0
LINE
  5
3B5
330
1F
100
AcDbEntity
  8
0
  6
SLD-Plná
 62
     8
370
    25
100
AcDbLine
 10
6725.1991891544
 20
5269.2893892327
 30
0.0
 11
6725.1991891544
 21
5259.3994545926
 31
0.0
  0
LINE
  5
3B6
330
1F
100
AcDbEntity
  8
0
  6
SLD-Plná
 62
     8
370
    25
100
AcDbLine
 10
6725.1991891544
 20
5269.9994545926
 30
0.0
 11
6725.1991891544
 21
5269.2893892327
 31
0.0
  0
LINE
  5
3B7
330
1F
100
AcDbEntity
  8
0
  6
SLD-Plná
 62
     8
370
    25
100
AcDbLine
 10
6729.0991891544
 20
5269.2893892327
 30
0.0
 11
6729.0991891544
 21
5269.9994545926
 31
0.0
  0
LINE
  5
3B8
330
1F
100
AcDbEntity
  8
0
  6
SLD-Plná
 62
     8
370
    25
100
AcDbLine
 10
6729.0991891544
 20
5259.3994545926
 30
0.0
 11
6729.0991891544
 21
5269.2893892327
 31
0.0
  0
LINE
  5
3B9
330
1F
100
AcDbEntity
  8
0
  6
SLD-Plná
 62
     8
370
    25
100
AcDbLine
 10
6728.0300805413
 20
5209.1335977129
 30
0.0
 11
6716.3991891544
 21
5208.9305797486
 31
0.0
  0
LINE
  5
3BA
330
1F
100
AcDbEntity
  8
0
  6
SLD-Plná
 62
     8
370
    25
100
AcDbLine
 10
6716.3991891544
 20
5322.4788842155
 30
0.0
 11
6716.8991891544
 21
5322.4526803258
 31
0.0
  0
LINE
  5
3BB
330
1F
100
AcDbEntity
  8
0
  6
SLD-Plná
 62
     8
370
    25
100
AcDbLine
 10
6725.2035524221
 20
5278.3994545926
 30
0.0
 11
6725.2035524221
 21
5275.8052897549
 31
0.0
  0
LINE
  5
3BC
330
1F
100
AcDbEntity
  8
0
  6
SLD-Plná
 62
     8
370
    25
100
AcDbLine
 10
6722.725368761
 20
5273.305384948
 30
0.0
 11
6720.6991891544
 21
5273.2877027464
 31
0.0
  0
LINE
  5
3BD
330
1F
100
AcDbEntity
  8
0
  6
SLD-Plná
 62
     8
370
    25
100
AcDbLine
 10
6701.0223739073
 20
5065.2994545926
 30
0.0
 11
6701.0333095977
 21
5065.2374352101
 31
0.0
  0
LINE
  5
3BE
330
1F
100
AcDbEntity
  8
0
  6
SLD-Plná
 62
     8
370
    25
100
AcDbLine
 10
6685.4991891535
 20
5065.3762312878
 30
0.0
 11
6685.4991891535
 21
5065.1994545927
 31
0.0
  0
ARC
  5
3BF
330
1F
100
AcDbEntity
  8
0
  6
SLD-Plná
 62
     8
370
    25
100
AcDbCircle
 10
6695.7991891545
 20
5364.2494545927
 30
0.0
 40
3.31388922415187
100
AcDbArc
 50
359.9999999999
 51
189.5534797602
  0
LINE
  5
3C0
330
1F
100
AcDbEntity
  8
0
  6
SLD-Plná
 62
     8
370
    25
100
AcDbLine
 10
6693.1954683957
 20
5362.1994545926
 30
0.0
 11
6693.3449423578
 21
5362.0226778974
 31
0.0
  0
LINE
  5
3C1
330
1F
100
AcDbEntity
  8
0
  6
SLD-Plná
 62
     8
370
    25
100
AcDbLine
 10
6698.2534359512
 20
5362.0226778974
 30
0.0
 11
6698.4029099133
 21
5362.1994545926
 31
0.0
  0
LINE
  5
3C2
330
1F
100
AcDbEntity
  8
0
  6
SLD-Plná
 62
     8
370
    25
100
AcDbLine
 10
6699.0671184362
 20
5363.6994545926
 30
0.0
 11
6699.1130783787
 21
5364.2494545926
 31
0.0
  0
ARC
  5
3C3
330
1F
100
AcDbEntity
  8
0
  6
SLD-Plná
 62
     7
370
    25
100
AcDbCircle
 10
6292.5187553361
 20
4833.7704627756
 30
0.0
 40
2.000000000000253
100
AcDbArc
 50
29.9999999998
 51
90.0
  0
ARC
  5
3C4
330
1F
100
AcDbEntity
  8
0
  6
SLD-Plná
 62
     7
370
    25
100
AcDbCircle
 10
6255.5187553361
 20
4833.7704627756
 30
0.0
 40
1.999999999999953
100
AcDbArc
 50
90.0
 51
149.9999999999
  0
LINE
  5
3C5
330
1F
100
AcDbEntity
  8
0
  6
SLD-Plná
 62
     7
370
    25
100
AcDbLine
 10
6224.4187553361
 20
4701.970462775
 30
0.0
 11
6224.4187553361
 21
4700.970462775
 31
0.0
  0
LINE
  5
3C6
330
1F
100
AcDbEntity
  8
0
  6
SLD-Plná
 62
     7
370
    25
100
AcDbLine
 10
6242.6187553361
 20
4700.970462775
 30
0.0
 11
6242.6187553361
 21
4701.970462775
 31
0.0
  0
LINE
  5
3C7
330
1F
100
AcDbEntity
  8
0
  6
SLD-Plná
 62
     7
370
    25
100
AcDbLine
 10
6223.7038007371
 20
4699.089791097
 30
0.0
 11
6225.1192729332
 21
4698.7105164628
 31
0.0
  0
LINE
  5
3C8
330
1F
100
AcDbEntity
  8
0
  6
SLD-Plná
 62
     7
370
    25
100
AcDbLine
 10
6241.918237739
 20
4698.7105164628
 30
0.0
 11
6243.3337099351
 21
4699.089791097
 31
0.0
  0
LINE
  5
3C9
330
1F
100
AcDbEntity
  8
0
  6
SLD-Plná
 62
     7
370
    25
100
AcDbLine
 10
6243.3337099123
 20
4700.551134459
 30
0.0
 11
6241.7687553364
 21
4700.9704627763
 31
0.0
  0
LINE
  5
3CA
330
1F
100
AcDbEntity
  8
0
  6
SLD-Plná
 62
     7
370
    25
100
AcDbLine
 10
6225.2687553357
 20
4700.9704627763
 30
0.0
 11
6223.7038007599
 21
4700.551134459
 31
0.0
  0
ARC
  5
3CB
330
1F
100
AcDbEntity
  8
0
  6
SLD-Plná
 62
     7
370
    25
100
AcDbCircle
 10
6240.3687553361
 20
4698.670462775
 30
0.0
 40
1.550000000001091
100
AcDbArc
 50
270.0
 51
1.4807501636
  0
ARC
  5
3CC
330
1F
100
AcDbEntity
  8
0
  6
SLD-Plná
 62
     7
370
    25
100
AcDbCircle
 10
6226.6687553361
 20
4698.670462775
 30
0.0
 40
1.550000000001091
100
AcDbArc
 50
178.5192498364
 51
270.0
  0
LINE
  5
3CD
330
1F
100
AcDbEntity
  8
0
  6
SLD-Plná
 62
     7
370
    25
100
AcDbLine
 10
6240.3687553361
 20
4695.4149003437
 30
0.0
 11
6240.3687553361
 21
4697.120462775
 31
0.0
  0
LINE
  5
3CE
330
1F
100
AcDbEntity
  8
0
  6
SLD-Plná
 62
     7
370
    25
100
AcDbLine
 10
6226.6687553361
 20
4697.120462775
 30
0.0
 11
6226.6687553361
 21
4695.4149003437
 31
0.0
  0
SPLINE
  5
3CF
330
1F
100
AcDbEntity
  8
0
  6
SLD-Plná
 62
     7
370
    25
100
AcDbSpline
210
0.0
220
0.0
230
1.0
 70
     8
 71
     3
 72
    11
 73
     7
 74
     0
 42
0.00000001
 43
0.00000001
 40
0.0
 40
0.0
 40
0.0
 40
0.0
 40
0.2961320367399958
 40
0.5612728004069073
 40
0.7959003045451074
 40
1.0
 40
1.0
 40
1.0
 40
1.0
 10
6226.669151034982
 20
4695.414900343713
 30
0.0
 10
6226.689269764339
 20
4695.223377339493
 30
0.0
 10
6226.727401726321
 20
4694.86037489604
 30
0.0
 10
6226.995726394621
 20
4694.410107378466
 30
0.0
 10
6227.327534777338
 20
4694.092957638059
 30
0.0
 10
6227.583663700982
 20
4693.97396502572
 30
0.0
 10
6227.702817095987
 20
4693.918608631216
 30
0.0
  0
SPLINE
  5
3D0
330
1F
100
AcDbEntity
  8
0
  6
SLD-Plná
 62
     7
370
    25
100
AcDbSpline
210
0.0
220
0.0
230
1.0
 70
     8
 71
     3
 72
    11
 73
     7
 74
     0
 42
0.00000001
 43
0.00000001
 40
0.0
 40
0.0
 40
0.0
 40
0.0
 40
0.2047166630128709
 40
0.4394627318968545
 40
0.7043524334422196
 40
0.9999999999999999
 40
0.9999999999999999
 40
0.9999999999999999
 40
0.9999999999999999
 10
6239.340913860715
 20
4693.918608631215
 30
0.0
 10
6239.46023490214
 20
4693.973914578268
 30
0.0
 10
6239.716379907954
 20
4694.092639171684
 30
0.0
 10
6240.048841071431
 20
4694.409825903401
 30
0.0
 10
6240.317566480119
 20
4694.860195700655
 30
0.0
 10
6240.355760122536
 20
4695.223356332141
 30
0.0
 10
6240.375904826698
 20
4695.414900343713
 30
0.0
  0
ARC
  5
3D1
330
1F
100
AcDbEntity
  8
0
  6
SLD-Plná
 62
     7
370
    25
100
AcDbCircle
 10
6239.6187553361
 20
4693.170462775
 30
0.0
 40
0.8000000000001819
100
AcDbArc
 50
116.7713665947
 51
179.9999999999
  0
ARC
  5
3D2
330
1F
100
AcDbEntity
  8
0
  6
SLD-Plná
 62
     7
370
    25
100
AcDbCircle
 10
6227.4187553361
 20
4693.170462775
 30
0.0
 40
0.8000000000009967
100
AcDbArc
 50
0.0000000001
 51
65.8553183626
  0
ARC
  5
3D3
330
1F
100
AcDbEntity
  8
0
  6
SLD-Plná
 62
     7
370
    25
100
AcDbCircle
 10
6237.2187553361
 20
4689.270462775
 30
0.0
 40
1.599999999999454
100
AcDbArc
 50
270.0
 51
0.0
  0
ARC
  5
3D4
330
1F
100
AcDbEntity
  8
0
  6
SLD-Plná
 62
     7
370
    25
100
AcDbCircle
 10
6229.8187553361
 20
4689.270462775
 30
0.0
 40
1.599999999999454
100
AcDbArc
 50
180.0
 51
270.0
  0
LINE
  5
3D5
330
1F
100
AcDbEntity
  8
0
  6
SLD-Plná
 62
     7
370
    25
100
AcDbLine
 10
6238.8187553361
 20
4689.270462775
 30
0.0
 11
6238.8187553361
 21
4693.170462775
 31
0.0
  0
LINE
  5
3D6
330
1F
100
AcDbEntity
  8
0
  6
SLD-Plná
 62
     7
370
    25
100
AcDbLine
 10
6228.2187553361
 20
4693.170462775
 30
0.0
 11
6228.2187553361
 21
4689.270462775
 31
0.0
  0
LINE
  5
3D7
330
1F
100
AcDbEntity
  8
0
  6
SLD-Plná
 62
     7
370
    25
100
AcDbLine
 10
6262.0187553361
 20
4700.870462775
 30
0.0
 11
6263.0187553361
 21
4699.870462775
 31
0.0
  0
LINE
  5
3D8
330
1F
100
AcDbEntity
  8
0
  6
SLD-Plná
 62
     7
370
    25
100
AcDbLine
 10
6285.0187553361
 20
4699.870462775
 30
0.0
 11
6286.0187553361
 21
4700.870462775
 31
0.0
  0
LINE
  5
3D9
330
1F
100
AcDbEntity
  8
0
  6
SLD-Plná
 62
     7
370
    25
100
AcDbLine
 10
6262.0187553361
 20
4701.970462775
 30
0.0
 11
6262.0187553361
 21
4700.870462775
 31
0.0
  0
LINE
  5
3DA
330
1F
100
AcDbEntity
  8
0
  6
SLD-Plná
 62
     7
370
    25
100
AcDbLine
 10
6286.0187553361
 20
4700.870462775
 30
0.0
 11
6286.0187553361
 21
4701.970462775
 31
0.0
  0
ARC
  5
3DB
330
1F
100
AcDbEntity
  8
0
  6
SLD-Plná
 62
     7
370
    25
100
AcDbCircle
 10
6279.4187553361
 20
4699.870462775
 30
0.0
 40
0.1999999999998181
100
AcDbArc
 50
270.0
 51
0.0
  0
ARC
  5
3DC
330
1F
100
AcDbEntity
  8
0
  6
SLD-Plná
 62
     7
370
    25
100
AcDbCircle
 10
6268.6187553361
 20
4699.870462775
 30
0.0
 40
0.1999999999998181
100
AcDbArc
 50
180.0
 51
270.0
  0
LINE
  5
3DD
330
1F
100
AcDbEntity
  8
0
  6
SLD-Plná
 62
     7
370
    25
100
AcDbLine
 10
6274.1127409747
 20
4699.670462775
 30
0.0
 11
6274.1127409747
 21
4699.870462775
 31
0.0
  0
LINE
  5
3DE
330
1F
100
AcDbEntity
  8
0
  6
SLD-Plná
 62
     7
370
    25
100
AcDbLine
 10
6223.9854220028
 20
4726.170462775
 30
0.0
 11
6215.6520886694
 21
4726.170462775
 31
0.0
  0
LINE
  5
3DF
330
1F
100
AcDbEntity
  8
0
  6
SLD-Plná
 62
     7
370
    25
100
AcDbLine
 10
6215.6520886694
 20
4718.970462775
 30
0.0
 11
6223.9854220028
 21
4718.970462775
 31
0.0
  0
LINE
  5
3E0
330
1F
100
AcDbEntity
  8
0
  6
SLD-Plná
 62
     7
370
    25
100
AcDbLine
 10
6240.6520886694
 20
4726.170462775
 30
0.0
 11
6232.3187553361
 21
4726.170462775
 31
0.0
  0
LINE
  5
3E1
330
1F
100
AcDbEntity
  8
0
  6
SLD-Plná
 62
     7
370
    25
100
AcDbLine
 10
6232.3187553361
 20
4718.970462775
 30
0.0
 11
6240.6520886694
 21
4718.970462775
 31
0.0
  0
LINE
  5
3E2
330
1F
100
AcDbEntity
  8
0
  6
SLD-Plná
 62
     7
370
    25
100
AcDbLine
 10
6257.3187553361
 20
4726.170462775
 30
0.0
 11
6248.9854220028
 21
4726.170462775
 31
0.0
  0
LINE
  5
3E3
330
1F
100
AcDbEntity
  8
0
  6
SLD-Plná
 62
     7
370
    25
100
AcDbLine
 10
6248.9854220028
 20
4718.970462775
 30
0.0
 11
6257.3187553361
 21
4718.970462775
 31
0.0
  0
ARC
  5
3E4
330
1F
100
AcDbEntity
  8
0
  6
SLD-Plná
 62
     7
370
    25
100
AcDbCircle
 10
6257.535400015
 20
4725.753818096
 30
0.0
 40
0.2166446789415204
100
AcDbArc
 50
37.0509748057
 51
180.0
  0
ARC
  5
3E5
330
1F
100
AcDbEntity
  8
0
  6
SLD-Plná
 62
     7
370
    25
100
AcDbCircle
 10
6257.535400015
 20
4719.3871074539
 30
0.0
 40
0.2166446789415204
100
AcDbArc
 50
180.0
 51
322.9490251943
  0
ARC
  5
3E6
330
1F
100
AcDbEntity
  8
0
  6
SLD-Plná
 62
     7
370
    25
100
AcDbCircle
 10
6253.3187553361
 20
4722.570462775
 30
0.0
 40
5.500000000000923
100
AcDbArc
 50
322.9490251942
 51
37.0509748058
  0
LINE
  5
3E7
330
1F
100
AcDbEntity
  8
0
  6
SLD-Plná
 62
     7
370
    25
100
AcDbLine
 10
6307.3854220029
 20
4726.170462775
 30
0.0
 11
6299.0520886695
 21
4726.170462775
 31
0.0
  0
LINE
  5
3E8
330
1F
100
AcDbEntity
  8
0
  6
SLD-Plná
 62
     7
370
    25
100
AcDbLine
 10
6299.0520886695
 20
4718.970462775
 30
0.0
 11
6307.3854220029
 21
4718.970462775
 31
0.0
  0
LINE
  5
3E9
330
1F
100
AcDbEntity
  8
0
  6
SLD-Plná
 62
     7
370
    25
100
AcDbLine
 10
6324.0520886695
 20
4726.170462775
 30
0.0
 11
6315.7187553362
 21
4726.170462775
 31
0.0
  0
LINE
  5
3EA
330
1F
100
AcDbEntity
  8
0
  6
SLD-Plná
 62
     7
370
    25
100
AcDbLine
 10
6315.7187553362
 20
4718.970462775
 30
0.0
 11
6324.0520886695
 21
4718.970462775
 31
0.0
  0
LINE
  5
3EB
330
1F
100
AcDbEntity
  8
0
  6
SLD-Plná
 62
     7
370
    25
100
AcDbLine
 10
6340.7187553362
 20
4726.170462775
 30
0.0
 11
6332.3854220029
 21
4726.170462775
 31
0.0
  0
LINE
  5
3EC
330
1F
100
AcDbEntity
  8
0
  6
SLD-Plná
 62
     7
370
    25
100
AcDbLine
 10
6332.3854220029
 20
4718.970462775
 30
0.0
 11
6340.7187553362
 21
4718.970462775
 31
0.0
  0
ARC
  5
3ED
330
1F
100
AcDbEntity
  8
0
  6
SLD-Plná
 62
     7
370
    25
100
AcDbCircle
 10
6340.9354000151
 20
4725.753818096
 30
0.0
 40
0.2166446789415204
100
AcDbArc
 50
37.0509748057
 51
180.0
  0
ARC
  5
3EE
330
1F
100
AcDbEntity
  8
0
  6
SLD-Plná
 62
     7
370
    25
100
AcDbCircle
 10
6340.9354000151
 20
4719.3871074539
 30
0.0
 40
0.2166446789415204
100
AcDbArc
 50
180.0
 51
322.9490251943
  0
ARC
  5
3EF
330
1F
100
AcDbEntity
  8
0
  6
SLD-Plná
 62
     7
370
    25
100
AcDbCircle
 10
6336.7187553362
 20
4722.570462775
 30
0.0
 40
5.500000000000196
100
AcDbArc
 50
322.9490251942
 51
37.0509748058
  0
LINE
  5
3F0
330
1F
100
AcDbEntity
  8
0
  6
SLD-Plná
 62
     7
370
    25
100
AcDbLine
 10
6240.6520886694
 20
4718.9704627749
 30
0.0
 11
6248.9854220028
 21
4718.9704627749
 31
0.0
  0
LINE
  5
3F1
330
1F
100
AcDbEntity
  8
0
  6
SLD-Plná
 62
     7
370
    25
100
AcDbLine
 10
6248.9854220027
 20
4726.1704627749
 30
0.0
 11
6240.6520886694
 21
4726.1704627749
 31
0.0
  0
LINE
  5
3F2
330
1F
100
AcDbEntity
  8
0
  6
SLD-Plná
 62
     7
370
    25
100
AcDbLine
 10
6223.9854220028
 20
4718.9704627749
 30
0.0
 11
6232.3187553361
 21
4718.9704627749
 31
0.0
  0
LINE
  5
3F3
330
1F
100
AcDbEntity
  8
0
  6
SLD-Plná
 62
     7
370
    25
100
AcDbLine
 10
6232.3187553361
 20
4726.1704627749
 30
0.0
 11
6223.9854220027
 21
4726.1704627749
 31
0.0
  0
LINE
  5
3F4
330
1F
100
AcDbEntity
  8
0
  6
SLD-Plná
 62
     7
370
    25
100
AcDbLine
 10
6207.3187553361
 20
4718.9704627749
 30
0.0
 11
6215.6520886694
 21
4718.9704627749
 31
0.0
  0
LINE
  5
3F5
330
1F
100
AcDbEntity
  8
0
  6
SLD-Plná
 62
     7
370
    25
100
AcDbLine
 10
6215.6520886694
 20
4726.1704627749
 30
0.0
 11
6207.3187553361
 21
4726.1704627749
 31
0.0
  0
ARC
  5
3F6
330
1F
100
AcDbEntity
  8
0
  6
SLD-Plná
 62
     7
370
    25
100
AcDbCircle
 10
6207.1021106571
 20
4719.3871074538
 30
0.0
 40
0.2166446789424299
100
AcDbArc
 50
217.0509748057
 51
0.0000000002
  0
ARC
  5
3F7
330
1F
100
AcDbEntity
  8
0
  6
SLD-Plná
 62
     7
370
    25
100
AcDbCircle
 10
6207.1021106571
 20
4725.7538180959
 30
0.0
 40
0.216644678941915
100
AcDbArc
 50
0.0
 51
142.9490251941
  0
ARC
  5
3F8
330
1F
100
AcDbEntity
  8
0
  6
SLD-Plná
 62
     7
370
    25
100
AcDbCircle
 10
6211.3187553361
 20
4722.5704627749
 30
0.0
 40
5.500000000000567
100
AcDbArc
 50
142.9490251942
 51
217.0509748058
  0
LINE
  5
3F9
330
1F
100
AcDbEntity
  8
0
  6
SLD-Plná
 62
     7
370
    25
100
AcDbLine
 10
6324.0520886695
 20
4718.9704627749
 30
0.0
 11
6332.3854220029
 21
4718.9704627749
 31
0.0
  0
LINE
  5
3FA
330
1F
100
AcDbEntity
  8
0
  6
SLD-Plná
 62
     7
370
    25
100
AcDbLine
 10
6332.3854220029
 20
4726.1704627749
 30
0.0
 11
6324.0520886695
 21
4726.1704627749
 31
0.0
  0
LINE
  5
3FB
330
1F
100
AcDbEntity
  8
0
  6
SLD-Plná
 62
     7
370
    25
100
AcDbLine
 10
6307.3854220029
 20
4718.9704627749
 30
0.0
 11
6315.7187553362
 21
4718.9704627749
 31
0.0
  0
LINE
  5
3FC
330
1F
100
AcDbEntity
  8
0
  6
SLD-Plná
 62
     7
370
    25
100
AcDbLine
 10
6315.7187553362
 20
4726.1704627749
 30
0.0
 11
6307.3854220029
 21
4726.1704627749
 31
0.0
  0
LINE
  5
3FD
330
1F
100
AcDbEntity
  8
0
  6
SLD-Plná
 62
     7
370
    25
100
AcDbLine
 10
6290.7187553362
 20
4718.9704627749
 30
0.0
 11
6299.0520886695
 21
4718.9704627749
 31
0.0
  0
LINE
  5
3FE
330
1F
100
AcDbEntity
  8
0
  6
SLD-Plná
 62
     7
370
    25
100
AcDbLine
 10
6299.0520886695
 20
4726.1704627749
 30
0.0
 11
6290.7187553362
 21
4726.1704627749
 31
0.0
  0
ARC
  5
3FF
330
1F
100
AcDbEntity
  8
0
  6
SLD-Plná
 62
     7
370
    25
100
AcDbCircle
 10
6290.5021106573
 20
4719.3871074538
 30
0.0
 40
0.216644678941915
100
AcDbArc
 50
217.0509748059
 51
0.0
  0
ARC
  5
400
330
1F
100
AcDbEntity
  8
0
  6
SLD-Plná
 62
     7
370
    25
100
AcDbCircle
 10
6290.5021106573
 20
4725.7538180959
 30
0.0
 40
0.216644678941915
100
AcDbArc
 50
0.0
 51
142.9490251941
  0
ARC
  5
401
330
1F
100
AcDbEntity
  8
0
  6
SLD-Plná
 62
     7
370
    25
100
AcDbCircle
 10
6294.7187553362
 20
4722.5704627749
 30
0.0
 40
5.499999999999841
100
AcDbArc
 50
142.9490251942
 51
217.0509748058
  0
LINE
  5
402
330
1F
100
AcDbEntity
  8
0
  6
SLD-Plná
 62
     7
370
    25
100
AcDbLine
 10
6161.4245023361
 20
4744.8586532266
 30
0.0
 11
6170.829427504
 21
4742.338611123
 31
0.0
  0
LINE
  5
403
330
1F
100
AcDbEntity
  8
0
  6
SLD-Plná
 62
     7
370
    25
100
AcDbLine
 10
6161.4245023361
 20
4744.8586532266
 30
0.0
 11
6386.6130083361
 21
4744.8586532266
 31
0.0
  0
LINE
  5
404
330
1F
100
AcDbEntity
  8
0
  6
SLD-Plná
 62
     7
370
    25
100
AcDbLine
 10
6377.2080831682
 20
4742.338611123
 30
0.0
 11
6386.6130083361
 21
4744.8586532266
 31
0.0
  0
LINE
  5
405
330
1F
100
AcDbEntity
  8
0
  6
SLD-Plná
 62
     7
370
    25
100
AcDbLine
 10
6170.829427504
 20
4742.338611123
 30
0.0
 11
6377.2080831682
 21
4742.338611123
 31
0.0
  0
LINE
  5
406
330
1F
100
AcDbEntity
  8
0
  6
SLD-Plná
 62
     7
370
    25
100
AcDbLine
 10
6161.4245023361
 20
4744.8586532266
 30
0.0
 11
6161.4245023361
 21
4746.307541966
 31
0.0
  0
LINE
  5
407
330
1F
100
AcDbEntity
  8
0
  6
SLD-Plná
 62
     7
370
    25
100
AcDbLine
 10
6161.4245023361
 20
4746.307541966
 30
0.0
 11
6386.6130083361
 21
4746.307541966
 31
0.0
  0
LINE
  5
408
330
1F
100
AcDbEntity
  8
0
  6
SLD-Plná
 62
     7
370
    25
100
AcDbLine
 10
6386.6130083361
 20
4744.8586532266
 30
0.0
 11
6386.6130083361
 21
4746.307541966
 31
0.0
  0
LINE
  5
409
330
1F
100
AcDbEntity
  8
0
  6
SLD-Plná
 62
     7
370
    25
100
AcDbLine
 10
6387.1780135991
 20
4744.8586532266
 30
0.0
 11
6377.7730884312
 21
4742.338611123
 31
0.0
  0
LINE
  5
40A
330
1F
100
AcDbEntity
  8
0
  6
SLD-Plná
 62
     7
370
    25
100
AcDbLine
 10
6377.7730884312
 20
4742.338611123
 30
0.0
 11
6377.7352402552
 21
4742.4798624388
 31
0.0
  0
LINE
  5
40B
330
1F
100
AcDbEntity
  8
0
  6
SLD-Plná
 62
     7
370
    25
100
AcDbLine
 10
6387.1780135991
 20
4744.8586532266
 30
0.0
 11
6386.7897850314
 21
4746.307541966
 31
0.0
  0
LINE
  5
40C
330
1F
100
AcDbEntity
  8
0
  6
SLD-Plná
 62
     7
370
    25
100
AcDbLine
 10
6386.7897850314
 20
4746.307541966
 30
0.0
 11
6386.6130083362
 21
4746.2601747933
 31
0.0
  0
LINE
  5
40D
330
1F
100
AcDbEntity
  8
0
  6
SLD-Plná
 62
     7
370
    25
100
AcDbLine
 10
6161.4245023361
 20
4746.2601747933
 30
0.0
 11
6161.2477256409
 21
4746.307541966
 31
0.0
  0
LINE
  5
40E
330
1F
100
AcDbEntity
  8
0
  6
SLD-Plná
 62
     7
370
    25
100
AcDbLine
 10
6170.2644222411
 20
4742.338611123
 30
0.0
 11
6170.3022704171
 21
4742.4798624387
 31
0.0
  0
LINE
  5
40F
330
1F
100
AcDbEntity
  8
0
  6
SLD-Plná
 62
     7
370
    25
100
AcDbLine
 10
6170.2644222411
 20
4742.338611123
 30
0.0
 11
6160.8594970732
 21
4744.8586532266
 31
0.0
  0
LINE
  5
410
330
1F
100
AcDbEntity
  8
0
  6
SLD-Plná
 62
     7
370
    25
100
AcDbLine
 10
6160.8594970732
 20
4744.8586532266
 30
0.0
 11
6161.2477256409
 21
4746.307541966
 31
0.0
  0
LINE
  5
411
330
1F
100
AcDbEntity
  8
0
  6
SLD-Plná
 62
     7
370
    25
100
AcDbLine
 10
6377.255450341
 20
4742.2704627756
 30
0.0
 11
6377.255450341
 21
4742.3513031187
 31
0.0
  0
ELLIPSE
  5
412
330
1F
100
AcDbEntity
  8
0
  6
SLD-Plná
 62
     7
370
    25
100
AcDbEllipse
 10
6377.2554503409
 20
4744.2704627756
 30
0.0
 11
0.0
 21
2.0
 31
0.0
210
0.0
220
0.0
230
1.0
 40
0.091506351
 41
2.87979326578082
 42
3.141592653828486
  0
ELLIPSE
  5
413
330
1F
100
AcDbEntity
  8
0
  6
SLD-Plná
 62
     7
370
    25
100
AcDbEllipse
 10
6170.7820603313
 20
4744.2704627756
 30
0.0
 11
0.0
 21
2.0
 31
0.0
210
0.0
220
0.0
230
1.0
 40
0.0915063508
 41
3.141592653589792
 42
3.403392041391502
  0
LINE
  5
414
330
1F
100
AcDbEntity
  8
0
  6
SLD-Plná
 62
     7
370
    25
100
AcDbLine
 10
6170.7820603313
 20
4742.2704627756
 30
0.0
 11
6377.255450341
 21
4742.2704627756
 31
0.0
  0
LINE
  5
415
330
1F
100
AcDbEntity
  8
0
  6
SLD-Plná
 62
     7
370
    25
100
AcDbLine
 10
6170.7820603313
 20
4742.2704627756
 30
0.0
 11
6170.7820603313
 21
4742.3513031187
 31
0.0
  0
ARC
  5
416
330
1F
100
AcDbEntity
  8
0
  6
SLD-Plná
 62
     7
370
    25
100
AcDbCircle
 10
6377.255450341
 20
4744.2704627756
 30
0.0
 40
1.999999999999124
100
AcDbArc
 50
270.0
 51
285.0
  0
ARC
  5
417
330
1F
100
AcDbEntity
  8
0
  6
SLD-Plná
 62
     7
370
    25
100
AcDbCircle
 10
6170.7820603313
 20
4744.2704627756
 30
0.0
 40
1.999999999999124
100
AcDbArc
 50
255.0
 51
270.0000000001
  0
LINE
  5
418
330
1F
100
AcDbEntity
  8
0
  6
SLD-Plná
 62
     7
370
    25
100
AcDbLine
 10
6175.1955320313
 20
4746.307541966
 30
0.0
 11
6175.1955320314
 21
4833.2704627756
 31
0.0
  0
LINE
  5
419
330
1F
100
AcDbEntity
  8
0
  6
SLD-Plná
 62
     7
370
    25
100
AcDbLine
 10
6175.1955320314
 20
4833.2704627756
 30
0.0
 11
6372.8419786407
 21
4833.2704627756
 31
0.0
  0
LINE
  5
41A
330
1F
100
AcDbEntity
  8
0
  6
SLD-Plná
 62
     7
370
    25
100
AcDbLine
 10
6372.8419786407
 20
4833.2704627756
 30
0.0
 11
6372.8419786407
 21
4746.307541966
 31
0.0
  0
ELLIPSE
  5
41B
330
1F
100
AcDbEntity
  8
0
  6
SLD-Plná
 62
     7
370
    25
100
AcDbEllipse
 10
6175.518755336
 20
4833.2704627756
 30
0.0
 11
0.0
 21
1.5
 31
0.0
210
0.0
220
0.0
230
1.0
 40
0.2154822031
 41
0.0
 42
1.570796326795503
  0
LINE
  5
41C
330
1F
100
AcDbEntity
  8
0
  6
SLD-Plná
 62
     7
370
    25
100
AcDbLine
 10
6175.518755336
 20
4834.7704627756
 30
0.0
 11
6372.5187553361
 21
4834.7704627756
 31
0.0
  0
ELLIPSE
  5
41D
330
1F
100
AcDbEntity
  8
0
  6
SLD-Plná
 62
     7
370
    25
100
AcDbEllipse
 10
6372.5187553361
 20
4833.2704627756
 30
0.0
 11
0.0
 21
1.5
 31
0.0
210
0.0
220
0.0
230
1.0
 40
0.2154822031
 41
4.712388980384087
 42
6.283185307179586
  0
ARC
  5
41E
330
1F
100
AcDbEntity
  8
0
  6
SLD-Plná
 62
     7
370
    25
100
AcDbCircle
 10
6372.5187553361
 20
4833.2704627756
 30
0.0
 40
1.5
100
AcDbArc
 50
360.0
 51
90.0000000016
  0
LINE
  5
41F
330
1F
100
AcDbEntity
  8
0
  6
SLD-Plná
 62
     7
370
    25
100
AcDbLine
 10
6374.0187553361
 20
4833.2704627756
 30
0.0
 11
6373.0187553361
 21
4833.2704627756
 31
0.0
  0
ARC
  5
420
330
1F
100
AcDbEntity
  8
0
  6
SLD-Plná
 62
     7
370
    25
100
AcDbCircle
 10
6372.5187553361
 20
4833.2704627756
 30
0.0
 40
0.4999999999999653
100
AcDbArc
 50
0.0
 51
51.381045369
  0
LINE
  5
421
330
1F
100
AcDbEntity
  8
0
  6
SLD-Plná
 62
     7
370
    25
100
AcDbLine
 10
6374.0187553361
 20
4746.307541966
 30
0.0
 11
6374.0187553361
 21
4833.2704627756
 31
0.0
  0
LINE
  5
422
330
1F
100
AcDbEntity
  8
0
  6
SLD-Plná
 62
     7
370
    25
100
AcDbLine
 10
6373.0187553361
 20
4746.307541966
 30
0.0
 11
6373.0187553361
 21
4833.2704627756
 31
0.0
  0
ARC
  5
423
330
1F
100
AcDbEntity
  8
0
  6
SLD-Plná
 62
     7
370
    25
100
AcDbCircle
 10
6175.518755336
 20
4833.2704627756
 30
0.0
 40
1.5
100
AcDbArc
 50
90.0
 51
180.0
  0
ARC
  5
424
330
1F
100
AcDbEntity
  8
0
  6
SLD-Plná
 62
     7
370
    25
100
AcDbCircle
 10
6175.518755336
 20
4833.2704627756
 30
0.0
 40
0.5000000000009095
100
AcDbArc
 50
128.6189546242
 51
180.0
  0
LINE
  5
425
330
1F
100
AcDbEntity
  8
0
  6
SLD-Plná
 62
     7
370
    25
100
AcDbLine
 10
6174.018755336
 20
4833.2704627756
 30
0.0
 11
6175.018755336
 21
4833.2704627756
 31
0.0
  0
LINE
  5
426
330
1F
100
AcDbEntity
  8
0
  6
SLD-Plná
 62
     7
370
    25
100
AcDbLine
 10
6174.018755336
 20
4833.2704627756
 30
0.0
 11
6174.0187553361
 21
4746.307541966
 31
0.0
  0
LINE
  5
427
330
1F
100
AcDbEntity
  8
0
  6
SLD-Plná
 62
     7
370
    25
100
AcDbLine
 10
6175.018755336
 20
4833.2704627756
 30
0.0
 11
6175.0187553361
 21
4746.307541966
 31
0.0
  0
LINE
  5
428
330
1F
100
AcDbEntity
  8
0
  6
SLD-Plná
 62
     7
370
    25
100
AcDbLine
 10
6292.5187553361
 20
4835.7704627756
 30
0.0
 11
6255.5187554862
 21
4835.7704627756
 31
0.0
  0
LINE
  5
429
330
1F
100
AcDbEntity
  8
0
  6
SLD-Plná
 62
     7
370
    25
100
AcDbLine
 10
6242.6187553361
 20
4700.970462775
 30
0.0
 11
6224.4187553361
 21
4700.970462775
 31
0.0
  0
LINE
  5
42A
330
1F
100
AcDbEntity
  8
0
  6
SLD-Plná
 62
     7
370
    25
100
AcDbLine
 10
6228.6112780594
 20
4699.0897910939
 30
0.0
 11
6228.611278048
 21
4700.551134459
 31
0.0
  0
SPLINE
  5
42B
330
1F
100
AcDbEntity
  8
0
  6
SLD-Plná
 62
     7
370
    25
100
AcDbSpline
210
0.0
220
0.0
230
1.0
 70
     8
 71
     3
 72
     9
 73
     5
 74
     0
 42
0.00000001
 43
0.00000001
 40
0.0
 40
0.0
 40
0.0
 40
0.0
 40
0.495215667161091
 40
1.0
 40
1.0
 40
1.0
 40
1.0
 10
6238.426232624167
 20
4700.55113445899
 30
0.0
 10
6236.806179782678
 20
4700.72617436249
 30
0.0
 10
6233.534771083561
 20
4701.079636328876
 30
0.0
 10
6230.262878276
 20
4700.728421966556
 30
0.0
 10
6228.611278048015
 20
4700.55113445899
 30
0.0
  0
LINE
  5
42C
330
1F
100
AcDbEntity
  8
0
  6
SLD-Plná
 62
     7
370
    25
100
AcDbLine
 10
6238.426232647
 20
4699.0897910939
 30
0.0
 11
6238.4262326242
 21
4700.551134459
 31
0.0
  0
SPLINE
  5
42D
330
1F
100
AcDbEntity
  8
0
  6
SLD-Plná
 62
     7
370
    25
100
AcDbSpline
210
0.0
220
0.0
230
1.0
 70
     8
 71
     3
 72
     9
 73
     5
 74
     0
 42
0.00000001
 43
0.00000001
 40
0.0
 40
0.0
 40
0.0
 40
0.0
 40
0.4952156616863496
 40
0.9999999999999999
 40
0.9999999999999999
 40
0.9999999999999999
 40
0.9999999999999999
 10
6238.42623264701
 20
4699.089791093899
 30
0.0
 10
6236.806179821676
 20
4698.914751190186
 30
0.0
 10
6233.534771119017
 20
4698.561289219459
 30
0.0
 10
6230.262878307352
 20
4698.912503583527
 30
0.0
 10
6228.611278059382
 20
4699.089791093899
 30
0.0
  0
SPLINE
  5
42E
330
1F
100
AcDbEntity
  8
0
  6
SLD-Plná
 62
     7
370
    25
100
AcDbSpline
210
0.0
220
0.0
230
1.0
 70
     8
 71
     3
 72
     9
 73
     5
 74
     0
 42
0.00000001
 43
0.00000001
 40
0.0
 40
0.0
 40
0.0
 40
0.0
 40
0.4952156616863549
 40
1.0
 40
1.0
 40
1.0
 40
1.0
 10
6228.611278059382
 20
4699.089791093899
 30
0.0
 10
6227.801251648101
 20
4698.914751190185
 30
0.0
 10
6226.165547299568
 20
4698.561289219459
 30
0.0
 10
6224.529600879589
 20
4698.912503583527
 30
0.0
 10
6223.703800748463
 20
4699.089791093899
 30
0.0
  0
SPLINE
  5
42F
330
1F
100
AcDbEntity
  8
0
  6
SLD-Plná
 62
     7
370
    25
100
AcDbSpline
210
0.0
220
0.0
230
1.0
 70
     8
 71
     3
 72
     9
 73
     5
 74
     0
 42
0.00000001
 43
0.00000001
 40
0.0
 40
0.0
 40
0.0
 40
0.0
 40
0.4952156654701718
 40
1.0
 40
1.0
 40
1.0
 40
1.0
 10
6243.333709888133
 20
4699.089791084365
 30
0.0
 10
6242.523683473632
 20
4698.91475118369
 30
0.0
 10
6240.887979131097
 20
4698.5612892218
 30
0.0
 10
6239.25203275154
 20
4698.912503585196
 30
0.0
 10
6238.42623264701
 20
4699.089791093899
 30
0.0
  0
LINE
  5
430
330
1F
100
AcDbEntity
  8
0
  6
SLD-Plná
 62
     7
370
    25
100
AcDbLine
 10
6240.7929204715
 20
4698.7105164628
 30
0.0
 11
6225.1192729332
 21
4698.7105164628
 31
0.0
  0
LINE
  5
431
330
1F
100
AcDbEntity
  8
0
  6
SLD-Plná
 62
     7
370
    25
100
AcDbLine
 10
6241.918237739
 20
4698.7105164628
 30
0.0
 11
6240.7929204715
 21
4698.7105164628
 31
0.0
  0
SPLINE
  5
432
330
1F
100
AcDbEntity
  8
0
  6
SLD-Plná
 62
     7
370
    25
100
AcDbSpline
210
0.0
220
0.0
230
1.0
 70
     8
 71
     3
 72
     9
 73
     5
 74
     0
 42
0.00000001
 43
0.00000001
 40
0.0
 40
0.0
 40
0.0
 40
0.0
 40
0.4952156671592679
 40
1.0
 40
1.0
 40
1.0
 40
1.0
 10
6243.333709912278
 20
4700.55113445898
 30
0.0
 10
6242.523683491545
 20
4700.726174362485
 30
0.0
 10
6240.887979142001
 20
4701.079636328879
 30
0.0
 10
6239.252032738182
 20
4700.728421966558
 30
0.0
 10
6238.426232624167
 20
4700.55113445899
 30
0.0
  0
SPLINE
  5
433
330
1F
100
AcDbEntity
  8
0
  6
SLD-Plná
 62
     7
370
    25
100
AcDbSpline
210
0.0
220
0.0
230
1.0
 70
     8
 71
     3
 72
     9
 73
     5
 74
     0
 42
0.00000001
 43
0.00000001
 40
0.0
 40
0.0
 40
0.0
 40
0.0
 40
0.4952156671610937
 40
1.0
 40
1.0
 40
1.0
 40
1.0
 10
6228.611278048015
 20
4700.55113445899
 30
0.0
 10
6227.801251627244
 20
4700.72617436249
 30
0.0
 10
6226.165547277631
 20
4701.079636328877
 30
0.0
 10
6224.529600873905
 20
4700.728421966556
 30
0.0
 10
6223.70380075994
 20
4700.55113445899
 30
0.0
  0
LINE
  5
434
330
1F
100
AcDbEntity
  8
0
  6
SLD-Plná
 62
     7
370
    25
100
AcDbLine
 10
6239.451029352
 20
4697.120462775
 30
0.0
 11
6226.6687553361
 21
4697.120462775
 31
0.0
  0
LINE
  5
435
330
1F
100
AcDbEntity
  8
0
  6
SLD-Plná
 62
     7
370
    25
100
AcDbLine
 10
6240.3687553361
 20
4697.120462775
 30
0.0
 11
6239.451029352
 21
4697.120462775
 31
0.0
  0
SPLINE
  5
436
330
1F
100
AcDbEntity
  8
0
  6
SLD-Plná
 62
     7
370
    25
100
AcDbSpline
210
0.0
220
0.0
230
1.0
 70
     8
 71
     3
 72
    35
 73
    31
 74
     0
 42
0.00000001
 43
0.00000001
 40
0.0
 40
0.0
 40
0.0
 40
0.0
 40
0.0196276605422775
 40
0.0522839308752791
 40
0.0849276874529204
 40
0.1175548105036332
 40
0.1501611969118394
 40
0.1727666096255102
 40
0.2154546194301
 40
0.2594066993815034
 40
0.2728249065639525
 40
0.2773891977447545
 40
0.280522911248557
 40
0.3456452572338891
 40
0.3673548671015825
 40
0.3890437107759708
 40
0.4107086676029205
 40
0.4394898756369489
 40
0.483094120229134
 40
0.541382398957226
 40
0.6035185377943011
 40
0.6256139118834994
 40
0.6483826924094845
 40
0.6717783662777989
 40
0.7248884519072374
 40
0.7707420122474868
 40
0.8294245042384052
 40
0.9009130911680086
 40
0.9851809607813847
 40
1.0
 40
1.0
 40
1.0
 40
1.0
 10
6239.265106777766
 20
4693.919560890037
 30
0.0
 10
6239.277943527867
 20
4693.919637169207
 30
0.0
 10
6239.312137911527
 20
4693.919840360758
 30
0.0
 10
6239.183335175979
 20
4693.919268875764
 30
0.0
 10
6239.035312719322
 20
4693.918543823379
 30
0.0
 10
6238.819047902495
 20
4693.917671037203
 30
0.0
 10
6238.580592489032
 20
4693.915910685994
 30
0.0
 10
6238.278022448495
 20
4693.916238682814
 30
0.0
 10
6237.8904300304
 20
4693.917663405491
 30
0.0
 10
6237.477530625568
 20
4693.918929320132
 30
0.0
 10
6237.201494836125
 20
4693.919634560694
 30
0.0
 10
6237.105240003226
 20
4693.919851883306
 30
0.0
 10
6236.770021491406
 20
4693.920430677573
 30
0.0
 10
6236.319486965361
 20
4693.920262357424
 30
0.0
 10
6235.740961508965
 20
4693.919016139739
 30
0.0
 10
6235.384320474464
 20
4693.918017452574
 30
0.0
 10
6234.979837285077
 20
4693.916104317615
 30
0.0
 10
6234.443182504373
 20
4693.915372921893
 30
0.0
 10
6233.683605524297
 20
4693.916447258253
 30
0.0
 10
6232.722521154112
 20
4693.919032333521
 30
0.0
 10
6231.90577987573
 20
4693.92048146142
 30
0.0
 10
6231.319761722019
 20
4693.920488808169
 30
0.0
 10
6230.956092880927
 20
4693.920296658011
 30
0.0
 10
6230.445807191649
 20
4693.919484998093
 30
0.0
 10
6229.856160008579
 20
4693.919165670468
 30
0.0
 10
6229.185362538061
 20
4693.918917503485
 30
0.0
 10
6228.548213165897
 20
4693.918748026227
 30
0.0
 10
6228.010629434037
 20
4693.918623811889
 30
0.0
 10
6227.701086586318
 20
4693.918560315765
 30
0.0
 10
6227.738170016069
 20
4693.918548621495
 30
0.0
 10
6227.743716064547
 20
4693.918546872546
 30
0.0
  0
LINE
  5
437
330
1F
100
AcDbEntity
  8
0
  6
SLD-Plná
 62
     7
370
    25
100
AcDbLine
 10
6223.7038007485
 20
4699.0897910939
 30
0.0
 11
6223.7038007599
 21
4700.551134459
 31
0.0
  0
LINE
  5
438
330
1F
100
AcDbEntity
  8
0
  6
SLD-Plná
 62
     7
370
    25
100
AcDbLine
 10
6243.3337099123
 20
4700.551134459
 30
0.0
 11
6243.3337098881
 21
4699.0897910844
 31
0.0
  0
SPLINE
  5
439
330
1F
100
AcDbEntity
  8
0
  6
SLD-Plná
 62
     7
370
    25
100
AcDbSpline
210
0.0
220
0.0
230
1.0
 70
    24
 71
     3
 72
    16
 73
    12
 74
     0
 42
0.00000001
 43
0.00000001
 40
0.0
 40
0.0
 40
0.0
 40
0.0
 40
0.1249101044186397
 40
0.2780468256402555
 40
0.3604830064107263
 40
0.4446686012132884
 40
0.5288541960158517
 40
0.6112903767863218
 40
0.7644270980079251
 40
0.9175638192295291
 40
1.0
 40
1.0
 40
1.0
 40
1.0
 10
6230.812627241707
 20
4687.670462774967
 30
0.0
 10
6231.082250210069
 20
4687.670462774967
 30
0.0
 10
6231.682424317853
 20
4687.670462774968
 30
0.0
 10
6232.764134370816
 20
4687.670462774966
 30
0.0
 10
6233.729562773132
 20
4687.670462774966
 30
0.0
 10
6234.48345155824
 20
4687.670462774966
 30
0.0
 10
6235.195239470793
 20
4687.670462774967
 30
0.0
 10
6236.013947359997
 20
4687.670462774966
 30
0.0
 10
6236.795882844238
 20
4687.670462774966
 30
0.0
 10
6237.208069157742
 20
4687.670462774966
 30
0.0
 10
6237.211775926096
 20
4687.670462774966
 30
0.0
 10
6237.213073069459
 20
4687.670462774966
 30
0.0
  0
LINE
  5
43A
330
1F
100
AcDbEntity
  8
0
  6
SLD-Plná
 62
     7
370
    25
100
AcDbLine
 10
6285.0187553361
 20
4699.870462775
 30
0.0
 11
6263.0187553361
 21
4699.870462775
 31
0.0
  0
LINE
  5
43B
330
1F
100
AcDbEntity
  8
0
  6
SLD-Plná
 62
     7
370
    25
100
AcDbLine
 10
6262.0187553361
 20
4700.870462775
 30
0.0
 11
6286.0187553361
 21
4700.870462775
 31
0.0
  0
LINE
  5
43C
330
1F
100
AcDbEntity
  8
0
  6
SLD-Plná
 62
     7
370
    25
100
AcDbLine
 10
6273.5795780464
 20
4699.670462775
 30
0.0
 11
6268.6187553361
 21
4699.670462775
 31
0.0
  0
LINE
  5
43D
330
1F
100
AcDbEntity
  8
0
  6
SLD-Plná
 62
     7
370
    25
100
AcDbLine
 10
6279.4187553361
 20
4699.670462775
 30
0.0
 11
6274.5795780464
 21
4699.670462775
 31
0.0
  0
SPLINE
  5
43E
330
1F
100
AcDbEntity
  8
0
  6
SLD-Plná
 62
     7
370
    25
100
AcDbSpline
210
0.0
220
0.0
230
1.0
 70
    24
 71
     3
 72
    13
 73
     9
 74
     0
 42
0.00000001
 43
0.00000001
 40
0.0
 40
0.0
 40
0.0
 40
0.0
 40
0.0078315083444775
 40
0.2242134010656828
 40
0.440506527411377
 40
0.6560344530517136
 40
0.8704785517425164
 40
0.9999999999999999
 40
0.9999999999999999
 40
0.9999999999999999
 40
0.9999999999999999
 10
6274.57957804637
 20
4699.670462774967
 30
0.0
 10
6274.57957804637
 20
4699.670466026536
 30
0.0
 10
6274.57957804637
 20
4699.670559117844
 30
0.0
 10
6274.57957804637
 20
4699.679057963822
 30
0.0
 10
6274.57957804637
 20
4699.713274211824
 30
0.0
 10
6274.57957804637
 20
4699.765333736598
 30
0.0
 10
6274.57957804637
 20
4699.820905486724
 30
0.0
 10
6274.57957804637
 20
4699.856906474984
 30
0.0
 10
6274.57957804637
 20
4699.870462774967
 30
0.0
  0
SPLINE
  5
43F
330
1F
100
AcDbEntity
  8
0
  6
SLD-Plná
 62
     7
370
    25
100
AcDbSpline
210
0.0
220
0.0
230
1.0
 70
    24
 71
     3
 72
    13
 73
     9
 74
     0
 42
0.00000001
 43
0.00000001
 40
0.0
 40
0.0
 40
0.0
 40
0.0
 40
0.0254342784919342
 40
0.2391405405228668
 40
0.4528843033372799
 40
0.6670512278740933
 40
0.8818628295038904
 40
1.0
 40
1.0
 40
1.0
 40
1.0
 10
6273.579578046369
 20
4699.870462774967
 30
0.0
 10
6273.579578046369
 20
4699.867806759807
 30
0.0
 10
6273.579578046369
 20
4699.842834126862
 30
0.0
 10
6273.579578046369
 20
4699.79554629315
 30
0.0
 10
6273.579578046369
 20
4699.737163225551
 30
0.0
 10
6273.579578046369
 20
4699.693933811839
 30
0.0
 10
6273.579578046369
 20
4699.673067894979
 30
0.0
 10
6273.579578046369
 20
4699.671145042974
 30
0.0
 10
6273.579578046369
 20
4699.670462774967
 30
0.0
  0
LINE
  5
440
330
1F
100
AcDbEntity
  8
0
  6
SLD-Plná
 62
     7
370
    25
100
AcDbLine
 10
6273.5795780464
 20
4699.670462775
 30
0.0
 11
6274.1127409747
 21
4699.670462775
 31
0.0
  0
LINE
  5
441
330
1F
100
AcDbEntity
  8
0
  6
SLD-Plná
 62
     7
370
    25
100
AcDbLine
 10
6274.1127409747
 20
4699.670462775
 30
0.0
 11
6274.5795780464
 21
4699.670462775
 31
0.0
  0
LINE
  5
442
330
1F
100
AcDbEntity
  8
0
  6
SLD-Plná
 62
     7
370
    25
100
AcDbLine
 10
6314.5707337506
 20
4701.470462775
 30
0.0
 11
6308.5913054094
 21
4701.470462775
 31
0.0
  0
LINE
  5
443
330
1F
100
AcDbEntity
  8
0
  6
SLD-Plná
 62
     7
370
    25
100
AcDbLine
 10
6315.5699725512
 20
4701.470462775
 30
0.0
 11
6315.5787000836
 21
4701.970462775
 31
0.0
  0
LINE
  5
444
330
1F
100
AcDbEntity
  8
0
  6
SLD-Plná
 62
     7
370
    25
100
AcDbLine
 10
6314.5707337506
 20
4701.470462775
 30
0.0
 11
6315.5699725512
 21
4701.470462775
 31
0.0
  0
LINE
  5
445
330
1F
100
AcDbEntity
  8
0
  6
SLD-Plná
 62
     7
370
    25
100
AcDbLine
 10
6307.5833390764
 20
4701.970462775
 30
0.0
 11
6307.5920666089
 21
4701.470462775
 31
0.0
  0
LINE
  5
446
330
1F
100
AcDbEntity
  8
0
  6
SLD-Plná
 62
     7
370
    25
100
AcDbLine
 10
6307.5920666089
 20
4701.470462775
 30
0.0
 11
6308.5913054094
 21
4701.470462775
 31
0.0
  0
LINE
  5
447
330
1F
100
AcDbEntity
  8
0
  6
SLD-Plná
 62
     7
370
    25
100
AcDbLine
 10
6303.7873428422
 20
4701.970462775
 30
0.0
 11
6303.8538244054
 21
4698.1617365717
 31
0.0
  0
LINE
  5
448
330
1F
100
AcDbEntity
  8
0
  6
SLD-Plná
 62
     7
370
    25
100
AcDbLine
 10
6325.0374564006
 20
4701.970462775
 30
0.0
 11
6324.9709748374
 21
4698.1617365717
 31
0.0
  0
LINE
  5
449
330
1F
100
AcDbEntity
  8
0
  6
SLD-Plná
 62
     7
370
    25
100
AcDbLine
 10
6324.9709748374
 20
4698.1617365717
 30
0.0
 11
6303.8538244054
 21
4698.1617365717
 31
0.0
  0
LINE
  5
44A
330
1F
100
AcDbEntity
  8
0
  6
SLD-Plná
 62
     7
370
    25
100
AcDbLine
 10
6303.8623996214
 20
4697.670462775
 30
0.0
 11
6324.9623996214
 21
4697.670462775
 31
0.0
  0
LINE
  5
44B
330
1F
100
AcDbEntity
  8
0
  6
SLD-Plná
 62
     7
370
    25
100
AcDbLine
 10
6303.8538244054
 20
4698.1617365717
 30
0.0
 11
6303.8623996214
 21
4697.670462775
 31
0.0
  0
LINE
  5
44C
330
1F
100
AcDbEntity
  8
0
  6
SLD-Plná
 62
     7
370
    25
100
AcDbLine
 10
6324.9623996214
 20
4697.670462775
 30
0.0
 11
6324.9709748374
 21
4698.1617365717
 31
0.0
  0
LINE
  5
44D
330
1F
100
AcDbEntity
  8
0
  6
SLD-Plná
 62
     7
370
    25
100
AcDbLine
 10
6308.4342320045
 20
4683.470462775
 30
0.0
 11
6315.9015786624
 21
4683.470462775
 31
0.0
  0
ARC
  5
44E
330
1F
100
AcDbEntity
  8
0
  6
SLD-Plná
 62
     7
370
    25
100
AcDbCircle
 10
6308.4342320045
 20
4684.470462775
 30
0.0
 40
1.0
100
AcDbArc
 50
181.5
 51
270.0
  0
LINE
  5
44F
330
1F
100
AcDbEntity
  8
0
  6
SLD-Plná
 62
     7
370
    25
100
AcDbLine
 10
6309.3439650648
 20
4685.7883444043
 30
0.0
 11
6314.9918456021
 21
4685.7883444043
 31
0.0
  0
ARC
  5
450
330
1F
100
AcDbEntity
  8
0
  6
SLD-Plná
 62
     7
370
    25
100
AcDbCircle
 10
6315.9015786624
 20
4684.470462775
 30
0.0
 40
1.000000000000858
100
AcDbArc
 50
270.0
 51
358.5
  0
LINE
  5
451
330
1F
100
AcDbEntity
  8
0
  6
SLD-Plná
 62
     7
370
    25
100
AcDbLine
 10
6309.3439650648
 20
4685.7883444043
 30
0.0
 11
6309.2238372418
 21
4692.670462775
 31
0.0
  0
LINE
  5
452
330
1F
100
AcDbEntity
  8
0
  6
SLD-Plná
 62
     7
370
    25
100
AcDbLine
 10
6315.1119734251
 20
4692.670462775
 30
0.0
 11
6314.9918456021
 21
4685.7883444043
 31
0.0
  0
LINE
  5
453
330
1F
100
AcDbEntity
  8
0
  6
SLD-Plná
 62
     7
370
    25
100
AcDbLine
 10
6307.2191646551
 20
4692.670462775
 30
0.0
 11
6307.4345746795
 21
4684.4442858267
 31
0.0
  0
LINE
  5
454
330
1F
100
AcDbEntity
  8
0
  6
SLD-Plná
 62
     7
370
    25
100
AcDbLine
 10
6317.1166460118
 20
4692.670462775
 30
0.0
 11
6316.9012359874
 21
4684.4442858267
 31
0.0
  0
LINE
  5
455
330
1F
100
AcDbEntity
  8
0
  6
SLD-Plná
 62
     7
370
    25
100
AcDbLine
 10
6305.6963085782
 20
4697.670462775
 30
0.0
 11
6305.7139907797
 21
4695.6442831685
 31
0.0
  0
SPLINE
  5
456
330
1F
100
AcDbEntity
  8
0
  6
SLD-Plná
 62
     7
370
    25
100
AcDbSpline
210
0.0
220
0.0
230
1.0
 70
     8
 71
     3
 72
    11
 73
     7
 74
     0
 42
0.00000001
 43
0.00000001
 40
0.0
 40
0.0
 40
0.0
 40
0.0
 40
0.2500000000000779
 40
0.5000000000000702
 40
0.7500000000000655
 40
0.9999999999999999
 40
0.9999999999999999
 40
0.9999999999999999
 40
0.9999999999999999
 10
6305.713990779735
 20
4695.644283168472
 30
0.0
 10
6305.721510524988
 20
4695.643777070322
 30
0.0
 10
6305.736550015496
 20
4695.642764874024
 30
0.0
 10
6305.852172107946
 20
4695.642331681087
 30
0.0
 10
6306.017433194285
 20
4695.642764874024
 30
0.0
 10
6306.148458892272
 20
4695.643777070322
 30
0.0
 10
6306.213971741265
 20
4695.644283168472
 30
0.0
  0
LINE
  5
457
330
1F
100
AcDbEntity
  8
0
  6
SLD-Plná
 62
     7
370
    25
100
AcDbLine
 10
6322.556469266
 20
4695.6442831685
 30
0.0
 11
6306.2139717413
 21
4695.6442831685
 31
0.0
  0
LINE
  5
458
330
1F
100
AcDbEntity
  8
0
  6
SLD-Plná
 62
     7
370
    25
100
AcDbLine
 10
6323.0564502276
 20
4695.6442831685
 30
0.0
 11
6323.0741324291
 21
4697.670462775
 31
0.0
  0
SPLINE
  5
459
330
1F
100
AcDbEntity
  8
0
  6
SLD-Plná
 62
     7
370
    25
100
AcDbSpline
210
0.0
220
0.0
230
1.0
 70
     8
 71
     3
 72
    11
 73
     7
 74
     0
 42
0.00000001
 43
0.00000001
 40
0.0
 40
0.0
 40
0.0
 40
0.0
 40
0.2499999999999133
 40
0.4999999999999079
 40
0.7499999999998828
 40
1.0
 40
1.0
 40
1.0
 40
1.0
 10
6322.556469266038
 20
4695.644283168472
 30
0.0
 10
6322.621982115032
 20
4695.643777070322
 30
0.0
 10
6322.753007813018
 20
4695.642764874024
 30
0.0
 10
6322.918268899359
 20
4695.642331681087
 30
0.0
 10
6323.033890991809
 20
4695.642764874024
 30
0.0
 10
6323.048930482317
 20
4695.643777070322
 30
0.0
 10
6323.056450227571
 20
4695.644283168472
 30
0.0
  0
LINE
  5
45A
330
1F
100
AcDbEntity
  8
0
  6
SLD-Plná
 62
     7
370
    25
100
AcDbLine
 10
6306.2355985218
 20
4692.670462775
 30
0.0
 11
6322.5348424855
 21
4692.670462775
 31
0.0
  0
SPLINE
  5
45B
330
1F
100
AcDbEntity
  8
0
  6
SLD-Plná
 62
     7
370
    25
100
AcDbSpline
210
0.0
220
0.0
230
1.0
 70
     8
 71
     3
 72
    13
 73
     9
 74
     0
 42
0.00000001
 43
0.00000001
 40
0.0
 40
0.0
 40
0.0
 40
0.0
 40
0.1993624729093069
 40
0.4320079366433492
 40
0.5614183591822872
 40
0.6992244946358035
 40
0.8454204602180126
 40
1.0
 40
1.0
 40
1.0
 40
1.0
 10
6306.23559852244
 20
4692.670462774967
 30
0.0
 10
6306.235297269384
 20
4692.698799654208
 30
0.0
 10
6306.234644469941
 20
4692.760204173088
 30
0.0
 10
6306.231062823989
 20
4693.203181019304
 30
0.0
 10
6306.227163686073
 20
4693.749351994637
 30
0.0
 10
6306.223420312276
 20
4694.290637265951
 30
0.0
 10
6306.219036985941
 20
4694.933990789997
 30
0.0
 10
6306.215691241688
 20
4695.403159960718
 30
0.0
 10
6306.21397174127
 20
4695.644283167883
 30
0.0
  0
SPLINE
  5
45C
330
1F
100
AcDbEntity
  8
0
  6
SLD-Plná
 62
     7
370
    25
100
AcDbSpline
210
0.0
220
0.0
230
1.0
 70
     8
 71
     3
 72
    13
 73
     9
 74
     0
 42
0.00000001
 43
0.00000001
 40
0.0
 40
0.0
 40
0.0
 40
0.0
 40
0.1545795397755803
 40
0.3007755053532432
 40
0.4385816408040795
 40
0.5679920633422043
 40
0.8006375270796832
 40
1.0
 40
1.0
 40
1.0
 40
1.0
 10
6322.556469266038
 20
4695.644283168472
 30
0.0
 10
6322.554749765622
 20
4695.403159961252
 30
0.0
 10
6322.551404021367
 20
4694.933990790422
 30
0.0
 10
6322.547020695031
 20
4694.2906372662
 30
0.0
 10
6322.543277321233
 20
4693.749351994734
 30
0.0
 10
6322.539378183317
 20
4693.203181019252
 30
0.0
 10
6322.535796537366
 20
4692.760204172945
 30
0.0
 10
6322.535143737923
 20
4692.698799654162
 30
0.0
 10
6322.534842484867
 20
4692.670462774967
 30
0.0
  0
LINE
  5
45D
330
1F
100
AcDbEntity
  8
0
  6
SLD-Plná
 62
     7
370
    25
100
AcDbLine
 10
6305.7139907797
 20
4695.6442831685
 30
0.0
 11
6305.7356175609
 21
4693.1660995072
 31
0.0
  0
SPLINE
  5
45E
330
1F
100
AcDbEntity
  8
0
  6
SLD-Plná
 62
     7
370
    25
100
AcDbSpline
210
0.0
220
0.0
230
1.0
 70
     8
 71
     3
 72
    11
 73
     7
 74
     0
 42
0.00000001
 43
0.00000001
 40
0.0
 40
0.0
 40
0.0
 40
0.0
 40
0.2499999999999908
 40
0.4999999999999994
 40
0.7500000000000278
 40
1.0
 40
1.0
 40
1.0
 40
1.0
 10
6305.735617560907
 20
4693.166099507383
 30
0.0
 10
6305.743616634893
 20
4693.101012550302
 30
0.0
 10
6305.759614782864
 20
4692.97083863614
 30
0.0
 10
6305.875449125941
 20
4692.807156688984
 30
0.0
 10
6306.040135672911
 20
4692.692755132578
 30
0.0
 10
6306.170444238831
 20
4692.677893560837
 30
0.0
 10
6306.23559852179
 20
4692.670462774967
 30
0.0
  0
LINE
  5
45F
330
1F
100
AcDbEntity
  8
0
  6
SLD-Plná
 62
     7
370
    25
100
AcDbLine
 10
6323.0348234464
 20
4693.1660995072
 30
0.0
 11
6323.0564502276
 21
4695.6442831685
 31
0.0
  0
SPLINE
  5
460
330
1F
100
AcDbEntity
  8
0
  6
SLD-Plná
 62
     7
370
    25
100
AcDbSpline
210
0.0
220
0.0
230
1.0
 70
     8
 71
     3
 72
    11
 73
     7
 74
     0
 42
0.00000001
 43
0.00000001
 40
0.0
 40
0.0
 40
0.0
 40
0.0
 40
0.2499999999999641
 40
0.4999999999999793
 40
0.7499999999999897
 40
1.0
 40
1.0
 40
1.0
 40
1.0
 10
6322.534842485517
 20
4692.670462774967
 30
0.0
 10
6322.599996768477
 20
4692.677893560837
 30
0.0
 10
6322.730305334397
 20
4692.692755132578
 30
0.0
 10
6322.894991881366
 20
4692.807156688984
 30
0.0
 10
6323.010826224443
 20
4692.97083863614
 30
0.0
 10
6323.026824372414
 20
4693.101012550302
 30
0.0
 10
6323.034823446401
 20
4693.166099507383
 30
0.0
  0
LINE
  5
461
330
1F
100
AcDbEntity
  8
0
  6
SLD-Plná
 62
     7
370
    25
100
AcDbLine
 10
6354.8419786409
 20
4729.0448183879
 30
0.0
 11
6355.0187553368
 21
4729.0448183879
 31
0.0
  0
LINE
  5
462
330
1F
100
AcDbEntity
  8
0
  6
SLD-Plná
 62
     7
370
    25
100
AcDbLine
 10
6193.1955320314
 20
4729.0448183872
 30
0.0
 11
6193.0187553367
 21
4729.0448183872
 31
0.0
  0
LINE
  5
463
330
1F
100
AcDbEntity
  8
0
  6
SLD-Plná
 62
     7
370
    25
100
AcDbLine
 10
6259.0187553361
 20
4725.9704627754
 30
0.0
 11
6257.3187553361
 21
4725.9704627754
 31
0.0
  0
LINE
  5
464
330
1F
100
AcDbEntity
  8
0
  6
SLD-Plná
 62
     7
370
    25
100
AcDbLine
 10
6207.3187553361
 20
4725.9704627754
 30
0.0
 11
6205.818755336
 21
4725.9704627754
 31
0.0
  0
LINE
  5
465
330
1F
100
AcDbEntity
  8
0
  6
SLD-Plná
 62
     7
370
    25
100
AcDbLine
 10
6205.818755336
 20
4725.9704627754
 30
0.0
 11
6205.818755336
 21
4719.1344330097
 31
0.0
  0
LINE
  5
466
330
1F
100
AcDbEntity
  8
0
  6
SLD-Plná
 62
     7
370
    25
100
AcDbLine
 10
6193.1955320313
 20
4719.1344330097
 30
0.0
 11
6205.818755336
 21
4719.1344330097
 31
0.0
  0
LINE
  5
467
330
1F
100
AcDbEntity
  8
0
  6
SLD-Plná
 62
     7
370
    25
100
AcDbLine
 10
6193.1955320313
 20
4719.1344330097
 30
0.0
 11
6193.1955320313
 21
4742.2704627756
 31
0.0
  0
LINE
  5
468
330
1F
100
AcDbEntity
  8
0
  6
SLD-Plná
 62
     7
370
    25
100
AcDbLine
 10
6354.8419786408
 20
4742.2704627756
 30
0.0
 11
6354.8419786408
 21
4719.1344330097
 31
0.0
  0
LINE
  5
469
330
1F
100
AcDbEntity
  8
0
  6
SLD-Plná
 62
     7
370
    25
100
AcDbLine
 10
6342.2187553361
 20
4719.1344330097
 30
0.0
 11
6354.8419786408
 21
4719.1344330097
 31
0.0
  0
LINE
  5
46A
330
1F
100
AcDbEntity
  8
0
  6
SLD-Plná
 62
     7
370
    25
100
AcDbLine
 10
6342.2187553361
 20
4719.1344330097
 30
0.0
 11
6342.2187553361
 21
4725.9704627754
 31
0.0
  0
LINE
  5
46B
330
1F
100
AcDbEntity
  8
0
  6
SLD-Plná
 62
     7
370
    25
100
AcDbLine
 10
6342.2187553361
 20
4725.9704627754
 30
0.0
 11
6340.7187553362
 21
4725.9704627754
 31
0.0
  0
LINE
  5
46C
330
1F
100
AcDbEntity
  8
0
  6
SLD-Plná
 62
     7
370
    25
100
AcDbLine
 10
6290.7187553362
 20
4725.9704627754
 30
0.0
 11
6289.0187553361
 21
4725.9704627754
 31
0.0
  0
LINE
  5
46D
330
1F
100
AcDbEntity
  8
0
  6
SLD-Plná
 62
     7
370
    25
100
AcDbLine
 10
6289.0187553361
 20
4719.1344330097
 30
0.0
 11
6289.0187553361
 21
4725.9704627754
 31
0.0
  0
LINE
  5
46E
330
1F
100
AcDbEntity
  8
0
  6
SLD-Plná
 62
     7
370
    25
100
AcDbLine
 10
6259.0187553361
 20
4719.1344330097
 30
0.0
 11
6289.0187553361
 21
4719.1344330097
 31
0.0
  0
LINE
  5
46F
330
1F
100
AcDbEntity
  8
0
  6
SLD-Plná
 62
     7
370
    25
100
AcDbLine
 10
6259.0187553361
 20
4725.9704627754
 30
0.0
 11
6259.0187553361
 21
4719.1344330097
 31
0.0
  0
LINE
  5
470
330
1F
100
AcDbEntity
  8
0
  6
SLD-Plná
 62
     7
370
    25
100
AcDbLine
 10
6205.818755336
 20
4719.1344330097
 30
0.0
 11
6205.818755336
 21
4718.8477946155
 31
0.0
  0
LINE
  5
471
330
1F
100
AcDbEntity
  8
0
  6
SLD-Plná
 62
     7
370
    25
100
AcDbLine
 10
6193.1955320313
 20
4718.8477946155
 30
0.0
 11
6193.1955320313
 21
4719.1344330097
 31
0.0
  0
LINE
  5
472
330
1F
100
AcDbEntity
  8
0
  6
SLD-Plná
 62
     7
370
    25
100
AcDbLine
 10
6342.2187553361
 20
4718.8477946156
 30
0.0
 11
6342.2187553361
 21
4719.1344330097
 31
0.0
  0
LINE
  5
473
330
1F
100
AcDbEntity
  8
0
  6
SLD-Plná
 62
     7
370
    25
100
AcDbLine
 10
6354.8419786408
 20
4719.1344330097
 30
0.0
 11
6354.8419786408
 21
4718.8477946156
 31
0.0
  0
LINE
  5
474
330
1F
100
AcDbEntity
  8
0
  6
SLD-Plná
 62
     7
370
    25
100
AcDbLine
 10
6259.0187553361
 20
4718.8477946155
 30
0.0
 11
6259.0187553361
 21
4719.1344330097
 31
0.0
  0
LINE
  5
475
330
1F
100
AcDbEntity
  8
0
  6
SLD-Plná
 62
     7
370
    25
100
AcDbLine
 10
6289.0187553361
 20
4719.1344330097
 30
0.0
 11
6289.0187553361
 21
4718.8477946156
 31
0.0
  0
LINE
  5
476
330
1F
100
AcDbEntity
  8
0
  6
SLD-Plná
 62
     7
370
    25
100
AcDbLine
 10
6356.5187553361
 20
4718.970462775
 30
0.0
 11
6356.5187553361
 21
4742.2704627756
 31
0.0
  0
LINE
  5
477
330
1F
100
AcDbEntity
  8
0
  6
SLD-Plná
 62
     7
370
    25
100
AcDbLine
 10
6355.0187553361
 20
4718.970462775
 30
0.0
 11
6355.0187553361
 21
4742.2704627756
 31
0.0
  0
LINE
  5
478
330
1F
100
AcDbEntity
  8
0
  6
SLD-Plná
 62
     7
370
    25
100
AcDbLine
 10
6193.018755336
 20
4742.2704627756
 30
0.0
 11
6193.018755336
 21
4718.970462775
 31
0.0
  0
LINE
  5
479
330
1F
100
AcDbEntity
  8
0
  6
SLD-Plná
 62
     7
370
    25
100
AcDbLine
 10
6191.518755336
 20
4742.2704627756
 30
0.0
 11
6191.518755336
 21
4718.970462775
 31
0.0
  0
LINE
  5
47A
330
1F
100
AcDbEntity
  8
0
  6
SLD-Plná
 62
     7
370
    25
100
AcDbLine
 10
6215.6520886694
 20
4726.170462775
 30
0.0
 11
6215.6520886694
 21
4718.970462775
 31
0.0
  0
LINE
  5
47B
330
1F
100
AcDbEntity
  8
0
  6
SLD-Plná
 62
     7
370
    25
100
AcDbLine
 10
6223.9854220028
 20
4718.970462775
 30
0.0
 11
6223.9854220028
 21
4726.170462775
 31
0.0
  0
LINE
  5
47C
330
1F
100
AcDbEntity
  8
0
  6
SLD-Plná
 62
     7
370
    25
100
AcDbLine
 10
6240.6520886694
 20
4718.970462775
 30
0.0
 11
6240.6520886694
 21
4726.170462775
 31
0.0
  0
LINE
  5
47D
330
1F
100
AcDbEntity
  8
0
  6
SLD-Plná
 62
     7
370
    25
100
AcDbLine
 10
6232.3187553361
 20
4726.170462775
 30
0.0
 11
6232.3187553361
 21
4718.970462775
 31
0.0
  0
LINE
  5
47E
330
1F
100
AcDbEntity
  8
0
  6
SLD-Plná
 62
     7
370
    25
100
AcDbLine
 10
6248.9854220028
 20
4726.170462775
 30
0.0
 11
6248.9854220028
 21
4718.970462775
 31
0.0
  0
LINE
  5
47F
330
1F
100
AcDbEntity
  8
0
  6
SLD-Plná
 62
     7
370
    25
100
AcDbLine
 10
6257.3187553361
 20
4718.970462775
 30
0.0
 11
6257.3187553361
 21
4726.170462775
 31
0.0
  0
LINE
  5
480
330
1F
100
AcDbEntity
  8
0
  6
SLD-Plná
 62
     7
370
    25
100
AcDbLine
 10
6299.0520886695
 20
4726.170462775
 30
0.0
 11
6299.0520886695
 21
4718.970462775
 31
0.0
  0
LINE
  5
481
330
1F
100
AcDbEntity
  8
0
  6
SLD-Plná
 62
     7
370
    25
100
AcDbLine
 10
6307.3854220029
 20
4718.970462775
 30
0.0
 11
6307.3854220029
 21
4726.170462775
 31
0.0
  0
LINE
  5
482
330
1F
100
AcDbEntity
  8
0
  6
SLD-Plná
 62
     7
370
    25
100
AcDbLine
 10
6315.7187553362
 20
4726.170462775
 30
0.0
 11
6315.7187553362
 21
4718.970462775
 31
0.0
  0
LINE
  5
483
330
1F
100
AcDbEntity
  8
0
  6
SLD-Plná
 62
     7
370
    25
100
AcDbLine
 10
6324.0520886695
 20
4718.970462775
 30
0.0
 11
6324.0520886695
 21
4726.170462775
 31
0.0
  0
LINE
  5
484
330
1F
100
AcDbEntity
  8
0
  6
SLD-Plná
 62
     7
370
    25
100
AcDbLine
 10
6332.3854220029
 20
4726.170462775
 30
0.0
 11
6332.3854220029
 21
4718.970462775
 31
0.0
  0
LINE
  5
485
330
1F
100
AcDbEntity
  8
0
  6
SLD-Plná
 62
     7
370
    25
100
AcDbLine
 10
6340.7187553362
 20
4718.970462775
 30
0.0
 11
6340.7187553362
 21
4726.170462775
 31
0.0
  0
LINE
  5
486
330
1F
100
AcDbEntity
  8
0
  6
SLD-Plná
 62
     7
370
    25
100
AcDbLine
 10
6207.3187553361
 20
4726.1704627749
 30
0.0
 11
6207.3187553361
 21
4718.9704627749
 31
0.0
  0
LINE
  5
487
330
1F
100
AcDbEntity
  8
0
  6
SLD-Plná
 62
     7
370
    25
100
AcDbLine
 10
6290.7187553362
 20
4726.1704627749
 30
0.0
 11
6290.7187553362
 21
4718.9704627749
 31
0.0
  0
LINE
  5
488
330
1F
100
AcDbEntity
  8
0
  6
SLD-Plná
 62
     7
370
    25
100
AcDbLine
 10
6354.8419786408
 20
4704.470462775
 30
0.0
 11
6355.7687553361
 21
4704.470462775
 31
0.0
  0
LINE
  5
489
330
1F
100
AcDbEntity
  8
0
  6
SLD-Plná
 62
     7
370
    25
100
AcDbLine
 10
6354.8419786408
 20
4704.470462775
 30
0.0
 11
6193.1955320314
 21
4704.470462775
 31
0.0
  0
LINE
  5
48A
330
1F
100
AcDbEntity
  8
0
  6
SLD-Plná
 62
     7
370
    25
100
AcDbLine
 10
6193.1955320314
 20
4704.470462775
 30
0.0
 11
6192.2687553361
 21
4704.470462775
 31
0.0
  0
LINE
  5
48B
330
1F
100
AcDbEntity
  8
0
  6
SLD-Plná
 62
     7
370
    25
100
AcDbLine
 10
6192.2687553361
 20
4704.470462775
 30
0.0
 11
6192.2687553361
 21
4718.3931125058
 31
0.0
  0
LINE
  5
48C
330
1F
100
AcDbEntity
  8
0
  6
SLD-Plná
 62
     7
370
    25
100
AcDbLine
 10
6355.7687553361
 20
4718.3931125058
 30
0.0
 11
6192.2687553361
 21
4718.3931125058
 31
0.0
  0
LINE
  5
48D
330
1F
100
AcDbEntity
  8
0
  6
SLD-Plná
 62
     7
370
    25
100
AcDbLine
 10
6355.7687553361
 20
4704.470462775
 30
0.0
 11
6355.7687553361
 21
4718.3931125058
 31
0.0
  0
LINE
  5
48E
330
1F
100
AcDbEntity
  8
0
  6
SLD-Plná
 62
     7
370
    25
100
AcDbLine
 10
6354.0187553361
 20
4701.970462775
 30
0.0
 11
6194.0187553361
 21
4701.970462775
 31
0.0
  0
SPLINE
  5
48F
330
1F
100
AcDbEntity
  8
0
  6
SLD-Plná
 62
     7
370
    25
100
AcDbSpline
210
0.0
220
0.0
230
1.0
 70
     8
 71
     3
 72
    12
 73
     8
 74
     0
 42
0.00000001
 43
0.00000001
 40
0.0
 40
0.0
 40
0.0
 40
0.0
 40
0.1933249040909282
 40
0.412663377550725
 40
0.6320089711118774
 40
0.8513544344083852
 40
1.0
 40
1.0
 40
1.0
 40
1.0
 10
6354.841978640829
 20
4704.470462774971
 30
0.0
 10
6354.788969704801
 20
4704.21764217161
 30
0.0
 10
6354.675819013304
 20
4703.677981724923
 30
0.0
 10
6354.502208006038
 20
4702.929891540605
 30
0.0
 10
6354.321602232591
 20
4702.337285200236
 30
0.0
 10
6354.16016053286
 20
4702.017105174131
 30
0.0
 10
6354.059440134019
 20
4701.983882625361
 30
0.0
 10
6354.018755336084
 20
4701.970462774971
 30
0.0
  0
SPLINE
  5
490
330
1F
100
AcDbEntity
  8
0
  6
SLD-Plná
 62
     7
370
    25
100
AcDbSpline
210
0.0
220
0.0
230
1.0
 70
     8
 71
     3
 72
    12
 73
     8
 74
     0
 42
0.00000001
 43
0.00000001
 40
0.0
 40
0.0
 40
0.0
 40
0.0
 40
0.1913660220253508
 40
0.4107021154852006
 40
0.6300458239534228
 40
0.8493894065480027
 40
1.0
 40
1.0
 40
1.0
 40
1.0
 10
6194.018755336091
 20
4701.970462774967
 30
0.0
 10
6193.966287897281
 20
4701.992502512697
 30
0.0
 10
6193.853684375063
 20
4702.039803317796
 30
0.0
 10
6193.680606363286
 20
4702.436409889468
 30
0.0
 10
6193.500000681652
 20
4703.070035768535
 30
0.0
 10
6193.338022983529
 20
4703.790834851198
 30
0.0
 10
6193.236757731085
 20
4704.273831787007
 30
0.0
 10
6193.195532031377
 20
4704.470462774971
 30
0.0
  0
LINE
  5
491
330
1F
100
AcDbEntity
  8
0
  6
SLD-Plná
 62
     7
370
    25
100
AcDbLine
 10
6192.2687553361
 20
4718.3931125058
 30
0.0
 11
6192.2687553361
 21
4718.970462775
 31
0.0
  0
LINE
  5
492
330
1F
100
AcDbEntity
  8
0
  6
SLD-Plná
 62
     7
370
    25
100
AcDbLine
 10
6192.2687553361
 20
4718.970462775
 30
0.0
 11
6193.1955320314
 21
4718.970462775
 31
0.0
  0
LINE
  5
493
330
1F
100
AcDbEntity
  8
0
  6
SLD-Plná
 62
     7
370
    25
100
AcDbLine
 10
6205.818755336
 20
4718.970462775
 30
0.0
 11
6207.3187553361
 21
4718.970462775
 31
0.0
  0
LINE
  5
494
330
1F
100
AcDbEntity
  8
0
  6
SLD-Plná
 62
     7
370
    25
100
AcDbLine
 10
6215.6520886694
 20
4718.970462775
 30
0.0
 11
6223.9854220028
 21
4718.970462775
 31
0.0
  0
LINE
  5
495
330
1F
100
AcDbEntity
  8
0
  6
SLD-Plná
 62
     7
370
    25
100
AcDbLine
 10
6232.3187553361
 20
4718.970462775
 30
0.0
 11
6240.6520886694
 21
4718.970462775
 31
0.0
  0
LINE
  5
496
330
1F
100
AcDbEntity
  8
0
  6
SLD-Plná
 62
     7
370
    25
100
AcDbLine
 10
6248.9854220028
 20
4718.970462775
 30
0.0
 11
6259.0187553361
 21
4718.970462775
 31
0.0
  0
LINE
  5
497
330
1F
100
AcDbEntity
  8
0
  6
SLD-Plná
 62
     7
370
    25
100
AcDbLine
 10
6289.0187553361
 20
4718.970462775
 30
0.0
 11
6290.7187553362
 21
4718.970462775
 31
0.0
  0
LINE
  5
498
330
1F
100
AcDbEntity
  8
0
  6
SLD-Plná
 62
     7
370
    25
100
AcDbLine
 10
6299.0520886695
 20
4718.970462775
 30
0.0
 11
6307.3854220029
 21
4718.970462775
 31
0.0
  0
LINE
  5
499
330
1F
100
AcDbEntity
  8
0
  6
SLD-Plná
 62
     7
370
    25
100
AcDbLine
 10
6340.7187553362
 20
4718.970462775
 30
0.0
 11
6342.2187553361
 21
4718.970462775
 31
0.0
  0
LINE
  5
49A
330
1F
100
AcDbEntity
  8
0
  6
SLD-Plná
 62
     7
370
    25
100
AcDbLine
 10
6354.8419786408
 20
4718.970462775
 30
0.0
 11
6355.7687553362
 21
4718.970462775
 31
0.0
  0
LINE
  5
49B
330
1F
100
AcDbEntity
  8
0
  6
SLD-Plná
 62
     7
370
    25
100
AcDbLine
 10
6355.7687553362
 20
4718.970462775
 30
0.0
 11
6355.7687553361
 21
4718.3931125058
 31
0.0
  0
LINE
  5
49C
330
1F
100
AcDbEntity
  8
0
  6
SLD-Plná
 62
     7
370
    25
100
AcDbLine
 10
6192.2687553361
 20
4718.970462775
 30
0.0
 11
6191.5187553361
 21
4718.970462775
 31
0.0
  0
LINE
  5
49D
330
1F
100
AcDbEntity
  8
0
  6
SLD-Plná
 62
     7
370
    25
100
AcDbLine
 10
6192.2687553361
 20
4704.470462775
 30
0.0
 11
6191.5187553361
 21
4704.470462775
 31
0.0
  0
LINE
  5
49E
330
1F
100
AcDbEntity
  8
0
  6
SLD-Plná
 62
     7
370
    25
100
AcDbLine
 10
6191.5187553361
 20
4704.470462775
 30
0.0
 11
6191.5187553361
 21
4718.970462775
 31
0.0
  0
LINE
  5
49F
330
1F
100
AcDbEntity
  8
0
  6
SLD-Plná
 62
     7
370
    25
100
AcDbLine
 10
6355.7687553361
 20
4718.970462775
 30
0.0
 11
6356.5187553361
 21
4718.970462775
 31
0.0
  0
LINE
  5
4A0
330
1F
100
AcDbEntity
  8
0
  6
SLD-Plná
 62
     7
370
    25
100
AcDbLine
 10
6355.768755336
 20
4704.470462775
 30
0.0
 11
6356.518755336
 21
4704.470462775
 31
0.0
  0
LINE
  5
4A1
330
1F
100
AcDbEntity
  8
0
  6
SLD-Plná
 62
     7
370
    25
100
AcDbLine
 10
6356.518755336
 20
4704.470462775
 30
0.0
 11
6356.5187553361
 21
4718.970462775
 31
0.0
  0
SPLINE
  5
4A2
330
1F
100
AcDbEntity
  8
0
  6
SLD-Plná
 62
     7
370
    25
100
AcDbSpline
210
0.0
220
0.0
230
1.0
 70
     8
 71
     3
 72
    10
 73
     6
 74
     0
 42
0.00000001
 43
0.00000001
 40
0.0
 40
0.0
 40
0.0
 40
0.0
 40
0.4694893317428071
 40
0.9389786634856752
 40
1.0
 40
1.0
 40
1.0
 40
1.0
 10
6193.018755336073
 20
4704.470462774966
 30
0.0
 10
6193.035413166949
 20
4704.341905993643
 30
0.0
 10
6193.068728828702
 20
4704.084792430996
 30
0.0
 10
6193.21559431837
 20
4703.823693935605
 30
0.0
 10
6193.339556508613
 20
4703.744312012448
 30
0.0
 10
6193.353815106939
 20
4703.735181204463
 30
0.0
  0
SPLINE
  5
4A3
330
1F
100
AcDbEntity
  8
0
  6
SLD-Plná
 62
     7
370
    25
100
AcDbSpline
210
0.0
220
0.0
230
1.0
 70
     8
 71
     3
 72
    11
 73
     7
 74
     0
 42
0.00000001
 43
0.00000001
 40
0.0
 40
0.0
 40
0.0
 40
0.0
 40
0.2500000000000017
 40
0.5000000000000013
 40
0.749999999999999
 40
1.0
 40
1.0
 40
1.0
 40
1.0
 10
6191.518755336073
 20
4704.470462774966
 30
0.0
 10
6191.556334268042
 20
4704.142870165448
 30
0.0
 10
6191.631492131981
 20
4703.487684946409
 30
0.0
 10
6192.209615164799
 20
4702.661322603661
 30
0.0
 10
6193.035977507558
 20
4702.083199570857
 30
0.0
 10
6193.691162726598
 20
4702.00804170693
 30
0.0
 10
6194.018755336117
 20
4701.970462774967
 30
0.0
  0
SPLINE
  5
4A4
330
1F
100
AcDbEntity
  8
0
  6
SLD-Plná
 62
     7
370
    25
100
AcDbSpline
210
0.0
220
0.0
230
1.0
 70
     8
 71
     3
 72
    10
 73
     6
 74
     0
 42
0.00000001
 43
0.00000001
 40
0.0
 40
0.0
 40
0.0
 40
0.0
 40
0.0582356082020467
 40
0.5291178041010485
 40
1.0
 40
1.0
 40
1.0
 40
1.0
 10
6354.685739574548
 20
4703.736546967798
 30
0.0
 10
6354.699298785075
 20
4703.745245702175
 30
0.0
 10
6354.822495226573
 20
4703.824280769796
 30
0.0
 10
6354.968724962686
 20
4704.084865475049
 30
0.0
 10
6355.002078544982
 20
4704.341930341661
 30
0.0
 10
6355.018755336131
 20
4704.470462774966
 30
0.0
  0
SPLINE
  5
4A5
330
1F
100
AcDbEntity
  8
0
  6
SLD-Plná
 62
     7
370
    25
100
AcDbSpline
210
0.0
220
0.0
230
1.0
 70
     8
 71
     3
 72
    11
 73
     7
 74
     0
 42
0.00000001
 43
0.00000001
 40
0.0
 40
0.0
 40
0.0
 40
0.0
 40
0.2499999999999981
 40
0.4999999999999983
 40
0.7499999999999982
 40
1.0
 40
1.0
 40
1.0
 40
1.0
 10
6354.018755335987
 20
4701.970462774967
 30
0.0
 10
6354.346347945518
 20
4702.008041706919
 30
0.0
 10
6355.001533164577
 20
4702.083199570824
 30
0.0
 10
6355.827895507371
 20
4702.661322603622
 30
0.0
 10
6356.406018540218
 20
4703.487684946384
 30
0.0
 10
6356.481176404161
 20
4704.142870165439
 30
0.0
 10
6356.518755336131
 20
4704.470462774966
 30
0.0
  0
SPLINE
  5
4A6
330
1F
100
AcDbEntity
  8
0
  6
SLD-Plná
 62
     8
370
    25
100
AcDbSpline
210
0.0
220
0.0
230
1.0
 70
    24
 71
     3
 72
    16
 73
    12
 74
     0
 42
0.00000001
 43
0.00000001
 40
0.0
 40
0.0
 40
0.0
 40
0.0
 40
0.0415471645638475
 40
0.1665471645638477
 40
0.2915471645638475
 40
0.4165471645638478
 40
0.5415471645638479
 40
0.6665471645638479
 40
0.7915471645638482
 40
0.916547164563848
 40
1.0
 40
1.0
 40
1.0
 40
1.0
 10
6240.252051289931
 20
4695.414900343713
 30
0.0
 10
6240.284203604798
 20
4695.414900343713
 30
0.0
 10
6240.413090303357
 20
4695.414900343713
 30
0.0
 10
6239.559784363697
 20
4695.414900343713
 30
0.0
 10
6237.809696909861
 20
4695.414900343713
 30
0.0
 10
6235.334054659656
 20
4695.414900343713
 30
0.0
 10
6232.604079117064
 20
4695.414900343713
 30
0.0
 10
6229.997534280913
 20
4695.414900343713
 30
0.0
 10
6227.968315681948
 20
4695.414900343713
 30
0.0
 10
6226.782643629087
 20
4695.414900343713
 30
0.0
 10
6226.784654387319
 20
4695.414900343713
 30
0.0
 10
6226.78545938225
 20
4695.414900343713
 30
0.0
  0
LINE
  5
4A7
330
1F
100
AcDbEntity
  8
0
  6
SLD-Plná
 62
     8
370
    25
100
AcDbLine
 10
6239.2435878122
 20
4693.919416942
 30
0.0
 11
6239.2651067778
 21
4693.91956089
 31
0.0
  0
LINE
  5
4A8
330
1F
100
AcDbEntity
  8
0
  6
SLD-Plná
 62
     8
370
    25
100
AcDbLine
 10
6227.7437160645
 20
4693.9185468725
 30
0.0
 11
6227.7615348265
 21
4693.9185380888
 31
0.0
  0
LINE
  5
4A9
330
1F
100
AcDbEntity
  8
0
  6
SLD-Plná
 62
     8
370
    25
100
AcDbLine
 10
6230.8687553361
 20
4693.170462775
 30
0.0
 11
6228.2187553361
 21
4693.170462775
 31
0.0
  0
LINE
  5
4AA
330
1F
100
AcDbEntity
  8
0
  6
SLD-Plná
 62
     8
370
    25
100
AcDbLine
 10
6238.8187553361
 20
4693.170462775
 30
0.0
 11
6230.8687553361
 21
4693.170462775
 31
0.0
  0
LINE
  5
4AB
330
1F
100
AcDbEntity
  8
0
  6
SLD-Plná
 62
     8
370
    25
100
AcDbLine
 10
6230.8687553361
 20
4689.270462775
 30
0.0
 11
6238.8187553361
 21
4689.270462775
 31
0.0
  0
LINE
  5
4AC
330
1F
100
AcDbEntity
  8
0
  6
SLD-Plná
 62
     8
370
    25
100
AcDbLine
 10
6228.2187553361
 20
4689.270462775
 30
0.0
 11
6230.8687553361
 21
4689.270462775
 31
0.0
  0
LINE
  5
4AD
330
1F
100
AcDbEntity
  8
0
  6
SLD-Plná
 62
     8
370
    25
100
AcDbLine
 10
6308.5913054094
 20
4701.470462775
 30
0.0
 11
6308.5825778769
 21
4701.970462775
 31
0.0
  0
LINE
  5
4AE
330
1F
100
AcDbEntity
  8
0
  6
SLD-Plná
 62
     8
370
    25
100
AcDbLine
 10
6314.5794612831
 20
4701.970462775
 30
0.0
 11
6314.5707337506
 21
4701.470462775
 31
0.0
  0
LINE
  5
4AF
330
1F
100
AcDbEntity
  8
0
  6
SLD-Plná
 62
     8
370
    25
100
AcDbLine
 10
6306.2139717413
 20
4695.6442831679
 30
0.0
 11
6306.1962895397
 21
4697.670462775
 31
0.0
  0
LINE
  5
4B0
330
1F
100
AcDbEntity
  8
0
  6
SLD-Plná
 62
     8
370
    25
100
AcDbLine
 10
6322.5741514676
 20
4697.670462775
 30
0.0
 11
6322.556469266
 21
4695.6442831685
 31
0.0
  0
LINE
  5
4B1
330
1F
100
AcDbEntity
  8
0
  6
SLD-Plná
 62
     8
370
    25
100
AcDbLine
 10
6257.708304084
 20
4725.8843519991
 30
0.0
 11
6257.708304084
 21
4719.2565735508
 31
0.0
  0
LINE
  5
4B2
330
1F
100
AcDbEntity
  8
0
  6
SLD-Plná
 62
     8
370
    25
100
AcDbLine
 10
6341.1083040841
 20
4725.8843519991
 30
0.0
 11
6341.1083040841
 21
4719.2565735508
 31
0.0
  0
LINE
  5
4B3
330
1F
100
AcDbEntity
  8
0
  6
SLD-Plná
 62
     8
370
    25
100
AcDbLine
 10
6206.9292065882
 20
4719.2565735507
 30
0.0
 11
6206.9292065882
 21
4725.884351999
 31
0.0
  0
LINE
  5
4B4
330
1F
100
AcDbEntity
  8
0
  6
SLD-Plná
 62
     8
370
    25
100
AcDbLine
 10
6290.3292065883
 20
4719.2565735507
 30
0.0
 11
6290.3292065883
 21
4725.884351999
 31
0.0
  0
ENDSEC
  0
SECTION
  2
OBJECTS
  0
DICTIONARY
  5
C
330
0
100
AcDbDictionary
281
     1
  3
ACAD_GROUP
350
D
  3
ACAD_LAYOUT
350
1A
  3
ACAD_MLINESTYLE
350
17
  3
ACAD_PLOTSETTINGS
350
19
  3
ACAD_PLOTSTYLENAME
350
E
  3
ACAD_SCALELIST
350
47
  3
DWGPROPS
350
4B5
  0
DICTIONARY
  5
D
102
{ACAD_REACTORS
330
C
102
}
330
C
100
AcDbDictionary
281
     1
  0
DICTIONARY
  5
1A
102
{ACAD_REACTORS
330
C
102
}
330
C
100
AcDbDictionary
281
     1
  3
Layout1
350
1E
  3
Layout2
350
26
  3
Model
350
22
  0
DICTIONARY
  5
17
102
{ACAD_REACTORS
330
C
102
}
330
C
100
AcDbDictionary
281
     1
  3
Standard
350
18
  0
DICTIONARY
  5
19
102
{ACAD_REACTORS
330
C
102
}
330
C
100
AcDbDictionary
281
     1
  0
ACDBDICTIONARYWDFLT
  5
E
102
{ACAD_REACTORS
330
C
102
}
330
C
100
AcDbDictionary
281
     1
  3
Normal
350
F
100
AcDbDictionaryWithDefault
340
F
  0
DICTIONARY
  5
47
102
{ACAD_REACTORS
330
C
102
}
330
C
100
AcDbDictionary
281
     1
  3
A0
350
48
  3
A1
350
49
  3
A2
350
4A
  3
A3
350
4B
  3
A4
350
4C
  3
A5
350
4D
  3
A6
350
4E
  3
A7
350
4F
  3
A8
350
50
  3
A9
350
51
  3
B0
350
52
  3
B1
350
53
  3
B2
350
54
  3
B3
350
55
  3
B4
350
56
  3
B5
350
57
  3
B6
350
58
  3
B7
350
59
  3
B8
350
5A
  3
B9
350
5B
  3
C0
350
5C
  3
C1
350
5D
  3
C2
350
5E
  3
C3
350
5F
  3
C4
350
60
  3
C5
350
61
  3
C6
350
62
  3
C7
350
63
  3
C8
350
64
  3
C9
350
65
  3
D0
350
66
  3
D1
350
67
  3
D2
350
68
  0
XRECORD
  5
4B5
102
{ACAD_REACTORS
330
C
102
}
330
C
100
AcDbXrecord
280
     1
  1
DWGPROPS COOKIE
  2

  3

  4

  6

  7

  8
radek.stransky
  9

300
=
301
=
302
=
303
=
304
=
305
=
306
=
307
=
308
=
309
=
 40
0.0
 41
2460853.275422164
 42
2460853.275423611
  1

 90
        0
  0
LAYOUT
  5
1E
102
{ACAD_REACTORS
330
1A
102
}
330
1A
100
AcDbPlotSettings
  1

  2
none_device
  4

  6

 40
0.0
 41
0.0
 42
0.0
 43
0.0
 44
0.0
 45
0.0
 46
0.0
 47
0.0
 48
0.0
 49
0.0
140
0.0
141
0.0
142
1.0
143
1.0
 70
   688
 72
     1
 73
     0
 74
     5
  7

 75
    16
147
1.0
148
0.0
149
0.0
100
AcDbLayout
  1
Layout1
 70
     1
 71
     1
 10
0.0
 20
0.0
 11
420.0
 21
297.0
 12
0.0
 22
0.0
 32
0.0
 14
1.0000000000E+20
 24
1.0000000000E+20
 34
1.0000000000E+20
 15
-1.0000000000E+20
 25
-1.0000000000E+20
 35
-1.0000000000E+20
146
0.0
 13
0.0
 23
0.0
 33
0.0
 16
1.0
 26
0.0
 36
0.0
 17
0.0
 27
1.0
 37
0.0
 76
     0
330
1B
  0
LAYOUT
  5
26
102
{ACAD_REACTORS
330
1A
102
}
330
1A
100
AcDbPlotSettings
  1

  2
none_device
  4

  6

 40
0.0
 41
0.0
 42
0.0
 43
0.0
 44
0.0
 45
0.0
 46
0.0
 47
0.0
 48
0.0
 49
0.0
140
0.0
141
0.0
142
1.0
143
1.0
 70
   688
 72
     1
 73
     0
 74
     5
  7

 75
    16
147
1.0
148
0.0
149
0.0
100
AcDbLayout
  1
Layout2
 70
     1
 71
     2
 10
0.0
 20
0.0
 11
0.0
 21
0.0
 12
0.0
 22
0.0
 32
0.0
 14
0.0
 24
0.0
 34
0.0
 15
0.0
 25
0.0
 35
0.0
146
0.0
 13
0.0
 23
0.0
 33
0.0
 16
1.0
 26
0.0
 36
0.0
 17
0.0
 27
1.0
 37
0.0
 76
     0
330
23
  0
LAYOUT
  5
22
102
{ACAD_REACTORS
330
1A
102
}
330
1A
100
AcDbPlotSettings
  1

  2
none_device
  4
Letter_(8.50_x_11.00_Inches)
  6

 40
6.35
 41
6.35
 42
6.35000508
 43
6.35000508
 44
215.9
 45
279.4
 46
0.0
 47
0.0
 48
0.0
 49
0.0
140
0.0
141
0.0
142
1.0
143
1.0
 70
  1712
 72
     1
 73
     0
 74
     0
  7

 75
     0
147
1.0
148
0.0
149
0.0
100
AcDbLayout
  1
Model
 70
     1
 71
     0
 10
0.0
 20
0.0
 11
20000.0
 21
10000.0
 12
0.0
 22
0.0
 32
0.0
 14
0.0
 24
0.0
 34
0.0
 15
20000.0
 25
10000.0
 35
0.0
146
0.0
 13
0.0
 23
0.0
 33
0.0
 16
1.0
 26
0.0
 36
0.0
 17
0.0
 27
1.0
 37
0.0
 76
     0
330
1F
331
29
  0
MLINESTYLE
  5
18
102
{ACAD_REACTORS
330
17
102
}
330
17
100
AcDbMlineStyle
  2
Standard
 70
     0
  3

 62
   256
 51
90.0
 52
90.0
 71
     2
 49
0.5
 62
   256
  6
BYLAYER
 49
-0.5
 62
   256
  6
BYLAYER
  0
ACDBPLACEHOLDER
  5
F
102
{ACAD_REACTORS
330
E
102
}
330
E
  0
SCALE
  5
48
102
{ACAD_REACTORS
330
47
102
}
330
47
100
AcDbScale
 70
     0
300
1:1
140
1.0
141
1.0
290
     1
  0
SCALE
  5
49
102
{ACAD_REACTORS
330
47
102
}
330
47
100
AcDbScale
 70
     0
300
1:2
140
1.0
141
2.0
290
     0
  0
SCALE
  5
4A
102
{ACAD_REACTORS
330
47
102
}
330
47
100
AcDbScale
 70
     0
300
1:4
140
1.0
141
4.0
290
     0
  0
SCALE
  5
4B
102
{ACAD_REACTORS
330
47
102
}
330
47
100
AcDbScale
 70
     0
300
1:5
140
1.0
141
5.0
290
     0
  0
SCALE
  5
4C
102
{ACAD_REACTORS
330
47
102
}
330
47
100
AcDbScale
 70
     0
300
1:8
140
1.0
141
8.0
290
     0
  0
SCALE
  5
4D
102
{ACAD_REACTORS
330
47
102
}
330
47
100
AcDbScale
 70
     0
300
1:10
140
1.0
141
10.0
290
     0
  0
SCALE
  5
4E
102
{ACAD_REACTORS
330
47
102
}
330
47
100
AcDbScale
 70
     0
300
1:16
140
1.0
141
16.0
290
     0
  0
SCALE
  5
4F
102
{ACAD_REACTORS
330
47
102
}
330
47
100
AcDbScale
 70
     0
300
1:20
140
1.0
141
20.0
290
     0
  0
SCALE
  5
50
102
{ACAD_REACTORS
330
47
102
}
330
47
100
AcDbScale
 70
     0
300
1:30
140
1.0
141
30.0
290
     0
  0
SCALE
  5
51
102
{ACAD_REACTORS
330
47
102
}
330
47
100
AcDbScale
 70
     0
300
1:40
140
1.0
141
40.0
290
     0
  0
SCALE
  5
52
102
{ACAD_REACTORS
330
47
102
}
330
47
100
AcDbScale
 70
     0
300
1:50
140
1.0
141
50.0
290
     0
  0
SCALE
  5
53
102
{ACAD_REACTORS
330
47
102
}
330
47
100
AcDbScale
 70
     0
300
1:100
140
1.0
141
100.0
290
     0
  0
SCALE
  5
54
102
{ACAD_REACTORS
330
47
102
}
330
47
100
AcDbScale
 70
     0
300
2:1
140
2.0
141
1.0
290
     0
  0
SCALE
  5
55
102
{ACAD_REACTORS
330
47
102
}
330
47
100
AcDbScale
 70
     0
300
4:1
140
4.0
141
1.0
290
     0
  0
SCALE
  5
56
102
{ACAD_REACTORS
330
47
102
}
330
47
100
AcDbScale
 70
     0
300
8:1
140
8.0
141
1.0
290
     0
  0
SCALE
  5
57
102
{ACAD_REACTORS
330
47
102
}
330
47
100
AcDbScale
 70
     0
300
10:1
140
10.0
141
1.0
290
     0
  0
SCALE
  5
58
102
{ACAD_REACTORS
330
47
102
}
330
47
100
AcDbScale
 70
     0
300
100:1
140
100.0
141
1.0
290
     0
  0
SCALE
  5
59
102
{ACAD_REACTORS
330
47
102
}
330
47
100
AcDbScale
 70
     0
300
1/128" = 1'-0"
140
0.0078125
141
12.0
290
     0
  0
SCALE
  5
5A
102
{ACAD_REACTORS
330
47
102
}
330
47
100
AcDbScale
 70
     0
300
1/64" = 1'-0"
140
0.015625
141
12.0
290
     0
  0
SCALE
  5
5B
102
{ACAD_REACTORS
330
47
102
}
330
47
100
AcDbScale
 70
     0
300
1/32" = 1'-0"
140
0.03125
141
12.0
290
     0
  0
SCALE
  5
5C
102
{ACAD_REACTORS
330
47
102
}
330
47
100
AcDbScale
 70
     0
300
1/16" = 1'-0"
140
0.0625
141
12.0
290
     0
  0
SCALE
  5
5D
102
{ACAD_REACTORS
330
47
102
}
330
47
100
AcDbScale
 70
     0
300
3/32" = 1'-0"
140
0.09375
141
12.0
290
     0
  0
SCALE
  5
5E
102
{ACAD_REACTORS
330
47
102
}
330
47
100
AcDbScale
 70
     0
300
1/8" = 1'-0"
140
0.125
141
12.0
290
     0
  0
SCALE
  5
5F
102
{ACAD_REACTORS
330
47
102
}
330
47
100
AcDbScale
 70
     0
300
3/16" = 1'-0"
140
0.1875
141
12.0
290
     0
  0
SCALE
  5
60
102
{ACAD_REACTORS
330
47
102
}
330
47
100
AcDbScale
 70
     0
300
1/4" = 1'-0"
140
0.25
141
12.0
290
     0
  0
SCALE
  5
61
102
{ACAD_REACTORS
330
47
102
}
330
47
100
AcDbScale
 70
     0
300
3/8" = 1'-0"
140
0.375
141
12.0
290
     0
  0
SCALE
  5
62
102
{ACAD_REACTORS
330
47
102
}
330
47
100
AcDbScale
 70
     0
300
1/2" = 1'-0"
140
0.5
141
12.0
290
     0
  0
SCALE
  5
63
102
{ACAD_REACTORS
330
47
102
}
330
47
100
AcDbScale
 70
     0
300
3/4" = 1'-0"
140
0.75
141
12.0
290
     0
  0
SCALE
  5
64
102
{ACAD_REACTORS
330
47
102
}
330
47
100
AcDbScale
 70
     0
300
1" = 1'-0"
140
1.0
141
12.0
290
     0
  0
SCALE
  5
65
102
{ACAD_REACTORS
330
47
102
}
330
47
100
AcDbScale
 70
     0
300
1-1/2" = 1'-0"
140
1.5
141
12.0
290
     0
  0
SCALE
  5
66
102
{ACAD_REACTORS
330
47
102
}
330
47
100
AcDbScale
 70
     0
300
3" = 1'-0"
140
3.0
141
12.0
290
     0
  0
SCALE
  5
67
102
{ACAD_REACTORS
330
47
102
}
330
47
100
AcDbScale
 70
     0
300
6" = 1'-0"
140
6.0
141
12.0
290
     0
  0
SCALE
  5
68
102
{ACAD_REACTORS
330
47
102
}
330
47
100
AcDbScale
 70
     0
300
1'-0" = 1'-0"
140
12.0
141
12.0
290
     0
  0
ENDSEC
  0
EOF
