  0
SECTION
  2
HEADER
  9
$ACADVER
  1
AC1015
  9
$ACADMAINTVER
 70
     6
  9
$DWGCODEPAGE
  3
ANSI_1250
  9
$INSBASE
 10
0.0
 20
0.0
 30
0.0
  9
$EXTMIN
 10
0.0
 20
0.0
 30
0.0
  9
$EXTMAX
 10
20000.0
 20
10000.0
 30
0.0
  9
$LIMMIN
 10
0.0
 20
0.0
  9
$LIMMAX
 10
20000.0
 20
10000.0
  9
$ORTHOMODE
 70
     0
  9
$REGENMODE
 70
     1
  9
$FILLMODE
 70
     1
  9
$QTEXTMODE
 70
     0
  9
$MIRRTEXT
 70
     1
  9
$LTSCALE
 40
1.0
  9
$ATTMODE
 70
     1
  9
$TEXTSIZE
 40
2.0
  9
$TRACEWID
 40
1.0
  9
$TEXTSTYLE
  7
Standard
  9
$CLAYER
  8
0
  9
$CELTYPE
  6
ByLayer
  9
$CECOLOR
 62
   256
  9
$CELTSCALE
 40
1.0
  9
$DISPSILH
 70
     0
  9
$DIMSCALE
 40
1.0
  9
$DIMASZ
 40
2.0
  9
$DIMEXO
 40
1.0
  9
$DIMDLI
 40
3.75
  9
$DIMRND
 40
0.0
  9
$DIMDLE
 40
0.0
  9
$DIMEXE
 40
1.0
  9
$DIMTP
 40
0.0
  9
$DIMTM
 40
0.0
  9
$DIMTXT
 40
2.0
  9
$DIMCEN
 40
2.5
  9
$DIMTSZ
 40
0.0
  9
$DIMTOL
 70
     0
  9
$DIMLIM
 70
     0
  9
$DIMTIH
 70
     1
  9
$DIMTOH
 70
     1
  9
$DIMSE1
 70
     0
  9
$DIMSE2
 70
     0
  9
$DIMTAD
 70
     1
  9
$DIMZIN
 70
     0
  9
$DIMBLK
  1

  9
$DIMASO
 70
     1
  9
$DIMSHO
 70
     1
  9
$DIMPOST
  1

  9
$DIMAPOST
  1

  9
$DIMALT
 70
     0
  9
$DIMALTD
 70
     3
  9
$DIMALTF
 40
0.0393700787
  9
$DIMLFAC
 40
1.0
  9
$DIMTOFL
 70
     1
  9
$DIMTVP
 40
0.0
  9
$DIMTIX
 70
     0
  9
$DIMSOXD
 70
     0
  9
$DIMSAH
 70
     0
  9
$DIMBLK1
  1

  9
$DIMBLK2
  1

  9
$DIMSTYLE
  2
ISO-25
  9
$DIMCLRD
 70
     0
  9
$DIMCLRE
 70
     0
  9
$DIMCLRT
 70
     0
  9
$DIMTFAC
 40
1.0
  9
$DIMGAP
 40
1.524
  9
$DIMJUST
 70
     0
  9
$DIMSD1
 70
     0
  9
$DIMSD2
 70
     0
  9
$DIMTOLJ
 70
     0
  9
$DIMTZIN
 70
     0
  9
$DIMALTZ
 70
     0
  9
$DIMALTTZ
 70
     0
  9
$DIMUPT
 70
     0
  9
$DIMDEC
 70
     2
  9
$DIMTDEC
 70
     0
  9
$DIMALTU
 70
     2
  9
$DIMALTTD
 70
     3
  9
$DIMTXSTY
  7
Standard
  9
$DIMAUNIT
 70
     0
  9
$DIMADEC
 70
     2
  9
$DIMALTRND
 40
0.0
  9
$DIMAZIN
 70
     0
  9
$DIMDSEP
 70
    44
  9
$DIMATFIT
 70
     3
  9
$DIMFRAC
 70
     0
  9
$DIMLDRBLK
  1

  9
$DIMLUNIT
 70
     2
  9
$DIMLWD
 70
    -2
  9
$DIMLWE
 70
    -2
  9
$DIMTMOVE
 70
     0
  9
$LUNITS
 70
     2
  9
$LUPREC
 70
     3
  9
$SKETCHINC
 40
1.0
  9
$FILLETRAD
 40
10.0
  9
$AUNITS
 70
     0
  9
$AUPREC
 70
     2
  9
$MENU
  1
.
  9
$ELEVATION
 40
0.0
  9
$PELEVATION
 40
0.0
  9
$THICKNESS
 40
0.0
  9
$LIMCHECK
 70
     0
  9
$CHAMFERA
 40
0.0
  9
$CHAMFERB
 40
0.0
  9
$CHAMFERC
 40
0.0
  9
$CHAMFERD
 40
0.0
  9
$SKPOLY
 70
     0
  9
$TDCREATE
 40
2459744.278558055
  9
$TDUCREATE
 40
2459744.195224722
  9
$TDUPDATE
 40
2459744.278558588
  9
$TDUUPDATE
 40
2459744.195225255
  9
$TDINDWG
 40
0.0000000116
  9
$TDUSRTIMER
 40
0.0000000116
  9
$USRTIMER
 70
     1
  9
$ANGBASE
 50
0.0
  9
$ANGDIR
 70
     0
  9
$PDMODE
 70
     0
  9
$PDSIZE
 40
-1.0
  9
$PLINEWID
 40
0.0
  9
$SPLFRAME
 70
     0
  9
$SPLINETYPE
 70
     6
  9
$SPLINESEGS
 70
     8
  9
$HANDSEED
  5
5BA
  9
$SURFTAB1
 70
     6
  9
$SURFTAB2
 70
     6
  9
$SURFTYPE
 70
     6
  9
$SURFU
 70
     6
  9
$SURFV
 70
     6
  9
$UCSBASE
  2

  9
$UCSNAME
  2

  9
$UCSORG
 10
0.0
 20
0.0
 30
0.0
  9
$UCSXDIR
 10
1.0
 20
0.0
 30
0.0
  9
$UCSYDIR
 10
0.0
 20
1.0
 30
0.0
  9
$UCSORTHOREF
  2

  9
$UCSORTHOVIEW
 70
     0
  9
$UCSORGTOP
 10
0.0
 20
0.0
 30
0.0
  9
$UCSORGBOTTOM
 10
0.0
 20
0.0
 30
0.0
  9
$UCSORGLEFT
 10
0.0
 20
0.0
 30
0.0
  9
$UCSORGRIGHT
 10
0.0
 20
0.0
 30
0.0
  9
$UCSORGFRONT
 10
0.0
 20
0.0
 30
0.0
  9
$UCSORGBACK
 10
0.0
 20
0.0
 30
0.0
  9
$PUCSBASE
  2

  9
$PUCSNAME
  2

  9
$PUCSORG
 10
0.0
 20
0.0
 30
0.0
  9
$PUCSXDIR
 10
1.0
 20
0.0
 30
0.0
  9
$PUCSYDIR
 10
0.0
 20
1.0
 30
0.0
  9
$PUCSORTHOREF
  2

  9
$PUCSORTHOVIEW
 70
     0
  9
$PUCSORGTOP
 10
0.0
 20
0.0
 30
0.0
  9
$PUCSORGBOTTOM
 10
0.0
 20
0.0
 30
0.0
  9
$PUCSORGLEFT
 10
0.0
 20
0.0
 30
0.0
  9
$PUCSORGRIGHT
 10
0.0
 20
0.0
 30
0.0
  9
$PUCSORGFRONT
 10
0.0
 20
0.0
 30
0.0
  9
$PUCSORGBACK
 10
0.0
 20
0.0
 30
0.0
  9
$USERI1
 70
     0
  9
$USERI2
 70
     0
  9
$USERI3
 70
     0
  9
$USERI4
 70
     0
  9
$USERI5
 70
     0
  9
$USERR1
 40
0.0
  9
$USERR2
 40
0.0
  9
$USERR3
 40
0.0
  9
$USERR4
 40
0.0
  9
$USERR5
 40
0.0
  9
$WORLDVIEW
 70
     1
  9
$SHADEDGE
 70
     3
  9
$SHADEDIF
 70
    70
  9
$TILEMODE
 70
     1
  9
$MAXACTVP
 70
    64
  9
$PINSBASE
 10
0.0
 20
0.0
 30
0.0
  9
$PLIMCHECK
 70
     0
  9
$PEXTMIN
 10
1.0000000000E+20
 20
1.0000000000E+20
 30
1.0000000000E+20
  9
$PEXTMAX
 10
-1.0000000000E+20
 20
-1.0000000000E+20
 30
-1.0000000000E+20
  9
$PLIMMIN
 10
0.0
 20
0.0
  9
$PLIMMAX
 10
420.0
 20
297.0
  9
$UNITMODE
 70
     0
  9
$VISRETAIN
 70
     1
  9
$PLINEGEN
 70
     0
  9
$PSLTSCALE
 70
     1
  9
$TREEDEPTH
 70
  3020
  9
$CMLSTYLE
  2
Standard
  9
$CMLJUST
 70
     0
  9
$CMLSCALE
 40
20.0
  9
$PROXYGRAPHICS
 70
     1
  9
$MEASUREMENT
 70
     1
  9
$CELWEIGHT
370
    -1
  9
$ENDCAPS
280
     0
  9
$JOINSTYLE
280
     0
  9
$LWDISPLAY
290
     1
  9
$INSUNITS
 70
     4
  9
$HYPERLINKBASE
  1

  9
$STYLESHEET
  1

  9
$XEDIT
290
     1
  9
$CEPSNTYPE
380
     0
  9
$PSTYLEMODE
290
     1
  9
$FINGERPRINTGUID
  2
{2bff6ad4-5ca1-4f8d-b2aa-27fa2b6d00e8}
  9
$VERSIONGUID
  2
{FAEB1C32-E019-11D5-929B-00C0DF256EC4}
  9
$EXTNAMES
290
     1
  9
$PSVPSCALE
 40
0.0
  9
$OLESTARTUP
290
     0
  0
ENDSEC
  0
SECTION
  2
CLASSES
  0
CLASS
  1
ACDBDICTIONARYWDFLT
  2
AcDbDictionaryWithDefault
  3
ObjectDBX Classes
 90
        0
280
     0
281
     0
  0
CLASS
  1
VISUALSTYLE
  2
AcDbVisualStyle
  3
ObjectDBX Classes
 90
     4095
280
     0
281
     0
  0
CLASS
  1
MATERIAL
  2
AcDbMaterial
  3
ObjectDBX Classes
 90
     1153
280
     0
281
     0
  0
CLASS
  1
SCALE
  2
AcDbScale
  3
ObjectDBX Classes
 90
     1153
280
     0
281
     0
  0
CLASS
  1
TABLESTYLE
  2
AcDbTableStyle
  3
ObjectDBX Classes
 90
     4095
280
     0
281
     0
  0
CLASS
  1
MLEADERSTYLE
  2
AcDbMLeaderStyle
  3
ACDB_MLEADERSTYLE_CLASS
 90
     4095
280
     0
281
     0
  0
CLASS
  1
SUN
  2
AcDbSun
  3
SCENEOE
 90
     1153
280
     0
281
     0
  0
CLASS
  1
ACDBPLACEHOLDER
  2
AcDbPlaceHolder
  3
ObjectDBX Classes
 90
        0
280
     0
281
     0
  0
CLASS
  1
LAYOUT
  2
AcDbLayout
  3
ObjectDBX Classes
 90
        0
280
     0
281
     0
  0
ENDSEC
  0
SECTION
  2
TABLES
  0
TABLE
  2
VPORT
  5
8
330
0
100
AcDbSymbolTable
 70
     1
  0
VPORT
  5
29
330
8
100
AcDbSymbolTableRecord
100
AcDbViewportTableRecord
  2
*Active
 70
     0
 10
0.0
 20
0.0
 11
1.0
 21
1.0
 12
10000.0
 22
5000.0
 13
0.0
 23
0.0
 14
10.0
 24
10.0
 15
10.0
 25
10.0
 16
0.0
 26
0.0
 36
1.0
 17
0.0
 27
0.0
 37
0.0
 40
10000.0
 41
2.0
 42
50.0
 43
0.0
 44
0.0
 50
0.0
 51
0.0
 71
     0
 72
  2000
 73
     1
 74
     3
 75
     0
 76
     0
 77
     0
 78
     0
281
     0
 65
     1
110
0.0
120
0.0
130
0.0
111
1.0
121
0.0
131
0.0
112
0.0
122
1.0
132
0.0
 79
     0
146
0.0
  0
ENDTAB
  0
TABLE
  2
LTYPE
  5
5
330
0
100
AcDbSymbolTable
 70
     6
  0
LTYPE
  5
14
330
5
100
AcDbSymbolTableRecord
100
AcDbLinetypeTableRecord
  2
ByBlock
 70
     0
  3

 72
    65
 73
     0
 40
0.0
  0
LTYPE
  5
15
330
5
100
AcDbSymbolTableRecord
100
AcDbLinetypeTableRecord
  2
ByLayer
 70
     0
  3

 72
    65
 73
     0
 40
0.0
  0
LTYPE
  5
16
330
5
100
AcDbSymbolTableRecord
100
AcDbLinetypeTableRecord
  2
Continuous
 70
     0
  3
Solid line
 72
    65
 73
     0
 40
0.0
  0
LTYPE
  5
6E
330
5
100
AcDbSymbolTableRecord
100
AcDbLinetypeTableRecord
  2
HIDDEN
 70
     0
  3
Hidden __ __ __ __ __ __ __ __ __ __ __ __ __ __
 72
    65
 73
     2
 40
1.905
 49
1.27
 74
     0
 49
-0.635
 74
     0
  0
LTYPE
  5
6F
330
5
100
AcDbSymbolTableRecord
100
AcDbLinetypeTableRecord
  2
PHANTOM
 70
     0
  3
Phantom ______  __  __  ______  __  __  ______
 72
    65
 73
     6
 40
12.7
 49
6.35
 74
     0
 49
-1.27
 74
     0
 49
1.27
 74
     0
 49
-1.27
 74
     0
 49
1.27
 74
     0
 49
-1.27
 74
     0
  0
LTYPE
  5
70
330
5
100
AcDbSymbolTableRecord
100
AcDbLinetypeTableRecord
  2
CENTER
 70
     0
  3
Center ____ _ ____ _ ____ _ ____ _ ____ _ ____
 72
    65
 73
     4
 40
10.16
 49
6.35
 74
     0
 49
-1.27
 74
     0
 49
1.27
 74
     0
 49
-1.27
 74
     0
  0
LTYPE
  5
71
330
5
100
AcDbSymbolTableRecord
100
AcDbLinetypeTableRecord
  2
CENTERX2
 70
     0
  3
Center (2x) ________  __  ________  __  _____
 72
    65
 73
     4
 40
20.32
 49
12.7
 74
     0
 49
-2.54
 74
     0
 49
2.54
 74
     0
 49
-2.54
 74
     0
  0
LTYPE
  5
72
330
5
100
AcDbSymbolTableRecord
100
AcDbLinetypeTableRecord
  2
DOT2
 70
     0
  3
Dot (.5x) ........................................
 72
    65
 73
     2
 40
0.635
 49
0.0
 74
     0
 49
-0.635
 74
     0
  0
ENDTAB
  0
TABLE
  2
LAYER
  5
2
330
0
100
AcDbSymbolTable
 70
    13
  0
LAYER
  5
10
330
2
100
AcDbSymbolTableRecord
100
AcDbLayerTableRecord
  2
0
 70
     0
 62
     7
  6
Continuous
370
    -3
390
F
  0
LAYER
  5
73
330
2
100
AcDbSymbolTableRecord
100
AcDbLayerTableRecord
  2
FORMAT
 70
     0
 62
     7
  6
Continuous
370
    -3
390
F
  0
LAYER
  5
74
330
2
100
AcDbSymbolTableRecord
100
AcDbLayerTableRecord
  2
OSA
 70
     0
 62
     7
  6
CENTER
370
    -3
390
F
  0
LAYER
  5
75
330
2
100
AcDbSymbolTableRecord
100
AcDbLayerTableRecord
  2
0_35
 70
     0
 62
     7
  6
Continuous
370
    35
390
F
  0
LAYER
  5
76
330
2
100
AcDbSymbolTableRecord
100
AcDbLayerTableRecord
  2
0_5
 70
     0
 62
     7
  6
Continuous
370
    50
390
F
  0
LAYER
  5
77
330
2
100
AcDbSymbolTableRecord
100
AcDbLayerTableRecord
  2
0_25
 70
     0
 62
     7
  6
Continuous
370
    25
390
F
  0
LAYER
  5
78
330
2
100
AcDbSymbolTableRecord
100
AcDbLayerTableRecord
  2
0_18
 70
     0
 62
     7
  6
Continuous
370
    -3
390
F
  0
LAYER
  5
79
330
2
100
AcDbSymbolTableRecord
100
AcDbLayerTableRecord
  2
SLD-0
 70
     0
 62
   179
  6
Continuous
370
    -3
390
F
  0
LAYER
  5
7A
330
2
100
AcDbSymbolTableRecord
100
AcDbLayerTableRecord
  2
KOTY
 70
     0
 62
     7
  6
Continuous
370
    -3
390
F
  0
LAYER
  5
7B
330
2
100
AcDbSymbolTableRecord
100
AcDbLayerTableRecord
  2
SILNA
 70
     0
 62
   179
  6
Continuous
370
    -3
390
F
  0
LAYER
  5
7C
330
2
100
AcDbSymbolTableRecord
100
AcDbLayerTableRecord
  2
0_18_1
 70
     0
 62
   179
  6
Continuous
370
    -3
390
F
  0
LAYER
  5
7D
330
2
100
AcDbSymbolTableRecord
100
AcDbLayerTableRecord
  2
0_35_1
 70
     0
 62
   179
  6
Continuous
370
    35
390
F
  0
LAYER
  5
7E
330
2
100
AcDbSymbolTableRecord
100
AcDbLayerTableRecord
  2
0_5_1
 70
     0
 62
   179
  6
Continuous
370
    50
390
F
  0
ENDTAB
  0
TABLE
  2
STYLE
  5
3
330
0
100
AcDbSymbolTable
 70
     1
  0
STYLE
  5
11
330
3
100
AcDbSymbolTableRecord
100
AcDbTextStyleTableRecord
  2
Standard
 70
     0
 40
0.0
 41
1.0
 50
0.0
 71
     0
 42
2.0
  3
txt
  4

  0
ENDTAB
  0
TABLE
  2
VIEW
  5
6
330
0
100
AcDbSymbolTable
 70
     0
  0
ENDTAB
  0
TABLE
  2
UCS
  5
7
330
0
100
AcDbSymbolTable
 70
     0
  0
ENDTAB
  0
TABLE
  2
APPID
  5
9
330
0
100
AcDbSymbolTable
 70
     1
  0
APPID
  5
12
330
9
100
AcDbSymbolTableRecord
100
AcDbRegAppTableRecord
  2
ACAD
 70
     0
  0
ENDTAB
  0
TABLE
  2
DIMSTYLE
  5
A
330
0
100
AcDbSymbolTable
 70
     1
100
AcDbDimStyleTable
  0
DIMSTYLE
105
27
330
A
100
AcDbSymbolTableRecord
100
AcDbDimStyleTableRecord
  2
ISO-25
 70
     0
 41
2.5
 42
0.625
 43
3.75
 44
1.25
 73
     0
 74
     0
 77
     1
 78
     8
140
2.5
141
2.5
143
0.0393700787
147
0.625
171
     3
172
     1
178
     0
271
     2
272
     2
274
     3
278
    44
283
     0
284
     8
340
11
  0
ENDTAB
  0
TABLE
  2
BLOCK_RECORD
  5
1
330
0
100
AcDbSymbolTable
 70
     1
  0
BLOCK_RECORD
  5
1F
330
1
100
AcDbSymbolTableRecord
100
AcDbBlockTableRecord
  2
*Model_Space
340
22
  0
BLOCK_RECORD
  5
1B
330
1
100
AcDbSymbolTableRecord
100
AcDbBlockTableRecord
  2
*Paper_Space
340
1E
  0
BLOCK_RECORD
  5
23
330
1
100
AcDbSymbolTableRecord
100
AcDbBlockTableRecord
  2
*Paper_Space0
340
26
  0
ENDTAB
  0
ENDSEC
  0
SECTION
  2
BLOCKS
  0
BLOCK
  5
20
330
1F
100
AcDbEntity
  8
0
100
AcDbBlockBegin
  2
*Model_Space
 70
     0
 10
0.0
 20
0.0
 30
0.0
  3
*Model_Space
  1

  0
ENDBLK
  5
21
330
1F
100
AcDbEntity
  8
0
100
AcDbBlockEnd
  0
BLOCK
  5
1C
330
1B
100
AcDbEntity
 67
     1
  8
0
100
AcDbBlockBegin
  2
*Paper_Space
 70
     0
 10
0.0
 20
0.0
 30
0.0
  3
*Paper_Space
  1

  0
ENDBLK
  5
1D
330
1B
100
AcDbEntity
 67
     1
  8
0
100
AcDbBlockEnd
  0
BLOCK
  5
24
330
23
100
AcDbEntity
  8
0
100
AcDbBlockBegin
  2
*Paper_Space0
 70
     0
 10
0.0
 20
0.0
 30
0.0
  3
*Paper_Space0
  1

  0
ENDBLK
  5
25
330
23
100
AcDbEntity
  8
0
100
AcDbBlockEnd
  0
ENDSEC
  0
SECTION
  2
ENTITIES
  0
LINE
  5
7F
330
1F
100
AcDbEntity
  8
0
  6
Continuous
 62
     7
370
    25
100
AcDbLine
 10
6254.5187553361
 20
5205.9273151093
 30
0.0
 11
6254.5187553361
 21
5206.4494545927
 31
0.0
  0
LINE
  5
80
330
1F
100
AcDbEntity
  8
0
  6
Continuous
 62
     7
370
    25
100
AcDbLine
 10
6245.5187553361
 20
5205.0409966875
 30
0.0
 11
6245.5187553361
 21
5203.9494545927
 31
0.0
  0
LINE
  5
81
330
1F
100
AcDbEntity
  8
0
  6
Continuous
 62
     7
370
    25
100
AcDbLine
 10
6264.5187553361
 20
5203.9494545927
 30
0.0
 11
6264.5187553361
 21
5206.4494545927
 31
0.0
  0
LINE
  5
82
330
1F
100
AcDbEntity
  8
0
  6
Continuous
 62
     7
370
    25
100
AcDbLine
 10
6255.5187553361
 20
5206.4494545927
 30
0.0
 11
6255.5187553361
 21
5204.1546782657
 31
0.0
  0
LINE
  5
83
330
1F
100
AcDbEntity
  8
0
  6
Continuous
 62
     7
370
    25
100
AcDbLine
 10
6246.5187553361
 20
5217.4494545927
 30
0.0
 11
6246.5187553361
 21
5213.0178624837
 31
0.0
  0
LINE
  5
84
330
1F
100
AcDbEntity
  8
0
  6
Continuous
 62
     7
370
    25
100
AcDbLine
 10
6246.5187553361
 20
5210.3589072183
 30
0.0
 11
6246.5187553361
 21
5207.4494545927
 31
0.0
  0
LINE
  5
85
330
1F
100
AcDbEntity
  8
0
  6
Continuous
 62
     7
370
    25
100
AcDbLine
 10
6253.5187553361
 20
5207.6999519529
 30
0.0
 11
6253.5187553361
 21
5212.1315440619
 31
0.0
  0
LINE
  5
86
330
1F
100
AcDbEntity
  8
0
  6
Continuous
 62
     7
370
    25
100
AcDbLine
 10
6253.5187553361
 20
5214.7904993273
 30
0.0
 11
6253.5187553361
 21
5217.4494545927
 31
0.0
  0
LINE
  5
87
330
1F
100
AcDbEntity
  8
0
  6
Continuous
 62
     7
370
    25
100
AcDbLine
 10
6256.5187553361
 20
5217.4494545927
 30
0.0
 11
6256.5187553361
 21
5216.5631361709
 31
0.0
  0
LINE
  5
88
330
1F
100
AcDbEntity
  8
0
  6
Continuous
 62
     7
370
    25
100
AcDbLine
 10
6256.5187553361
 20
5213.9041809055
 30
0.0
 11
6256.5187553361
 21
5209.4725887965
 31
0.0
  0
LINE
  5
89
330
1F
100
AcDbEntity
  8
0
  6
Continuous
 62
     7
370
    25
100
AcDbLine
 10
6263.5187553361
 20
5207.4494545927
 30
0.0
 11
6263.5187553361
 21
5208.5862703747
 31
0.0
  0
LINE
  5
8A
330
1F
100
AcDbEntity
  8
0
  6
Continuous
 62
     7
370
    25
100
AcDbLine
 10
6263.5187553361
 20
5211.2452256401
 30
0.0
 11
6263.5187553361
 21
5215.6768177491
 31
0.0
  0
LINE
  5
8B
330
1F
100
AcDbEntity
  8
0
  6
Continuous
 62
     7
370
    25
100
AcDbLine
 10
6298.0187553361
 20
5207.4494545927
 30
0.0
 11
6298.0187553361
 21
5211.2452256401
 31
0.0
  0
LINE
  5
8C
330
1F
100
AcDbEntity
  8
0
  6
Continuous
 62
     7
370
    25
100
AcDbLine
 10
6298.0187553361
 20
5213.9041809055
 30
0.0
 11
6298.0187553361
 21
5217.4494545927
 31
0.0
  0
LINE
  5
8D
330
1F
100
AcDbEntity
  8
0
  6
Continuous
 62
     7
370
    25
100
AcDbLine
 10
6273.5187553361
 20
5217.4494545927
 30
0.0
 11
6273.5187553361
 21
5214.7904993273
 31
0.0
  0
LINE
  5
8E
330
1F
100
AcDbEntity
  8
0
  6
Continuous
 62
     7
370
    25
100
AcDbLine
 10
6273.5187553361
 20
5212.1315440619
 30
0.0
 11
6273.5187553361
 21
5207.6999519529
 31
0.0
  0
LINE
  5
8F
330
1F
100
AcDbEntity
  8
0
  6
Continuous
 62
     7
370
    25
100
AcDbLine
 10
6298.5187553361
 20
5217.4494545927
 30
0.0
 11
6298.5187553361
 21
5213.0178624837
 31
0.0
  0
LINE
  5
90
330
1F
100
AcDbEntity
  8
0
  6
Continuous
 62
     7
370
    25
100
AcDbLine
 10
6298.5187553361
 20
5210.3589072183
 30
0.0
 11
6298.5187553361
 21
5207.4494545927
 31
0.0
  0
LINE
  5
91
330
1F
100
AcDbEntity
  8
0
  6
Continuous
 62
     7
370
    25
100
AcDbLine
 10
6304.5187553361
 20
5209.4725887965
 30
0.0
 11
6304.5187553361
 21
5213.9041809055
 31
0.0
  0
LINE
  5
92
330
1F
100
AcDbEntity
  8
0
  6
Continuous
 62
     7
370
    25
100
AcDbLine
 10
6304.5187553361
 20
5216.5631361709
 30
0.0
 11
6304.5187553361
 21
5217.4494545927
 31
0.0
  0
LINE
  5
93
330
1F
100
AcDbEntity
  8
0
  6
Continuous
 62
     7
370
    25
100
AcDbLine
 10
6283.5495093624
 20
5184.4494545927
 30
0.0
 11
6283.5495093624
 21
5188.1994545927
 31
0.0
  0
LINE
  5
94
330
1F
100
AcDbEntity
  8
0
  6
Continuous
 62
     7
370
    25
100
AcDbLine
 10
6264.4880013098
 20
5184.4494545927
 30
0.0
 11
6283.5495093624
 21
5184.4494545927
 31
0.0
  0
LINE
  5
95
330
1F
100
AcDbEntity
  8
0
  6
Continuous
 62
     7
370
    25
100
AcDbLine
 10
6264.4880013098
 20
5184.4494545927
 30
0.0
 11
6264.4880013098
 21
5188.1994545927
 31
0.0
  0
LINE
  5
96
330
1F
100
AcDbEntity
  8
0
  6
Continuous
 62
     7
370
    25
100
AcDbLine
 10
6283.5495093624
 20
5188.1994545927
 30
0.0
 11
6264.4880013098
 21
5188.1994545927
 31
0.0
  0
LINE
  5
97
330
1F
100
AcDbEntity
  8
0
  6
Continuous
 62
     7
370
    25
100
AcDbLine
 10
6284.2687553361
 20
5184.4494545927
 30
0.0
 11
6284.2687553361
 21
5188.1994545927
 31
0.0
  0
LINE
  5
98
330
1F
100
AcDbEntity
  8
0
  6
Continuous
 62
     7
370
    25
100
AcDbLine
 10
6283.5495093624
 20
5184.4494545927
 30
0.0
 11
6284.2687553361
 21
5184.4494545927
 31
0.0
  0
LINE
  5
99
330
1F
100
AcDbEntity
  8
0
  6
Continuous
 62
     7
370
    25
100
AcDbLine
 10
6284.2687553361
 20
5188.1994545927
 30
0.0
 11
6283.5495093624
 21
5188.1994545927
 31
0.0
  0
LINE
  5
9A
330
1F
100
AcDbEntity
  8
0
  6
Continuous
 62
     7
370
    25
100
AcDbLine
 10
6263.7687553361
 20
5184.4494545927
 30
0.0
 11
6263.7687553361
 21
5188.1994545927
 31
0.0
  0
LINE
  5
9B
330
1F
100
AcDbEntity
  8
0
  6
Continuous
 62
     7
370
    25
100
AcDbLine
 10
6263.7687553361
 20
5184.4494545927
 30
0.0
 11
6264.4880013098
 21
5184.4494545927
 31
0.0
  0
LINE
  5
9C
330
1F
100
AcDbEntity
  8
0
  6
Continuous
 62
     7
370
    25
100
AcDbLine
 10
6264.4880013098
 20
5188.1994545927
 30
0.0
 11
6263.7687553361
 21
5188.1994545927
 31
0.0
  0
LINE
  5
9D
330
1F
100
AcDbEntity
  8
0
  6
Continuous
 62
     7
370
    25
100
AcDbLine
 10
6239.5187553361
 20
5219.4494545927
 30
0.0
 11
6239.5187553361
 21
5184.4494545927
 31
0.0
  0
LINE
  5
9E
330
1F
100
AcDbEntity
  8
0
  6
Continuous
 62
     7
370
    25
100
AcDbLine
 10
6308.5187553361
 20
5219.4494545927
 30
0.0
 11
6239.5187553361
 21
5219.4494545927
 31
0.0
  0
LINE
  5
9F
330
1F
100
AcDbEntity
  8
0
  6
Continuous
 62
     7
370
    25
100
AcDbLine
 10
6308.5187553361
 20
5219.4494545927
 30
0.0
 11
6308.5187553361
 21
5184.4494545927
 31
0.0
  0
LINE
  5
A0
330
1F
100
AcDbEntity
  8
0
  6
Continuous
 62
     7
370
    25
100
AcDbLine
 10
6308.5187553361
 20
5184.4494545927
 30
0.0
 11
6284.7687553361
 21
5184.4494545927
 31
0.0
  0
LINE
  5
A1
330
1F
100
AcDbEntity
  8
0
  6
Continuous
 62
     7
370
    25
100
AcDbLine
 10
6284.7687553361
 20
5188.1994545927
 30
0.0
 11
6284.7687553361
 21
5184.4494545927
 31
0.0
  0
LINE
  5
A2
330
1F
100
AcDbEntity
  8
0
  6
Continuous
 62
     7
370
    25
100
AcDbLine
 10
6284.2687553361
 20
5188.1994545927
 30
0.0
 11
6284.7687553361
 21
5188.1994545927
 31
0.0
  0
LINE
  5
A3
330
1F
100
AcDbEntity
  8
0
  6
Continuous
 62
     7
370
    25
100
AcDbLine
 10
6263.2687553361
 20
5188.1994545927
 30
0.0
 11
6263.7687553361
 21
5188.1994545927
 31
0.0
  0
LINE
  5
A4
330
1F
100
AcDbEntity
  8
0
  6
Continuous
 62
     7
370
    25
100
AcDbLine
 10
6306.5187553361
 20
5217.4494545927
 30
0.0
 11
6306.5187553361
 21
5213.0178624837
 31
0.0
  0
LINE
  5
A5
330
1F
100
AcDbEntity
  8
0
  6
Continuous
 62
     7
370
    25
100
AcDbLine
 10
6304.0187553361
 20
5217.4494545927
 30
0.0
 11
6306.5187553361
 21
5217.4494545927
 31
0.0
  0
LINE
  5
A6
330
1F
100
AcDbEntity
  8
0
  6
Continuous
 62
     7
370
    25
100
AcDbLine
 10
6306.5187553361
 20
5213.0178624837
 30
0.0
 11
6304.0187553361
 21
5217.4494545927
 31
0.0
  0
LINE
  5
A7
330
1F
100
AcDbEntity
  8
0
  6
Continuous
 62
     7
370
    25
100
AcDbLine
 10
6246.134528442
 20
5203.9494545927
 30
0.0
 11
6243.634528442
 21
5203.9494545927
 31
0.0
  0
LINE
  5
A8
330
1F
100
AcDbEntity
  8
0
  6
Continuous
 62
     7
370
    25
100
AcDbLine
 10
6241.5187553361
 20
5212.1315440619
 30
0.0
 11
6246.134528442
 21
5203.9494545927
 31
0.0
  0
LINE
  5
A9
330
1F
100
AcDbEntity
  8
0
  6
Continuous
 62
     7
370
    25
100
AcDbLine
 10
6241.5187553361
 20
5207.6999519529
 30
0.0
 11
6241.5187553361
 21
5212.1315440619
 31
0.0
  0
LINE
  5
AA
330
1F
100
AcDbEntity
  8
0
  6
Continuous
 62
     7
370
    25
100
AcDbLine
 10
6243.634528442
 20
5203.9494545927
 30
0.0
 11
6241.5187553361
 21
5207.6999519529
 31
0.0
  0
LINE
  5
AB
330
1F
100
AcDbEntity
  8
0
  6
Continuous
 62
     7
370
    25
100
AcDbLine
 10
6280.0187553361
 20
5217.4494545927
 30
0.0
 11
6282.5187553361
 21
5217.4494545927
 31
0.0
  0
LINE
  5
AC
330
1F
100
AcDbEntity
  8
0
  6
Continuous
 62
     7
370
    25
100
AcDbLine
 10
6287.634528442
 20
5203.9494545927
 30
0.0
 11
6280.0187553361
 21
5217.4494545927
 31
0.0
  0
LINE
  5
AD
330
1F
100
AcDbEntity
  8
0
  6
Continuous
 62
     7
370
    25
100
AcDbLine
 10
6290.134528442
 20
5203.9494545927
 30
0.0
 11
6287.634528442
 21
5203.9494545927
 31
0.0
  0
LINE
  5
AE
330
1F
100
AcDbEntity
  8
0
  6
Continuous
 62
     7
370
    25
100
AcDbLine
 10
6282.5187553361
 20
5217.4494545927
 30
0.0
 11
6290.134528442
 21
5203.9494545927
 31
0.0
  0
LINE
  5
AF
330
1F
100
AcDbEntity
  8
0
  6
Continuous
 62
     7
370
    25
100
AcDbLine
 10
6284.0187553361
 20
5217.4494545927
 30
0.0
 11
6286.5187553361
 21
5217.4494545927
 31
0.0
  0
LINE
  5
B0
330
1F
100
AcDbEntity
  8
0
  6
Continuous
 62
     7
370
    25
100
AcDbLine
 10
6291.634528442
 20
5203.9494545927
 30
0.0
 11
6284.0187553361
 21
5217.4494545927
 31
0.0
  0
LINE
  5
B1
330
1F
100
AcDbEntity
  8
0
  6
Continuous
 62
     7
370
    25
100
AcDbLine
 10
6294.134528442
 20
5203.9494545927
 30
0.0
 11
6291.634528442
 21
5203.9494545927
 31
0.0
  0
LINE
  5
B2
330
1F
100
AcDbEntity
  8
0
  6
Continuous
 62
     7
370
    25
100
AcDbLine
 10
6286.5187553361
 20
5217.4494545927
 30
0.0
 11
6294.134528442
 21
5203.9494545927
 31
0.0
  0
LINE
  5
B3
330
1F
100
AcDbEntity
  8
0
  6
Continuous
 62
     7
370
    25
100
AcDbLine
 10
6272.0187553361
 20
5217.4494545927
 30
0.0
 11
6274.5187553361
 21
5217.4494545927
 31
0.0
  0
LINE
  5
B4
330
1F
100
AcDbEntity
  8
0
  6
Continuous
 62
     7
370
    25
100
AcDbLine
 10
6279.634528442
 20
5203.9494545927
 30
0.0
 11
6272.0187553361
 21
5217.4494545927
 31
0.0
  0
LINE
  5
B5
330
1F
100
AcDbEntity
  8
0
  6
Continuous
 62
     7
370
    25
100
AcDbLine
 10
6282.134528442
 20
5203.9494545927
 30
0.0
 11
6279.634528442
 21
5203.9494545927
 31
0.0
  0
LINE
  5
B6
330
1F
100
AcDbEntity
  8
0
  6
Continuous
 62
     7
370
    25
100
AcDbLine
 10
6274.5187553361
 20
5217.4494545927
 30
0.0
 11
6282.134528442
 21
5203.9494545927
 31
0.0
  0
LINE
  5
B7
330
1F
100
AcDbEntity
  8
0
  6
Continuous
 62
     7
370
    25
100
AcDbLine
 10
6276.0187553361
 20
5217.4494545927
 30
0.0
 11
6278.5187553361
 21
5217.4494545927
 31
0.0
  0
LINE
  5
B8
330
1F
100
AcDbEntity
  8
0
  6
Continuous
 62
     7
370
    25
100
AcDbLine
 10
6283.634528442
 20
5203.9494545927
 30
0.0
 11
6276.0187553361
 21
5217.4494545927
 31
0.0
  0
LINE
  5
B9
330
1F
100
AcDbEntity
  8
0
  6
Continuous
 62
     7
370
    25
100
AcDbLine
 10
6286.134528442
 20
5203.9494545927
 30
0.0
 11
6283.634528442
 21
5203.9494545927
 31
0.0
  0
LINE
  5
BA
330
1F
100
AcDbEntity
  8
0
  6
Continuous
 62
     7
370
    25
100
AcDbLine
 10
6278.5187553361
 20
5217.4494545927
 30
0.0
 11
6286.134528442
 21
5203.9494545927
 31
0.0
  0
LINE
  5
BB
330
1F
100
AcDbEntity
  8
0
  6
Continuous
 62
     7
370
    25
100
AcDbLine
 10
6296.0187553361
 20
5217.4494545927
 30
0.0
 11
6298.5187553361
 21
5217.4494545927
 31
0.0
  0
LINE
  5
BC
330
1F
100
AcDbEntity
  8
0
  6
Continuous
 62
     7
370
    25
100
AcDbLine
 10
6303.634528442
 20
5203.9494545927
 30
0.0
 11
6296.0187553361
 21
5217.4494545927
 31
0.0
  0
LINE
  5
BD
330
1F
100
AcDbEntity
  8
0
  6
Continuous
 62
     7
370
    25
100
AcDbLine
 10
6306.134528442
 20
5203.9494545927
 30
0.0
 11
6303.634528442
 21
5203.9494545927
 31
0.0
  0
LINE
  5
BE
330
1F
100
AcDbEntity
  8
0
  6
Continuous
 62
     7
370
    25
100
AcDbLine
 10
6298.5187553361
 20
5217.4494545927
 30
0.0
 11
6306.134528442
 21
5203.9494545927
 31
0.0
  0
LINE
  5
BF
330
1F
100
AcDbEntity
  8
0
  6
Continuous
 62
     7
370
    25
100
AcDbLine
 10
6306.5187553361
 20
5210.3589072183
 30
0.0
 11
6306.5187553361
 21
5205.9273151093
 31
0.0
  0
LINE
  5
C0
330
1F
100
AcDbEntity
  8
0
  6
Continuous
 62
     7
370
    25
100
AcDbLine
 10
6302.5187553361
 20
5217.4494545927
 30
0.0
 11
6306.5187553361
 21
5210.3589072183
 31
0.0
  0
LINE
  5
C1
330
1F
100
AcDbEntity
  8
0
  6
Continuous
 62
     7
370
    25
100
AcDbLine
 10
6300.0187553361
 20
5217.4494545927
 30
0.0
 11
6302.5187553361
 21
5217.4494545927
 31
0.0
  0
LINE
  5
C2
330
1F
100
AcDbEntity
  8
0
  6
Continuous
 62
     7
370
    25
100
AcDbLine
 10
6306.5187553361
 20
5205.9273151093
 30
0.0
 11
6300.0187553361
 21
5217.4494545927
 31
0.0
  0
LINE
  5
C3
330
1F
100
AcDbEntity
  8
0
  6
Continuous
 62
     7
370
    25
100
AcDbLine
 10
6288.0187553361
 20
5217.4494545927
 30
0.0
 11
6290.5187553361
 21
5217.4494545927
 31
0.0
  0
LINE
  5
C4
330
1F
100
AcDbEntity
  8
0
  6
Continuous
 62
     7
370
    25
100
AcDbLine
 10
6295.634528442
 20
5203.9494545927
 30
0.0
 11
6288.0187553361
 21
5217.4494545927
 31
0.0
  0
LINE
  5
C5
330
1F
100
AcDbEntity
  8
0
  6
Continuous
 62
     7
370
    25
100
AcDbLine
 10
6298.134528442
 20
5203.9494545927
 30
0.0
 11
6295.634528442
 21
5203.9494545927
 31
0.0
  0
LINE
  5
C6
330
1F
100
AcDbEntity
  8
0
  6
Continuous
 62
     7
370
    25
100
AcDbLine
 10
6290.5187553361
 20
5217.4494545927
 30
0.0
 11
6298.134528442
 21
5203.9494545927
 31
0.0
  0
LINE
  5
C7
330
1F
100
AcDbEntity
  8
0
  6
Continuous
 62
     7
370
    25
100
AcDbLine
 10
6292.0187553361
 20
5217.4494545927
 30
0.0
 11
6294.5187553361
 21
5217.4494545927
 31
0.0
  0
LINE
  5
C8
330
1F
100
AcDbEntity
  8
0
  6
Continuous
 62
     7
370
    25
100
AcDbLine
 10
6299.634528442
 20
5203.9494545927
 30
0.0
 11
6292.0187553361
 21
5217.4494545927
 31
0.0
  0
LINE
  5
C9
330
1F
100
AcDbEntity
  8
0
  6
Continuous
 62
     7
370
    25
100
AcDbLine
 10
6302.134528442
 20
5203.9494545927
 30
0.0
 11
6299.634528442
 21
5203.9494545927
 31
0.0
  0
LINE
  5
CA
330
1F
100
AcDbEntity
  8
0
  6
Continuous
 62
     7
370
    25
100
AcDbLine
 10
6294.5187553361
 20
5217.4494545927
 30
0.0
 11
6302.134528442
 21
5203.9494545927
 31
0.0
  0
LINE
  5
CB
330
1F
100
AcDbEntity
  8
0
  6
Continuous
 62
     7
370
    25
100
AcDbLine
 10
6248.0187553361
 20
5217.4494545927
 30
0.0
 11
6250.5187553361
 21
5217.4494545927
 31
0.0
  0
LINE
  5
CC
330
1F
100
AcDbEntity
  8
0
  6
Continuous
 62
     7
370
    25
100
AcDbLine
 10
6255.634528442
 20
5203.9494545927
 30
0.0
 11
6248.0187553361
 21
5217.4494545927
 31
0.0
  0
LINE
  5
CD
330
1F
100
AcDbEntity
  8
0
  6
Continuous
 62
     7
370
    25
100
AcDbLine
 10
6258.134528442
 20
5203.9494545927
 30
0.0
 11
6255.634528442
 21
5203.9494545927
 31
0.0
  0
LINE
  5
CE
330
1F
100
AcDbEntity
  8
0
  6
Continuous
 62
     7
370
    25
100
AcDbLine
 10
6250.5187553361
 20
5217.4494545927
 30
0.0
 11
6258.134528442
 21
5203.9494545927
 31
0.0
  0
LINE
  5
CF
330
1F
100
AcDbEntity
  8
0
  6
Continuous
 62
     7
370
    25
100
AcDbLine
 10
6252.0187553361
 20
5217.4494545927
 30
0.0
 11
6254.5187553361
 21
5217.4494545927
 31
0.0
  0
LINE
  5
D0
330
1F
100
AcDbEntity
  8
0
  6
Continuous
 62
     7
370
    25
100
AcDbLine
 10
6259.634528442
 20
5203.9494545927
 30
0.0
 11
6252.0187553361
 21
5217.4494545927
 31
0.0
  0
LINE
  5
D1
330
1F
100
AcDbEntity
  8
0
  6
Continuous
 62
     7
370
    25
100
AcDbLine
 10
6262.134528442
 20
5203.9494545927
 30
0.0
 11
6259.634528442
 21
5203.9494545927
 31
0.0
  0
LINE
  5
D2
330
1F
100
AcDbEntity
  8
0
  6
Continuous
 62
     7
370
    25
100
AcDbLine
 10
6254.5187553361
 20
5217.4494545927
 30
0.0
 11
6262.134528442
 21
5203.9494545927
 31
0.0
  0
LINE
  5
D3
330
1F
100
AcDbEntity
  8
0
  6
Continuous
 62
     7
370
    25
100
AcDbLine
 10
6241.5187553361
 20
5217.4494545927
 30
0.0
 11
6242.5187553361
 21
5217.4494545927
 31
0.0
  0
LINE
  5
D4
330
1F
100
AcDbEntity
  8
0
  6
Continuous
 62
     7
370
    25
100
AcDbLine
 10
6241.5187553361
 20
5214.7904993273
 30
0.0
 11
6241.5187553361
 21
5217.4494545927
 31
0.0
  0
LINE
  5
D5
330
1F
100
AcDbEntity
  8
0
  6
Continuous
 62
     7
370
    25
100
AcDbLine
 10
6247.634528442
 20
5203.9494545927
 30
0.0
 11
6241.5187553361
 21
5214.7904993273
 31
0.0
  0
LINE
  5
D6
330
1F
100
AcDbEntity
  8
0
  6
Continuous
 62
     7
370
    25
100
AcDbLine
 10
6250.134528442
 20
5203.9494545927
 30
0.0
 11
6247.634528442
 21
5203.9494545927
 31
0.0
  0
LINE
  5
D7
330
1F
100
AcDbEntity
  8
0
  6
Continuous
 62
     7
370
    25
100
AcDbLine
 10
6242.5187553361
 20
5217.4494545927
 30
0.0
 11
6250.134528442
 21
5203.9494545927
 31
0.0
  0
LINE
  5
D8
330
1F
100
AcDbEntity
  8
0
  6
Continuous
 62
     7
370
    25
100
AcDbLine
 10
6244.0187553361
 20
5217.4494545927
 30
0.0
 11
6246.5187553361
 21
5217.4494545927
 31
0.0
  0
LINE
  5
D9
330
1F
100
AcDbEntity
  8
0
  6
Continuous
 62
     7
370
    25
100
AcDbLine
 10
6251.634528442
 20
5203.9494545927
 30
0.0
 11
6244.0187553361
 21
5217.4494545927
 31
0.0
  0
LINE
  5
DA
330
1F
100
AcDbEntity
  8
0
  6
Continuous
 62
     7
370
    25
100
AcDbLine
 10
6254.134528442
 20
5203.9494545927
 30
0.0
 11
6251.634528442
 21
5203.9494545927
 31
0.0
  0
LINE
  5
DB
330
1F
100
AcDbEntity
  8
0
  6
Continuous
 62
     7
370
    25
100
AcDbLine
 10
6246.5187553361
 20
5217.4494545927
 30
0.0
 11
6254.134528442
 21
5203.9494545927
 31
0.0
  0
LINE
  5
DC
330
1F
100
AcDbEntity
  8
0
  6
Continuous
 62
     7
370
    25
100
AcDbLine
 10
6264.0187553361
 20
5217.4494545927
 30
0.0
 11
6266.5187553361
 21
5217.4494545927
 31
0.0
  0
LINE
  5
DD
330
1F
100
AcDbEntity
  8
0
  6
Continuous
 62
     7
370
    25
100
AcDbLine
 10
6271.634528442
 20
5203.9494545927
 30
0.0
 11
6264.0187553361
 21
5217.4494545927
 31
0.0
  0
LINE
  5
DE
330
1F
100
AcDbEntity
  8
0
  6
Continuous
 62
     7
370
    25
100
AcDbLine
 10
6274.134528442
 20
5203.9494545927
 30
0.0
 11
6271.634528442
 21
5203.9494545927
 31
0.0
  0
LINE
  5
DF
330
1F
100
AcDbEntity
  8
0
  6
Continuous
 62
     7
370
    25
100
AcDbLine
 10
6266.5187553361
 20
5217.4494545927
 30
0.0
 11
6274.134528442
 21
5203.9494545927
 31
0.0
  0
LINE
  5
E0
330
1F
100
AcDbEntity
  8
0
  6
Continuous
 62
     7
370
    25
100
AcDbLine
 10
6268.0187553361
 20
5217.4494545927
 30
0.0
 11
6270.5187553361
 21
5217.4494545927
 31
0.0
  0
LINE
  5
E1
330
1F
100
AcDbEntity
  8
0
  6
Continuous
 62
     7
370
    25
100
AcDbLine
 10
6275.634528442
 20
5203.9494545927
 30
0.0
 11
6268.0187553361
 21
5217.4494545927
 31
0.0
  0
LINE
  5
E2
330
1F
100
AcDbEntity
  8
0
  6
Continuous
 62
     7
370
    25
100
AcDbLine
 10
6278.134528442
 20
5203.9494545927
 30
0.0
 11
6275.634528442
 21
5203.9494545927
 31
0.0
  0
LINE
  5
E3
330
1F
100
AcDbEntity
  8
0
  6
Continuous
 62
     7
370
    25
100
AcDbLine
 10
6270.5187553361
 20
5217.4494545927
 30
0.0
 11
6278.134528442
 21
5203.9494545927
 31
0.0
  0
LINE
  5
E4
330
1F
100
AcDbEntity
  8
0
  6
Continuous
 62
     7
370
    25
100
AcDbLine
 10
6256.0187553361
 20
5217.4494545927
 30
0.0
 11
6258.5187553361
 21
5217.4494545927
 31
0.0
  0
LINE
  5
E5
330
1F
100
AcDbEntity
  8
0
  6
Continuous
 62
     7
370
    25
100
AcDbLine
 10
6263.634528442
 20
5203.9494545927
 30
0.0
 11
6256.0187553361
 21
5217.4494545927
 31
0.0
  0
LINE
  5
E6
330
1F
100
AcDbEntity
  8
0
  6
Continuous
 62
     7
370
    25
100
AcDbLine
 10
6266.134528442
 20
5203.9494545927
 30
0.0
 11
6263.634528442
 21
5203.9494545927
 31
0.0
  0
LINE
  5
E7
330
1F
100
AcDbEntity
  8
0
  6
Continuous
 62
     7
370
    25
100
AcDbLine
 10
6258.5187553361
 20
5217.4494545927
 30
0.0
 11
6266.134528442
 21
5203.9494545927
 31
0.0
  0
LINE
  5
E8
330
1F
100
AcDbEntity
  8
0
  6
Continuous
 62
     7
370
    25
100
AcDbLine
 10
6260.0187553361
 20
5217.4494545927
 30
0.0
 11
6262.5187553361
 21
5217.4494545927
 31
0.0
  0
LINE
  5
E9
330
1F
100
AcDbEntity
  8
0
  6
Continuous
 62
     7
370
    25
100
AcDbLine
 10
6267.634528442
 20
5203.9494545927
 30
0.0
 11
6260.0187553361
 21
5217.4494545927
 31
0.0
  0
LINE
  5
EA
330
1F
100
AcDbEntity
  8
0
  6
Continuous
 62
     7
370
    25
100
AcDbLine
 10
6270.134528442
 20
5203.9494545927
 30
0.0
 11
6267.634528442
 21
5203.9494545927
 31
0.0
  0
LINE
  5
EB
330
1F
100
AcDbEntity
  8
0
  6
Continuous
 62
     7
370
    25
100
AcDbLine
 10
6262.5187553361
 20
5217.4494545927
 30
0.0
 11
6270.134528442
 21
5203.9494545927
 31
0.0
  0
LINE
  5
EC
330
1F
100
AcDbEntity
  8
0
  6
Continuous
 62
     7
370
    25
100
AcDbLine
 10
6262.0187553361
 20
5197.7960794016
 30
0.0
 11
6262.0187553361
 21
5192.7960794016
 31
0.0
  0
LINE
  5
ED
330
1F
100
AcDbEntity
  8
0
  6
Continuous
 62
     7
370
    25
100
AcDbLine
 10
6258.0187553361
 20
5197.7960794016
 30
0.0
 11
6262.0187553361
 21
5197.7960794016
 31
0.0
  0
LINE
  5
EE
330
1F
100
AcDbEntity
  8
0
  6
Continuous
 62
     7
370
    25
100
AcDbLine
 10
6258.0187553361
 20
5192.7960794016
 30
0.0
 11
6258.0187553361
 21
5197.7960794016
 31
0.0
  0
LINE
  5
EF
330
1F
100
AcDbEntity
  8
0
  6
Continuous
 62
     7
370
    25
100
AcDbLine
 10
6262.0187553361
 20
5192.7960794016
 30
0.0
 11
6258.0187553361
 21
5192.7960794016
 31
0.0
  0
LINE
  5
F0
330
1F
100
AcDbEntity
  8
0
  6
Continuous
 62
     7
370
    25
100
AcDbLine
 10
6252.0187553361
 20
5197.7960794016
 30
0.0
 11
6252.0187553361
 21
5192.7960794016
 31
0.0
  0
LINE
  5
F1
330
1F
100
AcDbEntity
  8
0
  6
Continuous
 62
     7
370
    25
100
AcDbLine
 10
6248.0187553361
 20
5197.7960794016
 30
0.0
 11
6252.0187553361
 21
5197.7960794016
 31
0.0
  0
LINE
  5
F2
330
1F
100
AcDbEntity
  8
0
  6
Continuous
 62
     7
370
    25
100
AcDbLine
 10
6248.0187553361
 20
5192.7960794016
 30
0.0
 11
6248.0187553361
 21
5197.7960794016
 31
0.0
  0
LINE
  5
F3
330
1F
100
AcDbEntity
  8
0
  6
Continuous
 62
     7
370
    25
100
AcDbLine
 10
6252.0187553361
 20
5192.7960794016
 30
0.0
 11
6248.0187553361
 21
5192.7960794016
 31
0.0
  0
LINE
  5
F4
330
1F
100
AcDbEntity
  8
0
  6
Continuous
 62
     7
370
    25
100
AcDbLine
 10
6263.2687553361
 20
5184.4494545927
 30
0.0
 11
6263.2687553361
 21
5188.1994545927
 31
0.0
  0
LINE
  5
F5
330
1F
100
AcDbEntity
  8
0
  6
Continuous
 62
     7
370
    25
100
AcDbLine
 10
6263.2687553361
 20
5184.4494545927
 30
0.0
 11
6239.5187553361
 21
5184.4494545927
 31
0.0
  0
LINE
  5
F6
330
1F
100
AcDbEntity
  8
0
  6
Continuous
 62
     7
370
    25
100
AcDbLine
 10
6250.224200089
 20
5206.4494545927
 30
0.0
 11
6252.724200089
 21
5206.4494545927
 31
0.0
  0
LINE
  5
F7
330
1F
100
AcDbEntity
  8
0
  6
Continuous
 62
     7
370
    25
100
AcDbLine
 10
6254.224200089
 20
5206.4494545927
 30
0.0
 11
6254.5187553361
 21
5206.4494545927
 31
0.0
  0
LINE
  5
F8
330
1F
100
AcDbEntity
  8
0
  6
Continuous
 62
     7
370
    25
100
AcDbLine
 10
6246.224200089
 20
5206.4494545927
 30
0.0
 11
6248.724200089
 21
5206.4494545927
 31
0.0
  0
LINE
  5
F9
330
1F
100
AcDbEntity
  8
0
  6
Continuous
 62
     7
370
    25
100
AcDbLine
 10
6260.0187553361
 20
5206.4494545927
 30
0.0
 11
6260.724200089
 21
5206.4494545927
 31
0.0
  0
LINE
  5
FA
330
1F
100
AcDbEntity
  8
0
  6
Continuous
 62
     7
370
    25
100
AcDbLine
 10
6262.224200089
 20
5206.4494545927
 30
0.0
 11
6264.5187553361
 21
5206.4494545927
 31
0.0
  0
LINE
  5
FB
330
1F
100
AcDbEntity
  8
0
  6
Continuous
 62
     7
370
    25
100
AcDbLine
 10
6255.5187553361
 20
5206.4494545927
 30
0.0
 11
6256.724200089
 21
5206.4494545927
 31
0.0
  0
LINE
  5
FC
330
1F
100
AcDbEntity
  8
0
  6
Continuous
 62
     7
370
    25
100
AcDbLine
 10
6258.224200089
 20
5206.4494545927
 30
0.0
 11
6260.0187553361
 21
5206.4494545927
 31
0.0
  0
LINE
  5
FD
330
1F
100
AcDbEntity
  8
0
  6
Continuous
 62
     7
370
    25
100
AcDbLine
 10
6284.2687553361
 20
5184.4494545927
 30
0.0
 11
6284.7687553361
 21
5184.4494545927
 31
0.0
  0
LINE
  5
FE
330
1F
100
AcDbEntity
  8
0
  6
Continuous
 62
     7
370
    25
100
AcDbLine
 10
6263.2687553361
 20
5184.4494545927
 30
0.0
 11
6263.7687553361
 21
5184.4494545927
 31
0.0
  0
LINE
  5
FF
330
1F
100
AcDbEntity
  8
0
  6
Continuous
 62
     7
370
    25
100
AcDbLine
 10
6250.0187553361
 20
5207.4494545927
 30
0.0
 11
6252.1600687479
 21
5207.4494545927
 31
0.0
  0
LINE
  5
100
330
1F
100
AcDbEntity
  8
0
  6
Continuous
 62
     7
370
    25
100
AcDbLine
 10
6246.5187553361
 20
5207.4494545927
 30
0.0
 11
6248.1600687479
 21
5207.4494545927
 31
0.0
  0
LINE
  5
101
330
1F
100
AcDbEntity
  8
0
  6
Continuous
 62
     7
370
    25
100
AcDbLine
 10
6249.6600687479
 20
5207.4494545927
 30
0.0
 11
6250.0187553361
 21
5207.4494545927
 31
0.0
  0
LINE
  5
102
330
1F
100
AcDbEntity
  8
0
  6
Continuous
 62
     7
370
    25
100
AcDbLine
 10
6260.0187553361
 20
5207.4494545927
 30
0.0
 11
6260.1600687479
 21
5207.4494545927
 31
0.0
  0
LINE
  5
103
330
1F
100
AcDbEntity
  8
0
  6
Continuous
 62
     7
370
    25
100
AcDbLine
 10
6261.6600687479
 20
5207.4494545927
 30
0.0
 11
6263.5187553361
 21
5207.4494545927
 31
0.0
  0
LINE
  5
104
330
1F
100
AcDbEntity
  8
0
  6
Continuous
 62
     7
370
    25
100
AcDbLine
 10
6257.6600687479
 20
5207.4494545927
 30
0.0
 11
6260.0187553361
 21
5207.4494545927
 31
0.0
  0
LINE
  5
105
330
1F
100
AcDbEntity
  8
0
  6
Continuous
 62
     7
370
    25
100
AcDbLine
 10
6264.4932150302
 20
5229.4494545927
 30
0.0
 11
6270.134528442
 21
5219.4494545927
 31
0.0
  0
LINE
  5
106
330
1F
100
AcDbEntity
  8
0
  6
Continuous
 62
     7
370
    25
100
AcDbLine
 10
6261.9932150302
 20
5229.4494545927
 30
0.0
 11
6264.4932150302
 21
5229.4494545927
 31
0.0
  0
LINE
  5
107
330
1F
100
AcDbEntity
  8
0
  6
Continuous
 62
     7
370
    25
100
AcDbLine
 10
6267.634528442
 20
5219.4494545927
 30
0.0
 11
6261.9932150302
 21
5229.4494545927
 31
0.0
  0
LINE
  5
108
330
1F
100
AcDbEntity
  8
0
  6
Continuous
 62
     7
370
    25
100
AcDbLine
 10
6260.4932150302
 20
5229.4494545927
 30
0.0
 11
6266.134528442
 21
5219.4494545927
 31
0.0
  0
LINE
  5
109
330
1F
100
AcDbEntity
  8
0
  6
Continuous
 62
     7
370
    25
100
AcDbLine
 10
6257.9932150302
 20
5229.4494545927
 30
0.0
 11
6260.4932150302
 21
5229.4494545927
 31
0.0
  0
LINE
  5
10A
330
1F
100
AcDbEntity
  8
0
  6
Continuous
 62
     7
370
    25
100
AcDbLine
 10
6263.634528442
 20
5219.4494545927
 30
0.0
 11
6257.9932150302
 21
5229.4494545927
 31
0.0
  0
LINE
  5
10B
330
1F
100
AcDbEntity
  8
0
  6
Continuous
 62
     7
370
    25
100
AcDbLine
 10
6256.4932150302
 20
5229.4494545927
 30
0.0
 11
6262.134528442
 21
5219.4494545927
 31
0.0
  0
LINE
  5
10C
330
1F
100
AcDbEntity
  8
0
  6
Continuous
 62
     7
370
    25
100
AcDbLine
 10
6253.9932150302
 20
5229.4494545927
 30
0.0
 11
6256.4932150302
 21
5229.4494545927
 31
0.0
  0
LINE
  5
10D
330
1F
100
AcDbEntity
  8
0
  6
Continuous
 62
     7
370
    25
100
AcDbLine
 10
6259.634528442
 20
5219.4494545927
 30
0.0
 11
6253.9932150302
 21
5229.4494545927
 31
0.0
  0
LINE
  5
10E
330
1F
100
AcDbEntity
  8
0
  6
Continuous
 62
     7
370
    25
100
AcDbLine
 10
6252.4932150302
 20
5229.4494545927
 30
0.0
 11
6258.134528442
 21
5219.4494545927
 31
0.0
  0
LINE
  5
10F
330
1F
100
AcDbEntity
  8
0
  6
Continuous
 62
     7
370
    25
100
AcDbLine
 10
6249.9932150302
 20
5229.4494545927
 30
0.0
 11
6252.4932150302
 21
5229.4494545927
 31
0.0
  0
LINE
  5
110
330
1F
100
AcDbEntity
  8
0
  6
Continuous
 62
     7
370
    25
100
AcDbLine
 10
6255.634528442
 20
5219.4494545927
 30
0.0
 11
6249.9932150302
 21
5229.4494545927
 31
0.0
  0
LINE
  5
111
330
1F
100
AcDbEntity
  8
0
  6
Continuous
 62
     7
370
    25
100
AcDbLine
 10
6248.4932150302
 20
5229.4494545927
 30
0.0
 11
6254.134528442
 21
5219.4494545927
 31
0.0
  0
LINE
  5
112
330
1F
100
AcDbEntity
  8
0
  6
Continuous
 62
     7
370
    25
100
AcDbLine
 10
6245.9932150302
 20
5229.4494545927
 30
0.0
 11
6248.4932150302
 21
5229.4494545927
 31
0.0
  0
LINE
  5
113
330
1F
100
AcDbEntity
  8
0
  6
Continuous
 62
     7
370
    25
100
AcDbLine
 10
6251.634528442
 20
5219.4494545927
 30
0.0
 11
6245.9932150302
 21
5229.4494545927
 31
0.0
  0
LINE
  5
114
330
1F
100
AcDbEntity
  8
0
  6
Continuous
 62
     7
370
    25
100
AcDbLine
 10
6244.4932150302
 20
5229.4494545927
 30
0.0
 11
6250.134528442
 21
5219.4494545927
 31
0.0
  0
LINE
  5
115
330
1F
100
AcDbEntity
  8
0
  6
Continuous
 62
     7
370
    25
100
AcDbLine
 10
6241.9932150302
 20
5229.4494545927
 30
0.0
 11
6244.4932150302
 21
5229.4494545927
 31
0.0
  0
LINE
  5
116
330
1F
100
AcDbEntity
  8
0
  6
Continuous
 62
     7
370
    25
100
AcDbLine
 10
6247.634528442
 20
5219.4494545927
 30
0.0
 11
6241.9932150302
 21
5229.4494545927
 31
0.0
  0
LINE
  5
117
330
1F
100
AcDbEntity
  8
0
  6
Continuous
 62
     7
370
    25
100
AcDbLine
 10
6241.5187553361
 20
5227.6315440619
 30
0.0
 11
6246.134528442
 21
5219.4494545927
 31
0.0
  0
LINE
  5
118
330
1F
100
AcDbEntity
  8
0
  6
Continuous
 62
     7
370
    25
100
AcDbLine
 10
6243.634528442
 20
5219.4494545927
 30
0.0
 11
6241.5187553361
 21
5223.1999519529
 31
0.0
  0
LINE
  5
119
330
1F
100
AcDbEntity
  8
0
  6
Continuous
 62
     7
370
    25
100
AcDbLine
 10
6300.4932150302
 20
5229.4494545927
 30
0.0
 11
6306.134528442
 21
5219.4494545927
 31
0.0
  0
LINE
  5
11A
330
1F
100
AcDbEntity
  8
0
  6
Continuous
 62
     7
370
    25
100
AcDbLine
 10
6297.9932150302
 20
5229.4494545927
 30
0.0
 11
6300.4932150302
 21
5229.4494545927
 31
0.0
  0
LINE
  5
11B
330
1F
100
AcDbEntity
  8
0
  6
Continuous
 62
     7
370
    25
100
AcDbLine
 10
6303.634528442
 20
5219.4494545927
 30
0.0
 11
6297.9932150302
 21
5229.4494545927
 31
0.0
  0
LINE
  5
11C
330
1F
100
AcDbEntity
  8
0
  6
Continuous
 62
     7
370
    25
100
AcDbLine
 10
6296.4932150302
 20
5229.4494545927
 30
0.0
 11
6302.134528442
 21
5219.4494545927
 31
0.0
  0
LINE
  5
11D
330
1F
100
AcDbEntity
  8
0
  6
Continuous
 62
     7
370
    25
100
AcDbLine
 10
6293.9932150302
 20
5229.4494545927
 30
0.0
 11
6296.4932150302
 21
5229.4494545927
 31
0.0
  0
LINE
  5
11E
330
1F
100
AcDbEntity
  8
0
  6
Continuous
 62
     7
370
    25
100
AcDbLine
 10
6299.634528442
 20
5219.4494545927
 30
0.0
 11
6293.9932150302
 21
5229.4494545927
 31
0.0
  0
LINE
  5
11F
330
1F
100
AcDbEntity
  8
0
  6
Continuous
 62
     7
370
    25
100
AcDbLine
 10
6292.4932150302
 20
5229.4494545927
 30
0.0
 11
6298.134528442
 21
5219.4494545927
 31
0.0
  0
LINE
  5
120
330
1F
100
AcDbEntity
  8
0
  6
Continuous
 62
     7
370
    25
100
AcDbLine
 10
6289.9932150302
 20
5229.4494545927
 30
0.0
 11
6292.4932150302
 21
5229.4494545927
 31
0.0
  0
LINE
  5
121
330
1F
100
AcDbEntity
  8
0
  6
Continuous
 62
     7
370
    25
100
AcDbLine
 10
6295.634528442
 20
5219.4494545927
 30
0.0
 11
6289.9932150302
 21
5229.4494545927
 31
0.0
  0
LINE
  5
122
330
1F
100
AcDbEntity
  8
0
  6
Continuous
 62
     7
370
    25
100
AcDbLine
 10
6288.4932150302
 20
5229.4494545927
 30
0.0
 11
6294.134528442
 21
5219.4494545927
 31
0.0
  0
LINE
  5
123
330
1F
100
AcDbEntity
  8
0
  6
Continuous
 62
     7
370
    25
100
AcDbLine
 10
6285.9932150302
 20
5229.4494545927
 30
0.0
 11
6288.4932150302
 21
5229.4494545927
 31
0.0
  0
LINE
  5
124
330
1F
100
AcDbEntity
  8
0
  6
Continuous
 62
     7
370
    25
100
AcDbLine
 10
6291.634528442
 20
5219.4494545927
 30
0.0
 11
6285.9932150302
 21
5229.4494545927
 31
0.0
  0
LINE
  5
125
330
1F
100
AcDbEntity
  8
0
  6
Continuous
 62
     7
370
    25
100
AcDbLine
 10
6284.4932150302
 20
5229.4494545927
 30
0.0
 11
6290.134528442
 21
5219.4494545927
 31
0.0
  0
LINE
  5
126
330
1F
100
AcDbEntity
  8
0
  6
Continuous
 62
     7
370
    25
100
AcDbLine
 10
6281.9932150302
 20
5229.4494545927
 30
0.0
 11
6284.4932150302
 21
5229.4494545927
 31
0.0
  0
LINE
  5
127
330
1F
100
AcDbEntity
  8
0
  6
Continuous
 62
     7
370
    25
100
AcDbLine
 10
6287.634528442
 20
5219.4494545927
 30
0.0
 11
6281.9932150302
 21
5229.4494545927
 31
0.0
  0
LINE
  5
128
330
1F
100
AcDbEntity
  8
0
  6
Continuous
 62
     7
370
    25
100
AcDbLine
 10
6280.4932150302
 20
5229.4494545927
 30
0.0
 11
6286.134528442
 21
5219.4494545927
 31
0.0
  0
LINE
  5
129
330
1F
100
AcDbEntity
  8
0
  6
Continuous
 62
     7
370
    25
100
AcDbLine
 10
6277.9932150302
 20
5229.4494545927
 30
0.0
 11
6280.4932150302
 21
5229.4494545927
 31
0.0
  0
LINE
  5
12A
330
1F
100
AcDbEntity
  8
0
  6
Continuous
 62
     7
370
    25
100
AcDbLine
 10
6283.634528442
 20
5219.4494545927
 30
0.0
 11
6277.9932150302
 21
5229.4494545927
 31
0.0
  0
LINE
  5
12B
330
1F
100
AcDbEntity
  8
0
  6
Continuous
 62
     7
370
    25
100
AcDbLine
 10
6276.4932150302
 20
5229.4494545927
 30
0.0
 11
6282.134528442
 21
5219.4494545927
 31
0.0
  0
LINE
  5
12C
330
1F
100
AcDbEntity
  8
0
  6
Continuous
 62
     7
370
    25
100
AcDbLine
 10
6273.9932150302
 20
5229.4494545927
 30
0.0
 11
6276.4932150302
 21
5229.4494545927
 31
0.0
  0
LINE
  5
12D
330
1F
100
AcDbEntity
  8
0
  6
Continuous
 62
     7
370
    25
100
AcDbLine
 10
6279.634528442
 20
5219.4494545927
 30
0.0
 11
6273.9932150302
 21
5229.4494545927
 31
0.0
  0
LINE
  5
12E
330
1F
100
AcDbEntity
  8
0
  6
Continuous
 62
     7
370
    25
100
AcDbLine
 10
6272.4932150302
 20
5229.4494545927
 30
0.0
 11
6278.134528442
 21
5219.4494545927
 31
0.0
  0
LINE
  5
12F
330
1F
100
AcDbEntity
  8
0
  6
Continuous
 62
     7
370
    25
100
AcDbLine
 10
6269.9932150302
 20
5229.4494545927
 30
0.0
 11
6272.4932150302
 21
5229.4494545927
 31
0.0
  0
LINE
  5
130
330
1F
100
AcDbEntity
  8
0
  6
Continuous
 62
     7
370
    25
100
AcDbLine
 10
6275.634528442
 20
5219.4494545927
 30
0.0
 11
6269.9932150302
 21
5229.4494545927
 31
0.0
  0
LINE
  5
131
330
1F
100
AcDbEntity
  8
0
  6
Continuous
 62
     7
370
    25
100
AcDbLine
 10
6268.4932150302
 20
5229.4494545927
 30
0.0
 11
6274.134528442
 21
5219.4494545927
 31
0.0
  0
LINE
  5
132
330
1F
100
AcDbEntity
  8
0
  6
Continuous
 62
     7
370
    25
100
AcDbLine
 10
6265.9932150302
 20
5229.4494545927
 30
0.0
 11
6268.4932150302
 21
5229.4494545927
 31
0.0
  0
LINE
  5
133
330
1F
100
AcDbEntity
  8
0
  6
Continuous
 62
     7
370
    25
100
AcDbLine
 10
6271.634528442
 20
5219.4494545927
 30
0.0
 11
6265.9932150302
 21
5229.4494545927
 31
0.0
  0
LINE
  5
134
330
1F
100
AcDbEntity
  8
0
  6
Continuous
 62
     7
370
    25
100
AcDbLine
 10
6304.4932150302
 20
5229.4494545927
 30
0.0
 11
6306.5187553361
 21
5225.8589072183
 31
0.0
  0
LINE
  5
135
330
1F
100
AcDbEntity
  8
0
  6
Continuous
 62
     7
370
    25
100
AcDbLine
 10
6301.9932150302
 20
5229.4494545927
 30
0.0
 11
6304.4932150302
 21
5229.4494545927
 31
0.0
  0
LINE
  5
136
330
1F
100
AcDbEntity
  8
0
  6
Continuous
 62
     7
370
    25
100
AcDbLine
 10
6306.5187553361
 20
5221.4273151093
 30
0.0
 11
6301.9932150302
 21
5229.4494545927
 31
0.0
  0
LINE
  5
137
330
1F
100
AcDbEntity
  8
0
  6
Continuous
 62
     7
370
    25
100
AcDbLine
 10
6308.5187553361
 20
5231.4494545927
 30
0.0
 11
6239.5187553361
 21
5231.4494545927
 31
0.0
  0
LINE
  5
138
330
1F
100
AcDbEntity
  8
0
  6
Continuous
 62
     7
370
    25
100
AcDbLine
 10
6241.5187553361
 20
5223.1999519529
 30
0.0
 11
6241.5187553361
 21
5227.6315440619
 31
0.0
  0
LINE
  5
139
330
1F
100
AcDbEntity
  8
0
  6
Continuous
 62
     7
370
    25
100
AcDbLine
 10
6306.5187553361
 20
5225.8589072183
 30
0.0
 11
6306.5187553361
 21
5221.4273151093
 31
0.0
  0
LINE
  5
13A
330
1F
100
AcDbEntity
  8
0
  6
Continuous
 62
     7
370
    25
100
AcDbLine
 10
6308.5187553361
 20
5231.4494545927
 30
0.0
 11
6308.5187553361
 21
5219.4494545927
 31
0.0
  0
LINE
  5
13B
330
1F
100
AcDbEntity
  8
0
  6
Continuous
 62
     7
370
    25
100
AcDbLine
 10
6239.5187553361
 20
5231.4494545927
 30
0.0
 11
6239.5187553361
 21
5219.4494545927
 31
0.0
  0
LINE
  5
13C
330
1F
100
AcDbEntity
  8
0
  6
Continuous
 62
     7
370
    25
100
AcDbLine
 10
6304.7752807008
 20
5240.9494545927
 30
0.0
 11
6306.5187553361
 21
5237.8589072183
 31
0.0
  0
LINE
  5
13D
330
1F
100
AcDbEntity
  8
0
  6
Continuous
 62
     7
370
    25
100
AcDbLine
 10
6308.5187553361
 20
5240.9494545927
 30
0.0
 11
6304.7752807008
 21
5240.9494545927
 31
0.0
  0
LINE
  5
13E
330
1F
100
AcDbEntity
  8
0
  6
Continuous
 62
     7
370
    25
100
AcDbLine
 10
6300.7752807008
 20
5240.9494545927
 30
0.0
 11
6306.134528442
 21
5231.4494545927
 31
0.0
  0
LINE
  5
13F
330
1F
100
AcDbEntity
  8
0
  6
Continuous
 62
     7
370
    25
100
AcDbLine
 10
6302.2752807008
 20
5240.9494545927
 30
0.0
 11
6300.7752807008
 21
5240.9494545927
 31
0.0
  0
LINE
  5
140
330
1F
100
AcDbEntity
  8
0
  6
Continuous
 62
     7
370
    25
100
AcDbLine
 10
6306.5187553361
 20
5233.4273151093
 30
0.0
 11
6302.2752807008
 21
5240.9494545927
 31
0.0
  0
LINE
  5
141
330
1F
100
AcDbEntity
  8
0
  6
Continuous
 62
     7
370
    25
100
AcDbLine
 10
6306.5187553361
 20
5237.8589072183
 30
0.0
 11
6306.5187553361
 21
5233.4273151093
 31
0.0
  0
LINE
  5
142
330
1F
100
AcDbEntity
  8
0
  6
Continuous
 62
     7
370
    25
100
AcDbLine
 10
6308.5187553361
 20
5240.9494545927
 30
0.0
 11
6308.5187553361
 21
5231.4494545927
 31
0.0
  0
LINE
  5
143
330
1F
100
AcDbEntity
  8
0
  6
Continuous
 62
     7
370
    25
100
AcDbLine
 10
6242.2752807008
 20
5240.9494545927
 30
0.0
 11
6239.5187553361
 21
5240.9494545927
 31
0.0
  0
LINE
  5
144
330
1F
100
AcDbEntity
  8
0
  6
Continuous
 62
     7
370
    25
100
AcDbLine
 10
6247.634528442
 20
5231.4494545927
 30
0.0
 11
6242.2752807008
 21
5240.9494545927
 31
0.0
  0
LINE
  5
145
330
1F
100
AcDbEntity
  8
0
  6
Continuous
 62
     7
370
    25
100
AcDbLine
 10
6241.5187553361
 20
5239.6315440619
 30
0.0
 11
6246.134528442
 21
5231.4494545927
 31
0.0
  0
LINE
  5
146
330
1F
100
AcDbEntity
  8
0
  6
Continuous
 62
     7
370
    25
100
AcDbLine
 10
6243.634528442
 20
5231.4494545927
 30
0.0
 11
6241.5187553361
 21
5235.1999519529
 31
0.0
  0
LINE
  5
147
330
1F
100
AcDbEntity
  8
0
  6
Continuous
 62
     7
370
    25
100
AcDbLine
 10
6241.5187553361
 20
5235.1999519529
 30
0.0
 11
6241.5187553361
 21
5239.6315440619
 31
0.0
  0
LINE
  5
148
330
1F
100
AcDbEntity
  8
0
  6
Continuous
 62
     7
370
    25
100
AcDbLine
 10
6239.5187553361
 20
5240.9494545927
 30
0.0
 11
6239.5187553361
 21
5231.4494545927
 31
0.0
  0
LINE
  5
149
330
1F
100
AcDbEntity
  8
0
  6
Continuous
 62
     7
370
    25
100
AcDbLine
 10
6288.7752807008
 20
5240.9494545927
 30
0.0
 11
6294.134528442
 21
5231.4494545927
 31
0.0
  0
LINE
  5
14A
330
1F
100
AcDbEntity
  8
0
  6
Continuous
 62
     7
370
    25
100
AcDbLine
 10
6290.2752807008
 20
5240.9494545927
 30
0.0
 11
6288.7752807008
 21
5240.9494545927
 31
0.0
  0
LINE
  5
14B
330
1F
100
AcDbEntity
  8
0
  6
Continuous
 62
     7
370
    25
100
AcDbLine
 10
6295.634528442
 20
5231.4494545927
 30
0.0
 11
6290.2752807008
 21
5240.9494545927
 31
0.0
  0
LINE
  5
14C
330
1F
100
AcDbEntity
  8
0
  6
Continuous
 62
     7
370
    25
100
AcDbLine
 10
6296.7752807008
 20
5240.9494545927
 30
0.0
 11
6302.134528442
 21
5231.4494545927
 31
0.0
  0
LINE
  5
14D
330
1F
100
AcDbEntity
  8
0
  6
Continuous
 62
     7
370
    25
100
AcDbLine
 10
6298.2752807008
 20
5240.9494545927
 30
0.0
 11
6296.7752807008
 21
5240.9494545927
 31
0.0
  0
LINE
  5
14E
330
1F
100
AcDbEntity
  8
0
  6
Continuous
 62
     7
370
    25
100
AcDbLine
 10
6303.634528442
 20
5231.4494545927
 30
0.0
 11
6298.2752807008
 21
5240.9494545927
 31
0.0
  0
LINE
  5
14F
330
1F
100
AcDbEntity
  8
0
  6
Continuous
 62
     7
370
    25
100
AcDbLine
 10
6299.634528442
 20
5231.4494545927
 30
0.0
 11
6294.2752807008
 21
5240.9494545927
 31
0.0
  0
LINE
  5
150
330
1F
100
AcDbEntity
  8
0
  6
Continuous
 62
     7
370
    25
100
AcDbLine
 10
6292.7752807008
 20
5240.9494545927
 30
0.0
 11
6298.134528442
 21
5231.4494545927
 31
0.0
  0
LINE
  5
151
330
1F
100
AcDbEntity
  8
0
  6
Continuous
 62
     7
370
    25
100
AcDbLine
 10
6294.2752807008
 20
5240.9494545927
 30
0.0
 11
6292.7752807008
 21
5240.9494545927
 31
0.0
  0
LINE
  5
152
330
1F
100
AcDbEntity
  8
0
  6
Continuous
 62
     7
370
    25
100
AcDbLine
 10
6252.7752807008
 20
5240.9494545927
 30
0.0
 11
6258.134528442
 21
5231.4494545927
 31
0.0
  0
LINE
  5
153
330
1F
100
AcDbEntity
  8
0
  6
Continuous
 62
     7
370
    25
100
AcDbLine
 10
6254.2752807008
 20
5240.9494545927
 30
0.0
 11
6252.7752807008
 21
5240.9494545927
 31
0.0
  0
LINE
  5
154
330
1F
100
AcDbEntity
  8
0
  6
Continuous
 62
     7
370
    25
100
AcDbLine
 10
6259.634528442
 20
5231.4494545927
 30
0.0
 11
6254.2752807008
 21
5240.9494545927
 31
0.0
  0
LINE
  5
155
330
1F
100
AcDbEntity
  8
0
  6
Continuous
 62
     7
370
    25
100
AcDbLine
 10
6275.634528442
 20
5231.4494545927
 30
0.0
 11
6270.2752807008
 21
5240.9494545927
 31
0.0
  0
LINE
  5
156
330
1F
100
AcDbEntity
  8
0
  6
Continuous
 62
     7
370
    25
100
AcDbLine
 10
6268.7752807008
 20
5240.9494545927
 30
0.0
 11
6274.134528442
 21
5231.4494545927
 31
0.0
  0
LINE
  5
157
330
1F
100
AcDbEntity
  8
0
  6
Continuous
 62
     7
370
    25
100
AcDbLine
 10
6270.2752807008
 20
5240.9494545927
 30
0.0
 11
6268.7752807008
 21
5240.9494545927
 31
0.0
  0
LINE
  5
158
330
1F
100
AcDbEntity
  8
0
  6
Continuous
 62
     7
370
    25
100
AcDbLine
 10
6248.7752807008
 20
5240.9494545927
 30
0.0
 11
6254.134528442
 21
5231.4494545927
 31
0.0
  0
LINE
  5
159
330
1F
100
AcDbEntity
  8
0
  6
Continuous
 62
     7
370
    25
100
AcDbLine
 10
6250.2752807008
 20
5240.9494545927
 30
0.0
 11
6248.7752807008
 21
5240.9494545927
 31
0.0
  0
LINE
  5
15A
330
1F
100
AcDbEntity
  8
0
  6
Continuous
 62
     7
370
    25
100
AcDbLine
 10
6255.634528442
 20
5231.4494545927
 30
0.0
 11
6250.2752807008
 21
5240.9494545927
 31
0.0
  0
LINE
  5
15B
330
1F
100
AcDbEntity
  8
0
  6
Continuous
 62
     7
370
    25
100
AcDbLine
 10
6272.7752807008
 20
5240.9494545927
 30
0.0
 11
6278.134528442
 21
5231.4494545927
 31
0.0
  0
LINE
  5
15C
330
1F
100
AcDbEntity
  8
0
  6
Continuous
 62
     7
370
    25
100
AcDbLine
 10
6274.2752807008
 20
5240.9494545927
 30
0.0
 11
6272.7752807008
 21
5240.9494545927
 31
0.0
  0
LINE
  5
15D
330
1F
100
AcDbEntity
  8
0
  6
Continuous
 62
     7
370
    25
100
AcDbLine
 10
6279.634528442
 20
5231.4494545927
 30
0.0
 11
6274.2752807008
 21
5240.9494545927
 31
0.0
  0
LINE
  5
15E
330
1F
100
AcDbEntity
  8
0
  6
Continuous
 62
     7
370
    25
100
AcDbLine
 10
6284.7752807008
 20
5240.9494545927
 30
0.0
 11
6290.134528442
 21
5231.4494545927
 31
0.0
  0
LINE
  5
15F
330
1F
100
AcDbEntity
  8
0
  6
Continuous
 62
     7
370
    25
100
AcDbLine
 10
6286.2752807008
 20
5240.9494545927
 30
0.0
 11
6284.7752807008
 21
5240.9494545927
 31
0.0
  0
LINE
  5
160
330
1F
100
AcDbEntity
  8
0
  6
Continuous
 62
     7
370
    25
100
AcDbLine
 10
6291.634528442
 20
5231.4494545927
 30
0.0
 11
6286.2752807008
 21
5240.9494545927
 31
0.0
  0
LINE
  5
161
330
1F
100
AcDbEntity
  8
0
  6
Continuous
 62
     7
370
    25
100
AcDbLine
 10
6244.7752807008
 20
5240.9494545927
 30
0.0
 11
6250.134528442
 21
5231.4494545927
 31
0.0
  0
LINE
  5
162
330
1F
100
AcDbEntity
  8
0
  6
Continuous
 62
     7
370
    25
100
AcDbLine
 10
6246.2752807008
 20
5240.9494545927
 30
0.0
 11
6244.7752807008
 21
5240.9494545927
 31
0.0
  0
LINE
  5
163
330
1F
100
AcDbEntity
  8
0
  6
Continuous
 62
     7
370
    25
100
AcDbLine
 10
6251.634528442
 20
5231.4494545927
 30
0.0
 11
6246.2752807008
 21
5240.9494545927
 31
0.0
  0
LINE
  5
164
330
1F
100
AcDbEntity
  8
0
  6
Continuous
 62
     7
370
    25
100
AcDbLine
 10
6308.5187553361
 20
5242.9494545927
 30
0.0
 11
6239.5187553361
 21
5242.9494545927
 31
0.0
  0
LINE
  5
165
330
1F
100
AcDbEntity
  8
0
  6
Continuous
 62
     7
370
    25
100
AcDbLine
 10
6282.2752807008
 20
5240.9494545927
 30
0.0
 11
6280.7752807008
 21
5240.9494545927
 31
0.0
  0
LINE
  5
166
330
1F
100
AcDbEntity
  8
0
  6
Continuous
 62
     7
370
    25
100
AcDbLine
 10
6278.2752807008
 20
5240.9494545927
 30
0.0
 11
6276.7752807008
 21
5240.9494545927
 31
0.0
  0
LINE
  5
167
330
1F
100
AcDbEntity
  8
0
  6
Continuous
 62
     7
370
    25
100
AcDbLine
 10
6266.2752807008
 20
5240.9494545927
 30
0.0
 11
6264.7752807008
 21
5240.9494545927
 31
0.0
  0
LINE
  5
168
330
1F
100
AcDbEntity
  8
0
  6
Continuous
 62
     7
370
    25
100
AcDbLine
 10
6262.2752807008
 20
5240.9494545927
 30
0.0
 11
6260.7752807008
 21
5240.9494545927
 31
0.0
  0
LINE
  5
169
330
1F
100
AcDbEntity
  8
0
  6
Continuous
 62
     7
370
    25
100
AcDbLine
 10
6258.2752807008
 20
5240.9494545927
 30
0.0
 11
6256.7752807008
 21
5240.9494545927
 31
0.0
  0
LINE
  5
16A
330
1F
100
AcDbEntity
  8
0
  6
Continuous
 62
     7
370
    25
100
AcDbLine
 10
6242.2752807008
 20
5240.9494545927
 30
0.0
 11
6244.7752807008
 21
5240.9494545927
 31
0.0
  0
LINE
  5
16B
330
1F
100
AcDbEntity
  8
0
  6
Continuous
 62
     7
370
    25
100
AcDbLine
 10
6246.2752807008
 20
5240.9494545927
 30
0.0
 11
6248.7752807008
 21
5240.9494545927
 31
0.0
  0
LINE
  5
16C
330
1F
100
AcDbEntity
  8
0
  6
Continuous
 62
     7
370
    25
100
AcDbLine
 10
6250.2752807008
 20
5240.9494545927
 30
0.0
 11
6252.7752807008
 21
5240.9494545927
 31
0.0
  0
LINE
  5
16D
330
1F
100
AcDbEntity
  8
0
  6
Continuous
 62
     7
370
    25
100
AcDbLine
 10
6254.2752807008
 20
5240.9494545927
 30
0.0
 11
6256.7752807008
 21
5240.9494545927
 31
0.0
  0
LINE
  5
16E
330
1F
100
AcDbEntity
  8
0
  6
Continuous
 62
     7
370
    25
100
AcDbLine
 10
6258.2752807008
 20
5240.9494545927
 30
0.0
 11
6260.7752807008
 21
5240.9494545927
 31
0.0
  0
LINE
  5
16F
330
1F
100
AcDbEntity
  8
0
  6
Continuous
 62
     7
370
    25
100
AcDbLine
 10
6262.2752807008
 20
5240.9494545927
 30
0.0
 11
6264.7752807008
 21
5240.9494545927
 31
0.0
  0
LINE
  5
170
330
1F
100
AcDbEntity
  8
0
  6
Continuous
 62
     7
370
    25
100
AcDbLine
 10
6266.2752807008
 20
5240.9494545927
 30
0.0
 11
6268.7752807008
 21
5240.9494545927
 31
0.0
  0
LINE
  5
171
330
1F
100
AcDbEntity
  8
0
  6
Continuous
 62
     7
370
    25
100
AcDbLine
 10
6270.2752807008
 20
5240.9494545927
 30
0.0
 11
6272.7752807008
 21
5240.9494545927
 31
0.0
  0
LINE
  5
172
330
1F
100
AcDbEntity
  8
0
  6
Continuous
 62
     7
370
    25
100
AcDbLine
 10
6274.2752807008
 20
5240.9494545927
 30
0.0
 11
6276.7752807008
 21
5240.9494545927
 31
0.0
  0
LINE
  5
173
330
1F
100
AcDbEntity
  8
0
  6
Continuous
 62
     7
370
    25
100
AcDbLine
 10
6278.2752807008
 20
5240.9494545927
 30
0.0
 11
6280.7752807008
 21
5240.9494545927
 31
0.0
  0
LINE
  5
174
330
1F
100
AcDbEntity
  8
0
  6
Continuous
 62
     7
370
    25
100
AcDbLine
 10
6282.2752807008
 20
5240.9494545927
 30
0.0
 11
6284.7752807008
 21
5240.9494545927
 31
0.0
  0
LINE
  5
175
330
1F
100
AcDbEntity
  8
0
  6
Continuous
 62
     7
370
    25
100
AcDbLine
 10
6286.2752807008
 20
5240.9494545927
 30
0.0
 11
6288.7752807008
 21
5240.9494545927
 31
0.0
  0
LINE
  5
176
330
1F
100
AcDbEntity
  8
0
  6
Continuous
 62
     7
370
    25
100
AcDbLine
 10
6290.2752807008
 20
5240.9494545927
 30
0.0
 11
6292.7752807008
 21
5240.9494545927
 31
0.0
  0
LINE
  5
177
330
1F
100
AcDbEntity
  8
0
  6
Continuous
 62
     7
370
    25
100
AcDbLine
 10
6294.2752807008
 20
5240.9494545927
 30
0.0
 11
6296.7752807008
 21
5240.9494545927
 31
0.0
  0
LINE
  5
178
330
1F
100
AcDbEntity
  8
0
  6
Continuous
 62
     7
370
    25
100
AcDbLine
 10
6298.2752807008
 20
5240.9494545927
 30
0.0
 11
6300.7752807008
 21
5240.9494545927
 31
0.0
  0
LINE
  5
179
330
1F
100
AcDbEntity
  8
0
  6
Continuous
 62
     7
370
    25
100
AcDbLine
 10
6302.2752807008
 20
5240.9494545927
 30
0.0
 11
6304.7752807008
 21
5240.9494545927
 31
0.0
  0
LINE
  5
17A
330
1F
100
AcDbEntity
  8
0
  6
Continuous
 62
     7
370
    25
100
AcDbLine
 10
6308.5187553361
 20
5242.9494545927
 30
0.0
 11
6308.5187553361
 21
5240.9494545927
 31
0.0
  0
LINE
  5
17B
330
1F
100
AcDbEntity
  8
0
  6
Continuous
 62
     7
370
    25
100
AcDbLine
 10
6239.5187553361
 20
5242.9494545927
 30
0.0
 11
6239.5187553361
 21
5240.9494545927
 31
0.0
  0
LINE
  5
17C
330
1F
100
AcDbEntity
  8
0
  6
Continuous
 62
     7
370
    25
100
AcDbLine
 10
6264.7752807008
 20
5240.9494545927
 30
0.0
 11
6270.134528442
 21
5231.4494545927
 31
0.0
  0
LINE
  5
17D
330
1F
100
AcDbEntity
  8
0
  6
Continuous
 62
     7
370
    25
100
AcDbLine
 10
6271.634528442
 20
5231.4494545927
 30
0.0
 11
6266.2752807008
 21
5240.9494545927
 31
0.0
  0
LINE
  5
17E
330
1F
100
AcDbEntity
  8
0
  6
Continuous
 62
     7
370
    25
100
AcDbLine
 10
6276.7752807008
 20
5240.9494545927
 30
0.0
 11
6282.134528442
 21
5231.4494545927
 31
0.0
  0
LINE
  5
17F
330
1F
100
AcDbEntity
  8
0
  6
Continuous
 62
     7
370
    25
100
AcDbLine
 10
6283.634528442
 20
5231.4494545927
 30
0.0
 11
6278.2752807008
 21
5240.9494545927
 31
0.0
  0
LINE
  5
180
330
1F
100
AcDbEntity
  8
0
  6
Continuous
 62
     7
370
    25
100
AcDbLine
 10
6256.7752807008
 20
5240.9494545927
 30
0.0
 11
6262.134528442
 21
5231.4494545927
 31
0.0
  0
LINE
  5
181
330
1F
100
AcDbEntity
  8
0
  6
Continuous
 62
     7
370
    25
100
AcDbLine
 10
6263.634528442
 20
5231.4494545927
 30
0.0
 11
6258.2752807008
 21
5240.9494545927
 31
0.0
  0
LINE
  5
182
330
1F
100
AcDbEntity
  8
0
  6
Continuous
 62
     7
370
    25
100
AcDbLine
 10
6280.7752807008
 20
5240.9494545927
 30
0.0
 11
6286.134528442
 21
5231.4494545927
 31
0.0
  0
LINE
  5
183
330
1F
100
AcDbEntity
  8
0
  6
Continuous
 62
     7
370
    25
100
AcDbLine
 10
6287.634528442
 20
5231.4494545927
 30
0.0
 11
6282.2752807008
 21
5240.9494545927
 31
0.0
  0
LINE
  5
184
330
1F
100
AcDbEntity
  8
0
  6
Continuous
 62
     7
370
    25
100
AcDbLine
 10
6260.7752807008
 20
5240.9494545927
 30
0.0
 11
6266.134528442
 21
5231.4494545927
 31
0.0
  0
LINE
  5
185
330
1F
100
AcDbEntity
  8
0
  6
Continuous
 62
     7
370
    25
100
AcDbLine
 10
6267.634528442
 20
5231.4494545927
 30
0.0
 11
6262.2752807008
 21
5240.9494545927
 31
0.0
  0
LINE
  5
186
330
1F
100
AcDbEntity
  8
0
  6
Continuous
 62
     7
370
    25
100
AcDbLine
 10
6277.6600687479
 20
5207.4494545927
 30
0.0
 11
6280.1600687479
 21
5207.4494545927
 31
0.0
  0
LINE
  5
187
330
1F
100
AcDbEntity
  8
0
  6
Continuous
 62
     7
370
    25
100
AcDbLine
 10
6281.6600687479
 20
5207.4494545927
 30
0.0
 11
6284.1600687479
 21
5207.4494545927
 31
0.0
  0
LINE
  5
188
330
1F
100
AcDbEntity
  8
0
  6
Continuous
 62
     7
370
    25
100
AcDbLine
 10
6285.6600687479
 20
5207.4494545927
 30
0.0
 11
6288.1600687479
 21
5207.4494545927
 31
0.0
  0
LINE
  5
189
330
1F
100
AcDbEntity
  8
0
  6
Continuous
 62
     7
370
    25
100
AcDbLine
 10
6289.6600687479
 20
5207.4494545927
 30
0.0
 11
6292.1600687479
 21
5207.4494545927
 31
0.0
  0
LINE
  5
18A
330
1F
100
AcDbEntity
  8
0
  6
Continuous
 62
     7
370
    25
100
AcDbLine
 10
6293.6600687479
 20
5207.4494545927
 30
0.0
 11
6294.0187553361
 21
5207.4494545927
 31
0.0
  0
LINE
  5
18B
330
1F
100
AcDbEntity
  8
0
  6
Continuous
 62
     7
370
    25
100
AcDbLine
 10
6294.0187553361
 20
5207.4494545927
 30
0.0
 11
6296.1600687479
 21
5207.4494545927
 31
0.0
  0
LINE
  5
18C
330
1F
100
AcDbEntity
  8
0
  6
Continuous
 62
     7
370
    25
100
AcDbLine
 10
6297.6600687479
 20
5207.4494545927
 30
0.0
 11
6298.0187553361
 21
5207.4494545927
 31
0.0
  0
LINE
  5
18D
330
1F
100
AcDbEntity
  8
0
  6
Continuous
 62
     7
370
    25
100
AcDbLine
 10
6273.5187553361
 20
5205.0409966875
 30
0.0
 11
6273.5187553361
 21
5203.9494545927
 31
0.0
  0
LINE
  5
18E
330
1F
100
AcDbEntity
  8
0
  6
Continuous
 62
     7
370
    25
100
AcDbLine
 10
6274.224200089
 20
5206.4494545927
 30
0.0
 11
6276.724200089
 21
5206.4494545927
 31
0.0
  0
LINE
  5
18F
330
1F
100
AcDbEntity
  8
0
  6
Continuous
 62
     7
370
    25
100
AcDbLine
 10
6278.224200089
 20
5206.4494545927
 30
0.0
 11
6280.724200089
 21
5206.4494545927
 31
0.0
  0
LINE
  5
190
330
1F
100
AcDbEntity
  8
0
  6
Continuous
 62
     7
370
    25
100
AcDbLine
 10
6282.224200089
 20
5206.4494545927
 30
0.0
 11
6284.724200089
 21
5206.4494545927
 31
0.0
  0
LINE
  5
191
330
1F
100
AcDbEntity
  8
0
  6
Continuous
 62
     7
370
    25
100
AcDbLine
 10
6286.224200089
 20
5206.4494545927
 30
0.0
 11
6288.724200089
 21
5206.4494545927
 31
0.0
  0
LINE
  5
192
330
1F
100
AcDbEntity
  8
0
  6
Continuous
 62
     7
370
    25
100
AcDbLine
 10
6290.224200089
 20
5206.4494545927
 30
0.0
 11
6292.724200089
 21
5206.4494545927
 31
0.0
  0
LINE
  5
193
330
1F
100
AcDbEntity
  8
0
  6
Continuous
 62
     7
370
    25
100
AcDbLine
 10
6294.224200089
 20
5206.4494545927
 30
0.0
 11
6296.724200089
 21
5206.4494545927
 31
0.0
  0
LINE
  5
194
330
1F
100
AcDbEntity
  8
0
  6
Continuous
 62
     7
370
    25
100
AcDbLine
 10
6298.0187553361
 20
5204.1546782657
 30
0.0
 11
6298.0187553361
 21
5203.9494545927
 31
0.0
  0
LINE
  5
195
330
1F
100
AcDbEntity
  8
0
  6
Continuous
 62
     7
370
    25
100
AcDbLine
 10
6273.6600687479
 20
5207.4494545927
 30
0.0
 11
6276.1600687479
 21
5207.4494545927
 31
0.0
  0
LINE
  5
196
330
1F
100
AcDbEntity
  8
0
  6
Continuous
 62
     7
370
    25
100
AcDbLine
 10
6301.6600687479
 20
5207.4494545927
 30
0.0
 11
6304.1600687479
 21
5207.4494545927
 31
0.0
  0
LINE
  5
197
330
1F
100
AcDbEntity
  8
0
  6
Continuous
 62
     7
370
    25
100
AcDbLine
 10
6298.5187553361
 20
5207.4494545927
 30
0.0
 11
6300.1600687479
 21
5207.4494545927
 31
0.0
  0
LINE
  5
198
330
1F
100
AcDbEntity
  8
0
  6
Continuous
 62
     8
370
    25
100
AcDbLine
 10
6294.0187553361
 20
5207.4494545927
 30
0.0
 11
6294.0187553361
 21
5211.2452256401
 31
0.0
  0
LINE
  5
199
330
1F
100
AcDbEntity
  8
0
  6
Continuous
 62
     8
370
    25
100
AcDbLine
 10
6294.0187553361
 20
5213.9041809055
 30
0.0
 11
6294.0187553361
 21
5217.4494545927
 31
0.0
  0
LINE
  5
19A
330
1F
100
AcDbEntity
  8
0
  6
Continuous
 62
     8
370
    25
100
AcDbLine
 10
6277.5187553361
 20
5207.6999519529
 30
0.0
 11
6277.5187553361
 21
5212.1315440619
 31
0.0
  0
LINE
  5
19B
330
1F
100
AcDbEntity
  8
0
  6
Continuous
 62
     8
370
    25
100
AcDbLine
 10
6277.5187553361
 20
5214.7904993273
 30
0.0
 11
6277.5187553361
 21
5217.4494545927
 31
0.0
  0
LINE
  5
19C
330
1F
100
AcDbEntity
  8
0
  6
Continuous
 62
     7
370
    25
100
AcDbLine
 10
6505.8991586194
 20
5184.4494545927
 30
0.0
 11
6505.8991586194
 21
5188.1994545927
 31
0.0
  0
LINE
  5
19D
330
1F
100
AcDbEntity
  8
0
  6
Continuous
 62
     7
370
    25
100
AcDbLine
 10
6414.3563014766
 20
5219.4494545927
 30
0.0
 11
6426.8563014766
 21
5219.4494545927
 31
0.0
  0
LINE
  5
19E
330
1F
100
AcDbEntity
  8
0
  6
Continuous
 62
     7
370
    25
100
AcDbLine
 10
6426.8563014766
 20
5219.4494545927
 30
0.0
 11
6426.8563014766
 21
5231.4494545927
 31
0.0
  0
LINE
  5
19F
330
1F
100
AcDbEntity
  8
0
  6
Continuous
 62
     7
370
    25
100
AcDbLine
 10
6426.8563014766
 20
5231.4494545927
 30
0.0
 11
6435.8563014766
 21
5231.4494545927
 31
0.0
  0
LINE
  5
1A0
330
1F
100
AcDbEntity
  8
0
  6
Continuous
 62
     7
370
    25
100
AcDbLine
 10
6435.8563014766
 20
5231.4494545927
 30
0.0
 11
6435.8563014766
 21
5240.9494545927
 31
0.0
  0
LINE
  5
1A1
330
1F
100
AcDbEntity
  8
0
  6
Continuous
 62
     7
370
    25
100
AcDbLine
 10
6435.8563014766
 20
5240.9494545927
 30
0.0
 11
6437.8563014766
 21
5242.9494545927
 31
0.0
  0
LINE
  5
1A2
330
1F
100
AcDbEntity
  8
0
  6
Continuous
 62
     7
370
    25
100
AcDbLine
 10
6437.8563014766
 20
5242.9494545927
 30
0.0
 11
6478.8563014766
 21
5242.9494545927
 31
0.0
  0
LINE
  5
1A3
330
1F
100
AcDbEntity
  8
0
  6
Continuous
 62
     7
370
    25
100
AcDbLine
 10
6478.8563014766
 20
5242.9494545927
 30
0.0
 11
6480.8563014766
 21
5240.9494545927
 31
0.0
  0
LINE
  5
1A4
330
1F
100
AcDbEntity
  8
0
  6
Continuous
 62
     7
370
    25
100
AcDbLine
 10
6480.8563014766
 20
5240.9494545927
 30
0.0
 11
6480.8563014766
 21
5231.4494545927
 31
0.0
  0
LINE
  5
1A5
330
1F
100
AcDbEntity
  8
0
  6
Continuous
 62
     7
370
    25
100
AcDbLine
 10
6480.8563014766
 20
5231.4494545927
 30
0.0
 11
6489.8563014766
 21
5231.4494545927
 31
0.0
  0
LINE
  5
1A6
330
1F
100
AcDbEntity
  8
0
  6
Continuous
 62
     7
370
    25
100
AcDbLine
 10
6489.8563014766
 20
5231.4494545927
 30
0.0
 11
6489.8563014766
 21
5219.4494545927
 31
0.0
  0
LINE
  5
1A7
330
1F
100
AcDbEntity
  8
0
  6
Continuous
 62
     7
370
    25
100
AcDbLine
 10
6489.8563014766
 20
5219.4494545927
 30
0.0
 11
6502.3563014766
 21
5219.4494545927
 31
0.0
  0
LINE
  5
1A8
330
1F
100
AcDbEntity
  8
0
  6
Continuous
 62
     7
370
    25
100
AcDbLine
 10
6502.3563014766
 20
5219.4494545927
 30
0.0
 11
6503.3563014766
 21
5184.4494545927
 31
0.0
  0
LINE
  5
1A9
330
1F
100
AcDbEntity
  8
0
  6
Continuous
 62
     7
370
    25
100
AcDbLine
 10
6503.3563014766
 20
5184.4494545927
 30
0.0
 11
6477.3563014766
 21
5184.4494545927
 31
0.0
  0
LINE
  5
1AA
330
1F
100
AcDbEntity
  8
0
  6
Continuous
 62
     7
370
    25
100
AcDbLine
 10
6477.3563014766
 20
5184.4494545927
 30
0.0
 11
6476.3563014766
 21
5188.1994545927
 31
0.0
  0
LINE
  5
1AB
330
1F
100
AcDbEntity
  8
0
  6
Continuous
 62
     7
370
    25
100
AcDbLine
 10
6476.3563014766
 20
5188.1994545927
 30
0.0
 11
6446.8563014766
 21
5188.1994545927
 31
0.0
  0
LINE
  5
1AC
330
1F
100
AcDbEntity
  8
0
  6
Continuous
 62
     7
370
    25
100
AcDbLine
 10
6446.8563014766
 20
5188.1994545927
 30
0.0
 11
6444.6483454434
 21
5187.1199743297
 31
0.0
  0
LINE
  5
1AD
330
1F
100
AcDbEntity
  8
0
  6
Continuous
 62
     7
370
    25
100
AcDbLine
 10
6444.6483454434
 20
5187.1199743297
 30
0.0
 11
6440.8563014766
 21
5188.1994545927
 31
0.0
  0
LINE
  5
1AE
330
1F
100
AcDbEntity
  8
0
  6
Continuous
 62
     7
370
    25
100
AcDbLine
 10
6440.8563014766
 20
5188.1994545927
 30
0.0
 11
6440.8563014766
 21
5186.1994545927
 31
0.0
  0
LINE
  5
1AF
330
1F
100
AcDbEntity
  8
0
  6
Continuous
 62
     7
370
    25
100
AcDbLine
 10
6440.8563014766
 20
5186.1994545927
 30
0.0
 11
6442.8563014766
 21
5184.4494545927
 31
0.0
  0
LINE
  5
1B0
330
1F
100
AcDbEntity
  8
0
  6
Continuous
 62
     7
370
    25
100
AcDbLine
 10
6465.8563014766
 20
5200.6994545927
 30
0.0
 11
6465.8563014766
 21
5204.6994545927
 31
0.0
  0
LINE
  5
1B1
330
1F
100
AcDbEntity
  8
0
  6
Continuous
 62
     7
370
    25
100
AcDbLine
 10
6465.8563014766
 20
5204.6994545927
 30
0.0
 11
6460.3563014766
 21
5204.6994545927
 31
0.0
  0
LINE
  5
1B2
330
1F
100
AcDbEntity
  8
0
  6
Continuous
 62
     7
370
    25
100
AcDbLine
 10
6460.3563014766
 20
5204.6994545927
 30
0.0
 11
6460.3563014766
 21
5200.6994545927
 31
0.0
  0
LINE
  5
1B3
330
1F
100
AcDbEntity
  8
0
  6
Continuous
 62
     7
370
    25
100
AcDbLine
 10
6460.3563014766
 20
5200.6994545927
 30
0.0
 11
6465.8563014766
 21
5200.6994545927
 31
0.0
  0
LINE
  5
1B4
330
1F
100
AcDbEntity
  8
0
  6
Continuous
 62
     7
370
    25
100
AcDbLine
 10
6456.3563014766
 20
5200.6994545927
 30
0.0
 11
6456.3563014766
 21
5204.6994545927
 31
0.0
  0
LINE
  5
1B5
330
1F
100
AcDbEntity
  8
0
  6
Continuous
 62
     7
370
    25
100
AcDbLine
 10
6456.3563014766
 20
5204.6994545927
 30
0.0
 11
6450.8563014766
 21
5204.6994545927
 31
0.0
  0
LINE
  5
1B6
330
1F
100
AcDbEntity
  8
0
  6
Continuous
 62
     7
370
    25
100
AcDbLine
 10
6450.8563014766
 20
5204.6994545927
 30
0.0
 11
6450.8563014766
 21
5200.6994545927
 31
0.0
  0
LINE
  5
1B7
330
1F
100
AcDbEntity
  8
0
  6
Continuous
 62
     7
370
    25
100
AcDbLine
 10
6450.8563014766
 20
5200.6994545927
 30
0.0
 11
6456.3563014766
 21
5200.6994545927
 31
0.0
  0
LINE
  5
1B8
330
1F
100
AcDbEntity
  8
0
  6
Continuous
 62
     7
370
    25
100
AcDbLine
 10
6442.8563014766
 20
5184.4494545927
 30
0.0
 11
6413.3563014766
 21
5184.4494545927
 31
0.0
  0
LINE
  5
1B9
330
1F
100
AcDbEntity
  8
0
  6
Continuous
 62
     7
370
    25
100
AcDbLine
 10
6413.3563014766
 20
5184.4494545927
 30
0.0
 11
6414.3563014766
 21
5219.4494545927
 31
0.0
  0
LINE
  5
1BA
330
1F
100
AcDbEntity
  8
0
  6
Continuous
 62
     7
370
    25
100
AcDbLine
 10
6450.8563014766
 20
5203.6994545927
 30
0.0
 11
6456.3563014766
 21
5203.6994545927
 31
0.0
  0
LINE
  5
1BB
330
1F
100
AcDbEntity
  8
0
  6
Continuous
 62
     7
370
    25
100
AcDbLine
 10
6460.3563014766
 20
5203.6994545927
 30
0.0
 11
6465.8563014766
 21
5203.6994545927
 31
0.0
  0
LINE
  5
1BC
330
1F
100
AcDbEntity
  8
0
  6
Continuous
 62
     7
370
    25
100
AcDbLine
 10
6503.5740225996
 20
5188.1994545927
 30
0.0
 11
6503.2491586194
 21
5188.1994545927
 31
0.0
  0
LINE
  5
1BD
330
1F
100
AcDbEntity
  8
0
  6
Continuous
 62
     7
370
    25
100
AcDbLine
 10
6503.5740225996
 20
5184.4494545927
 30
0.0
 11
6503.5740225996
 21
5188.1994545927
 31
0.0
  0
LINE
  5
1BE
330
1F
100
AcDbEntity
  8
0
  6
Continuous
 62
     7
370
    25
100
AcDbLine
 10
6503.3563014766
 20
5184.4494545927
 30
0.0
 11
6503.5740225996
 21
5184.4494545927
 31
0.0
  0
LINE
  5
1BF
330
1F
100
AcDbEntity
  8
0
  6
Continuous
 62
     7
370
    25
100
AcDbLine
 10
6504.5338023538
 20
5184.4494545927
 30
0.0
 11
6504.5338023538
 21
5188.1994545927
 31
0.0
  0
LINE
  5
1C0
330
1F
100
AcDbEntity
  8
0
  6
Continuous
 62
     7
370
    25
100
AcDbLine
 10
6504.5338023538
 20
5188.1994545927
 30
0.0
 11
6503.5740225996
 21
5188.1994545927
 31
0.0
  0
LINE
  5
1C1
330
1F
100
AcDbEntity
  8
0
  6
Continuous
 62
     7
370
    25
100
AcDbLine
 10
6503.5740225996
 20
5184.4494545927
 30
0.0
 11
6504.5338023538
 21
5184.4494545927
 31
0.0
  0
LINE
  5
1C2
330
1F
100
AcDbEntity
  8
0
  6
Continuous
 62
     7
370
    25
100
AcDbLine
 10
6505.8991586194
 20
5188.1994545927
 30
0.0
 11
6504.5338023538
 21
5188.1994545927
 31
0.0
  0
LINE
  5
1C3
330
1F
100
AcDbEntity
  8
0
  6
Continuous
 62
     7
370
    25
100
AcDbLine
 10
6504.5338023538
 20
5184.4494545927
 30
0.0
 11
6505.8991586194
 21
5184.4494545927
 31
0.0
  0
LINE
  5
1C4
330
1F
100
AcDbEntity
  8
0
  6
Continuous
 62
     7
370
    25
100
AcDbLine
 10
6476.3563014766
 20
5184.4494545927
 30
0.0
 11
6473.8563014766
 21
5187.1994545927
 31
0.0
  0
LINE
  5
1C5
330
1F
100
AcDbEntity
  8
0
  6
Continuous
 62
     7
370
    25
100
AcDbLine
 10
6473.8563014766
 20
5187.1994545927
 30
0.0
 11
6476.3563014766
 21
5187.1994545927
 31
0.0
  0
LINE
  5
1C6
330
1F
100
AcDbEntity
  8
0
  6
Continuous
 62
     7
370
    25
100
AcDbLine
 10
6476.3563014766
 20
5187.1994545927
 30
0.0
 11
6476.3563014766
 21
5188.1994545927
 31
0.0
  0
LINE
  5
1C7
330
1F
100
AcDbEntity
  8
0
  6
Continuous
 62
     7
370
    25
100
AcDbLine
 10
6476.3563014766
 20
5184.4494545927
 30
0.0
 11
6477.3563014766
 21
5184.4494545927
 31
0.0
  0
LINE
  5
1C8
330
1F
100
AcDbEntity
  8
0
  6
Continuous
 62
     7
370
    25
100
AcDbLine
 10
6246.4305918818
 20
5039.8792053308
 30
0.0
 11
6245.9995853883
 21
5039.8792053308
 31
0.0
  0
ARC
  5
1C9
330
1F
100
AcDbEntity
  8
0
  6
Continuous
 62
     7
370
    25
100
AcDbCircle
 10
6246.4977373642
 20
5039.5517189781
 30
0.0
 40
0.3342990084202973
100
AcDbArc
 50
354.9802864071
 51
101.5869361884
  0
ARC
  5
1CA
330
1F
100
AcDbEntity
  8
0
  6
Continuous
 62
     7
370
    25
100
AcDbCircle
 10
6246.4878497606
 20
5039.4920482707
 30
0.0
 40
0.3442511396733161
100
AcDbArc
 50
261.1100722673
 51
5.0696030273
  0
LINE
  5
1CB
330
1F
100
AcDbEntity
  8
0
  6
Continuous
 62
     7
370
    25
100
AcDbLine
 10
6245.9995853883
 20
5039.1519326036
 30
0.0
 11
6246.4346503234
 21
5039.1519326036
 31
0.0
  0
LINE
  5
1CC
330
1F
100
AcDbEntity
  8
0
  6
Continuous
 62
     7
370
    25
100
AcDbLine
 10
6245.9995853883
 20
5039.8792053308
 30
0.0
 11
6245.9995853883
 21
5039.1519326036
 31
0.0
  0
LINE
  5
1CD
330
1F
100
AcDbEntity
  8
0
  6
Continuous
 62
     7
370
    25
100
AcDbLine
 10
6275.4801048688
 20
5039.0480364997
 30
0.0
 11
6275.4801048688
 21
5038.1129715646
 31
0.0
  0
LINE
  5
1CE
330
1F
100
AcDbEntity
  8
0
  6
Continuous
 62
     7
370
    25
100
AcDbLine
 10
6276.337247726
 20
5039.0480364997
 30
0.0
 11
6275.4801048688
 21
5039.0480364997
 31
0.0
  0
LINE
  5
1CF
330
1F
100
AcDbEntity
  8
0
  6
Continuous
 62
     7
370
    25
100
AcDbLine
 10
6276.337247726
 20
5038.1129715646
 30
0.0
 11
6276.337247726
 21
5039.0480364997
 31
0.0
  0
LINE
  5
1D0
330
1F
100
AcDbEntity
  8
0
  6
Continuous
 62
     7
370
    25
100
AcDbLine
 10
6276.5450399338
 20
5038.1129715646
 30
0.0
 11
6276.337247726
 21
5038.1129715646
 31
0.0
  0
LINE
  5
1D1
330
1F
100
AcDbEntity
  8
0
  6
Continuous
 62
     7
370
    25
100
AcDbLine
 10
6276.5450399338
 20
5040.1129715646
 30
0.0
 11
6276.5450399338
 21
5038.1129715646
 31
0.0
  0
LINE
  5
1D2
330
1F
100
AcDbEntity
  8
0
  6
Continuous
 62
     7
370
    25
100
AcDbLine
 10
6276.337247726
 20
5040.1129715646
 30
0.0
 11
6276.5450399338
 21
5040.1129715646
 31
0.0
  0
LINE
  5
1D3
330
1F
100
AcDbEntity
  8
0
  6
Continuous
 62
     7
370
    25
100
AcDbLine
 10
6276.337247726
 20
5039.2818027334
 30
0.0
 11
6276.337247726
 21
5040.1129715646
 31
0.0
  0
LINE
  5
1D4
330
1F
100
AcDbEntity
  8
0
  6
Continuous
 62
     7
370
    25
100
AcDbLine
 10
6275.4801048688
 20
5039.2818027334
 30
0.0
 11
6276.337247726
 21
5039.2818027334
 31
0.0
  0
LINE
  5
1D5
330
1F
100
AcDbEntity
  8
0
  6
Continuous
 62
     7
370
    25
100
AcDbLine
 10
6275.4801048688
 20
5040.1129715646
 30
0.0
 11
6275.4801048688
 21
5039.2818027334
 31
0.0
  0
LINE
  5
1D6
330
1F
100
AcDbEntity
  8
0
  6
Continuous
 62
     7
370
    25
100
AcDbLine
 10
6275.272312661
 20
5040.1129715646
 30
0.0
 11
6275.4801048688
 21
5040.1129715646
 31
0.0
  0
LINE
  5
1D7
330
1F
100
AcDbEntity
  8
0
  6
Continuous
 62
     7
370
    25
100
AcDbLine
 10
6275.272312661
 20
5038.1129715646
 30
0.0
 11
6275.272312661
 21
5040.1129715646
 31
0.0
  0
LINE
  5
1D8
330
1F
100
AcDbEntity
  8
0
  6
Continuous
 62
     7
370
    25
100
AcDbLine
 10
6275.4801048688
 20
5038.1129715646
 30
0.0
 11
6275.272312661
 21
5038.1129715646
 31
0.0
  0
ARC
  5
1D9
330
1F
100
AcDbEntity
  8
0
  6
Continuous
 62
     7
370
    25
100
AcDbCircle
 10
6244.2100861333
 20
5035.7787544833
 30
0.0
 40
0.6918333018362622
100
AcDbArc
 50
213.1225321515
 51
270.8512671289
  0
LWPOLYLINE
  5
1DA
330
1F
100
AcDbEntity
  8
0
  6
Continuous
 62
     7
370
    25
100
AcDbPolyline
 90
        3
 70
   128
 43
0.0
 10
6244.8088386351
 20
5035.392598188
 10
6244.5158176643
 20
5035.1470836317
 10
6244.2203646091
 20
5035.0869975386
  0
LWPOLYLINE
  5
1DB
330
1F
100
AcDbEntity
  8
0
  6
Continuous
 62
     7
370
    25
100
AcDbPolyline
 90
        3
 70
   128
 43
0.0
 10
6245.0125724013
 20
5036.1109423438
 10
6244.956023625
 20
5035.6908933493
 10
6244.8088386351
 20
5035.392598188
  0
ARC
  5
1DC
330
1F
100
AcDbEntity
  8
0
  6
Continuous
 62
     7
370
    25
100
AcDbCircle
 10
6244.1154225696
 20
5036.238949094
 30
0.0
 40
0.9062359232714211
100
AcDbArc
 50
351.8797560528
 51
83.2727304888
  0
ARC
  5
1DD
330
1F
100
AcDbEntity
  8
0
  6
Continuous
 62
     7
370
    25
100
AcDbCircle
 10
6244.3112689586
 20
5036.24604632
 30
0.0
 40
0.8973922400324253
100
AcDbArc
 50
95.7358076048
 51
190.2350429165
  0
LWPOLYLINE
  5
1DE
330
1F
100
AcDbEntity
  8
0
  6
Continuous
 62
     7
370
    25
100
AcDbPolyline
 90
        3
 70
   128
 43
0.0
 10
6243.6306730507
 20
5035.4007150711
 10
6243.4639736523
 20
5035.769477073
 10
6243.4281568169
 20
5036.0865916945
  0
LINE
  5
1DF
330
1F
100
AcDbEntity
  8
0
  6
Continuous
 62
     7
370
    25
100
AcDbLine
 10
6247.5580269468
 20
5036.8792053308
 30
0.0
 11
6247.5580269468
 21
5035.1129715646
 31
0.0
  0
LINE
  5
1E0
330
1F
100
AcDbEntity
  8
0
  6
Continuous
 62
     7
370
    25
100
AcDbLine
 10
6248.1034814922
 20
5036.8792053308
 30
0.0
 11
6247.5580269468
 21
5036.8792053308
 31
0.0
  0
LINE
  5
1E1
330
1F
100
AcDbEntity
  8
0
  6
Continuous
 62
     7
370
    25
100
AcDbLine
 10
6248.1034814922
 20
5037.1129715646
 30
0.0
 11
6248.1034814922
 21
5036.8792053308
 31
0.0
  0
LINE
  5
1E2
330
1F
100
AcDbEntity
  8
0
  6
Continuous
 62
     7
370
    25
100
AcDbLine
 10
6246.8047801935
 20
5037.1129715646
 30
0.0
 11
6248.1034814922
 21
5037.1129715646
 31
0.0
  0
LINE
  5
1E3
330
1F
100
AcDbEntity
  8
0
  6
Continuous
 62
     7
370
    25
100
AcDbLine
 10
6246.8047801935
 20
5036.8792053308
 30
0.0
 11
6246.8047801935
 21
5037.1129715646
 31
0.0
  0
LINE
  5
1E4
330
1F
100
AcDbEntity
  8
0
  6
Continuous
 62
     7
370
    25
100
AcDbLine
 10
6247.350234739
 20
5036.8792053308
 30
0.0
 11
6246.8047801935
 21
5036.8792053308
 31
0.0
  0
LINE
  5
1E5
330
1F
100
AcDbEntity
  8
0
  6
Continuous
 62
     7
370
    25
100
AcDbLine
 10
6247.350234739
 20
5035.1129715646
 30
0.0
 11
6247.350234739
 21
5036.8792053308
 31
0.0
  0
LINE
  5
1E6
330
1F
100
AcDbEntity
  8
0
  6
Continuous
 62
     7
370
    25
100
AcDbLine
 10
6247.5580269468
 20
5035.1129715646
 30
0.0
 11
6247.350234739
 21
5035.1129715646
 31
0.0
  0
LWPOLYLINE
  5
1E7
330
1F
100
AcDbEntity
  8
0
  6
Continuous
 62
     7
370
    25
100
AcDbPolyline
 90
        6
 70
   128
 43
0.0
 10
6250.4930918818
 20
5035.3207637724
 10
6250.7131610558
 20
5035.36185142
 10
6250.8059787096
 20
5035.4249108785
 10
6250.8694011066
 20
5035.517451557
 10
6250.923068838
 20
5035.7356717253
 10
6250.9346503234
 20
5035.9607800061
  0
LWPOLYLINE
  5
1E8
330
1F
100
AcDbEntity
  8
0
  6
Continuous
 62
     7
370
    25
100
AcDbPolyline
 90
        6
 70
   128
 43
0.0
 10
6250.0775074662
 20
5035.9607800061
 10
6250.0865745308
 20
5035.7417633568
 10
6250.1356684214
 20
5035.5290780396
 10
6250.195803673
 20
5035.4377472009
 10
6250.2816427024
 20
5035.37013078
 10
6250.4930918818
 20
5035.3207637724
  0
LINE
  5
1E9
330
1F
100
AcDbEntity
  8
0
  6
Continuous
 62
     7
370
    25
100
AcDbLine
 10
6250.0775074662
 20
5037.1129715646
 30
0.0
 11
6250.0775074662
 21
5035.9607800061
 31
0.0
  0
LINE
  5
1EA
330
1F
100
AcDbEntity
  8
0
  6
Continuous
 62
     7
370
    25
100
AcDbLine
 10
6249.8697152584
 20
5037.1129715646
 30
0.0
 11
6250.0775074662
 21
5037.1129715646
 31
0.0
  0
LINE
  5
1EB
330
1F
100
AcDbEntity
  8
0
  6
Continuous
 62
     7
370
    25
100
AcDbLine
 10
6249.8697152584
 20
5035.9619975386
 30
0.0
 11
6249.8697152584
 21
5037.1129715646
 31
0.0
  0
LWPOLYLINE
  5
1EC
330
1F
100
AcDbEntity
  8
0
  6
Continuous
 62
     7
370
    25
100
AcDbPolyline
 90
        6
 70
   128
 43
0.0
 10
6250.5089198039
 20
5035.0869975386
 10
6250.204893439
 20
5035.1456240078
 10
6250.0751930064
 20
5035.2312094291
 10
6249.9796827152
 20
5035.3537290785
 10
6249.8899343408
 20
5035.6509737712
 10
6249.8697152584
 20
5035.9619975386
  0
LWPOLYLINE
  5
1ED
330
1F
100
AcDbEntity
  8
0
  6
Continuous
 62
     7
370
    25
100
AcDbPolyline
 90
        6
 70
   128
 43
0.0
 10
6251.1424425312
 20
5035.9619975386
 10
6251.1224405474
 20
5035.65322947
 10
6251.0316898209
 20
5035.35898854
 10
6250.9360621998
 20
5035.2378655636
 10
6250.8094466937
 20
5035.149732563
 10
6250.5089198039
 20
5035.0869975386
  0
LINE
  5
1EE
330
1F
100
AcDbEntity
  8
0
  6
Continuous
 62
     7
370
    25
100
AcDbLine
 10
6251.1424425312
 20
5037.1129715646
 30
0.0
 11
6251.1424425312
 21
5035.9619975386
 31
0.0
  0
LINE
  5
1EF
330
1F
100
AcDbEntity
  8
0
  6
Continuous
 62
     7
370
    25
100
AcDbLine
 10
6250.9346503234
 20
5037.1129715646
 30
0.0
 11
6251.1424425312
 21
5037.1129715646
 31
0.0
  0
LINE
  5
1F0
330
1F
100
AcDbEntity
  8
0
  6
Continuous
 62
     7
370
    25
100
AcDbLine
 10
6250.9346503234
 20
5035.9607800061
 30
0.0
 11
6250.9346503234
 21
5037.1129715646
 31
0.0
  0
LWPOLYLINE
  5
1F1
330
1F
100
AcDbEntity
  8
0
  6
Continuous
 62
     7
370
    25
100
AcDbPolyline
 90
        5
 70
   128
 43
0.0
 10
6274.9865983753
 20
5039.1121598763
 10
6274.9051842161
 20
5038.4763924371
 10
6274.7453696181
 20
5038.2004749037
 10
6274.610719198
 20
5038.1142310145
 10
6274.4529133104
 20
5038.0869975386
  0
LWPOLYLINE
  5
1F2
330
1F
100
AcDbEntity
  8
0
  6
Continuous
 62
     7
370
    25
100
AcDbPolyline
 90
        3
 70
   128
 43
0.0
 10
6274.8234490247
 20
5039.9279066295
 10
6274.9645193004
 20
5039.4816950555
 10
6274.9865983753
 20
5039.1121598763
  0
ARC
  5
1F3
330
1F
100
AcDbEntity
  8
0
  6
Continuous
 62
     7
370
    25
100
AcDbCircle
 10
6274.4615136232
 20
5039.7231534858
 30
0.0
 40
0.4158378105600001
100
AcDbArc
 50
29.4975951224
 51
90.8495033849
  0
LWPOLYLINE
  5
1F4
330
1F
100
AcDbEntity
  8
0
  6
Continuous
 62
     7
370
    25
100
AcDbPolyline
 90
        6
 70
   128
 43
0.0
 10
6273.9216633104
 20
5039.1121598763
 10
6273.9380344476
 20
5039.4336919823
 10
6274.0026298709
 20
5039.7486946289
 10
6274.1628362725
 20
5040.0247784944
 10
6274.2974649072
 20
5040.1113700183
 10
6274.4553483753
 20
5040.1389455906
  0
LWPOLYLINE
  5
1F5
330
1F
100
AcDbEntity
  8
0
  6
Continuous
 62
     7
370
    25
100
AcDbPolyline
 90
        6
 70
   128
 43
0.0
 10
6274.4529133104
 20
5038.0869975386
 10
6274.2959398268
 20
5038.1166938204
 10
6274.1623532918
 20
5038.2044268395
 10
6273.9973697125
 20
5038.4763434165
 10
6273.9360954651
 20
5038.7912444609
 10
6273.9216633104
 20
5039.1121598763
  0
LINE
  5
1F6
330
1F
100
AcDbEntity
  8
0
  6
Continuous
 62
     7
370
    25
100
AcDbLine
 10
6272.5580269468
 20
5040.1389455906
 30
0.0
 11
6272.0584327909
 21
5038.0869975386
 31
0.0
  0
LINE
  5
1F7
330
1F
100
AcDbEntity
  8
0
  6
Continuous
 62
     7
370
    25
100
AcDbLine
 10
6272.3985301935
 20
5040.1389455906
 30
0.0
 11
6272.5580269468
 21
5040.1389455906
 31
0.0
  0
LINE
  5
1F8
330
1F
100
AcDbEntity
  8
0
  6
Continuous
 62
     7
370
    25
100
AcDbLine
 10
6271.8989360377
 20
5038.0869975386
 30
0.0
 11
6272.3985301935
 21
5040.1389455906
 31
0.0
  0
LINE
  5
1F9
330
1F
100
AcDbEntity
  8
0
  6
Continuous
 62
     7
370
    25
100
AcDbLine
 10
6272.0584327909
 20
5038.0869975386
 30
0.0
 11
6271.8989360377
 21
5038.0869975386
 31
0.0
  0
ARC
  5
1FA
330
1F
100
AcDbEntity
  8
0
  6
Continuous
 62
     7
370
    25
100
AcDbCircle
 10
6269.9054990111
 20
5038.7037972295
 30
0.0
 40
0.6201587849182754
100
AcDbArc
 50
275.9661406431
 51
8.3613526379
  0
LWPOLYLINE
  5
1FB
330
1F
100
AcDbEntity
  8
0
  6
Continuous
 62
     7
370
    25
100
AcDbPolyline
 90
        4
 70
   128
 43
0.0
 10
6270.0312412325
 20
5039.4376468893
 10
6270.2673984335
 20
5039.3625970742
 10
6270.4332942023
 20
5039.1759269118
 10
6270.5190659078
 20
5038.7939780581
  0
LWPOLYLINE
  5
1FC
330
1F
100
AcDbEntity
  8
0
  6
Continuous
 62
     7
370
    25
100
AcDbPolyline
 90
        3
 70
   128
 43
0.0
 10
6269.7349749987
 20
5039.3593189672
 10
6269.896052116
 20
5039.422433114
 10
6270.0312412325
 20
5039.4376468893
  0
LINE
  5
1FD
330
1F
100
AcDbEntity
  8
0
  6
Continuous
 62
     7
370
    25
100
AcDbLine
 10
6269.8100561675
 20
5039.8532313048
 30
0.0
 11
6269.7349749987
 21
5039.3593189672
 31
0.0
  0
LINE
  5
1FE
330
1F
100
AcDbEntity
  8
0
  6
Continuous
 62
     7
370
    25
100
AcDbLine
 10
6270.4411438299
 20
5039.8532313048
 30
0.0
 11
6269.8100561675
 21
5039.8532313048
 31
0.0
  0
LINE
  5
1FF
330
1F
100
AcDbEntity
  8
0
  6
Continuous
 62
     7
370
    25
100
AcDbLine
 10
6270.4411438299
 20
5040.0869975386
 30
0.0
 11
6270.4411438299
 21
5039.8532313048
 31
0.0
  0
LINE
  5
200
330
1F
100
AcDbEntity
  8
0
  6
Continuous
 62
     7
370
    25
100
AcDbLine
 10
6269.6359490247
 20
5040.0869975386
 30
0.0
 11
6270.4411438299
 21
5040.0869975386
 31
0.0
  0
LINE
  5
201
330
1F
100
AcDbEntity
  8
0
  6
Continuous
 62
     7
370
    25
100
AcDbLine
 10
6269.4801048688
 20
5039.0622410451
 30
0.0
 11
6269.6359490247
 21
5040.0869975386
 31
0.0
  0
LINE
  5
202
330
1F
100
AcDbEntity
  8
0
  6
Continuous
 62
     7
370
    25
100
AcDbLine
 10
6269.6878970766
 20
5039.0326144217
 30
0.0
 11
6269.4801048688
 21
5039.0622410451
 31
0.0
  0
ARC
  5
203
330
1F
100
AcDbEntity
  8
0
  6
Continuous
 62
     7
370
    25
100
AcDbCircle
 10
6269.9832531565
 20
5038.9103509982
 30
0.0
 40
0.319661631542063
100
AcDbArc
 50
91.8012237042
 51
157.5127624911
  0
ARC
  5
204
330
1F
100
AcDbEntity
  8
0
  6
Continuous
 62
     7
370
    25
100
AcDbCircle
 10
6269.9354970125
 20
5038.8499581605
 30
0.0
 40
0.3817634058121246
100
AcDbArc
 50
349.8397574751
 51
84.3313924515
  0
LWPOLYLINE
  5
205
330
1F
100
AcDbEntity
  8
0
  6
Continuous
 62
     7
370
    25
100
AcDbPolyline
 90
        5
 70
   128
 43
0.0
 10
6269.9679295442
 20
5038.2947897464
 10
6270.0876723594
 20
5038.321948443
 10
6270.1854570911
 20
5038.3967879958
 10
6270.2549305494
 20
5038.4987338845
 10
6270.3112737
 20
5038.7826144217
  0
ARC
  5
206
330
1F
100
AcDbEntity
  8
0
  6
Continuous
 62
     7
370
    25
100
AcDbCircle
 10
6270.029007622
 20
5038.6577379816
 30
0.0
 40
0.3680515629560532
100
AcDbArc
 50
175.8457772104
 51
260.4475861404
  0
LINE
  5
207
330
1F
100
AcDbEntity
  8
0
  6
Continuous
 62
     7
370
    25
100
AcDbLine
 10
6269.4541308429
 20
5038.65842611
 30
0.0
 11
6269.6619230507
 21
5038.684400136
 31
0.0
  0
LWPOLYLINE
  5
208
330
1F
100
AcDbEntity
  8
0
  6
Continuous
 62
     7
370
    25
100
AcDbPolyline
 90
        4
 70
   128
 43
0.0
 10
6269.9699587649
 20
5038.0869975386
 10
6269.7399649841
 20
5038.1432452968
 10
6269.5652277252
 20
5038.3036115256
 10
6269.4541308429
 20
5038.65842611
  0
LWPOLYLINE
  5
209
330
1F
100
AcDbEntity
  8
0
  6
Continuous
 62
     7
370
    25
100
AcDbPolyline
 90
        5
 70
   128
 43
0.0
 10
6267.7138711026
 20
5039.1121598763
 10
6267.6324569434
 20
5038.4763924371
 10
6267.4726423454
 20
5038.2004749037
 10
6267.3379919253
 20
5038.1142310145
 10
6267.1801860377
 20
5038.0869975386
  0
LWPOLYLINE
  5
20A
330
1F
100
AcDbEntity
  8
0
  6
Continuous
 62
     7
370
    25
100
AcDbPolyline
 90
        3
 70
   128
 43
0.0
 10
6267.550721752
 20
5039.9279066295
 10
6267.6917920277
 20
5039.4816950555
 10
6267.7138711026
 20
5039.1121598763
  0
ARC
  5
20B
330
1F
100
AcDbEntity
  8
0
  6
Continuous
 62
     7
370
    25
100
AcDbCircle
 10
6267.1887863505
 20
5039.7231534858
 30
0.0
 40
0.4158378105617117
100
AcDbArc
 50
29.4975951225
 51
90.8495033845
  0
LWPOLYLINE
  5
20C
330
1F
100
AcDbEntity
  8
0
  6
Continuous
 62
     7
370
    25
100
AcDbPolyline
 90
        6
 70
   128
 43
0.0
 10
6266.6489360377
 20
5039.1121598763
 10
6266.6653071748
 20
5039.4336919823
 10
6266.7299025981
 20
5039.7486946289
 10
6266.8901089998
 20
5040.0247784944
 10
6267.0247376345
 20
5040.1113700183
 10
6267.1826211026
 20
5040.1389455906
  0
LWPOLYLINE
  5
20D
330
1F
100
AcDbEntity
  8
0
  6
Continuous
 62
     7
370
    25
100
AcDbPolyline
 90
        6
 70
   128
 43
0.0
 10
6267.1801860377
 20
5038.0869975386
 10
6267.0232125541
 20
5038.1166938204
 10
6266.889626019
 20
5038.2044268395
 10
6266.7246424397
 20
5038.4763434165
 10
6266.6633681923
 20
5038.7912444609
 10
6266.6489360377
 20
5039.1121598763
  0
LINE
  5
20E
330
1F
100
AcDbEntity
  8
0
  6
Continuous
 62
     7
370
    25
100
AcDbLine
 10
6261.824581098
 20
5045.0281375281
 30
0.0
 11
6261.824581098
 21
5044.619046619
 31
0.0
  0
LINE
  5
20F
330
1F
100
AcDbEntity
  8
0
  6
Continuous
 62
     7
370
    25
100
AcDbLine
 10
6260.7336720071
 20
5045.0281375281
 30
0.0
 11
6261.824581098
 21
5045.0281375281
 31
0.0
  0
LINE
  5
210
330
1F
100
AcDbEntity
  8
0
  6
Continuous
 62
     7
370
    25
100
AcDbLine
 10
6260.7336720071
 20
5044.619046619
 30
0.0
 11
6260.7336720071
 21
5045.0281375281
 31
0.0
  0
LINE
  5
211
330
1F
100
AcDbEntity
  8
0
  6
Continuous
 62
     7
370
    25
100
AcDbLine
 10
6261.824581098
 20
5044.619046619
 30
0.0
 11
6260.7336720071
 21
5044.619046619
 31
0.0
  0
LWPOLYLINE
  5
212
330
1F
100
AcDbEntity
  8
0
  6
Continuous
 62
     7
370
    25
100
AcDbPolyline
 90
        7
 70
   128
 43
0.0
 10
6257.4609447344
 20
5045.3427682099
 10
6257.4027957245
 20
5044.7161690106
 10
6257.1856417812
 20
5044.1271662612
 10
6256.9982149134
 20
5043.8747695593
 10
6256.7432719798
 20
5043.6922573759
 10
6256.4430498328
 20
5043.599104779
 10
6256.129268598
 20
5043.5735920735
  0
ARC
  5
213
330
1F
100
AcDbEntity
  8
0
  6
Continuous
 62
     7
370
    25
100
AcDbCircle
 10
6255.7816815558
 20
5045.5510487299
 30
0.0
 40
1.692130490769701
100
AcDbArc
 50
352.9296613749
 51
59.4949092539
  0
LWPOLYLINE
  5
214
330
1F
100
AcDbEntity
  8
0
  6
Continuous
 62
     7
370
    25
100
AcDbPolyline
 90
        3
 70
   128
 43
0.0
 10
6256.0838140525
 20
5047.0735920735
 10
6256.3984119675
 20
5047.0581789162
 10
6256.6406322344
 20
5047.0089613917
  0
LINE
  5
215
330
1F
100
AcDbEntity
  8
0
  6
Continuous
 62
     7
370
    25
100
AcDbLine
 10
6255.0973083707
 20
5047.0735920735
 30
0.0
 11
6256.0838140525
 21
5047.0735920735
 31
0.0
  0
LINE
  5
216
330
1F
100
AcDbEntity
  8
0
  6
Continuous
 62
     7
370
    25
100
AcDbLine
 10
6255.0973083707
 20
5043.5735920735
 30
0.0
 11
6255.0973083707
 21
5047.0735920735
 31
0.0
  0
LINE
  5
217
330
1F
100
AcDbEntity
  8
0
  6
Continuous
 62
     7
370
    25
100
AcDbLine
 10
6256.129268598
 20
5043.5735920735
 30
0.0
 11
6255.0973083707
 21
5043.5735920735
 31
0.0
  0
LINE
  5
218
330
1F
100
AcDbEntity
  8
0
  6
Continuous
 62
     7
370
    25
100
AcDbLine
 10
6264.3644392844
 20
5035.710374162
 30
0.0
 11
6264.1899262974
 21
5035.1129715646
 31
0.0
  0
LINE
  5
219
330
1F
100
AcDbEntity
  8
0
  6
Continuous
 62
     7
370
    25
100
AcDbLine
 10
6265.0633029208
 20
5035.710374162
 30
0.0
 11
6264.3644392844
 21
5035.710374162
 31
0.0
  0
LINE
  5
21A
330
1F
100
AcDbEntity
  8
0
  6
Continuous
 62
     7
370
    25
100
AcDbLine
 10
6265.2382217519
 20
5035.1129715646
 30
0.0
 11
6265.0633029208
 21
5035.710374162
 31
0.0
  0
LINE
  5
21B
330
1F
100
AcDbEntity
  8
0
  6
Continuous
 62
     7
370
    25
100
AcDbLine
 10
6265.4541308429
 20
5035.1129715646
 30
0.0
 11
6265.2382217519
 21
5035.1129715646
 31
0.0
  0
LINE
  5
21C
330
1F
100
AcDbEntity
  8
0
  6
Continuous
 62
     7
370
    25
100
AcDbLine
 10
6264.8149262974
 20
5037.1129715646
 30
0.0
 11
6265.4541308429
 21
5035.1129715646
 31
0.0
  0
LINE
  5
21D
330
1F
100
AcDbEntity
  8
0
  6
Continuous
 62
     7
370
    25
100
AcDbLine
 10
6264.6124100636
 20
5037.1129715646
 30
0.0
 11
6264.8149262974
 21
5037.1129715646
 31
0.0
  0
LINE
  5
21E
330
1F
100
AcDbEntity
  8
0
  6
Continuous
 62
     7
370
    25
100
AcDbLine
 10
6263.9736113623
 20
5035.1129715646
 30
0.0
 11
6264.6124100636
 21
5037.1129715646
 31
0.0
  0
LINE
  5
21F
330
1F
100
AcDbEntity
  8
0
  6
Continuous
 62
     7
370
    25
100
AcDbLine
 10
6264.1899262974
 20
5035.1129715646
 30
0.0
 11
6263.9736113623
 21
5035.1129715646
 31
0.0
  0
ARC
  5
220
330
1F
100
AcDbEntity
  8
0
  6
Continuous
 62
     7
370
    25
100
AcDbCircle
 10
6262.0910093173
 20
5035.6478697755
 30
0.0
 40
0.5614412759109707
100
AcDbArc
 50
174.6073972857
 51
267.4201575801
  0
ARC
  5
221
330
1F
100
AcDbEntity
  8
0
  6
Continuous
 62
     7
370
    25
100
AcDbCircle
 10
6262.0464422872
 20
5035.6398384159
 30
0.0
 40
0.5531775118454384
100
AcDbArc
 50
271.9989720871
 51
5.5912028202
  0
ARC
  5
222
330
1F
100
AcDbEntity
  8
0
  6
Continuous
 62
     7
370
    25
100
AcDbCircle
 10
6262.0964233408
 20
5035.7416084897
 30
0.0
 40
0.5028487622755881
100
AcDbArc
 50
354.5368556988
 51
68.7835595459
  0
ARC
  5
223
330
1F
100
AcDbEntity
  8
0
  6
Continuous
 62
     7
370
    25
100
AcDbCircle
 10
6262.1057240739
 20
5036.5868818883
 30
0.0
 40
0.4142163143742121
100
AcDbArc
 50
294.637422915
 51
3.7237071361
  0
ARC
  5
224
330
1F
100
AcDbEntity
  8
0
  6
Continuous
 62
     7
370
    25
100
AcDbCircle
 10
6262.0388525247
 20
5036.6573406187
 30
0.0
 40
0.4821847544415718
100
AcDbArc
 50
354.8172150507
 51
87.189995571
  0
ARC
  5
225
330
1F
100
AcDbEntity
  8
0
  6
Continuous
 62
     7
370
    25
100
AcDbCircle
 10
6262.0772610606
 20
5036.6694761139
 30
0.0
 40
0.4697017535988643
100
AcDbArc
 50
91.8019697265
 51
185.8134454244
  0
ARC
  5
226
330
1F
100
AcDbEntity
  8
0
  6
Continuous
 62
     7
370
    25
100
AcDbCircle
 10
6262.0190851021
 20
5036.5860072747
 30
0.0
 40
0.4106815970698363
100
AcDbArc
 50
174.9860509512
 51
246.1571721496
  0
ARC
  5
227
330
1F
100
AcDbEntity
  8
0
  6
Continuous
 62
     7
370
    25
100
AcDbCircle
 10
6262.0155911661
 20
5035.752069109
 30
0.0
 40
0.4862661978516153
100
AcDbArc
 50
109.5245671351
 51
186.0718668135
  0
ARC
  5
228
330
1F
100
AcDbEntity
  8
0
  6
Continuous
 62
     7
370
    25
100
AcDbCircle
 10
6260.099663701
 20
5035.6638630278
 30
0.0
 40
0.577572750661157
100
AcDbArc
 50
272.8357544729
 51
5.1442402222
  0
ARC
  5
229
330
1F
100
AcDbEntity
  8
0
  6
Continuous
 62
     7
370
    25
100
AcDbCircle
 10
6260.2186926326
 20
5035.776332842
 30
0.0
 40
0.4602355214738194
100
AcDbArc
 50
352.4234082149
 51
70.5763074358
  0
ARC
  5
22A
330
1F
100
AcDbEntity
  8
0
  6
Continuous
 62
     7
370
    25
100
AcDbCircle
 10
6260.1430422502
 20
5036.6028031987
 30
0.0
 40
0.4542083866169758
100
AcDbArc
 50
300.233042306
 51
1.9485903919
  0
ARC
  5
22B
330
1F
100
AcDbEntity
  8
0
  6
Continuous
 62
     7
370
    25
100
AcDbCircle
 10
6260.1066635896
 20
5036.6480723011
 30
0.0
 40
0.4912306279509209
100
AcDbArc
 50
356.5191815738
 51
87.8144480042
  0
ARC
  5
22C
330
1F
100
AcDbEntity
  8
0
  6
Continuous
 62
     7
370
    25
100
AcDbCircle
 10
6260.1416170723
 20
5036.6333942434
 30
0.0
 40
0.5058114795588062
100
AcDbArc
 50
91.8376345334
 51
178.6354906022
  0
LINE
  5
22D
330
1F
100
AcDbEntity
  8
0
  6
Continuous
 62
     7
370
    25
100
AcDbLine
 10
6259.8437412325
 20
5036.6194650711
 30
0.0
 11
6259.6359490247
 21
5036.6454390971
 31
0.0
  0
LWPOLYLINE
  5
22E
330
1F
100
AcDbEntity
  8
0
  6
Continuous
 62
     7
370
    25
100
AcDbPolyline
 90
        4
 70
   128
 43
0.0
 10
6260.1310788948
 20
5036.9311533828
 10
6260.0046746111
 20
5036.9008489879
 10
6259.9089517353
 20
5036.8130474895
 10
6259.8437412325
 20
5036.6194650711
  0
ARC
  5
22F
330
1F
100
AcDbEntity
  8
0
  6
Continuous
 62
     7
370
    25
100
AcDbCircle
 10
6260.1185727387
 20
5036.6592441173
 30
0.0
 40
0.2721967167499209
100
AcDbArc
 50
353.835987342
 51
87.3666019483
  0
ARC
  5
230
330
1F
100
AcDbEntity
  8
0
  6
Continuous
 62
     7
370
    25
100
AcDbCircle
 10
6260.0766672685
 20
5036.6171001966
 30
0.0
 40
0.3127953220214267
100
AcDbArc
 50
266.3601217145
 51
2.3666911337
  0
LINE
  5
231
330
1F
100
AcDbEntity
  8
0
  6
Continuous
 62
     7
370
    25
100
AcDbLine
 10
6260.0255594143
 20
5036.3077767594
 30
0.0
 11
6260.0568094143
 21
5036.3049358503
 31
0.0
  0
LINE
  5
232
330
1F
100
AcDbEntity
  8
0
  6
Continuous
 62
     7
370
    25
100
AcDbLine
 10
6259.9995853883
 20
5036.072387149
 30
0.0
 11
6260.0255594143
 21
5036.3077767594
 31
0.0
  0
LWPOLYLINE
  5
233
330
1F
100
AcDbEntity
  8
0
  6
Continuous
 62
     7
370
    25
100
AcDbPolyline
 90
        3
 70
   128
 43
0.0
 10
6260.1428483753
 20
5036.0999845516
 10
6260.0616373127
 20
5036.0896354094
 10
6259.9995853883
 20
5036.072387149
  0
ARC
  5
234
330
1F
100
AcDbEntity
  8
0
  6
Continuous
 62
     7
370
    25
100
AcDbCircle
 10
6260.1231429014
 20
5035.7541440599
 30
0.0
 40
0.3464014310171815
100
AcDbArc
 50
353.2143777143
 51
86.7388982437
  0
LWPOLYLINE
  5
235
330
1F
100
AcDbEntity
  8
0
  6
Continuous
 62
     7
370
    25
100
AcDbPolyline
 90
        4
 70
   128
 43
0.0
 10
6260.131484739
 20
5035.2947897464
 10
6260.2894774003
 20
5035.341606409
 10
6260.4040493317
 20
5035.4615817148
 10
6260.4671178558
 20
5035.7132150711
  0
LWPOLYLINE
  5
236
330
1F
100
AcDbEntity
  8
0
  6
Continuous
 62
     7
370
    25
100
AcDbPolyline
 90
        4
 70
   128
 43
0.0
 10
6259.8177672065
 20
5035.684400136
 10
6259.9226849769
 20
5035.3980867703
 10
6260.0143391306
 20
5035.3206468806
 10
6260.131484739
 20
5035.2947897464
  0
LINE
  5
237
330
1F
100
AcDbEntity
  8
0
  6
Continuous
 62
     7
370
    25
100
AcDbLine
 10
6259.6099749987
 20
5035.65842611
 30
0.0
 11
6259.8177672065
 21
5035.684400136
 31
0.0
  0
LWPOLYLINE
  5
238
330
1F
100
AcDbEntity
  8
0
  6
Continuous
 62
     7
370
    25
100
AcDbPolyline
 90
        4
 70
   128
 43
0.0
 10
6260.1282379857
 20
5035.0869975386
 10
6259.8986475582
 20
5035.1442223217
 10
6259.7245443638
 20
5035.3051765351
 10
6259.6099749987
 20
5035.65842611
  0
LINE
  5
239
330
1F
100
AcDbEntity
  8
0
  6
Continuous
 62
     7
370
    25
100
AcDbLine
 10
6258.0515334403
 20
5035.9441403958
 30
0.0
 11
6258.0515334403
 21
5035.710374162
 31
0.0
  0
LINE
  5
23A
330
1F
100
AcDbEntity
  8
0
  6
Continuous
 62
     7
370
    25
100
AcDbLine
 10
6257.4281568169
 20
5035.9441403958
 30
0.0
 11
6258.0515334403
 21
5035.9441403958
 31
0.0
  0
LINE
  5
23B
330
1F
100
AcDbEntity
  8
0
  6
Continuous
 62
     7
370
    25
100
AcDbLine
 10
6257.4281568169
 20
5035.710374162
 30
0.0
 11
6257.4281568169
 21
5035.9441403958
 31
0.0
  0
LINE
  5
23C
330
1F
100
AcDbEntity
  8
0
  6
Continuous
 62
     7
370
    25
100
AcDbLine
 10
6258.0515334403
 20
5035.710374162
 30
0.0
 11
6257.4281568169
 21
5035.710374162
 31
0.0
  0
LINE
  5
23D
330
1F
100
AcDbEntity
  8
0
  6
Continuous
 62
     7
370
    25
100
AcDbLine
 10
6255.6099749987
 20
5035.6064780581
 30
0.0
 11
6255.6099749987
 21
5035.1129715646
 31
0.0
  0
LINE
  5
23E
330
1F
100
AcDbEntity
  8
0
  6
Continuous
 62
     7
370
    25
100
AcDbLine
 10
6255.8437412325
 20
5035.6064780581
 30
0.0
 11
6255.6099749987
 21
5035.6064780581
 31
0.0
  0
LINE
  5
23F
330
1F
100
AcDbEntity
  8
0
  6
Continuous
 62
     7
370
    25
100
AcDbLine
 10
6255.8437412325
 20
5035.8402442919
 30
0.0
 11
6255.8437412325
 21
5035.6064780581
 31
0.0
  0
LINE
  5
240
330
1F
100
AcDbEntity
  8
0
  6
Continuous
 62
     7
370
    25
100
AcDbLine
 10
6255.6099749987
 20
5035.8402442919
 30
0.0
 11
6255.8437412325
 21
5035.8402442919
 31
0.0
  0
LINE
  5
241
330
1F
100
AcDbEntity
  8
0
  6
Continuous
 62
     7
370
    25
100
AcDbLine
 10
6255.6099749987
 20
5037.1389455906
 30
0.0
 11
6255.6099749987
 21
5035.8402442919
 31
0.0
  0
LINE
  5
242
330
1F
100
AcDbEntity
  8
0
  6
Continuous
 62
     7
370
    25
100
AcDbLine
 10
6255.4139522714
 20
5037.1389455906
 30
0.0
 11
6255.6099749987
 21
5037.1389455906
 31
0.0
  0
LINE
  5
243
330
1F
100
AcDbEntity
  8
0
  6
Continuous
 62
     7
370
    25
100
AcDbLine
 10
6254.7008840896
 20
5035.8402442919
 30
0.0
 11
6255.4139522714
 21
5037.1389455906
 31
0.0
  0
LINE
  5
244
330
1F
100
AcDbEntity
  8
0
  6
Continuous
 62
     7
370
    25
100
AcDbLine
 10
6254.7008840896
 20
5035.6064780581
 30
0.0
 11
6254.7008840896
 21
5035.8402442919
 31
0.0
  0
LINE
  5
245
330
1F
100
AcDbEntity
  8
0
  6
Continuous
 62
     7
370
    25
100
AcDbLine
 10
6255.4021827909
 20
5035.6064780581
 30
0.0
 11
6254.7008840896
 21
5035.6064780581
 31
0.0
  0
LINE
  5
246
330
1F
100
AcDbEntity
  8
0
  6
Continuous
 62
     7
370
    25
100
AcDbLine
 10
6255.4021827909
 20
5035.1129715646
 30
0.0
 11
6255.4021827909
 21
5035.6064780581
 31
0.0
  0
LINE
  5
247
330
1F
100
AcDbEntity
  8
0
  6
Continuous
 62
     7
370
    25
100
AcDbLine
 10
6255.6099749987
 20
5035.1129715646
 30
0.0
 11
6255.4021827909
 21
5035.1129715646
 31
0.0
  0
LINE
  5
248
330
1F
100
AcDbEntity
  8
0
  6
Continuous
 62
     7
370
    25
100
AcDbLine
 10
6253.1684165571
 20
5035.3986858503
 30
0.0
 11
6253.1684165571
 21
5035.1129715646
 31
0.0
  0
LINE
  5
249
330
1F
100
AcDbEntity
  8
0
  6
Continuous
 62
     7
370
    25
100
AcDbLine
 10
6252.9606243494
 20
5035.3986858503
 30
0.0
 11
6253.1684165571
 21
5035.3986858503
 31
0.0
  0
LINE
  5
24A
330
1F
100
AcDbEntity
  8
0
  6
Continuous
 62
     7
370
    25
100
AcDbLine
 10
6252.9606243494
 20
5035.1129715646
 30
0.0
 11
6252.9606243494
 21
5035.3986858503
 31
0.0
  0
LINE
  5
24B
330
1F
100
AcDbEntity
  8
0
  6
Continuous
 62
     7
370
    25
100
AcDbLine
 10
6253.1684165571
 20
5035.1129715646
 30
0.0
 11
6252.9606243494
 21
5035.1129715646
 31
0.0
  0
LINE
  5
24C
330
1F
100
AcDbEntity
  8
0
  6
Continuous
 62
     7
370
    25
100
AcDbLine
 10
6306.7104306664
 20
5048.9676459171
 30
0.0
 11
6306.7104306664
 21
5048.6819316314
 31
0.0
  0
LINE
  5
24D
330
1F
100
AcDbEntity
  8
0
  6
Continuous
 62
     7
370
    25
100
AcDbLine
 10
6306.5026384586
 20
5048.9676459171
 30
0.0
 11
6306.7104306664
 21
5048.9676459171
 31
0.0
  0
LINE
  5
24E
330
1F
100
AcDbEntity
  8
0
  6
Continuous
 62
     7
370
    25
100
AcDbLine
 10
6306.5026384586
 20
5048.6819316314
 30
0.0
 11
6306.5026384586
 21
5048.9676459171
 31
0.0
  0
LINE
  5
24F
330
1F
100
AcDbEntity
  8
0
  6
Continuous
 62
     7
370
    25
100
AcDbLine
 10
6306.7104306664
 20
5048.6819316314
 30
0.0
 11
6306.5026384586
 21
5048.6819316314
 31
0.0
  0
LINE
  5
250
330
1F
100
AcDbEntity
  8
0
  6
Continuous
 62
     7
370
    25
100
AcDbLine
 10
6303.9324274196
 20
5047.5650485145
 30
0.0
 11
6303.7579144326
 21
5046.9676459171
 31
0.0
  0
LINE
  5
251
330
1F
100
AcDbEntity
  8
0
  6
Continuous
 62
     7
370
    25
100
AcDbLine
 10
6304.631291056
 20
5047.5650485145
 30
0.0
 11
6303.9324274196
 21
5047.5650485145
 31
0.0
  0
LINE
  5
252
330
1F
100
AcDbEntity
  8
0
  6
Continuous
 62
     7
370
    25
100
AcDbLine
 10
6304.8062098871
 20
5046.9676459171
 30
0.0
 11
6304.631291056
 21
5047.5650485145
 31
0.0
  0
LINE
  5
253
330
1F
100
AcDbEntity
  8
0
  6
Continuous
 62
     7
370
    25
100
AcDbLine
 10
6305.0221189781
 20
5046.9676459171
 30
0.0
 11
6304.8062098871
 21
5046.9676459171
 31
0.0
  0
LINE
  5
254
330
1F
100
AcDbEntity
  8
0
  6
Continuous
 62
     7
370
    25
100
AcDbLine
 10
6304.3829144326
 20
5048.9676459171
 30
0.0
 11
6305.0221189781
 21
5046.9676459171
 31
0.0
  0
LINE
  5
255
330
1F
100
AcDbEntity
  8
0
  6
Continuous
 62
     7
370
    25
100
AcDbLine
 10
6304.1803981988
 20
5048.9676459171
 30
0.0
 11
6304.3829144326
 21
5048.9676459171
 31
0.0
  0
LINE
  5
256
330
1F
100
AcDbEntity
  8
0
  6
Continuous
 62
     7
370
    25
100
AcDbLine
 10
6303.5415994975
 20
5046.9676459171
 30
0.0
 11
6304.1803981988
 21
5048.9676459171
 31
0.0
  0
LINE
  5
257
330
1F
100
AcDbEntity
  8
0
  6
Continuous
 62
     7
370
    25
100
AcDbLine
 10
6303.7579144326
 20
5046.9676459171
 30
0.0
 11
6303.5415994975
 21
5046.9676459171
 31
0.0
  0
LWPOLYLINE
  5
258
330
1F
100
AcDbEntity
  8
0
  6
Continuous
 62
     7
370
    25
100
AcDbPolyline
 90
        6
 70
   128
 43
0.0
 10
6306.7104306664
 20
5046.902305008
 10
6306.6718365203
 20
5046.5750899849
 10
6306.6360361381
 20
5046.5007747302
 10
6306.5784825464
 20
5046.4418351281
 10
6306.5041000449
 20
5046.4065585006
 10
6306.4222813157
 20
5046.3962173456
  0
LINE
  5
259
330
1F
100
AcDbEntity
  8
0
  6
Continuous
 62
     7
370
    25
100
AcDbLine
 10
6306.7104306664
 20
5048.4221913716
 30
0.0
 11
6306.7104306664
 21
5046.902305008
 31
0.0
  0
LINE
  5
25A
330
1F
100
AcDbEntity
  8
0
  6
Continuous
 62
     7
370
    25
100
AcDbLine
 10
6306.5026384586
 20
5048.4221913716
 30
0.0
 11
6306.7104306664
 21
5048.4221913716
 31
0.0
  0
LINE
  5
25B
330
1F
100
AcDbEntity
  8
0
  6
Continuous
 62
     7
370
    25
100
AcDbLine
 10
6306.5026384586
 20
5046.902305008
 30
0.0
 11
6306.5026384586
 21
5048.4221913716
 31
0.0
  0
LWPOLYLINE
  5
25C
330
1F
100
AcDbEntity
  8
0
  6
Continuous
 62
     7
370
    25
100
AcDbPolyline
 90
        6
 70
   128
 43
0.0
 10
6306.3849436534
 20
5046.6040095534
 10
6306.4289476866
 20
5046.6120849657
 10
6306.4644382607
 20
5046.6391383223
 10
6306.4842512959
 20
5046.6791250071
 10
6306.493335513
 20
5046.7230766468
 10
6306.5026384586
 20
5046.902305008
  0
LWPOLYLINE
  5
25D
330
1F
100
AcDbEntity
  8
0
  6
Continuous
 62
     7
370
    25
100
AcDbPolyline
 90
        3
 70
   128
 43
0.0
 10
6306.2948462508
 20
5046.6230842288
 10
6306.344676683
 20
5046.6092406153
 10
6306.3849436534
 20
5046.6040095534
  0
LINE
  5
25E
330
1F
100
AcDbEntity
  8
0
  6
Continuous
 62
     7
370
    25
100
AcDbLine
 10
6306.2688722248
 20
5046.3962173456
 30
0.0
 11
6306.2948462508
 21
5046.6230842288
 31
0.0
  0
LINE
  5
25F
330
1F
100
AcDbEntity
  8
0
  6
Continuous
 62
     7
370
    25
100
AcDbLine
 10
6306.4222813157
 20
5046.3962173456
 30
0.0
 11
6306.2688722248
 21
5046.3962173456
 31
0.0
  0
LINE
  5
260
330
1F
100
AcDbEntity
  8
0
  6
Continuous
 62
     7
370
    25
100
AcDbLine
 10
6243.7398451286
 20
5040.1129715646
 30
0.0
 11
6243.7398451286
 21
5038.1129715646
 31
0.0
  0
LINE
  5
261
330
1F
100
AcDbEntity
  8
0
  6
Continuous
 62
     7
370
    25
100
AcDbLine
 10
6243.5320529208
 20
5040.1129715646
 30
0.0
 11
6243.7398451286
 21
5040.1129715646
 31
0.0
  0
LINE
  5
262
330
1F
100
AcDbEntity
  8
0
  6
Continuous
 62
     7
370
    25
100
AcDbLine
 10
6243.5320529208
 20
5038.1129715646
 30
0.0
 11
6243.5320529208
 21
5040.1129715646
 31
0.0
  0
LINE
  5
263
330
1F
100
AcDbEntity
  8
0
  6
Continuous
 62
     7
370
    25
100
AcDbLine
 10
6243.7398451286
 20
5038.1129715646
 30
0.0
 11
6243.5320529208
 21
5038.1129715646
 31
0.0
  0
LINE
  5
264
330
1F
100
AcDbEntity
  8
0
  6
Continuous
 62
     7
370
    25
100
AcDbLine
 10
6305.389533182
 20
5051.7681799928
 30
0.0
 11
6304.7596630521
 21
5049.7681799928
 31
0.0
  0
LINE
  5
265
330
1F
100
AcDbEntity
  8
0
  6
Continuous
 62
     7
370
    25
100
AcDbLine
 10
6305.173624091
 20
5051.7681799928
 30
0.0
 11
6305.389533182
 21
5051.7681799928
 31
0.0
  0
LINE
  5
266
330
1F
100
AcDbEntity
  8
0
  6
Continuous
 62
     7
370
    25
100
AcDbLine
 10
6304.7288188962
 20
5050.3172871356
 30
0.0
 11
6305.173624091
 21
5051.7681799928
 31
0.0
  0
LWPOLYLINE
  5
267
330
1F
100
AcDbEntity
  8
0
  6
Continuous
 62
     7
370
    25
100
AcDbPolyline
 90
        3
 70
   128
 43
0.0
 10
6304.6411565586
 20
5050.0019462265
 10
6304.6883349273
 20
5050.1790682911
 10
6304.7288188962
 20
5050.3172871356
  0
LWPOLYLINE
  5
268
330
1F
100
AcDbEntity
  8
0
  6
Continuous
 62
     7
370
    25
100
AcDbPolyline
 90
        3
 70
   128
 43
0.0
 10
6304.5607994157
 20
5050.3172871356
 10
6304.6070533462
 20
5050.141014473
 10
6304.6411565586
 20
5050.0019462265
  0
LINE
  5
269
330
1F
100
AcDbEntity
  8
0
  6
Continuous
 62
     7
370
    25
100
AcDbLine
 10
6304.1606370781
 20
5051.7681799928
 30
0.0
 11
6304.5607994157
 21
5050.3172871356
 31
0.0
  0
LINE
  5
26A
330
1F
100
AcDbEntity
  8
0
  6
Continuous
 62
     7
370
    25
100
AcDbLine
 10
6303.9467572079
 20
5051.7681799928
 30
0.0
 11
6304.1606370781
 21
5051.7681799928
 31
0.0
  0
LINE
  5
26B
330
1F
100
AcDbEntity
  8
0
  6
Continuous
 62
     7
370
    25
100
AcDbLine
 10
6304.5449714936
 20
5049.7681799928
 30
0.0
 11
6303.9467572079
 21
5051.7681799928
 31
0.0
  0
LINE
  5
26C
330
1F
100
AcDbEntity
  8
0
  6
Continuous
 62
     7
370
    25
100
AcDbLine
 10
6304.7596630521
 20
5049.7681799928
 30
0.0
 11
6304.5449714936
 21
5049.7681799928
 31
0.0
  0
LINE
  5
26D
330
1F
100
AcDbEntity
  8
0
  6
Continuous
 62
     7
370
    25
100
AcDbLine
 10
6276.8174566348
 20
5051.0149332395
 30
0.0
 11
6275.8823916997
 21
5051.0149332395
 31
0.0
  0
LINE
  5
26E
330
1F
100
AcDbEntity
  8
0
  6
Continuous
 62
     7
370
    25
100
AcDbLine
 10
6275.8823916997
 20
5051.0149332395
 30
0.0
 11
6275.8823916997
 21
5050.6642838889
 31
0.0
  0
LINE
  5
26F
330
1F
100
AcDbEntity
  8
0
  6
Continuous
 62
     7
370
    25
100
AcDbLine
 10
6275.8823916997
 20
5050.6642838889
 30
0.0
 11
6276.8174566348
 21
5050.6642838889
 31
0.0
  0
LINE
  5
270
330
1F
100
AcDbEntity
  8
0
  6
Continuous
 62
     7
370
    25
100
AcDbLine
 10
6276.8174566348
 20
5050.6642838889
 30
0.0
 11
6276.8174566348
 21
5051.0149332395
 31
0.0
  0
LINE
  5
271
330
1F
100
AcDbEntity
  8
0
  6
Continuous
 62
     7
370
    25
100
AcDbLine
 10
6279.125289427
 20
5052.7681799928
 30
0.0
 11
6278.8044696218
 21
5052.7681799928
 31
0.0
  0
LINE
  5
272
330
1F
100
AcDbEntity
  8
0
  6
Continuous
 62
     7
370
    25
100
AcDbLine
 10
6278.8044696218
 20
5052.7681799928
 30
0.0
 11
6278.2042261153
 21
5050.5918407071
 31
0.0
  0
LWPOLYLINE
  5
273
330
1F
100
AcDbEntity
  8
0
  6
Continuous
 62
     7
370
    25
100
AcDbPolyline
 90
        3
 70
   128
 43
0.0
 10
6278.2042261153
 20
5050.5918407071
 10
6278.1348452196
 20
5050.3274317131
 10
6278.083690401
 20
5050.1188293434
  0
LWPOLYLINE
  5
274
330
1F
100
AcDbEntity
  8
0
  6
Continuous
 62
     7
370
    25
100
AcDbPolyline
 90
        3
 70
   128
 43
0.0
 10
6278.083690401
 20
5050.1188293434
 10
6278.012922848
 20
5050.3845124402
 10
6277.9521968945
 20
5050.5918407071
  0
LINE
  5
275
330
1F
100
AcDbEntity
  8
0
  6
Continuous
 62
     7
370
    25
100
AcDbLine
 10
6277.9521968945
 20
5050.5918407071
 30
0.0
 11
6277.2849891023
 21
5052.7681799928
 31
0.0
  0
LINE
  5
276
330
1F
100
AcDbEntity
  8
0
  6
Continuous
 62
     7
370
    25
100
AcDbLine
 10
6277.2849891023
 20
5052.7681799928
 30
0.0
 11
6276.961125466
 21
5052.7681799928
 31
0.0
  0
LINE
  5
277
330
1F
100
AcDbEntity
  8
0
  6
Continuous
 62
     7
370
    25
100
AcDbLine
 10
6276.961125466
 20
5052.7681799928
 30
0.0
 11
6277.9059306608
 21
5049.7681799928
 31
0.0
  0
LINE
  5
278
330
1F
100
AcDbEntity
  8
0
  6
Continuous
 62
     7
370
    25
100
AcDbLine
 10
6277.9059306608
 20
5049.7681799928
 30
0.0
 11
6278.2279679984
 21
5049.7681799928
 31
0.0
  0
LINE
  5
279
330
1F
100
AcDbEntity
  8
0
  6
Continuous
 62
     7
370
    25
100
AcDbLine
 10
6278.2279679984
 20
5049.7681799928
 30
0.0
 11
6279.125289427
 21
5052.7681799928
 31
0.0
  0
LINE
  5
27A
330
1F
100
AcDbEntity
  8
0
  6
Continuous
 62
     7
370
    25
100
AcDbLine
 10
6282.3174566348
 20
5051.0149332395
 30
0.0
 11
6281.3823916997
 21
5051.0149332395
 31
0.0
  0
LINE
  5
27B
330
1F
100
AcDbEntity
  8
0
  6
Continuous
 62
     7
370
    25
100
AcDbLine
 10
6281.3823916997
 20
5051.0149332395
 30
0.0
 11
6281.3823916997
 21
5050.6642838889
 31
0.0
  0
LINE
  5
27C
330
1F
100
AcDbEntity
  8
0
  6
Continuous
 62
     7
370
    25
100
AcDbLine
 10
6281.3823916997
 20
5050.6642838889
 30
0.0
 11
6282.3174566348
 21
5050.6642838889
 31
0.0
  0
LINE
  5
27D
330
1F
100
AcDbEntity
  8
0
  6
Continuous
 62
     7
370
    25
100
AcDbLine
 10
6282.3174566348
 20
5050.6642838889
 30
0.0
 11
6282.3174566348
 21
5051.0149332395
 31
0.0
  0
LWPOLYLINE
  5
27E
330
1F
100
AcDbEntity
  8
0
  6
Continuous
 62
     7
370
    25
100
AcDbPolyline
 90
        5
 70
   128
 43
0.0
 10
6253.298286687
 20
5039.1121598763
 10
6253.2168725278
 20
5038.4763924371
 10
6253.0570579298
 20
5038.2004749037
 10
6252.9224075097
 20
5038.1142310145
 10
6252.7646016221
 20
5038.0869975386
  0
LWPOLYLINE
  5
27F
330
1F
100
AcDbEntity
  8
0
  6
Continuous
 62
     7
370
    25
100
AcDbPolyline
 90
        3
 70
   128
 43
0.0
 10
6253.1351373364
 20
5039.9279066295
 10
6253.2762076121
 20
5039.4816950555
 10
6253.298286687
 20
5039.1121598763
  0
ARC
  5
280
330
1F
100
AcDbEntity
  8
0
  6
Continuous
 62
     7
370
    25
100
AcDbCircle
 10
6252.7732019349
 20
5039.7231534858
 30
0.0
 40
0.4158378105612395
100
AcDbArc
 50
29.4975951224
 51
90.8495033847
  0
LWPOLYLINE
  5
281
330
1F
100
AcDbEntity
  8
0
  6
Continuous
 62
     7
370
    25
100
AcDbPolyline
 90
        6
 70
   128
 43
0.0
 10
6252.2333516221
 20
5039.1121598763
 10
6252.2497227592
 20
5039.4336919823
 10
6252.3143181825
 20
5039.7486946289
 10
6252.4745245842
 20
5040.0247784944
 10
6252.6091532189
 20
5040.1113700183
 10
6252.767036687
 20
5040.1389455906
  0
LWPOLYLINE
  5
282
330
1F
100
AcDbEntity
  8
0
  6
Continuous
 62
     7
370
    25
100
AcDbPolyline
 90
        6
 70
   128
 43
0.0
 10
6252.7646016221
 20
5038.0869975386
 10
6252.6076281385
 20
5038.1166938204
 10
6252.4740416035
 20
5038.2044268395
 10
6252.3090580242
 20
5038.4763434165
 10
6252.2477837767
 20
5038.7912444609
 10
6252.2333516221
 20
5039.1121598763
  0
LINE
  5
283
330
1F
100
AcDbEntity
  8
0
  6
Continuous
 62
     7
370
    25
100
AcDbLine
 10
6250.6229620117
 20
5038.3986858503
 30
0.0
 11
6250.6229620117
 21
5038.1129715646
 31
0.0
  0
LINE
  5
284
330
1F
100
AcDbEntity
  8
0
  6
Continuous
 62
     7
370
    25
100
AcDbLine
 10
6250.4151698039
 20
5038.3986858503
 30
0.0
 11
6250.6229620117
 21
5038.3986858503
 31
0.0
  0
LINE
  5
285
330
1F
100
AcDbEntity
  8
0
  6
Continuous
 62
     7
370
    25
100
AcDbLine
 10
6250.4151698039
 20
5038.1129715646
 30
0.0
 11
6250.4151698039
 21
5038.3986858503
 31
0.0
  0
LINE
  5
286
330
1F
100
AcDbEntity
  8
0
  6
Continuous
 62
     7
370
    25
100
AcDbLine
 10
6250.6229620117
 20
5038.1129715646
 30
0.0
 11
6250.4151698039
 21
5038.1129715646
 31
0.0
  0
LINE
  5
287
330
1F
100
AcDbEntity
  8
0
  6
Continuous
 62
     7
370
    25
100
AcDbLine
 10
6249.6099749987
 20
5039.8792053308
 30
0.0
 11
6249.6099749987
 21
5038.1129715646
 31
0.0
  0
LINE
  5
288
330
1F
100
AcDbEntity
  8
0
  6
Continuous
 62
     7
370
    25
100
AcDbLine
 10
6250.1554295442
 20
5039.8792053308
 30
0.0
 11
6249.6099749987
 21
5039.8792053308
 31
0.0
  0
LINE
  5
289
330
1F
100
AcDbEntity
  8
0
  6
Continuous
 62
     7
370
    25
100
AcDbLine
 10
6250.1554295442
 20
5040.1129715646
 30
0.0
 11
6250.1554295442
 21
5039.8792053308
 31
0.0
  0
LINE
  5
28A
330
1F
100
AcDbEntity
  8
0
  6
Continuous
 62
     7
370
    25
100
AcDbLine
 10
6248.8567282455
 20
5040.1129715646
 30
0.0
 11
6250.1554295442
 21
5040.1129715646
 31
0.0
  0
LINE
  5
28B
330
1F
100
AcDbEntity
  8
0
  6
Continuous
 62
     7
370
    25
100
AcDbLine
 10
6248.8567282455
 20
5039.8792053308
 30
0.0
 11
6248.8567282455
 21
5040.1129715646
 31
0.0
  0
LINE
  5
28C
330
1F
100
AcDbEntity
  8
0
  6
Continuous
 62
     7
370
    25
100
AcDbLine
 10
6249.4021827909
 20
5039.8792053308
 30
0.0
 11
6248.8567282455
 21
5039.8792053308
 31
0.0
  0
LINE
  5
28D
330
1F
100
AcDbEntity
  8
0
  6
Continuous
 62
     7
370
    25
100
AcDbLine
 10
6249.4021827909
 20
5038.1129715646
 30
0.0
 11
6249.4021827909
 21
5039.8792053308
 31
0.0
  0
LINE
  5
28E
330
1F
100
AcDbEntity
  8
0
  6
Continuous
 62
     7
370
    25
100
AcDbLine
 10
6249.6099749987
 20
5038.1129715646
 30
0.0
 11
6249.4021827909
 21
5038.1129715646
 31
0.0
  0
LINE
  5
28F
330
1F
100
AcDbEntity
  8
0
  6
Continuous
 62
     7
370
    25
100
AcDbLine
 10
6245.9995853883
 20
5038.9181663698
 30
0.0
 11
6245.9995853883
 21
5038.1129715646
 31
0.0
  0
LINE
  5
290
330
1F
100
AcDbEntity
  8
0
  6
Continuous
 62
     7
370
    25
100
AcDbLine
 10
6246.4216633104
 20
5038.9181663698
 30
0.0
 11
6245.9995853883
 21
5038.9181663698
 31
0.0
  0
ARC
  5
291
330
1F
100
AcDbEntity
  8
0
  6
Continuous
 62
     7
370
    25
100
AcDbCircle
 10
6246.4836306444
 20
5039.4729207922
 30
0.0
 40
0.5582046395595545
100
AcDbArc
 50
263.6263519985
 51
6.2226710677
  0
ARC
  5
292
330
1F
100
AcDbEntity
  8
0
  6
Continuous
 62
     7
370
    25
100
AcDbCircle
 10
6246.5136956381
 20
5039.5919623519
 30
0.0
 40
0.528104954048273
100
AcDbArc
 50
353.6361410046
 51
66.0016367607
  0
LWPOLYLINE
  5
293
330
1F
100
AcDbEntity
  8
0
  6
Continuous
 62
     7
370
    25
100
AcDbPolyline
 90
        3
 70
   128
 43
0.0
 10
6246.4078646091
 20
5040.1129715646
 10
6246.5892149393
 20
5040.1041674387
 10
6246.7284814922
 20
5040.0744163698
  0
LINE
  5
294
330
1F
100
AcDbEntity
  8
0
  6
Continuous
 62
     7
370
    25
100
AcDbLine
 10
6245.7917931805
 20
5040.1129715646
 30
0.0
 11
6246.4078646091
 21
5040.1129715646
 31
0.0
  0
LINE
  5
295
330
1F
100
AcDbEntity
  8
0
  6
Continuous
 62
     7
370
    25
100
AcDbLine
 10
6245.7917931805
 20
5038.1129715646
 30
0.0
 11
6245.7917931805
 21
5040.1129715646
 31
0.0
  0
LINE
  5
296
330
1F
100
AcDbEntity
  8
0
  6
Continuous
 62
     7
370
    25
100
AcDbLine
 10
6245.9995853883
 20
5038.1129715646
 30
0.0
 11
6245.7917931805
 21
5038.1129715646
 31
0.0
  0
LWPOLYLINE
  5
297
330
1F
100
AcDbEntity
  8
0
  6
Continuous
 62
     7
370
    25
100
AcDbPolyline
 90
        3
 70
   128
 43
0.0
 10
6256.1266146091
 20
5038.7351306555
 10
6255.9388471089
 20
5038.5287824677
 10
6255.8177672065
 20
5038.3467377984
  0
ARC
  5
298
330
1F
100
AcDbEntity
  8
0
  6
Continuous
 62
     7
370
    25
100
AcDbCircle
 10
6255.3380061699
 20
5039.7278222487
 30
0.0
 40
1.267809082479848
100
AcDbArc
 50
308.4641328
 51
353.2348702306
  0
ARC
  5
299
330
1F
100
AcDbEntity
  8
0
  6
Continuous
 62
     7
370
    25
100
AcDbCircle
 10
6256.0808678067
 20
5039.6211533325
 30
0.0
 40
0.5178817387519946
100
AcDbArc
 50
355.2729063974
 51
88.9348929824
  0
ARC
  5
29A
330
1F
100
AcDbEntity
  8
0
  6
Continuous
 62
     7
370
    25
100
AcDbCircle
 10
6256.1029494027
 20
5039.591847851
 30
0.0
 40
0.5472394921118948
100
AcDbArc
 50
91.3041386502
 51
185.2743467066
  0
LINE
  5
29B
330
1F
100
AcDbEntity
  8
0
  6
Continuous
 62
     7
370
    25
100
AcDbLine
 10
6255.7658191545
 20
5039.5155689672
 30
0.0
 11
6255.5580269468
 21
5039.5415429932
 31
0.0
  0
LWPOLYLINE
  5
29C
330
1F
100
AcDbEntity
  8
0
  6
Continuous
 62
     7
370
    25
100
AcDbPolyline
 90
        5
 70
   128
 43
0.0
 10
6256.0827834403
 20
5039.9311533828
 10
6255.9751985732
 20
5039.9123813147
 10
6255.8831073034
 20
5039.8538289471
 10
6255.8170009142
 20
5039.7667723521
 10
6255.7658191545
 20
5039.5155689672
  0
ARC
  5
29D
330
1F
100
AcDbEntity
  8
0
  6
Continuous
 62
     7
370
    25
100
AcDbCircle
 10
6256.0717706455
 20
5039.6125065105
 30
0.0
 40
0.3188371228083095
100
AcDbArc
 50
354.6057699974
 51
88.0205811984
  0
ARC
  5
29E
330
1F
100
AcDbEntity
  8
0
  6
Continuous
 62
     7
370
    25
100
AcDbCircle
 10
6255.3128367162
 20
5039.7432932637
 30
0.0
 40
1.088298034032353
100
AcDbArc
 50
305.315321085
 51
351.5053593861
  0
ARC
  5
29F
330
1F
100
AcDbEntity
  8
0
  6
Continuous
 62
     7
370
    25
100
AcDbCircle
 10
6256.6421989272
 20
5037.9842545608
 30
0.0
 40
1.117583206172045
100
AcDbArc
 50
128.797468206
 51
173.3863142525
  0
LINE
  5
2A0
330
1F
100
AcDbEntity
  8
0
  6
Continuous
 62
     7
370
    25
100
AcDbLine
 10
6256.5969879857
 20
5038.1129715646
 30
0.0
 11
6255.5320529208
 21
5038.1129715646
 31
0.0
  0
LINE
  5
2A1
330
1F
100
AcDbEntity
  8
0
  6
Continuous
 62
     7
370
    25
100
AcDbLine
 10
6256.5969879857
 20
5038.3467377984
 30
0.0
 11
6256.5969879857
 21
5038.1129715646
 31
0.0
  0
LINE
  5
2A2
330
1F
100
AcDbEntity
  8
0
  6
Continuous
 62
     7
370
    25
100
AcDbLine
 10
6255.8177672065
 20
5038.3467377984
 30
0.0
 11
6256.5969879857
 21
5038.3467377984
 31
0.0
  0
LWPOLYLINE
  5
2A3
330
1F
100
AcDbEntity
  8
0
  6
Continuous
 62
     7
370
    25
100
AcDbPolyline
 90
        5
 70
   128
 43
0.0
 10
6259.1424425312
 20
5039.1121598763
 10
6259.061028372
 20
5038.4763924371
 10
6258.901213774
 20
5038.2004749037
 10
6258.7665633539
 20
5038.1142310145
 10
6258.6087574662
 20
5038.0869975386
  0
LWPOLYLINE
  5
2A4
330
1F
100
AcDbEntity
  8
0
  6
Continuous
 62
     7
370
    25
100
AcDbPolyline
 90
        3
 70
   128
 43
0.0
 10
6258.9792931805
 20
5039.9279066295
 10
6259.1203634562
 20
5039.4816950555
 10
6259.1424425312
 20
5039.1121598763
  0
ARC
  5
2A5
330
1F
100
AcDbEntity
  8
0
  6
Continuous
 62
     7
370
    25
100
AcDbCircle
 10
6258.6173577791
 20
5039.7231534858
 30
0.0
 40
0.4158378105608292
100
AcDbArc
 50
29.4975951225
 51
90.8495033848
  0
LWPOLYLINE
  5
2A6
330
1F
100
AcDbEntity
  8
0
  6
Continuous
 62
     7
370
    25
100
AcDbPolyline
 90
        6
 70
   128
 43
0.0
 10
6258.0775074662
 20
5039.1121598763
 10
6258.0938786034
 20
5039.4336919823
 10
6258.1584740267
 20
5039.7486946289
 10
6258.3186804283
 20
5040.0247784944
 10
6258.4533090631
 20
5040.1113700183
 10
6258.6111925312
 20
5040.1389455906
  0
LWPOLYLINE
  5
2A7
330
1F
100
AcDbEntity
  8
0
  6
Continuous
 62
     7
370
    25
100
AcDbPolyline
 90
        6
 70
   128
 43
0.0
 10
6258.6087574662
 20
5038.0869975386
 10
6258.4517839827
 20
5038.1166938204
 10
6258.3181974476
 20
5038.2044268395
 10
6258.1532138683
 20
5038.4763434165
 10
6258.0919396209
 20
5038.7912444609
 10
6258.0775074662
 20
5039.1121598763
  0
LINE
  5
2A8
330
1F
100
AcDbEntity
  8
0
  6
Continuous
 62
     7
370
    25
100
AcDbLine
 10
6261.1696340896
 20
5038.710374162
 30
0.0
 11
6260.9951211026
 21
5038.1129715646
 31
0.0
  0
LINE
  5
2A9
330
1F
100
AcDbEntity
  8
0
  6
Continuous
 62
     7
370
    25
100
AcDbLine
 10
6261.868497726
 20
5038.710374162
 30
0.0
 11
6261.1696340896
 21
5038.710374162
 31
0.0
  0
LINE
  5
2AA
330
1F
100
AcDbEntity
  8
0
  6
Continuous
 62
     7
370
    25
100
AcDbLine
 10
6262.0434165571
 20
5038.1129715646
 30
0.0
 11
6261.868497726
 21
5038.710374162
 31
0.0
  0
LINE
  5
2AB
330
1F
100
AcDbEntity
  8
0
  6
Continuous
 62
     7
370
    25
100
AcDbLine
 10
6262.2593256481
 20
5038.1129715646
 30
0.0
 11
6262.0434165571
 21
5038.1129715646
 31
0.0
  0
LINE
  5
2AC
330
1F
100
AcDbEntity
  8
0
  6
Continuous
 62
     7
370
    25
100
AcDbLine
 10
6261.6201211026
 20
5040.1129715646
 30
0.0
 11
6262.2593256481
 21
5038.1129715646
 31
0.0
  0
LINE
  5
2AD
330
1F
100
AcDbEntity
  8
0
  6
Continuous
 62
     7
370
    25
100
AcDbLine
 10
6261.4176048688
 20
5040.1129715646
 30
0.0
 11
6261.6201211026
 21
5040.1129715646
 31
0.0
  0
LINE
  5
2AE
330
1F
100
AcDbEntity
  8
0
  6
Continuous
 62
     7
370
    25
100
AcDbLine
 10
6260.7788061675
 20
5038.1129715646
 30
0.0
 11
6261.4176048688
 21
5040.1129715646
 31
0.0
  0
LINE
  5
2AF
330
1F
100
AcDbEntity
  8
0
  6
Continuous
 62
     7
370
    25
100
AcDbLine
 10
6260.9951211026
 20
5038.1129715646
 30
0.0
 11
6260.7788061675
 21
5038.1129715646
 31
0.0
  0
ARC
  5
2B0
330
1F
100
AcDbEntity
  8
0
  6
Continuous
 62
     7
370
    25
100
AcDbCircle
 10
6265.2165468179
 20
5038.6638630278
 30
0.0
 40
0.5775727506602037
100
AcDbArc
 50
272.8357544729
 51
5.1442402223
  0
ARC
  5
2B1
330
1F
100
AcDbEntity
  8
0
  6
Continuous
 62
     7
370
    25
100
AcDbCircle
 10
6265.3355757494
 20
5038.776332842
 30
0.0
 40
0.4602355214724153
100
AcDbArc
 50
352.4234082146
 51
70.5763074361
  0
ARC
  5
2B2
330
1F
100
AcDbEntity
  8
0
  6
Continuous
 62
     7
370
    25
100
AcDbCircle
 10
6265.259925367
 20
5039.6028031987
 30
0.0
 40
0.4542083866178432
100
AcDbArc
 50
300.2330423059
 51
1.9485903918
  0
ARC
  5
2B3
330
1F
100
AcDbEntity
  8
0
  6
Continuous
 62
     7
370
    25
100
AcDbCircle
 10
6265.2235467065
 20
5039.6480723011
 30
0.0
 40
0.4912306279543865
100
AcDbArc
 50
356.5191815742
 51
87.814448004
  0
ARC
  5
2B4
330
1F
100
AcDbEntity
  8
0
  6
Continuous
 62
     7
370
    25
100
AcDbCircle
 10
6265.2585001892
 20
5039.6333942434
 30
0.0
 40
0.5058114795606415
100
AcDbArc
 50
91.8376345336
 51
178.6354906021
  0
LINE
  5
2B5
330
1F
100
AcDbEntity
  8
0
  6
Continuous
 62
     7
370
    25
100
AcDbLine
 10
6264.9606243494
 20
5039.6194650711
 30
0.0
 11
6264.7528321416
 21
5039.6454390971
 31
0.0
  0
LWPOLYLINE
  5
2B6
330
1F
100
AcDbEntity
  8
0
  6
Continuous
 62
     7
370
    25
100
AcDbPolyline
 90
        4
 70
   128
 43
0.0
 10
6265.2479620117
 20
5039.9311533828
 10
6265.121557728
 20
5039.9008489879
 10
6265.0258348522
 20
5039.8130474895
 10
6264.9606243494
 20
5039.6194650711
  0
ARC
  5
2B7
330
1F
100
AcDbEntity
  8
0
  6
Continuous
 62
     7
370
    25
100
AcDbCircle
 10
6265.2354558556
 20
5039.6592441173
 30
0.0
 40
0.2721967167518591
100
AcDbArc
 50
353.8359873423
 51
87.3666019478
  0
ARC
  5
2B8
330
1F
100
AcDbEntity
  8
0
  6
Continuous
 62
     7
370
    25
100
AcDbCircle
 10
6265.1935503854
 20
5039.6171001966
 30
0.0
 40
0.3127953220221888
100
AcDbArc
 50
266.3601217144
 51
2.3666911335
  0
LINE
  5
2B9
330
1F
100
AcDbEntity
  8
0
  6
Continuous
 62
     7
370
    25
100
AcDbLine
 10
6265.1424425312
 20
5039.3077767594
 30
0.0
 11
6265.1736925312
 21
5039.3049358503
 31
0.0
  0
LINE
  5
2BA
330
1F
100
AcDbEntity
  8
0
  6
Continuous
 62
     7
370
    25
100
AcDbLine
 10
6265.1164685052
 20
5039.072387149
 30
0.0
 11
6265.1424425312
 21
5039.3077767594
 31
0.0
  0
LWPOLYLINE
  5
2BB
330
1F
100
AcDbEntity
  8
0
  6
Continuous
 62
     7
370
    25
100
AcDbPolyline
 90
        3
 70
   128
 43
0.0
 10
6265.2597314922
 20
5039.0999845516
 10
6265.1785204295
 20
5039.0896354094
 10
6265.1164685052
 20
5039.072387149
  0
ARC
  5
2BC
330
1F
100
AcDbEntity
  8
0
  6
Continuous
 62
     7
370
    25
100
AcDbCircle
 10
6265.2400260183
 20
5038.7541440599
 30
0.0
 40
0.3464014310216604
100
AcDbArc
 50
353.2143777144
 51
86.7388982426
  0
LWPOLYLINE
  5
2BD
330
1F
100
AcDbEntity
  8
0
  6
Continuous
 62
     7
370
    25
100
AcDbPolyline
 90
        4
 70
   128
 43
0.0
 10
6265.2483678558
 20
5038.2947897464
 10
6265.4063605172
 20
5038.341606409
 10
6265.5209324486
 20
5038.4615817148
 10
6265.5840009727
 20
5038.7132150711
  0
LWPOLYLINE
  5
2BE
330
1F
100
AcDbEntity
  8
0
  6
Continuous
 62
     7
370
    25
100
AcDbPolyline
 90
        4
 70
   128
 43
0.0
 10
6264.9346503234
 20
5038.684400136
 10
6265.0395680938
 20
5038.3980867703
 10
6265.1312222475
 20
5038.3206468806
 10
6265.2483678558
 20
5038.2947897464
  0
LINE
  5
2BF
330
1F
100
AcDbEntity
  8
0
  6
Continuous
 62
     7
370
    25
100
AcDbLine
 10
6264.7268581156
 20
5038.65842611
 30
0.0
 11
6264.9346503234
 21
5038.684400136
 31
0.0
  0
LWPOLYLINE
  5
2C0
330
1F
100
AcDbEntity
  8
0
  6
Continuous
 62
     7
370
    25
100
AcDbPolyline
 90
        4
 70
   128
 43
0.0
 10
6265.2451211026
 20
5038.0869975386
 10
6265.015530675
 20
5038.1442223217
 10
6264.8414274806
 20
5038.3051765351
 10
6264.7268581156
 20
5038.65842611
  0
LWPOLYLINE
  5
2C1
330
1F
100
AcDbEntity
  8
0
  6
Continuous
 62
     7
370
    25
100
AcDbPolyline
 90
        7
 70
   128
 43
0.0
 10
6266.1882174616
 20
5045.322171619
 10
6266.1593459185
 20
5044.7601194302
 10
6266.045742683
 20
5044.2095786004
 10
6265.934519818
 20
5043.9512958052
 10
6265.7660671365
 20
5043.726722917
 10
6265.5304289013
 20
5043.5757961108
 10
6265.254268598
 20
5043.5281375281
  0
ARC
  5
2C2
330
1F
100
AcDbEntity
  8
0
  6
Continuous
 62
     7
370
    25
100
AcDbCircle
 10
6263.4618123318
 20
5045.5192201385
 30
0.0
 40
2.733516608868245
100
AcDbArc
 50
355.8661859352
 51
26.7536790128
  0
ARC
  5
2C3
330
1F
100
AcDbEntity
  8
0
  6
Continuous
 62
     7
370
    25
100
AcDbCircle
 10
6265.2693191455
 20
5046.3914104356
 30
0.0
 40
0.727716168490481
100
AcDbArc
 50
29.4975951229
 51
90.8495033844
  0
LWPOLYLINE
  5
2C4
330
1F
100
AcDbEntity
  8
0
  6
Continuous
 62
     7
370
    25
100
AcDbPolyline
 90
        7
 70
   128
 43
0.0
 10
6264.324581098
 20
5045.322171619
 10
6264.353230588
 20
5045.8848528045
 10
6264.4662725788
 20
5046.4361074361
 10
6264.5779997624
 20
5046.6945283557
 10
6264.7466337817
 20
5046.9192542008
 10
6264.9822338925
 20
5047.0707893676
 10
6265.2585299616
 20
5047.119046619
  0
LWPOLYLINE
  5
2C5
330
1F
100
AcDbEntity
  8
0
  6
Continuous
 62
     7
370
    25
100
AcDbPolyline
 90
        6
 70
   128
 43
0.0
 10
6265.254268598
 20
5043.5281375281
 10
6264.9795650018
 20
5043.5801060213
 10
6264.7457885654
 20
5043.7336388046
 10
6264.4570673016
 20
5044.2094928144
 10
6264.3498373687
 20
5044.7605696421
 10
6264.324581098
 20
5045.322171619
  0
LINE
  5
2C6
330
1F
100
AcDbEntity
  8
0
  6
Continuous
 62
     7
370
    25
100
AcDbLine
 10
6269.824581098
 20
5045.0281375281
 30
0.0
 11
6269.824581098
 21
5044.619046619
 31
0.0
  0
LINE
  5
2C7
330
1F
100
AcDbEntity
  8
0
  6
Continuous
 62
     7
370
    25
100
AcDbLine
 10
6268.7336720071
 20
5045.0281375281
 30
0.0
 11
6269.824581098
 21
5045.0281375281
 31
0.0
  0
LINE
  5
2C8
330
1F
100
AcDbEntity
  8
0
  6
Continuous
 62
     7
370
    25
100
AcDbLine
 10
6268.7336720071
 20
5044.619046619
 30
0.0
 11
6268.7336720071
 21
5045.0281375281
 31
0.0
  0
LINE
  5
2C9
330
1F
100
AcDbEntity
  8
0
  6
Continuous
 62
     7
370
    25
100
AcDbLine
 10
6269.824581098
 20
5044.619046619
 30
0.0
 11
6268.7336720071
 21
5044.619046619
 31
0.0
  0
LINE
  5
2CA
330
1F
100
AcDbEntity
  8
0
  6
Continuous
 62
     7
370
    25
100
AcDbLine
 10
6273.7791265525
 20
5044.4372284372
 30
0.0
 11
6273.7791265525
 21
5043.5735920735
 31
0.0
  0
LINE
  5
2CB
330
1F
100
AcDbEntity
  8
0
  6
Continuous
 62
     7
370
    25
100
AcDbLine
 10
6274.1882174616
 20
5044.4372284372
 30
0.0
 11
6273.7791265525
 21
5044.4372284372
 31
0.0
  0
LINE
  5
2CC
330
1F
100
AcDbEntity
  8
0
  6
Continuous
 62
     7
370
    25
100
AcDbLine
 10
6274.1882174616
 20
5044.8463193463
 30
0.0
 11
6274.1882174616
 21
5044.4372284372
 31
0.0
  0
LINE
  5
2CD
330
1F
100
AcDbEntity
  8
0
  6
Continuous
 62
     7
370
    25
100
AcDbLine
 10
6273.7791265525
 20
5044.8463193463
 30
0.0
 11
6274.1882174616
 21
5044.8463193463
 31
0.0
  0
LINE
  5
2CE
330
1F
100
AcDbEntity
  8
0
  6
Continuous
 62
     7
370
    25
100
AcDbLine
 10
6273.7791265525
 20
5047.119046619
 30
0.0
 11
6273.7791265525
 21
5044.8463193463
 31
0.0
  0
LINE
  5
2CF
330
1F
100
AcDbEntity
  8
0
  6
Continuous
 62
     7
370
    25
100
AcDbLine
 10
6273.4360867798
 20
5047.119046619
 30
0.0
 11
6273.7791265525
 21
5047.119046619
 31
0.0
  0
LINE
  5
2D0
330
1F
100
AcDbEntity
  8
0
  6
Continuous
 62
     7
370
    25
100
AcDbLine
 10
6272.1882174616
 20
5044.8463193463
 30
0.0
 11
6273.4360867798
 21
5047.119046619
 31
0.0
  0
LINE
  5
2D1
330
1F
100
AcDbEntity
  8
0
  6
Continuous
 62
     7
370
    25
100
AcDbLine
 10
6272.1882174616
 20
5044.4372284372
 30
0.0
 11
6272.1882174616
 21
5044.8463193463
 31
0.0
  0
LINE
  5
2D2
330
1F
100
AcDbEntity
  8
0
  6
Continuous
 62
     7
370
    25
100
AcDbLine
 10
6273.4154901889
 20
5044.4372284372
 30
0.0
 11
6272.1882174616
 21
5044.4372284372
 31
0.0
  0
LINE
  5
2D3
330
1F
100
AcDbEntity
  8
0
  6
Continuous
 62
     7
370
    25
100
AcDbLine
 10
6273.4154901889
 20
5043.5735920735
 30
0.0
 11
6273.4154901889
 21
5044.4372284372
 31
0.0
  0
LINE
  5
2D4
330
1F
100
AcDbEntity
  8
0
  6
Continuous
 62
     7
370
    25
100
AcDbLine
 10
6273.7791265525
 20
5043.5735920735
 30
0.0
 11
6273.4154901889
 21
5043.5735920735
 31
0.0
  0
CIRCLE
  5
2D5
330
1F
100
AcDbEntity
  8
0
  6
Continuous
 62
     7
370
    25
100
AcDbCircle
 10
6301.5187553361
 20
5048.543629105
 30
0.0
 40
1.5
  0
LINE
  5
2D6
330
1F
100
AcDbEntity
  8
0
  6
Continuous
 62
     7
370
    25
100
AcDbLine
 10
6295.9110037127
 20
5052.7681799928
 30
0.0
 11
6295.5901839075
 21
5052.7681799928
 31
0.0
  0
LINE
  5
2D7
330
1F
100
AcDbEntity
  8
0
  6
Continuous
 62
     7
370
    25
100
AcDbLine
 10
6295.5901839075
 20
5052.7681799928
 30
0.0
 11
6294.989940401
 21
5050.5918407071
 31
0.0
  0
LWPOLYLINE
  5
2D8
330
1F
100
AcDbEntity
  8
0
  6
Continuous
 62
     7
370
    25
100
AcDbPolyline
 90
        3
 70
   128
 43
0.0
 10
6294.989940401
 20
5050.5918407071
 10
6294.9205595053
 20
5050.3274317131
 10
6294.8694046867
 20
5050.1188293434
  0
LWPOLYLINE
  5
2D9
330
1F
100
AcDbEntity
  8
0
  6
Continuous
 62
     7
370
    25
100
AcDbPolyline
 90
        3
 70
   128
 43
0.0
 10
6294.8694046867
 20
5050.1188293434
 10
6294.7986371337
 20
5050.3845124402
 10
6294.7379111803
 20
5050.5918407071
  0
LINE
  5
2DA
330
1F
100
AcDbEntity
  8
0
  6
Continuous
 62
     7
370
    25
100
AcDbLine
 10
6294.7379111803
 20
5050.5918407071
 30
0.0
 11
6294.070703388
 21
5052.7681799928
 31
0.0
  0
LINE
  5
2DB
330
1F
100
AcDbEntity
  8
0
  6
Continuous
 62
     7
370
    25
100
AcDbLine
 10
6294.070703388
 20
5052.7681799928
 30
0.0
 11
6293.7468397517
 21
5052.7681799928
 31
0.0
  0
LINE
  5
2DC
330
1F
100
AcDbEntity
  8
0
  6
Continuous
 62
     7
370
    25
100
AcDbLine
 10
6293.7468397517
 20
5052.7681799928
 30
0.0
 11
6294.6916449465
 21
5049.7681799928
 31
0.0
  0
LINE
  5
2DD
330
1F
100
AcDbEntity
  8
0
  6
Continuous
 62
     7
370
    25
100
AcDbLine
 10
6294.6916449465
 20
5049.7681799928
 30
0.0
 11
6295.0136822842
 21
5049.7681799928
 31
0.0
  0
LINE
  5
2DE
330
1F
100
AcDbEntity
  8
0
  6
Continuous
 62
     7
370
    25
100
AcDbLine
 10
6295.0136822842
 20
5049.7681799928
 30
0.0
 11
6295.9110037127
 21
5052.7681799928
 31
0.0
  0
LINE
  5
2DF
330
1F
100
AcDbEntity
  8
0
  6
Continuous
 62
     7
370
    25
100
AcDbLine
 10
6259.2460280634
 20
5017.5544015837
 30
0.0
 11
6259.2460280634
 21
5014.7681799928
 31
0.0
  0
LINE
  5
2E0
330
1F
100
AcDbEntity
  8
0
  6
Continuous
 62
     7
370
    25
100
AcDbLine
 10
6260.7204598816
 20
5014.7681799928
 30
0.0
 11
6259.2460280634
 21
5017.5544015837
 31
0.0
  0
LINE
  5
2E1
330
1F
100
AcDbEntity
  8
0
  6
Continuous
 62
     7
370
    25
100
AcDbLine
 10
6261.109664427
 20
5014.7681799928
 30
0.0
 11
6260.7204598816
 21
5014.7681799928
 31
0.0
  0
LINE
  5
2E2
330
1F
100
AcDbEntity
  8
0
  6
Continuous
 62
     7
370
    25
100
AcDbLine
 10
6261.109664427
 20
5018.2681799928
 30
0.0
 11
6261.109664427
 21
5014.7681799928
 31
0.0
  0
LINE
  5
2E3
330
1F
100
AcDbEntity
  8
0
  6
Continuous
 62
     7
370
    25
100
AcDbLine
 10
6260.7460280634
 20
5018.2681799928
 30
0.0
 11
6261.109664427
 21
5018.2681799928
 31
0.0
  0
LINE
  5
2E4
330
1F
100
AcDbEntity
  8
0
  6
Continuous
 62
     7
370
    25
100
AcDbLine
 10
6260.7460280634
 20
5015.4784072655
 30
0.0
 11
6260.7460280634
 21
5018.2681799928
 31
0.0
  0
LINE
  5
2E5
330
1F
100
AcDbEntity
  8
0
  6
Continuous
 62
     7
370
    25
100
AcDbLine
 10
6259.2694655634
 20
5018.2681799928
 30
0.0
 11
6260.7460280634
 21
5015.4784072655
 31
0.0
  0
LINE
  5
2E6
330
1F
100
AcDbEntity
  8
0
  6
Continuous
 62
     7
370
    25
100
AcDbLine
 10
6258.8823916997
 20
5018.2681799928
 30
0.0
 11
6259.2694655634
 21
5018.2681799928
 31
0.0
  0
LINE
  5
2E7
330
1F
100
AcDbEntity
  8
0
  6
Continuous
 62
     7
370
    25
100
AcDbLine
 10
6258.8823916997
 20
5014.7681799928
 30
0.0
 11
6258.8823916997
 21
5018.2681799928
 31
0.0
  0
LINE
  5
2E8
330
1F
100
AcDbEntity
  8
0
  6
Continuous
 62
     7
370
    25
100
AcDbLine
 10
6259.2460280634
 20
5014.7681799928
 30
0.0
 11
6258.8823916997
 21
5014.7681799928
 31
0.0
  0
LINE
  5
2E9
330
1F
100
AcDbEntity
  8
0
  6
Continuous
 62
     7
370
    25
100
AcDbLine
 10
6308.5187553361
 20
5054.7681799928
 30
0.0
 11
6239.5187553361
 21
5054.7681799928
 31
0.0
  0
LINE
  5
2EA
330
1F
100
AcDbEntity
  8
0
  6
Continuous
 62
     7
370
    25
100
AcDbLine
 10
6308.5187553361
 20
5013.7681799928
 30
0.0
 11
6239.5187553361
 21
5013.7681799928
 31
0.0
  0
LINE
  5
2EB
330
1F
100
AcDbEntity
  8
0
  6
Continuous
 62
     7
370
    25
100
AcDbLine
 10
6251.0414826088
 20
5015.1772709019
 30
0.0
 11
6251.0414826088
 21
5014.7681799928
 31
0.0
  0
LINE
  5
2EC
330
1F
100
AcDbEntity
  8
0
  6
Continuous
 62
     7
370
    25
100
AcDbLine
 10
6249.5869371543
 20
5015.1772709019
 30
0.0
 11
6251.0414826088
 21
5015.1772709019
 31
0.0
  0
LINE
  5
2ED
330
1F
100
AcDbEntity
  8
0
  6
Continuous
 62
     7
370
    25
100
AcDbLine
 10
6249.5869371543
 20
5018.2681799928
 30
0.0
 11
6249.5869371543
 21
5015.1772709019
 31
0.0
  0
LINE
  5
2EE
330
1F
100
AcDbEntity
  8
0
  6
Continuous
 62
     7
370
    25
100
AcDbLine
 10
6249.2233007906
 20
5018.2681799928
 30
0.0
 11
6249.5869371543
 21
5018.2681799928
 31
0.0
  0
LINE
  5
2EF
330
1F
100
AcDbEntity
  8
0
  6
Continuous
 62
     7
370
    25
100
AcDbLine
 10
6249.2233007906
 20
5014.7681799928
 30
0.0
 11
6249.2233007906
 21
5018.2681799928
 31
0.0
  0
LINE
  5
2F0
330
1F
100
AcDbEntity
  8
0
  6
Continuous
 62
     7
370
    25
100
AcDbLine
 10
6251.0414826088
 20
5014.7681799928
 30
0.0
 11
6249.2233007906
 21
5014.7681799928
 31
0.0
  0
LWPOLYLINE
  5
2F1
330
1F
100
AcDbEntity
  8
0
  6
Continuous
 62
     7
370
    25
100
AcDbPolyline
 90
        3
 70
   128
 43
0.0
 10
6271.1377913253
 20
5044.6623704826
 10
6270.8091981999
 20
5044.3012611539
 10
6270.5973083707
 20
5043.9826829826
  0
ARC
  5
2F2
330
1F
100
AcDbEntity
  8
0
  6
Continuous
 62
     7
370
    25
100
AcDbCircle
 10
6269.7577265567
 20
5046.3995807708
 30
0.0
 40
2.218665894331576
100
AcDbArc
 50
308.4641327998
 51
353.2348702306
  0
ARC
  5
2F3
330
1F
100
AcDbEntity
  8
0
  6
Continuous
 62
     7
370
    25
100
AcDbCircle
 10
6271.0577344211
 20
5046.2129101674
 30
0.0
 40
0.9062930428180616
100
AcDbArc
 50
355.2729063976
 51
88.9348929823
  0
ARC
  5
2F4
330
1F
100
AcDbEntity
  8
0
  6
Continuous
 62
     7
370
    25
100
AcDbCircle
 10
6271.0963772141
 20
5046.1616255748
 30
0.0
 40
0.9576691111972175
100
AcDbArc
 50
91.3041386503
 51
185.2743467066
  0
LINE
  5
2F5
330
1F
100
AcDbEntity
  8
0
  6
Continuous
 62
     7
370
    25
100
AcDbLine
 10
6270.5063992798
 20
5046.0281375281
 30
0.0
 11
6270.1427629162
 21
5046.0735920735
 31
0.0
  0
ARC
  5
2F6
330
1F
100
AcDbEntity
  8
0
  6
Continuous
 62
     7
370
    25
100
AcDbCircle
 10
6271.1260555355
 20
5046.1306937482
 30
0.0
 40
0.6280857055211013
100
AcDbArc
 50
95.9372563111
 51
189.3975513581
  0
ARC
  5
2F7
330
1F
100
AcDbEntity
  8
0
  6
Continuous
 62
     7
370
    25
100
AcDbCircle
 10
6271.0418143889
 20
5046.1977782288
 30
0.0
 40
0.5579649649173272
100
AcDbArc
 50
354.6057699975
 51
88.0205811983
  0
ARC
  5
2F8
330
1F
100
AcDbEntity
  8
0
  6
Continuous
 62
     7
370
    25
100
AcDbCircle
 10
6269.465300537
 20
5046.5793973361
 30
0.0
 40
2.175747267432765
100
AcDbArc
 50
308.3286907049
 51
348.4919897662
  0
ARC
  5
2F9
330
1F
100
AcDbEntity
  8
0
  6
Continuous
 62
     7
370
    25
100
AcDbCircle
 10
6272.040063882
 20
5043.3483373169
 30
0.0
 40
1.955770610791002
100
AcDbArc
 50
128.7974682059
 51
173.3863142525
  0
LINE
  5
2FA
330
1F
100
AcDbEntity
  8
0
  6
Continuous
 62
     7
370
    25
100
AcDbLine
 10
6271.9609447344
 20
5043.5735920735
 30
0.0
 11
6270.0973083707
 21
5043.5735920735
 31
0.0
  0
LINE
  5
2FB
330
1F
100
AcDbEntity
  8
0
  6
Continuous
 62
     7
370
    25
100
AcDbLine
 10
6271.9609447344
 20
5043.9826829826
 30
0.0
 11
6271.9609447344
 21
5043.5735920735
 31
0.0
  0
LINE
  5
2FC
330
1F
100
AcDbEntity
  8
0
  6
Continuous
 62
     7
370
    25
100
AcDbLine
 10
6270.5973083707
 20
5043.9826829826
 30
0.0
 11
6271.9609447344
 21
5043.9826829826
 31
0.0
  0
LWPOLYLINE
  5
2FD
330
1F
100
AcDbEntity
  8
0
  6
Continuous
 62
     7
370
    25
100
AcDbPolyline
 90
        7
 70
   128
 43
0.0
 10
6268.4154901889
 20
5045.322171619
 10
6268.3866186457
 20
5044.7601194302
 10
6268.2730154103
 20
5044.2095786004
 10
6268.1617925452
 20
5043.9512958052
 10
6267.9933398638
 20
5043.726722917
 10
6267.7577016286
 20
5043.5757961108
 10
6267.4815413253
 20
5043.5281375281
  0
ARC
  5
2FE
330
1F
100
AcDbEntity
  8
0
  6
Continuous
 62
     7
370
    25
100
AcDbCircle
 10
6265.6890850591
 20
5045.5192201385
 30
0.0
 40
2.733516608879635
100
AcDbArc
 50
355.8661859353
 51
26.7536790128
  0
ARC
  5
2FF
330
1F
100
AcDbEntity
  8
0
  6
Continuous
 62
     7
370
    25
100
AcDbCircle
 10
6267.4965918727
 20
5046.3914104356
 30
0.0
 40
0.7277161684878766
100
AcDbArc
 50
29.4975951228
 51
90.8495033844
  0
LWPOLYLINE
  5
300
330
1F
100
AcDbEntity
  8
0
  6
Continuous
 62
     7
370
    25
100
AcDbPolyline
 90
        7
 70
   128
 43
0.0
 10
6266.5518538253
 20
5045.322171619
 10
6266.5805033153
 20
5045.8848528045
 10
6266.6935453061
 20
5046.4361074361
 10
6266.8052724896
 20
5046.6945283557
 10
6266.9739065089
 20
5046.9192542008
 10
6267.2095066198
 20
5047.0707893676
 10
6267.4858026889
 20
5047.119046619
  0
LWPOLYLINE
  5
301
330
1F
100
AcDbEntity
  8
0
  6
Continuous
 62
     7
370
    25
100
AcDbPolyline
 90
        6
 70
   128
 43
0.0
 10
6267.4815413253
 20
5043.5281375281
 10
6267.206837729
 20
5043.5801060213
 10
6266.9730612927
 20
5043.7336388046
 10
6266.6843400289
 20
5044.2094928144
 10
6266.5771100959
 20
5044.7605696421
 10
6266.5518538253
 20
5045.322171619
  0
LINE
  5
302
330
1F
100
AcDbEntity
  8
0
  6
Continuous
 62
     7
370
    25
100
AcDbLine
 10
6263.1796947344
 20
5047.119046619
 30
0.0
 11
6263.4154901889
 21
5047.119046619
 31
0.0
  0
LWPOLYLINE
  5
303
330
1F
100
AcDbEntity
  8
0
  6
Continuous
 62
     7
370
    25
100
AcDbPolyline
 90
        3
 70
   128
 43
0.0
 10
6262.324581098
 20
5046.2099557099
 10
6262.8754500687
 20
5046.6541896937
 10
6263.1796947344
 20
5047.119046619
  0
LINE
  5
304
330
1F
100
AcDbEntity
  8
0
  6
Continuous
 62
     7
370
    25
100
AcDbLine
 10
6262.324581098
 20
5045.8008648008
 30
0.0
 11
6262.324581098
 21
5046.2099557099
 31
0.0
  0
LWPOLYLINE
  5
305
330
1F
100
AcDbEntity
  8
0
  6
Continuous
 62
     7
370
    25
100
AcDbPolyline
 90
        3
 70
   128
 43
0.0
 10
6263.0518538253
 20
5046.3463193463
 10
6262.6702102179
 20
5046.0062384005
 10
6262.324581098
 20
5045.8008648008
  0
LINE
  5
306
330
1F
100
AcDbEntity
  8
0
  6
Continuous
 62
     7
370
    25
100
AcDbLine
 10
6263.0518538253
 20
5043.5735920735
 30
0.0
 11
6263.0518538253
 21
5046.3463193463
 31
0.0
  0
LINE
  5
307
330
1F
100
AcDbEntity
  8
0
  6
Continuous
 62
     7
370
    25
100
AcDbLine
 10
6263.4154901889
 20
5043.5735920735
 30
0.0
 11
6263.0518538253
 21
5043.5735920735
 31
0.0
  0
LINE
  5
308
330
1F
100
AcDbEntity
  8
0
  6
Continuous
 62
     7
370
    25
100
AcDbLine
 10
6263.4154901889
 20
5047.119046619
 30
0.0
 11
6263.4154901889
 21
5043.5735920735
 31
0.0
  0
LWPOLYLINE
  5
309
330
1F
100
AcDbEntity
  8
0
  6
Continuous
 62
     7
370
    25
100
AcDbPolyline
 90
        6
 70
   128
 43
0.0
 10
6262.6489360377
 20
5039.1263644217
 10
6262.6686047913
 20
5038.8561356904
 10
6262.7481685756
 20
5038.5978744595
 10
6262.9237037407
 20
5038.3947756304
 10
6263.046499531
 20
5038.338428487
 10
6263.1805918818
 20
5038.3207637724
  0
LWPOLYLINE
  5
30A
330
1F
100
AcDbEntity
  8
0
  6
Continuous
 62
     7
370
    25
100
AcDbPolyline
 90
        6
 70
   128
 43
0.0
 10
6263.1972314922
 20
5039.9051793568
 10
6262.9397893023
 20
5039.8400170695
 10
6262.8361051061
 20
5039.7555004824
 10
6262.7589416342
 20
5039.646035659
 10
6262.6709819966
 20
5039.3935801589
 10
6262.6489360377
 20
5039.1263644217
  0
ARC
  5
30B
330
1F
100
AcDbEntity
  8
0
  6
Continuous
 62
     7
370
    25
100
AcDbCircle
 10
6263.1745492576
 20
5039.4418731627
 30
0.0
 40
0.4638610926144106
100
AcDbArc
 50
5.9050068497
 51
87.1971894114
  0
LINE
  5
30C
330
1F
100
AcDbEntity
  8
0
  6
Continuous
 62
     7
370
    25
100
AcDbLine
 10
6263.8437412325
 20
5039.5415429932
 30
0.0
 11
6263.6359490247
 21
5039.4895949412
 31
0.0
  0
LWPOLYLINE
  5
30D
330
1F
100
AcDbEntity
  8
0
  6
Continuous
 62
     7
370
    25
100
AcDbPolyline
 90
        4
 70
   128
 43
0.0
 10
6263.2057542195
 20
5040.1389455906
 10
6263.464456889
 20
5040.0837289153
 10
6263.6721086191
 20
5039.9198062549
 10
6263.8437412325
 20
5039.5415429932
  0
ARC
  5
30E
330
1F
100
AcDbEntity
  8
0
  6
Continuous
 62
     7
370
    25
100
AcDbCircle
 10
6263.2922019078
 20
5039.2786949132
 30
0.0
 40
0.8645833856247768
100
AcDbArc
 50
95.7384611345
 51
190.1478855405
  0
LWPOLYLINE
  5
30F
330
1F
100
AcDbEntity
  8
0
  6
Continuous
 62
     7
370
    25
100
AcDbPolyline
 90
        6
 70
   128
 43
0.0
 10
6263.1870853883
 20
5038.0869975386
 10
6262.8420125476
 20
5038.1726437718
 10
6262.7032969768
 20
5038.2860448555
 10
6262.5998951441
 20
5038.4327468462
 10
6262.4759645765
 20
5038.7689849187
 10
6262.4411438299
 20
5039.1263644217
  0
ARC
  5
310
330
1F
100
AcDbEntity
  8
0
  6
Continuous
 62
     7
370
    25
100
AcDbCircle
 10
6263.1521773647
 20
5038.8049525545
 30
0.0
 40
0.7188031544783604
100
AcDbArc
 50
272.7836125044
 51
356.5999415406
  0
LINE
  5
311
330
1F
100
AcDbEntity
  8
0
  6
Continuous
 62
     7
370
    25
100
AcDbLine
 10
6263.6619230507
 20
5038.8142702659
 30
0.0
 11
6263.8697152584
 21
5038.7623222139
 31
0.0
  0
LWPOLYLINE
  5
312
330
1F
100
AcDbEntity
  8
0
  6
Continuous
 62
     7
370
    25
100
AcDbPolyline
 90
        4
 70
   128
 43
0.0
 10
6263.1805918818
 20
5038.3207637724
 10
6263.3848591172
 20
5038.3687193063
 10
6263.5436744181
 20
5038.5060570275
 10
6263.6619230507
 20
5038.8142702659
  0
LINE
  5
313
330
1F
100
AcDbEntity
  8
0
  6
Continuous
 62
     7
370
    25
100
AcDbLine
 10
6260.7609490247
 20
5040.1129715646
 30
0.0
 11
6260.1310788948
 21
5038.1129715646
 31
0.0
  0
LINE
  5
314
330
1F
100
AcDbEntity
  8
0
  6
Continuous
 62
     7
370
    25
100
AcDbLine
 10
6260.5450399338
 20
5040.1129715646
 30
0.0
 11
6260.7609490247
 21
5040.1129715646
 31
0.0
  0
LINE
  5
315
330
1F
100
AcDbEntity
  8
0
  6
Continuous
 62
     7
370
    25
100
AcDbLine
 10
6260.100234739
 20
5038.6620787074
 30
0.0
 11
6260.5450399338
 21
5040.1129715646
 31
0.0
  0
LWPOLYLINE
  5
316
330
1F
100
AcDbEntity
  8
0
  6
Continuous
 62
     7
370
    25
100
AcDbPolyline
 90
        3
 70
   128
 43
0.0
 10
6260.0125724013
 20
5038.3467377984
 10
6260.05975077
 20
5038.5238598629
 10
6260.100234739
 20
5038.6620787074
  0
LWPOLYLINE
  5
317
330
1F
100
AcDbEntity
  8
0
  6
Continuous
 62
     7
370
    25
100
AcDbPolyline
 90
        3
 70
   128
 43
0.0
 10
6259.9322152584
 20
5038.6620787074
 10
6259.9784691889
 20
5038.4858060448
 10
6260.0125724013
 20
5038.3467377984
  0
LINE
  5
318
330
1F
100
AcDbEntity
  8
0
  6
Continuous
 62
     7
370
    25
100
AcDbLine
 10
6259.5320529208
 20
5040.1129715646
 30
0.0
 11
6259.9322152584
 21
5038.6620787074
 31
0.0
  0
LINE
  5
319
330
1F
100
AcDbEntity
  8
0
  6
Continuous
 62
     7
370
    25
100
AcDbLine
 10
6259.3181730507
 20
5040.1129715646
 30
0.0
 11
6259.5320529208
 21
5040.1129715646
 31
0.0
  0
LINE
  5
31A
330
1F
100
AcDbEntity
  8
0
  6
Continuous
 62
     7
370
    25
100
AcDbLine
 10
6259.9163873364
 20
5038.1129715646
 30
0.0
 11
6259.3181730507
 21
5040.1129715646
 31
0.0
  0
LINE
  5
31B
330
1F
100
AcDbEntity
  8
0
  6
Continuous
 62
     7
370
    25
100
AcDbLine
 10
6260.1310788948
 20
5038.1129715646
 30
0.0
 11
6259.9163873364
 21
5038.1129715646
 31
0.0
  0
LINE
  5
31C
330
1F
100
AcDbEntity
  8
0
  6
Continuous
 62
     7
370
    25
100
AcDbLine
 10
6257.6359490247
 20
5038.6064780581
 30
0.0
 11
6257.6359490247
 21
5038.1129715646
 31
0.0
  0
LINE
  5
31D
330
1F
100
AcDbEntity
  8
0
  6
Continuous
 62
     7
370
    25
100
AcDbLine
 10
6257.8697152584
 20
5038.6064780581
 30
0.0
 11
6257.6359490247
 21
5038.6064780581
 31
0.0
  0
LINE
  5
31E
330
1F
100
AcDbEntity
  8
0
  6
Continuous
 62
     7
370
    25
100
AcDbLine
 10
6257.8697152584
 20
5038.8402442919
 30
0.0
 11
6257.8697152584
 21
5038.6064780581
 31
0.0
  0
LINE
  5
31F
330
1F
100
AcDbEntity
  8
0
  6
Continuous
 62
     7
370
    25
100
AcDbLine
 10
6257.6359490247
 20
5038.8402442919
 30
0.0
 11
6257.8697152584
 21
5038.8402442919
 31
0.0
  0
LINE
  5
320
330
1F
100
AcDbEntity
  8
0
  6
Continuous
 62
     7
370
    25
100
AcDbLine
 10
6257.6359490247
 20
5040.1389455906
 30
0.0
 11
6257.6359490247
 21
5038.8402442919
 31
0.0
  0
LINE
  5
321
330
1F
100
AcDbEntity
  8
0
  6
Continuous
 62
     7
370
    25
100
AcDbLine
 10
6257.4399262974
 20
5040.1389455906
 30
0.0
 11
6257.6359490247
 21
5040.1389455906
 31
0.0
  0
LINE
  5
322
330
1F
100
AcDbEntity
  8
0
  6
Continuous
 62
     7
370
    25
100
AcDbLine
 10
6256.7268581156
 20
5038.8402442919
 30
0.0
 11
6257.4399262974
 21
5040.1389455906
 31
0.0
  0
LINE
  5
323
330
1F
100
AcDbEntity
  8
0
  6
Continuous
 62
     7
370
    25
100
AcDbLine
 10
6256.7268581156
 20
5038.6064780581
 30
0.0
 11
6256.7268581156
 21
5038.8402442919
 31
0.0
  0
LINE
  5
324
330
1F
100
AcDbEntity
  8
0
  6
Continuous
 62
     7
370
    25
100
AcDbLine
 10
6257.4281568169
 20
5038.6064780581
 30
0.0
 11
6256.7268581156
 21
5038.6064780581
 31
0.0
  0
LINE
  5
325
330
1F
100
AcDbEntity
  8
0
  6
Continuous
 62
     7
370
    25
100
AcDbLine
 10
6257.4281568169
 20
5038.1129715646
 30
0.0
 11
6257.4281568169
 21
5038.6064780581
 31
0.0
  0
LINE
  5
326
330
1F
100
AcDbEntity
  8
0
  6
Continuous
 62
     7
370
    25
100
AcDbLine
 10
6257.6359490247
 20
5038.1129715646
 30
0.0
 11
6257.4281568169
 21
5038.1129715646
 31
0.0
  0
LINE
  5
327
330
1F
100
AcDbEntity
  8
0
  6
Continuous
 62
     7
370
    25
100
AcDbLine
 10
6255.3762087649
 20
5038.9441403958
 30
0.0
 11
6255.3762087649
 21
5038.710374162
 31
0.0
  0
LINE
  5
328
330
1F
100
AcDbEntity
  8
0
  6
Continuous
 62
     7
370
    25
100
AcDbLine
 10
6254.7528321416
 20
5038.9441403958
 30
0.0
 11
6255.3762087649
 21
5038.9441403958
 31
0.0
  0
LINE
  5
329
330
1F
100
AcDbEntity
  8
0
  6
Continuous
 62
     7
370
    25
100
AcDbLine
 10
6254.7528321416
 20
5038.710374162
 30
0.0
 11
6254.7528321416
 21
5038.9441403958
 31
0.0
  0
LINE
  5
32A
330
1F
100
AcDbEntity
  8
0
  6
Continuous
 62
     7
370
    25
100
AcDbLine
 10
6255.3762087649
 20
5038.710374162
 30
0.0
 11
6254.7528321416
 21
5038.710374162
 31
0.0
  0
LWPOLYLINE
  5
32B
330
1F
100
AcDbEntity
  8
0
  6
Continuous
 62
     7
370
    25
100
AcDbPolyline
 90
        6
 70
   128
 43
0.0
 10
6247.9476373364
 20
5038.3207637724
 10
6248.1677065104
 20
5038.36185142
 10
6248.2605241642
 20
5038.4249108785
 10
6248.3239465612
 20
5038.517451557
 10
6248.3776142925
 20
5038.7356717253
 10
6248.3891957779
 20
5038.9607800061
  0
LWPOLYLINE
  5
32C
330
1F
100
AcDbEntity
  8
0
  6
Continuous
 62
     7
370
    25
100
AcDbPolyline
 90
        6
 70
   128
 43
0.0
 10
6247.5320529208
 20
5038.9607800061
 10
6247.5411199854
 20
5038.7417633568
 10
6247.5902138759
 20
5038.5290780396
 10
6247.6503491276
 20
5038.4377472009
 10
6247.7361881569
 20
5038.37013078
 10
6247.9476373364
 20
5038.3207637724
  0
LINE
  5
32D
330
1F
100
AcDbEntity
  8
0
  6
Continuous
 62
     7
370
    25
100
AcDbLine
 10
6247.5320529208
 20
5040.1129715646
 30
0.0
 11
6247.5320529208
 21
5038.9607800061
 31
0.0
  0
LINE
  5
32E
330
1F
100
AcDbEntity
  8
0
  6
Continuous
 62
     7
370
    25
100
AcDbLine
 10
6247.324260713
 20
5040.1129715646
 30
0.0
 11
6247.5320529208
 21
5040.1129715646
 31
0.0
  0
LINE
  5
32F
330
1F
100
AcDbEntity
  8
0
  6
Continuous
 62
     7
370
    25
100
AcDbLine
 10
6247.324260713
 20
5038.9619975386
 30
0.0
 11
6247.324260713
 21
5040.1129715646
 31
0.0
  0
LWPOLYLINE
  5
330
330
1F
100
AcDbEntity
  8
0
  6
Continuous
 62
     7
370
    25
100
AcDbPolyline
 90
        6
 70
   128
 43
0.0
 10
6247.9634652584
 20
5038.0869975386
 10
6247.6594388935
 20
5038.1456240078
 10
6247.529738461
 20
5038.2312094291
 10
6247.4342281697
 20
5038.3537290785
 10
6247.3444797953
 20
5038.6509737712
 10
6247.324260713
 20
5038.9619975386
  0
LWPOLYLINE
  5
331
330
1F
100
AcDbEntity
  8
0
  6
Continuous
 62
     7
370
    25
100
AcDbPolyline
 90
        6
 70
   128
 43
0.0
 10
6248.5969879857
 20
5038.9619975386
 10
6248.5769860019
 20
5038.65322947
 10
6248.4862352754
 20
5038.35898854
 10
6248.3906076544
 20
5038.2378655636
 10
6248.2639921483
 20
5038.149732563
 10
6247.9634652584
 20
5038.0869975386
  0
LINE
  5
332
330
1F
100
AcDbEntity
  8
0
  6
Continuous
 62
     7
370
    25
100
AcDbLine
 10
6248.5969879857
 20
5040.1129715646
 30
0.0
 11
6248.5969879857
 21
5038.9619975386
 31
0.0
  0
LINE
  5
333
330
1F
100
AcDbEntity
  8
0
  6
Continuous
 62
     7
370
    25
100
AcDbLine
 10
6248.3891957779
 20
5040.1129715646
 30
0.0
 11
6248.5969879857
 21
5040.1129715646
 31
0.0
  0
LINE
  5
334
330
1F
100
AcDbEntity
  8
0
  6
Continuous
 62
     7
370
    25
100
AcDbLine
 10
6248.3891957779
 20
5038.9607800061
 30
0.0
 11
6248.3891957779
 21
5040.1129715646
 31
0.0
  0
LINE
  5
335
330
1F
100
AcDbEntity
  8
0
  6
Continuous
 62
     7
370
    25
100
AcDbLine
 10
6250.6229620117
 20
5039.5675170191
 30
0.0
 11
6250.6229620117
 21
5039.2818027334
 31
0.0
  0
LINE
  5
336
330
1F
100
AcDbEntity
  8
0
  6
Continuous
 62
     7
370
    25
100
AcDbLine
 10
6250.4151698039
 20
5039.5675170191
 30
0.0
 11
6250.6229620117
 21
5039.5675170191
 31
0.0
  0
LINE
  5
337
330
1F
100
AcDbEntity
  8
0
  6
Continuous
 62
     7
370
    25
100
AcDbLine
 10
6250.4151698039
 20
5039.2818027334
 30
0.0
 11
6250.4151698039
 21
5039.5675170191
 31
0.0
  0
LINE
  5
338
330
1F
100
AcDbEntity
  8
0
  6
Continuous
 62
     7
370
    25
100
AcDbLine
 10
6250.6229620117
 20
5039.2818027334
 30
0.0
 11
6250.4151698039
 21
5039.2818027334
 31
0.0
  0
LINE
  5
339
330
1F
100
AcDbEntity
  8
0
  6
Continuous
 62
     7
370
    25
100
AcDbLine
 10
6251.5791308429
 20
5040.1389455906
 30
0.0
 11
6251.7138711026
 21
5040.1389455906
 31
0.0
  0
LWPOLYLINE
  5
33A
330
1F
100
AcDbEntity
  8
0
  6
Continuous
 62
     7
370
    25
100
AcDbPolyline
 90
        3
 70
   128
 43
0.0
 10
6251.0904944792
 20
5039.6194650711
 10
6251.4052767482
 20
5039.8733130618
 10
6251.5791308429
 20
5040.1389455906
  0
LINE
  5
33B
330
1F
100
AcDbEntity
  8
0
  6
Continuous
 62
     7
370
    25
100
AcDbLine
 10
6251.0904944792
 20
5039.3856988373
 30
0.0
 11
6251.0904944792
 21
5039.6194650711
 31
0.0
  0
LWPOLYLINE
  5
33C
330
1F
100
AcDbEntity
  8
0
  6
Continuous
 62
     7
370
    25
100
AcDbPolyline
 90
        3
 70
   128
 43
0.0
 10
6251.5060788948
 20
5039.697387149
 10
6251.2879968335
 20
5039.50305518
 10
6251.0904944792
 20
5039.3856988373
  0
LINE
  5
33D
330
1F
100
AcDbEntity
  8
0
  6
Continuous
 62
     7
370
    25
100
AcDbLine
 10
6251.5060788948
 20
5038.1129715646
 30
0.0
 11
6251.5060788948
 21
5039.697387149
 31
0.0
  0
LINE
  5
33E
330
1F
100
AcDbEntity
  8
0
  6
Continuous
 62
     7
370
    25
100
AcDbLine
 10
6251.7138711026
 20
5038.1129715646
 30
0.0
 11
6251.5060788948
 21
5038.1129715646
 31
0.0
  0
LINE
  5
33F
330
1F
100
AcDbEntity
  8
0
  6
Continuous
 62
     7
370
    25
100
AcDbLine
 10
6251.7138711026
 20
5040.1389455906
 30
0.0
 11
6251.7138711026
 21
5038.1129715646
 31
0.0
  0
LWPOLYLINE
  5
340
330
1F
100
AcDbEntity
  8
0
  6
Continuous
 62
     7
370
    25
100
AcDbPolyline
 90
        5
 70
   128
 43
0.0
 10
6254.5710139597
 20
5039.1121598763
 10
6254.4895998005
 20
5038.4763924371
 10
6254.3297852025
 20
5038.2004749037
 10
6254.1951347824
 20
5038.1142310145
 10
6254.0373288948
 20
5038.0869975386
  0
LWPOLYLINE
  5
341
330
1F
100
AcDbEntity
  8
0
  6
Continuous
 62
     7
370
    25
100
AcDbPolyline
 90
        3
 70
   128
 43
0.0
 10
6254.4078646091
 20
5039.9279066295
 10
6254.5489348848
 20
5039.4816950555
 10
6254.5710139597
 20
5039.1121598763
  0
ARC
  5
342
330
1F
100
AcDbEntity
  8
0
  6
Continuous
 62
     7
370
    25
100
AcDbCircle
 10
6254.0459292077
 20
5039.7231534858
 30
0.0
 40
0.4158378105617521
100
AcDbArc
 50
29.4975951227
 51
90.8495033849
  0
LWPOLYLINE
  5
343
330
1F
100
AcDbEntity
  8
0
  6
Continuous
 62
     7
370
    25
100
AcDbPolyline
 90
        6
 70
   128
 43
0.0
 10
6253.5060788948
 20
5039.1121598763
 10
6253.522450032
 20
5039.4336919823
 10
6253.5870454553
 20
5039.7486946289
 10
6253.7472518569
 20
5040.0247784944
 10
6253.8818804917
 20
5040.1113700183
 10
6254.0397639597
 20
5040.1389455906
  0
LWPOLYLINE
  5
344
330
1F
100
AcDbEntity
  8
0
  6
Continuous
 62
     7
370
    25
100
AcDbPolyline
 90
        6
 70
   128
 43
0.0
 10
6254.0373288948
 20
5038.0869975386
 10
6253.8803554112
 20
5038.1166938204
 10
6253.7467688762
 20
5038.2044268395
 10
6253.5817852969
 20
5038.4763434165
 10
6253.5205110495
 20
5038.7912444609
 10
6253.5060788948
 20
5039.1121598763
  0
LINE
  5
345
330
1F
100
AcDbEntity
  8
0
  6
Continuous
 62
     7
370
    25
100
AcDbLine
 10
6284.625289427
 20
5052.7681799928
 30
0.0
 11
6284.3044696218
 21
5052.7681799928
 31
0.0
  0
LINE
  5
346
330
1F
100
AcDbEntity
  8
0
  6
Continuous
 62
     7
370
    25
100
AcDbLine
 10
6284.3044696218
 20
5052.7681799928
 30
0.0
 11
6283.7042261153
 21
5050.5918407071
 31
0.0
  0
LWPOLYLINE
  5
347
330
1F
100
AcDbEntity
  8
0
  6
Continuous
 62
     7
370
    25
100
AcDbPolyline
 90
        3
 70
   128
 43
0.0
 10
6283.7042261153
 20
5050.5918407071
 10
6283.6348452196
 20
5050.3274317131
 10
6283.583690401
 20
5050.1188293434
  0
LWPOLYLINE
  5
348
330
1F
100
AcDbEntity
  8
0
  6
Continuous
 62
     7
370
    25
100
AcDbPolyline
 90
        3
 70
   128
 43
0.0
 10
6283.583690401
 20
5050.1188293434
 10
6283.512922848
 20
5050.3845124402
 10
6283.4521968945
 20
5050.5918407071
  0
LINE
  5
349
330
1F
100
AcDbEntity
  8
0
  6
Continuous
 62
     7
370
    25
100
AcDbLine
 10
6283.4521968945
 20
5050.5918407071
 30
0.0
 11
6282.7849891023
 21
5052.7681799928
 31
0.0
  0
LINE
  5
34A
330
1F
100
AcDbEntity
  8
0
  6
Continuous
 62
     7
370
    25
100
AcDbLine
 10
6282.7849891023
 20
5052.7681799928
 30
0.0
 11
6282.461125466
 21
5052.7681799928
 31
0.0
  0
LINE
  5
34B
330
1F
100
AcDbEntity
  8
0
  6
Continuous
 62
     7
370
    25
100
AcDbLine
 10
6282.461125466
 20
5052.7681799928
 30
0.0
 11
6283.4059306608
 21
5049.7681799928
 31
0.0
  0
LINE
  5
34C
330
1F
100
AcDbEntity
  8
0
  6
Continuous
 62
     7
370
    25
100
AcDbLine
 10
6283.4059306608
 20
5049.7681799928
 30
0.0
 11
6283.7279679984
 21
5049.7681799928
 31
0.0
  0
LINE
  5
34D
330
1F
100
AcDbEntity
  8
0
  6
Continuous
 62
     7
370
    25
100
AcDbLine
 10
6283.7279679984
 20
5049.7681799928
 30
0.0
 11
6284.625289427
 21
5052.7681799928
 31
0.0
  0
LINE
  5
34E
330
1F
100
AcDbEntity
  8
0
  6
Continuous
 62
     7
370
    25
100
AcDbLine
 10
6287.3629111803
 20
5051.0928553174
 30
0.0
 11
6288.0252488426
 21
5051.0928553174
 31
0.0
  0
LINE
  5
34F
330
1F
100
AcDbEntity
  8
0
  6
Continuous
 62
     7
370
    25
100
AcDbLine
 10
6288.0252488426
 20
5051.0928553174
 30
0.0
 11
6288.0252488426
 21
5051.4435046681
 31
0.0
  0
LINE
  5
350
330
1F
100
AcDbEntity
  8
0
  6
Continuous
 62
     7
370
    25
100
AcDbLine
 10
6288.0252488426
 20
5051.4435046681
 30
0.0
 11
6287.3629111803
 21
5051.4435046681
 31
0.0
  0
LINE
  5
351
330
1F
100
AcDbEntity
  8
0
  6
Continuous
 62
     7
370
    25
100
AcDbLine
 10
6287.3629111803
 20
5051.4435046681
 30
0.0
 11
6287.3629111803
 21
5052.2616864863
 31
0.0
  0
LINE
  5
352
330
1F
100
AcDbEntity
  8
0
  6
Continuous
 62
     7
370
    25
100
AcDbLine
 10
6287.3629111803
 20
5052.2616864863
 30
0.0
 11
6287.0512228686
 21
5052.2616864863
 31
0.0
  0
LINE
  5
353
330
1F
100
AcDbEntity
  8
0
  6
Continuous
 62
     7
370
    25
100
AcDbLine
 10
6287.0512228686
 20
5052.2616864863
 30
0.0
 11
6287.0512228686
 21
5051.4435046681
 31
0.0
  0
LINE
  5
354
330
1F
100
AcDbEntity
  8
0
  6
Continuous
 62
     7
370
    25
100
AcDbLine
 10
6287.0512228686
 20
5051.4435046681
 30
0.0
 11
6286.3888852062
 21
5051.4435046681
 31
0.0
  0
LINE
  5
355
330
1F
100
AcDbEntity
  8
0
  6
Continuous
 62
     7
370
    25
100
AcDbLine
 10
6286.3888852062
 20
5051.4435046681
 30
0.0
 11
6286.3888852062
 21
5051.0928553174
 31
0.0
  0
LINE
  5
356
330
1F
100
AcDbEntity
  8
0
  6
Continuous
 62
     7
370
    25
100
AcDbLine
 10
6286.3888852062
 20
5051.0928553174
 30
0.0
 11
6287.0512228686
 21
5051.0928553174
 31
0.0
  0
LINE
  5
357
330
1F
100
AcDbEntity
  8
0
  6
Continuous
 62
     7
370
    25
100
AcDbLine
 10
6287.0512228686
 20
5051.0928553174
 30
0.0
 11
6287.0512228686
 21
5050.2746734993
 31
0.0
  0
LINE
  5
358
330
1F
100
AcDbEntity
  8
0
  6
Continuous
 62
     7
370
    25
100
AcDbLine
 10
6287.0512228686
 20
5050.2746734993
 30
0.0
 11
6287.3629111803
 21
5050.2746734993
 31
0.0
  0
LINE
  5
359
330
1F
100
AcDbEntity
  8
0
  6
Continuous
 62
     7
370
    25
100
AcDbLine
 10
6287.3629111803
 20
5050.2746734993
 30
0.0
 11
6287.3629111803
 21
5051.0928553174
 31
0.0
  0
LINE
  5
35A
330
1F
100
AcDbEntity
  8
0
  6
Continuous
 62
     7
370
    25
100
AcDbLine
 10
6290.4110037127
 20
5052.7681799928
 30
0.0
 11
6290.0901839075
 21
5052.7681799928
 31
0.0
  0
LINE
  5
35B
330
1F
100
AcDbEntity
  8
0
  6
Continuous
 62
     7
370
    25
100
AcDbLine
 10
6290.0901839075
 20
5052.7681799928
 30
0.0
 11
6289.489940401
 21
5050.5918407071
 31
0.0
  0
LWPOLYLINE
  5
35C
330
1F
100
AcDbEntity
  8
0
  6
Continuous
 62
     7
370
    25
100
AcDbPolyline
 90
        3
 70
   128
 43
0.0
 10
6289.489940401
 20
5050.5918407071
 10
6289.4205595053
 20
5050.3274317131
 10
6289.3694046867
 20
5050.1188293434
  0
LWPOLYLINE
  5
35D
330
1F
100
AcDbEntity
  8
0
  6
Continuous
 62
     7
370
    25
100
AcDbPolyline
 90
        3
 70
   128
 43
0.0
 10
6289.3694046867
 20
5050.1188293434
 10
6289.2986371337
 20
5050.3845124402
 10
6289.2379111803
 20
5050.5918407071
  0
LINE
  5
35E
330
1F
100
AcDbEntity
  8
0
  6
Continuous
 62
     7
370
    25
100
AcDbLine
 10
6289.2379111803
 20
5050.5918407071
 30
0.0
 11
6288.570703388
 21
5052.7681799928
 31
0.0
  0
LINE
  5
35F
330
1F
100
AcDbEntity
  8
0
  6
Continuous
 62
     7
370
    25
100
AcDbLine
 10
6288.570703388
 20
5052.7681799928
 30
0.0
 11
6288.2468397517
 21
5052.7681799928
 31
0.0
  0
LINE
  5
360
330
1F
100
AcDbEntity
  8
0
  6
Continuous
 62
     7
370
    25
100
AcDbLine
 10
6288.2468397517
 20
5052.7681799928
 30
0.0
 11
6289.1916449465
 21
5049.7681799928
 31
0.0
  0
LINE
  5
361
330
1F
100
AcDbEntity
  8
0
  6
Continuous
 62
     7
370
    25
100
AcDbLine
 10
6289.1916449465
 20
5049.7681799928
 30
0.0
 11
6289.5136822842
 21
5049.7681799928
 31
0.0
  0
LINE
  5
362
330
1F
100
AcDbEntity
  8
0
  6
Continuous
 62
     7
370
    25
100
AcDbLine
 10
6289.5136822842
 20
5049.7681799928
 30
0.0
 11
6290.4110037127
 21
5052.7681799928
 31
0.0
  0
LINE
  5
363
330
1F
100
AcDbEntity
  8
0
  6
Continuous
 62
     7
370
    25
100
AcDbLine
 10
6292.8629111803
 20
5051.0928553174
 30
0.0
 11
6293.5252488426
 21
5051.0928553174
 31
0.0
  0
LINE
  5
364
330
1F
100
AcDbEntity
  8
0
  6
Continuous
 62
     7
370
    25
100
AcDbLine
 10
6293.5252488426
 20
5051.0928553174
 30
0.0
 11
6293.5252488426
 21
5051.4435046681
 31
0.0
  0
LINE
  5
365
330
1F
100
AcDbEntity
  8
0
  6
Continuous
 62
     7
370
    25
100
AcDbLine
 10
6293.5252488426
 20
5051.4435046681
 30
0.0
 11
6292.8629111803
 21
5051.4435046681
 31
0.0
  0
LINE
  5
366
330
1F
100
AcDbEntity
  8
0
  6
Continuous
 62
     7
370
    25
100
AcDbLine
 10
6292.8629111803
 20
5051.4435046681
 30
0.0
 11
6292.8629111803
 21
5052.2616864863
 31
0.0
  0
LINE
  5
367
330
1F
100
AcDbEntity
  8
0
  6
Continuous
 62
     7
370
    25
100
AcDbLine
 10
6292.8629111803
 20
5052.2616864863
 30
0.0
 11
6292.5512228686
 21
5052.2616864863
 31
0.0
  0
LINE
  5
368
330
1F
100
AcDbEntity
  8
0
  6
Continuous
 62
     7
370
    25
100
AcDbLine
 10
6292.5512228686
 20
5052.2616864863
 30
0.0
 11
6292.5512228686
 21
5051.4435046681
 31
0.0
  0
LINE
  5
369
330
1F
100
AcDbEntity
  8
0
  6
Continuous
 62
     7
370
    25
100
AcDbLine
 10
6292.5512228686
 20
5051.4435046681
 30
0.0
 11
6291.8888852062
 21
5051.4435046681
 31
0.0
  0
LINE
  5
36A
330
1F
100
AcDbEntity
  8
0
  6
Continuous
 62
     7
370
    25
100
AcDbLine
 10
6291.8888852062
 20
5051.4435046681
 30
0.0
 11
6291.8888852062
 21
5051.0928553174
 31
0.0
  0
LINE
  5
36B
330
1F
100
AcDbEntity
  8
0
  6
Continuous
 62
     7
370
    25
100
AcDbLine
 10
6291.8888852062
 20
5051.0928553174
 30
0.0
 11
6292.5512228686
 21
5051.0928553174
 31
0.0
  0
LINE
  5
36C
330
1F
100
AcDbEntity
  8
0
  6
Continuous
 62
     7
370
    25
100
AcDbLine
 10
6292.5512228686
 20
5051.0928553174
 30
0.0
 11
6292.5512228686
 21
5050.2746734993
 31
0.0
  0
LINE
  5
36D
330
1F
100
AcDbEntity
  8
0
  6
Continuous
 62
     7
370
    25
100
AcDbLine
 10
6292.5512228686
 20
5050.2746734993
 30
0.0
 11
6292.8629111803
 21
5050.2746734993
 31
0.0
  0
LINE
  5
36E
330
1F
100
AcDbEntity
  8
0
  6
Continuous
 62
     7
370
    25
100
AcDbLine
 10
6292.8629111803
 20
5050.2746734993
 30
0.0
 11
6292.8629111803
 21
5051.0928553174
 31
0.0
  0
LINE
  5
36F
330
1F
100
AcDbEntity
  8
0
  6
Continuous
 62
     7
370
    25
100
AcDbLine
 10
6244.337247726
 20
5039.705098188
 30
0.0
 11
6244.337247726
 21
5038.1129715646
 31
0.0
  0
LINE
  5
370
330
1F
100
AcDbEntity
  8
0
  6
Continuous
 62
     7
370
    25
100
AcDbLine
 10
6245.1797801935
 20
5038.1129715646
 30
0.0
 11
6244.337247726
 21
5039.705098188
 31
0.0
  0
LINE
  5
371
330
1F
100
AcDbEntity
  8
0
  6
Continuous
 62
     7
370
    25
100
AcDbLine
 10
6245.4021827909
 20
5038.1129715646
 30
0.0
 11
6245.1797801935
 21
5038.1129715646
 31
0.0
  0
LINE
  5
372
330
1F
100
AcDbEntity
  8
0
  6
Continuous
 62
     7
370
    25
100
AcDbLine
 10
6245.4021827909
 20
5040.1129715646
 30
0.0
 11
6245.4021827909
 21
5038.1129715646
 31
0.0
  0
LINE
  5
373
330
1F
100
AcDbEntity
  8
0
  6
Continuous
 62
     7
370
    25
100
AcDbLine
 10
6245.1943905831
 20
5040.1129715646
 30
0.0
 11
6245.4021827909
 21
5040.1129715646
 31
0.0
  0
LINE
  5
374
330
1F
100
AcDbEntity
  8
0
  6
Continuous
 62
     7
370
    25
100
AcDbLine
 10
6245.1943905831
 20
5038.5188157204
 30
0.0
 11
6245.1943905831
 21
5040.1129715646
 31
0.0
  0
LINE
  5
375
330
1F
100
AcDbEntity
  8
0
  6
Continuous
 62
     7
370
    25
100
AcDbLine
 10
6244.3506405831
 20
5040.1129715646
 30
0.0
 11
6245.1943905831
 21
5038.5188157204
 31
0.0
  0
LINE
  5
376
330
1F
100
AcDbEntity
  8
0
  6
Continuous
 62
     7
370
    25
100
AcDbLine
 10
6244.1294555182
 20
5040.1129715646
 30
0.0
 11
6244.3506405831
 21
5040.1129715646
 31
0.0
  0
LINE
  5
377
330
1F
100
AcDbEntity
  8
0
  6
Continuous
 62
     7
370
    25
100
AcDbLine
 10
6244.1294555182
 20
5038.1129715646
 30
0.0
 11
6244.1294555182
 21
5040.1129715646
 31
0.0
  0
LINE
  5
378
330
1F
100
AcDbEntity
  8
0
  6
Continuous
 62
     7
370
    25
100
AcDbLine
 10
6244.337247726
 20
5038.1129715646
 30
0.0
 11
6244.1294555182
 21
5038.1129715646
 31
0.0
  0
LINE
  5
379
330
1F
100
AcDbEntity
  8
0
  6
Continuous
 62
     7
370
    25
100
AcDbLine
 10
6307.2818592378
 20
5047.2533602028
 30
0.0
 11
6307.2818592378
 21
5046.9676459171
 31
0.0
  0
LINE
  5
37A
330
1F
100
AcDbEntity
  8
0
  6
Continuous
 62
     7
370
    25
100
AcDbLine
 10
6307.07406703
 20
5047.2533602028
 30
0.0
 11
6307.2818592378
 21
5047.2533602028
 31
0.0
  0
LINE
  5
37B
330
1F
100
AcDbEntity
  8
0
  6
Continuous
 62
     7
370
    25
100
AcDbLine
 10
6307.07406703
 20
5046.9676459171
 30
0.0
 11
6307.07406703
 21
5047.2533602028
 31
0.0
  0
LINE
  5
37C
330
1F
100
AcDbEntity
  8
0
  6
Continuous
 62
     7
370
    25
100
AcDbLine
 10
6307.2818592378
 20
5046.9676459171
 30
0.0
 11
6307.07406703
 21
5046.9676459171
 31
0.0
  0
LWPOLYLINE
  5
37D
330
1F
100
AcDbEntity
  8
0
  6
Continuous
 62
     7
370
    25
100
AcDbPolyline
 90
        5
 70
   128
 43
0.0
 10
6306.6021955196
 20
5050.5104689538
 10
6306.5729186607
 20
5050.2127753135
 10
6306.4519796863
 20
5049.9412038763
 10
6306.2717377167
 20
5049.7925846871
 10
6306.0437539612
 20
5049.7422059668
  0
LWPOLYLINE
  5
37E
330
1F
100
AcDbEntity
  8
0
  6
Continuous
 62
     7
370
    25
100
AcDbPolyline
 90
        5
 70
   128
 43
0.0
 10
6306.0437539612
 20
5051.2486994733
 10
6306.233488573
 20
5051.2138233376
 10
6306.3951438809
 20
5051.1086011618
 10
6306.5114992717
 20
5050.9544018074
 10
6306.6021955196
 20
5050.5104689538
  0
ARC
  5
37F
330
1F
100
AcDbEntity
  8
0
  6
Continuous
 62
     7
370
    25
100
AcDbCircle
 10
6306.1059359839
 20
5050.6189671228
 30
0.0
 40
0.63279494083715
100
AcDbArc
 50
95.6393091275
 51
191.2557453682
  0
LWPOLYLINE
  5
380
330
1F
100
AcDbEntity
  8
0
  6
Continuous
 62
     7
370
    25
100
AcDbPolyline
 90
        5
 70
   128
 43
0.0
 10
6306.0437539612
 20
5049.7422059668
 10
6305.8514849891
 20
5049.7779748576
 10
6305.6883219894
 20
5049.8858386281
 10
6305.5728422274
 20
5050.0440289117
 10
6305.4853124027
 20
5050.49545272
  0
LINE
  5
381
330
1F
100
AcDbEntity
  8
0
  6
Continuous
 62
     7
370
    25
100
AcDbLine
 10
6306.1909501469
 20
5048.9676459171
 30
0.0
 11
6306.1909501469
 21
5046.9676459171
 31
0.0
  0
LINE
  5
382
330
1F
100
AcDbEntity
  8
0
  6
Continuous
 62
     7
370
    25
100
AcDbLine
 10
6305.9571839131
 20
5048.9676459171
 30
0.0
 11
6306.1909501469
 21
5048.9676459171
 31
0.0
  0
LINE
  5
383
330
1F
100
AcDbEntity
  8
0
  6
Continuous
 62
     7
370
    25
100
AcDbLine
 10
6305.9571839131
 20
5048.2432140989
 30
0.0
 11
6305.9571839131
 21
5048.9676459171
 31
0.0
  0
ARC
  5
384
330
1F
100
AcDbEntity
  8
0
  6
Continuous
 62
     7
370
    25
100
AcDbCircle
 10
6305.6308476623
 20
5048.0861165138
 30
0.0
 40
0.3621808937971863
100
AcDbArc
 50
25.7060659332
 51
88.4529960401
  0
LWPOLYLINE
  5
385
330
1F
100
AcDbEntity
  8
0
  6
Continuous
 62
     7
370
    25
100
AcDbPolyline
 90
        6
 70
   128
 43
0.0
 10
6305.1519891079
 20
5047.6949186443
 10
6305.1724292704
 20
5047.9440696511
 10
6305.2488617382
 20
5048.1815535053
 10
6305.405697498
 20
5048.373366905
 10
6305.5172554043
 20
5048.4293508838
 10
6305.6406254716
 20
5048.4481653976
  0
LWPOLYLINE
  5
386
330
1F
100
AcDbEntity
  8
0
  6
Continuous
 62
     7
370
    25
100
AcDbPolyline
 90
        5
 70
   128
 43
0.0
 10
6305.6617293677
 20
5046.9416718911
 10
6305.4798169674
 20
5046.9851516195
 10
6305.3332004381
 20
5047.1023559296
 10
6305.2312855652
 20
5047.2604590163
 10
6305.1519891079
 20
5047.6949186443
  0
LWPOLYLINE
  5
387
330
1F
100
AcDbEntity
  8
0
  6
Continuous
 62
     7
370
    25
100
AcDbPolyline
 90
        3
 70
   128
 43
0.0
 10
6305.9831579391
 20
5047.162856956
 10
6305.8336458253
 20
5046.9911427772
 10
6305.6617293677
 20
5046.9416718911
  0
LINE
  5
388
330
1F
100
AcDbEntity
  8
0
  6
Continuous
 62
     7
370
    25
100
AcDbLine
 10
6305.9831579391
 20
5046.9676459171
 30
0.0
 11
6305.9831579391
 21
5047.162856956
 31
0.0
  0
LINE
  5
389
330
1F
100
AcDbEntity
  8
0
  6
Continuous
 62
     7
370
    25
100
AcDbLine
 10
6306.1909501469
 20
5046.9676459171
 30
0.0
 11
6305.9831579391
 21
5046.9676459171
 31
0.0
  0
LINE
  5
38A
330
1F
100
AcDbEntity
  8
0
  6
Continuous
 62
     7
370
    25
100
AcDbLine
 10
6253.1684165571
 20
5036.5675170191
 30
0.0
 11
6253.1684165571
 21
5036.2818027334
 31
0.0
  0
LINE
  5
38B
330
1F
100
AcDbEntity
  8
0
  6
Continuous
 62
     7
370
    25
100
AcDbLine
 10
6252.9606243494
 20
5036.5675170191
 30
0.0
 11
6253.1684165571
 21
5036.5675170191
 31
0.0
  0
LINE
  5
38C
330
1F
100
AcDbEntity
  8
0
  6
Continuous
 62
     7
370
    25
100
AcDbLine
 10
6252.9606243494
 20
5036.2818027334
 30
0.0
 11
6252.9606243494
 21
5036.5675170191
 31
0.0
  0
LINE
  5
38D
330
1F
100
AcDbEntity
  8
0
  6
Continuous
 62
     7
370
    25
100
AcDbLine
 10
6253.1684165571
 20
5036.2818027334
 30
0.0
 11
6252.9606243494
 21
5036.2818027334
 31
0.0
  0
LWPOLYLINE
  5
38E
330
1F
100
AcDbEntity
  8
0
  6
Continuous
 62
     7
370
    25
100
AcDbPolyline
 90
        3
 70
   128
 43
0.0
 10
6254.1006405831
 20
5035.7351306555
 10
6253.9128730829
 20
5035.5287824677
 10
6253.7917931805
 20
5035.3467377984
  0
ARC
  5
38F
330
1F
100
AcDbEntity
  8
0
  6
Continuous
 62
     7
370
    25
100
AcDbCircle
 10
6253.3120321439
 20
5036.7278222487
 30
0.0
 40
1.267809082486389
100
AcDbArc
 50
308.4641328001
 51
353.2348702305
  0
ARC
  5
390
330
1F
100
AcDbEntity
  8
0
  6
Continuous
 62
     7
370
    25
100
AcDbCircle
 10
6254.0548937807
 20
5036.6211533325
 30
0.0
 40
0.5178817387524333
100
AcDbArc
 50
355.2729063976
 51
88.9348929823
  0
ARC
  5
391
330
1F
100
AcDbEntity
  8
0
  6
Continuous
 62
     7
370
    25
100
AcDbCircle
 10
6254.0769753767
 20
5036.591847851
 30
0.0
 40
0.547239492112557
100
AcDbArc
 50
91.3041386502
 51
185.2743467067
  0
LINE
  5
392
330
1F
100
AcDbEntity
  8
0
  6
Continuous
 62
     7
370
    25
100
AcDbLine
 10
6253.7398451286
 20
5036.5155689672
 30
0.0
 11
6253.5320529208
 21
5036.5415429932
 31
0.0
  0
LWPOLYLINE
  5
393
330
1F
100
AcDbEntity
  8
0
  6
Continuous
 62
     7
370
    25
100
AcDbPolyline
 90
        5
 70
   128
 43
0.0
 10
6254.0568094143
 20
5036.9311533828
 10
6253.9492245472
 20
5036.9123813147
 10
6253.8571332775
 20
5036.8538289471
 10
6253.7910268883
 20
5036.7667723521
 10
6253.7398451286
 20
5036.5155689672
  0
ARC
  5
394
330
1F
100
AcDbEntity
  8
0
  6
Continuous
 62
     7
370
    25
100
AcDbCircle
 10
6254.0457966195
 20
5036.6125065105
 30
0.0
 40
0.3188371228101588
100
AcDbArc
 50
354.6057699976
 51
88.0205811983
  0
ARC
  5
395
330
1F
100
AcDbEntity
  8
0
  6
Continuous
 62
     7
370
    25
100
AcDbCircle
 10
6253.2868626902
 20
5036.7432932637
 30
0.0
 40
1.088298034044512
100
AcDbArc
 50
305.3153210853
 51
351.5053593858
  0
ARC
  5
396
330
1F
100
AcDbEntity
  8
0
  6
Continuous
 62
     7
370
    25
100
AcDbCircle
 10
6254.6162249013
 20
5034.9842545608
 30
0.0
 40
1.117583206161815
100
AcDbArc
 50
128.7974682057
 51
173.3863142526
  0
LINE
  5
397
330
1F
100
AcDbEntity
  8
0
  6
Continuous
 62
     7
370
    25
100
AcDbLine
 10
6254.5710139597
 20
5035.1129715646
 30
0.0
 11
6253.5060788948
 21
5035.1129715646
 31
0.0
  0
LINE
  5
398
330
1F
100
AcDbEntity
  8
0
  6
Continuous
 62
     7
370
    25
100
AcDbLine
 10
6254.5710139597
 20
5035.3467377984
 30
0.0
 11
6254.5710139597
 21
5035.1129715646
 31
0.0
  0
LINE
  5
399
330
1F
100
AcDbEntity
  8
0
  6
Continuous
 62
     7
370
    25
100
AcDbLine
 10
6253.7917931805
 20
5035.3467377984
 30
0.0
 11
6254.5710139597
 21
5035.3467377984
 31
0.0
  0
LINE
  5
39A
330
1F
100
AcDbEntity
  8
0
  6
Continuous
 62
     7
370
    25
100
AcDbLine
 10
6257.298286687
 20
5035.9441403958
 30
0.0
 11
6257.298286687
 21
5035.710374162
 31
0.0
  0
LINE
  5
39B
330
1F
100
AcDbEntity
  8
0
  6
Continuous
 62
     7
370
    25
100
AcDbLine
 10
6256.6749100636
 20
5035.9441403958
 30
0.0
 11
6257.298286687
 21
5035.9441403958
 31
0.0
  0
LINE
  5
39C
330
1F
100
AcDbEntity
  8
0
  6
Continuous
 62
     7
370
    25
100
AcDbLine
 10
6256.6749100636
 20
5035.710374162
 30
0.0
 11
6256.6749100636
 21
5035.9441403958
 31
0.0
  0
LINE
  5
39D
330
1F
100
AcDbEntity
  8
0
  6
Continuous
 62
     7
370
    25
100
AcDbLine
 10
6257.298286687
 20
5035.710374162
 30
0.0
 11
6256.6749100636
 21
5035.710374162
 31
0.0
  0
LINE
  5
39E
330
1F
100
AcDbEntity
  8
0
  6
Continuous
 62
     7
370
    25
100
AcDbLine
 10
6258.8047801935
 20
5035.9441403958
 30
0.0
 11
6258.8047801935
 21
5035.710374162
 31
0.0
  0
LINE
  5
39F
330
1F
100
AcDbEntity
  8
0
  6
Continuous
 62
     7
370
    25
100
AcDbLine
 10
6258.1814035701
 20
5035.9441403958
 30
0.0
 11
6258.8047801935
 21
5035.9441403958
 31
0.0
  0
LINE
  5
3A0
330
1F
100
AcDbEntity
  8
0
  6
Continuous
 62
     7
370
    25
100
AcDbLine
 10
6258.1814035701
 20
5035.710374162
 30
0.0
 11
6258.1814035701
 21
5035.9441403958
 31
0.0
  0
LINE
  5
3A1
330
1F
100
AcDbEntity
  8
0
  6
Continuous
 62
     7
370
    25
100
AcDbLine
 10
6258.8047801935
 20
5035.710374162
 30
0.0
 11
6258.1814035701
 21
5035.710374162
 31
0.0
  0
LINE
  5
3A2
330
1F
100
AcDbEntity
  8
0
  6
Continuous
 62
     7
370
    25
100
AcDbLine
 10
6261.1943905831
 20
5035.3986858503
 30
0.0
 11
6261.1943905831
 21
5035.1129715646
 31
0.0
  0
LINE
  5
3A3
330
1F
100
AcDbEntity
  8
0
  6
Continuous
 62
     7
370
    25
100
AcDbLine
 10
6260.9865983753
 20
5035.3986858503
 30
0.0
 11
6261.1943905831
 21
5035.3986858503
 31
0.0
  0
LINE
  5
3A4
330
1F
100
AcDbEntity
  8
0
  6
Continuous
 62
     7
370
    25
100
AcDbLine
 10
6260.9865983753
 20
5035.1129715646
 30
0.0
 11
6260.9865983753
 21
5035.3986858503
 31
0.0
  0
LINE
  5
3A5
330
1F
100
AcDbEntity
  8
0
  6
Continuous
 62
     7
370
    25
100
AcDbLine
 10
6261.1943905831
 20
5035.1129715646
 30
0.0
 11
6260.9865983753
 21
5035.1129715646
 31
0.0
  0
ARC
  5
3A6
330
1F
100
AcDbEntity
  8
0
  6
Continuous
 62
     7
370
    25
100
AcDbCircle
 10
6263.2944688958
 20
5035.6638630278
 30
0.0
 40
0.577572750662675
100
AcDbArc
 50
272.8357544731
 51
5.1442402221
  0
ARC
  5
3A7
330
1F
100
AcDbEntity
  8
0
  6
Continuous
 62
     7
370
    25
100
AcDbCircle
 10
6263.4134978274
 20
5035.776332842
 30
0.0
 40
0.4602355214729179
100
AcDbArc
 50
352.4234082149
 51
70.576307436
  0
ARC
  5
3A8
330
1F
100
AcDbEntity
  8
0
  6
Continuous
 62
     7
370
    25
100
AcDbCircle
 10
6263.337847445
 20
5036.6028031987
 30
0.0
 40
0.4542083866182195
100
AcDbArc
 50
300.233042306
 51
1.9485903918
  0
ARC
  5
3A9
330
1F
100
AcDbEntity
  8
0
  6
Continuous
 62
     7
370
    25
100
AcDbCircle
 10
6263.3014687845
 20
5036.6480723011
 30
0.0
 40
0.4912306279518288
100
AcDbArc
 50
356.5191815738
 51
87.814448004
  0
ARC
  5
3AA
330
1F
100
AcDbEntity
  8
0
  6
Continuous
 62
     7
370
    25
100
AcDbCircle
 10
6263.3364222671
 20
5036.6333942434
 30
0.0
 40
0.5058114795597106
100
AcDbArc
 50
91.8376345334
 51
178.6354906022
  0
LINE
  5
3AB
330
1F
100
AcDbEntity
  8
0
  6
Continuous
 62
     7
370
    25
100
AcDbLine
 10
6263.0385464273
 20
5036.6194650711
 30
0.0
 11
6262.8307542195
 21
5036.6454390971
 31
0.0
  0
LWPOLYLINE
  5
3AC
330
1F
100
AcDbEntity
  8
0
  6
Continuous
 62
     7
370
    25
100
AcDbPolyline
 90
        4
 70
   128
 43
0.0
 10
6263.3258840896
 20
5036.9311533828
 10
6263.1994798059
 20
5036.9008489879
 10
6263.1037569302
 20
5036.8130474895
 10
6263.0385464273
 20
5036.6194650711
  0
ARC
  5
3AD
330
1F
100
AcDbEntity
  8
0
  6
Continuous
 62
     7
370
    25
100
AcDbCircle
 10
6263.3133779335
 20
5036.6592441173
 30
0.0
 40
0.2721967167490124
100
AcDbArc
 50
353.8359873418
 51
87.3666019483
  0
ARC
  5
3AE
330
1F
100
AcDbEntity
  8
0
  6
Continuous
 62
     7
370
    25
100
AcDbCircle
 10
6263.2714724634
 20
5036.6171001966
 30
0.0
 40
0.3127953220205556
100
AcDbArc
 50
266.3601217143
 51
2.3666911338
  0
LINE
  5
3AF
330
1F
100
AcDbEntity
  8
0
  6
Continuous
 62
     7
370
    25
100
AcDbLine
 10
6263.2203646091
 20
5036.3077767594
 30
0.0
 11
6263.2516146091
 21
5036.3049358503
 31
0.0
  0
LINE
  5
3B0
330
1F
100
AcDbEntity
  8
0
  6
Continuous
 62
     7
370
    25
100
AcDbLine
 10
6263.1943905831
 20
5036.072387149
 30
0.0
 11
6263.2203646091
 21
5036.3077767594
 31
0.0
  0
LWPOLYLINE
  5
3B1
330
1F
100
AcDbEntity
  8
0
  6
Continuous
 62
     7
370
    25
100
AcDbPolyline
 90
        3
 70
   128
 43
0.0
 10
6263.3376535701
 20
5036.0999845516
 10
6263.2564425075
 20
5036.0896354094
 10
6263.1943905831
 20
5036.072387149
  0
ARC
  5
3B2
330
1F
100
AcDbEntity
  8
0
  6
Continuous
 62
     7
370
    25
100
AcDbCircle
 10
6263.3179480962
 20
5035.7541440599
 30
0.0
 40
0.3464014310191528
100
AcDbArc
 50
353.2143777147
 51
86.7388982432
  0
LWPOLYLINE
  5
3B3
330
1F
100
AcDbEntity
  8
0
  6
Continuous
 62
     7
370
    25
100
AcDbPolyline
 90
        4
 70
   128
 43
0.0
 10
6263.3262899338
 20
5035.2947897464
 10
6263.4842825951
 20
5035.341606409
 10
6263.5988545265
 20
5035.4615817148
 10
6263.6619230507
 20
5035.7132150711
  0
LWPOLYLINE
  5
3B4
330
1F
100
AcDbEntity
  8
0
  6
Continuous
 62
     7
370
    25
100
AcDbPolyline
 90
        4
 70
   128
 43
0.0
 10
6263.0125724013
 20
5035.684400136
 10
6263.1174901717
 20
5035.3980867703
 10
6263.2091443254
 20
5035.3206468806
 10
6263.3262899338
 20
5035.2947897464
  0
LINE
  5
3B5
330
1F
100
AcDbEntity
  8
0
  6
Continuous
 62
     7
370
    25
100
AcDbLine
 10
6262.8047801935
 20
5035.65842611
 30
0.0
 11
6263.0125724013
 21
5035.684400136
 31
0.0
  0
LWPOLYLINE
  5
3B6
330
1F
100
AcDbEntity
  8
0
  6
Continuous
 62
     7
370
    25
100
AcDbPolyline
 90
        4
 70
   128
 43
0.0
 10
6263.3230431805
 20
5035.0869975386
 10
6263.093452753
 20
5035.1442223217
 10
6262.9193495586
 20
5035.3051765351
 10
6262.8047801935
 20
5035.65842611
  0
LINE
  5
3B7
330
1F
100
AcDbEntity
  8
0
  6
Continuous
 62
     7
370
    25
100
AcDbLine
 10
6252.5518538253
 20
5045.2099557099
 30
0.0
 11
6252.5518538253
 21
5043.5735920735
 31
0.0
  0
LINE
  5
3B8
330
1F
100
AcDbEntity
  8
0
  6
Continuous
 62
     7
370
    25
100
AcDbLine
 10
6254.0518538253
 20
5045.2099557099
 30
0.0
 11
6252.5518538253
 21
5045.2099557099
 31
0.0
  0
LINE
  5
3B9
330
1F
100
AcDbEntity
  8
0
  6
Continuous
 62
     7
370
    25
100
AcDbLine
 10
6254.0518538253
 20
5043.5735920735
 30
0.0
 11
6254.0518538253
 21
5045.2099557099
 31
0.0
  0
LINE
  5
3BA
330
1F
100
AcDbEntity
  8
0
  6
Continuous
 62
     7
370
    25
100
AcDbLine
 10
6254.4154901889
 20
5043.5735920735
 30
0.0
 11
6254.0518538253
 21
5043.5735920735
 31
0.0
  0
LINE
  5
3BB
330
1F
100
AcDbEntity
  8
0
  6
Continuous
 62
     7
370
    25
100
AcDbLine
 10
6254.4154901889
 20
5047.0735920735
 30
0.0
 11
6254.4154901889
 21
5043.5735920735
 31
0.0
  0
LINE
  5
3BC
330
1F
100
AcDbEntity
  8
0
  6
Continuous
 62
     7
370
    25
100
AcDbLine
 10
6254.0518538253
 20
5047.0735920735
 30
0.0
 11
6254.4154901889
 21
5047.0735920735
 31
0.0
  0
LINE
  5
3BD
330
1F
100
AcDbEntity
  8
0
  6
Continuous
 62
     7
370
    25
100
AcDbLine
 10
6254.0518538253
 20
5045.619046619
 30
0.0
 11
6254.0518538253
 21
5047.0735920735
 31
0.0
  0
LINE
  5
3BE
330
1F
100
AcDbEntity
  8
0
  6
Continuous
 62
     7
370
    25
100
AcDbLine
 10
6252.5518538253
 20
5045.619046619
 30
0.0
 11
6254.0518538253
 21
5045.619046619
 31
0.0
  0
LINE
  5
3BF
330
1F
100
AcDbEntity
  8
0
  6
Continuous
 62
     7
370
    25
100
AcDbLine
 10
6252.5518538253
 20
5047.0735920735
 30
0.0
 11
6252.5518538253
 21
5045.619046619
 31
0.0
  0
LINE
  5
3C0
330
1F
100
AcDbEntity
  8
0
  6
Continuous
 62
     7
370
    25
100
AcDbLine
 10
6252.1882174616
 20
5047.0735920735
 30
0.0
 11
6252.5518538253
 21
5047.0735920735
 31
0.0
  0
LINE
  5
3C1
330
1F
100
AcDbEntity
  8
0
  6
Continuous
 62
     7
370
    25
100
AcDbLine
 10
6252.1882174616
 20
5043.5735920735
 30
0.0
 11
6252.1882174616
 21
5047.0735920735
 31
0.0
  0
LINE
  5
3C2
330
1F
100
AcDbEntity
  8
0
  6
Continuous
 62
     7
370
    25
100
AcDbLine
 10
6252.5518538253
 20
5043.5735920735
 30
0.0
 11
6252.1882174616
 21
5043.5735920735
 31
0.0
  0
LINE
  5
3C3
330
1F
100
AcDbEntity
  8
0
  6
Continuous
 62
     7
370
    25
100
AcDbLine
 10
6258.3700356434
 20
5045.119046619
 30
0.0
 11
6258.3700356434
 21
5043.5735920735
 31
0.0
  0
LINE
  5
3C4
330
1F
100
AcDbEntity
  8
0
  6
Continuous
 62
     7
370
    25
100
AcDbLine
 10
6258.8338140525
 20
5045.119046619
 30
0.0
 11
6258.3700356434
 21
5045.119046619
 31
0.0
  0
LWPOLYLINE
  5
3C5
330
1F
100
AcDbEntity
  8
0
  6
Continuous
 62
     7
370
    25
100
AcDbPolyline
 90
        5
 70
   128
 43
0.0
 10
6259.7343822344
 20
5044.322171619
 10
6259.5577806646
 20
5044.6367634343
 10
6259.3474317549
 20
5044.9288384408
 10
6259.1142815086
 20
5045.0849850619
 10
6258.8338140525
 20
5045.119046619
  0
LINE
  5
3C6
330
1F
100
AcDbEntity
  8
0
  6
Continuous
 62
     7
370
    25
100
AcDbLine
 10
6260.1385015525
 20
5043.5735920735
 30
0.0
 11
6259.7343822344
 21
5044.322171619
 31
0.0
  0
LINE
  5
3C7
330
1F
100
AcDbEntity
  8
0
  6
Continuous
 62
     7
370
    25
100
AcDbLine
 10
6260.5518538253
 20
5043.5735920735
 30
0.0
 11
6260.1385015525
 21
5043.5735920735
 31
0.0
  0
LINE
  5
3C8
330
1F
100
AcDbEntity
  8
0
  6
Continuous
 62
     7
370
    25
100
AcDbLine
 10
6260.0397799616
 20
5044.5302682099
 30
0.0
 11
6260.5518538253
 21
5043.5735920735
 31
0.0
  0
LWPOLYLINE
  5
3C9
330
1F
100
AcDbEntity
  8
0
  6
Continuous
 62
     7
370
    25
100
AcDbPolyline
 90
        3
 70
   128
 43
0.0
 10
6259.7350924616
 20
5044.978421619
 10
6259.9178317019
 20
5044.7355938888
 10
6260.0397799616
 20
5044.5302682099
  0
LWPOLYLINE
  5
3CA
330
1F
100
AcDbEntity
  8
0
  6
Continuous
 62
     7
370
    25
100
AcDbPolyline
 90
        3
 70
   128
 43
0.0
 10
6259.5063992798
 20
5045.1417738917
 10
6259.641166491
 20
5045.0594130176
 10
6259.7350924616
 20
5044.978421619
  0
ARC
  5
3CB
330
1F
100
AcDbEntity
  8
0
  6
Continuous
 62
     7
370
    25
100
AcDbCircle
 10
6259.4110643348
 20
5046.0520896071
 30
0.0
 40
0.9152941895165077
100
AcDbArc
 50
275.9786406972
 51
3.5712758183
  0
ARC
  5
3CC
330
1F
100
AcDbEntity
  8
0
  6
Continuous
 62
     7
370
    25
100
AcDbCircle
 10
6259.4145191975
 20
5046.1697876796
 30
0.0
 40
0.9120829129296908
100
AcDbArc
 50
356.1850821871
 51
97.725486394
  0
LINE
  5
3CD
330
1F
100
AcDbEntity
  8
0
  6
Continuous
 62
     7
370
    25
100
AcDbLine
 10
6258.0063992798
 20
5047.0735920735
 30
0.0
 11
6259.2919106434
 21
5047.0735920735
 31
0.0
  0
LINE
  5
3CE
330
1F
100
AcDbEntity
  8
0
  6
Continuous
 62
     7
370
    25
100
AcDbLine
 10
6258.0063992798
 20
5043.5735920735
 30
0.0
 11
6258.0063992798
 21
5047.0735920735
 31
0.0
  0
LINE
  5
3CF
330
1F
100
AcDbEntity
  8
0
  6
Continuous
 62
     7
370
    25
100
AcDbLine
 10
6258.3700356434
 20
5043.5735920735
 30
0.0
 11
6258.0063992798
 21
5043.5735920735
 31
0.0
  0
LINE
  5
3D0
330
1F
100
AcDbEntity
  8
0
  6
Continuous
 62
     7
370
    25
100
AcDbLine
 10
6266.3112737
 20
5038.3986858503
 30
0.0
 11
6266.3112737
 21
5038.1129715646
 31
0.0
  0
LINE
  5
3D1
330
1F
100
AcDbEntity
  8
0
  6
Continuous
 62
     7
370
    25
100
AcDbLine
 10
6266.1034814922
 20
5038.3986858503
 30
0.0
 11
6266.3112737
 21
5038.3986858503
 31
0.0
  0
LINE
  5
3D2
330
1F
100
AcDbEntity
  8
0
  6
Continuous
 62
     7
370
    25
100
AcDbLine
 10
6266.1034814922
 20
5038.1129715646
 30
0.0
 11
6266.1034814922
 21
5038.3986858503
 31
0.0
  0
LINE
  5
3D3
330
1F
100
AcDbEntity
  8
0
  6
Continuous
 62
     7
370
    25
100
AcDbLine
 10
6266.3112737
 20
5038.1129715646
 30
0.0
 11
6266.1034814922
 21
5038.1129715646
 31
0.0
  0
LINE
  5
3D4
330
1F
100
AcDbEntity
  8
0
  6
Continuous
 62
     7
370
    25
100
AcDbLine
 10
6268.2085951286
 20
5038.710374162
 30
0.0
 11
6268.0340821416
 21
5038.1129715646
 31
0.0
  0
LINE
  5
3D5
330
1F
100
AcDbEntity
  8
0
  6
Continuous
 62
     7
370
    25
100
AcDbLine
 10
6268.9074587649
 20
5038.710374162
 30
0.0
 11
6268.2085951286
 21
5038.710374162
 31
0.0
  0
LINE
  5
3D6
330
1F
100
AcDbEntity
  8
0
  6
Continuous
 62
     7
370
    25
100
AcDbLine
 10
6269.0823775961
 20
5038.1129715646
 30
0.0
 11
6268.9074587649
 21
5038.710374162
 31
0.0
  0
LINE
  5
3D7
330
1F
100
AcDbEntity
  8
0
  6
Continuous
 62
     7
370
    25
100
AcDbLine
 10
6269.298286687
 20
5038.1129715646
 30
0.0
 11
6269.0823775961
 21
5038.1129715646
 31
0.0
  0
LINE
  5
3D8
330
1F
100
AcDbEntity
  8
0
  6
Continuous
 62
     7
370
    25
100
AcDbLine
 10
6268.6590821416
 20
5040.1129715646
 30
0.0
 11
6269.298286687
 21
5038.1129715646
 31
0.0
  0
LINE
  5
3D9
330
1F
100
AcDbEntity
  8
0
  6
Continuous
 62
     7
370
    25
100
AcDbLine
 10
6268.4565659078
 20
5040.1129715646
 30
0.0
 11
6268.6590821416
 21
5040.1129715646
 31
0.0
  0
LINE
  5
3DA
330
1F
100
AcDbEntity
  8
0
  6
Continuous
 62
     7
370
    25
100
AcDbLine
 10
6267.8177672065
 20
5038.1129715646
 30
0.0
 11
6268.4565659078
 21
5040.1129715646
 31
0.0
  0
LINE
  5
3DB
330
1F
100
AcDbEntity
  8
0
  6
Continuous
 62
     7
370
    25
100
AcDbLine
 10
6268.0340821416
 20
5038.1129715646
 30
0.0
 11
6267.8177672065
 21
5038.1129715646
 31
0.0
  0
LWPOLYLINE
  5
3DC
330
1F
100
AcDbEntity
  8
0
  6
Continuous
 62
     7
370
    25
100
AcDbPolyline
 90
        5
 70
   128
 43
0.0
 10
6271.7917931805
 20
5039.1121598763
 10
6271.7103790213
 20
5038.4763924371
 10
6271.5505644233
 20
5038.2004749037
 10
6271.4159140032
 20
5038.1142310145
 10
6271.2581081156
 20
5038.0869975386
  0
LWPOLYLINE
  5
3DD
330
1F
100
AcDbEntity
  8
0
  6
Continuous
 62
     7
370
    25
100
AcDbPolyline
 90
        3
 70
   128
 43
0.0
 10
6271.6286438299
 20
5039.9279066295
 10
6271.7697141056
 20
5039.4816950555
 10
6271.7917931805
 20
5039.1121598763
  0
ARC
  5
3DE
330
1F
100
AcDbEntity
  8
0
  6
Continuous
 62
     7
370
    25
100
AcDbCircle
 10
6271.2667084284
 20
5039.7231534858
 30
0.0
 40
0.4158378105635439
100
AcDbArc
 50
29.4975951227
 51
90.8495033846
  0
LWPOLYLINE
  5
3DF
330
1F
100
AcDbEntity
  8
0
  6
Continuous
 62
     7
370
    25
100
AcDbPolyline
 90
        6
 70
   128
 43
0.0
 10
6270.7268581156
 20
5039.1121598763
 10
6270.7432292527
 20
5039.4336919823
 10
6270.8078246761
 20
5039.7486946289
 10
6270.9680310777
 20
5040.0247784944
 10
6271.1026597124
 20
5040.1113700183
 10
6271.2605431805
 20
5040.1389455906
  0
LWPOLYLINE
  5
3E0
330
1F
100
AcDbEntity
  8
0
  6
Continuous
 62
     7
370
    25
100
AcDbPolyline
 90
        6
 70
   128
 43
0.0
 10
6271.2581081156
 20
5038.0869975386
 10
6271.101134632
 20
5038.1166938204
 10
6270.967548097
 20
5038.2044268395
 10
6270.8025645177
 20
5038.4763434165
 10
6270.7412902703
 20
5038.7912444609
 10
6270.7268581156
 20
5039.1121598763
  0
LWPOLYLINE
  5
3E1
330
1F
100
AcDbEntity
  8
0
  6
Continuous
 62
     7
370
    25
100
AcDbPolyline
 90
        6
 70
   128
 43
0.0
 10
6272.6489360377
 20
5039.0614293568
 10
6272.6656574195
 20
5039.4015933884
 10
6272.7357346935
 20
5039.7343397947
 10
6272.9178651599
 20
5040.0183208121
 10
6273.0613366987
 20
5040.1085182238
 10
6273.2280756481
 20
5040.1389455906
  0
LWPOLYLINE
  5
3E2
330
1F
100
AcDbEntity
  8
0
  6
Continuous
 62
     7
370
    25
100
AcDbPolyline
 90
        6
 70
   128
 43
0.0
 10
6273.2094068169
 20
5038.0869975386
 10
6273.054991
 20
5038.112514015
 10
6272.9188172001
 20
5038.1895233032
 10
6272.7379244732
 20
5038.4426514283
 10
6272.6661218233
 20
5038.7478226566
 10
6272.6489360377
 20
5039.0614293568
  0
ARC
  5
3E3
330
1F
100
AcDbEntity
  8
0
  6
Continuous
 62
     7
370
    25
100
AcDbCircle
 10
6273.1283794967
 20
5038.6740353537
 30
0.0
 40
0.5926034280976806
100
AcDbArc
 50
277.8587331033
 51
8.8854879832
  0
LWPOLYLINE
  5
3E4
330
1F
100
AcDbEntity
  8
0
  6
Continuous
 62
     7
370
    25
100
AcDbPolyline
 90
        4
 70
   128
 43
0.0
 10
6273.2268581156
 20
5039.4116728633
 10
6273.4627619353
 20
5039.3354481657
 10
6273.6279610465
 20
5039.1477962254
 10
6273.7138711026
 20
5038.7655689672
  0
ARC
  5
3E5
330
1F
100
AcDbEntity
  8
0
  6
Continuous
 62
     7
370
    25
100
AcDbCircle
 10
6273.2434871662
 20
5038.9489461067
 30
0.0
 40
0.4630254600267643
100
AcDbArc
 50
92.0581575617
 51
153.6069076021
  0
LWPOLYLINE
  5
3E6
330
1F
100
AcDbEntity
  8
0
  6
Continuous
 62
     7
370
    25
100
AcDbPolyline
 90
        3
 70
   128
 43
0.0
 10
6272.9212574662
 20
5039.7124033828
 10
6272.8419872187
 20
5039.4049028884
 10
6272.8287249987
 20
5039.1547735126
  0
ARC
  5
3E7
330
1F
100
AcDbEntity
  8
0
  6
Continuous
 62
     7
370
    25
100
AcDbCircle
 10
6273.2235997325
 20
5039.6138561833
 30
0.0
 40
0.3179974786938069
100
AcDbArc
 50
93.8031298894
 51
161.9468374126
  0
LWPOLYLINE
  5
3E8
330
1F
100
AcDbEntity
  8
0
  6
Continuous
 62
     7
370
    25
100
AcDbPolyline
 90
        3
 70
   128
 43
0.0
 10
6273.3956892844
 20
5039.8365916945
 10
6273.2978963874
 20
5039.912032881
 10
6273.2025074662
 20
5039.9311533828
  0
LWPOLYLINE
  5
3E9
330
1F
100
AcDbEntity
  8
0
  6
Continuous
 62
     7
370
    25
100
AcDbPolyline
 90
        3
 70
   128
 43
0.0
 10
6273.4801048688
 20
5039.6194650711
 10
6273.4461267757
 20
5039.7466375956
 10
6273.3956892844
 20
5039.8365916945
  0
LINE
  5
3EA
330
1F
100
AcDbEntity
  8
0
  6
Continuous
 62
     7
370
    25
100
AcDbLine
 10
6273.6878970766
 20
5039.6454390971
 30
0.0
 11
6273.4801048688
 21
5039.6194650711
 31
0.0
  0
LWPOLYLINE
  5
3EB
330
1F
100
AcDbEntity
  8
0
  6
Continuous
 62
     7
370
    25
100
AcDbPolyline
 90
        4
 70
   128
 43
0.0
 10
6273.2280756481
 20
5040.1389455906
 10
6273.4299486176
 20
5040.0921201923
 10
6273.5845764222
 20
5039.9540979158
 10
6273.6878970766
 20
5039.6454390971
  0
LINE
  5
3EC
330
1F
100
AcDbEntity
  8
0
  6
Continuous
 62
     7
370
    25
100
AcDbLine
 10
6252.1554295442
 20
5036.8792053308
 30
0.0
 11
6252.1554295442
 21
5035.1129715646
 31
0.0
  0
LINE
  5
3ED
330
1F
100
AcDbEntity
  8
0
  6
Continuous
 62
     7
370
    25
100
AcDbLine
 10
6252.7008840896
 20
5036.8792053308
 30
0.0
 11
6252.1554295442
 21
5036.8792053308
 31
0.0
  0
LINE
  5
3EE
330
1F
100
AcDbEntity
  8
0
  6
Continuous
 62
     7
370
    25
100
AcDbLine
 10
6252.7008840896
 20
5037.1129715646
 30
0.0
 11
6252.7008840896
 21
5036.8792053308
 31
0.0
  0
LINE
  5
3EF
330
1F
100
AcDbEntity
  8
0
  6
Continuous
 62
     7
370
    25
100
AcDbLine
 10
6251.4021827909
 20
5037.1129715646
 30
0.0
 11
6252.7008840896
 21
5037.1129715646
 31
0.0
  0
LINE
  5
3F0
330
1F
100
AcDbEntity
  8
0
  6
Continuous
 62
     7
370
    25
100
AcDbLine
 10
6251.4021827909
 20
5036.8792053308
 30
0.0
 11
6251.4021827909
 21
5037.1129715646
 31
0.0
  0
LINE
  5
3F1
330
1F
100
AcDbEntity
  8
0
  6
Continuous
 62
     7
370
    25
100
AcDbLine
 10
6251.9476373364
 20
5036.8792053308
 30
0.0
 11
6251.4021827909
 21
5036.8792053308
 31
0.0
  0
LINE
  5
3F2
330
1F
100
AcDbEntity
  8
0
  6
Continuous
 62
     7
370
    25
100
AcDbLine
 10
6251.9476373364
 20
5035.1129715646
 30
0.0
 11
6251.9476373364
 21
5036.8792053308
 31
0.0
  0
LINE
  5
3F3
330
1F
100
AcDbEntity
  8
0
  6
Continuous
 62
     7
370
    25
100
AcDbLine
 10
6252.1554295442
 20
5035.1129715646
 30
0.0
 11
6251.9476373364
 21
5035.1129715646
 31
0.0
  0
LINE
  5
3F4
330
1F
100
AcDbEntity
  8
0
  6
Continuous
 62
     7
370
    25
100
AcDbLine
 10
6248.5450399338
 20
5035.9181663698
 30
0.0
 11
6248.5450399338
 21
5035.1129715646
 31
0.0
  0
LINE
  5
3F5
330
1F
100
AcDbEntity
  8
0
  6
Continuous
 62
     7
370
    25
100
AcDbLine
 10
6248.9671178558
 20
5035.9181663698
 30
0.0
 11
6248.5450399338
 21
5035.9181663698
 31
0.0
  0
ARC
  5
3F6
330
1F
100
AcDbEntity
  8
0
  6
Continuous
 62
     7
370
    25
100
AcDbCircle
 10
6249.0290851898
 20
5036.4729207922
 30
0.0
 40
0.5582046395579486
100
AcDbArc
 50
263.6263519983
 51
6.2226710678
  0
ARC
  5
3F7
330
1F
100
AcDbEntity
  8
0
  6
Continuous
 62
     7
370
    25
100
AcDbCircle
 10
6249.0591501836
 20
5036.5919623519
 30
0.0
 40
0.5281049540517843
100
AcDbArc
 50
353.6361410049
 51
66.0016367603
  0
LWPOLYLINE
  5
3F8
330
1F
100
AcDbEntity
  8
0
  6
Continuous
 62
     7
370
    25
100
AcDbPolyline
 90
        3
 70
   128
 43
0.0
 10
6248.9533191545
 20
5037.1129715646
 10
6249.1346694848
 20
5037.1041674387
 10
6249.2739360377
 20
5037.0744163698
  0
LINE
  5
3F9
330
1F
100
AcDbEntity
  8
0
  6
Continuous
 62
     7
370
    25
100
AcDbLine
 10
6248.337247726
 20
5037.1129715646
 30
0.0
 11
6248.9533191545
 21
5037.1129715646
 31
0.0
  0
LINE
  5
3FA
330
1F
100
AcDbEntity
  8
0
  6
Continuous
 62
     7
370
    25
100
AcDbLine
 10
6248.337247726
 20
5035.1129715646
 30
0.0
 11
6248.337247726
 21
5037.1129715646
 31
0.0
  0
LINE
  5
3FB
330
1F
100
AcDbEntity
  8
0
  6
Continuous
 62
     7
370
    25
100
AcDbLine
 10
6248.5450399338
 20
5035.1129715646
 30
0.0
 11
6248.337247726
 21
5035.1129715646
 31
0.0
  0
LWPOLYLINE
  5
3FC
330
1F
100
AcDbEntity
  8
0
  6
Continuous
 62
     7
370
    25
100
AcDbPolyline
 90
        6
 70
   128
 43
0.0
 10
6245.8956892844
 20
5035.3207637724
 10
6246.1157584584
 20
5035.36185142
 10
6246.2085761122
 20
5035.4249108785
 10
6246.2719985092
 20
5035.517451557
 10
6246.3256662406
 20
5035.7356717253
 10
6246.337247726
 20
5035.9607800061
  0
LWPOLYLINE
  5
3FD
330
1F
100
AcDbEntity
  8
0
  6
Continuous
 62
     7
370
    25
100
AcDbPolyline
 90
        6
 70
   128
 43
0.0
 10
6245.4801048688
 20
5035.9607800061
 10
6245.4891719334
 20
5035.7417633568
 10
6245.538265824
 20
5035.5290780396
 10
6245.5984010756
 20
5035.4377472009
 10
6245.684240105
 20
5035.37013078
 10
6245.8956892844
 20
5035.3207637724
  0
LINE
  5
3FE
330
1F
100
AcDbEntity
  8
0
  6
Continuous
 62
     7
370
    25
100
AcDbLine
 10
6245.4801048688
 20
5037.1129715646
 30
0.0
 11
6245.4801048688
 21
5035.9607800061
 31
0.0
  0
LINE
  5
3FF
330
1F
100
AcDbEntity
  8
0
  6
Continuous
 62
     7
370
    25
100
AcDbLine
 10
6245.272312661
 20
5037.1129715646
 30
0.0
 11
6245.4801048688
 21
5037.1129715646
 31
0.0
  0
LINE
  5
400
330
1F
100
AcDbEntity
  8
0
  6
Continuous
 62
     7
370
    25
100
AcDbLine
 10
6245.272312661
 20
5035.9619975386
 30
0.0
 11
6245.272312661
 21
5037.1129715646
 31
0.0
  0
LWPOLYLINE
  5
401
330
1F
100
AcDbEntity
  8
0
  6
Continuous
 62
     7
370
    25
100
AcDbPolyline
 90
        6
 70
   128
 43
0.0
 10
6245.9115172065
 20
5035.0869975386
 10
6245.6074908416
 20
5035.1456240078
 10
6245.477790409
 20
5035.2312094291
 10
6245.3822801178
 20
5035.3537290785
 10
6245.2925317434
 20
5035.6509737712
 10
6245.272312661
 20
5035.9619975386
  0
LWPOLYLINE
  5
402
330
1F
100
AcDbEntity
  8
0
  6
Continuous
 62
     7
370
    25
100
AcDbPolyline
 90
        6
 70
   128
 43
0.0
 10
6246.5450399338
 20
5035.9619975386
 10
6246.52503795
 20
5035.65322947
 10
6246.4342872235
 20
5035.35898854
 10
6246.3386596024
 20
5035.2378655636
 10
6246.2120440963
 20
5035.149732563
 10
6245.9115172065
 20
5035.0869975386
  0
LINE
  5
403
330
1F
100
AcDbEntity
  8
0
  6
Continuous
 62
     7
370
    25
100
AcDbLine
 10
6246.5450399338
 20
5037.1129715646
 30
0.0
 11
6246.5450399338
 21
5035.9619975386
 31
0.0
  0
LINE
  5
404
330
1F
100
AcDbEntity
  8
0
  6
Continuous
 62
     7
370
    25
100
AcDbLine
 10
6246.337247726
 20
5037.1129715646
 30
0.0
 11
6246.5450399338
 21
5037.1129715646
 31
0.0
  0
LINE
  5
405
330
1F
100
AcDbEntity
  8
0
  6
Continuous
 62
     7
370
    25
100
AcDbLine
 10
6246.337247726
 20
5035.9607800061
 30
0.0
 11
6246.337247726
 21
5037.1129715646
 31
0.0
  0
LINE
  5
406
330
1F
100
AcDbEntity
  8
0
  6
Continuous
 62
     7
370
    25
100
AcDbLine
 10
6277.8437412325
 20
5038.3207637724
 30
0.0
 11
6277.8437412325
 21
5038.1129715646
 31
0.0
  0
LINE
  5
407
330
1F
100
AcDbEntity
  8
0
  6
Continuous
 62
     7
370
    25
100
AcDbLine
 10
6277.0543743494
 20
5038.3207637724
 30
0.0
 11
6277.8437412325
 21
5038.3207637724
 31
0.0
  0
LINE
  5
408
330
1F
100
AcDbEntity
  8
0
  6
Continuous
 62
     7
370
    25
100
AcDbLine
 10
6277.1777509727
 20
5038.4859423438
 30
0.0
 11
6277.0543743494
 21
5038.3207637724
 31
0.0
  0
LINE
  5
409
330
1F
100
AcDbEntity
  8
0
  6
Continuous
 62
     7
370
    25
100
AcDbLine
 10
6277.8177672065
 20
5039.3909748113
 30
0.0
 11
6277.1777509727
 21
5038.4859423438
 31
0.0
  0
LINE
  5
40A
330
1F
100
AcDbEntity
  8
0
  6
Continuous
 62
     7
370
    25
100
AcDbLine
 10
6277.8177672065
 20
5039.5675170191
 30
0.0
 11
6277.8177672065
 21
5039.3909748113
 31
0.0
  0
LINE
  5
40B
330
1F
100
AcDbEntity
  8
0
  6
Continuous
 62
     7
370
    25
100
AcDbLine
 10
6276.8307542195
 20
5039.5675170191
 30
0.0
 11
6277.8177672065
 21
5039.5675170191
 31
0.0
  0
LINE
  5
40C
330
1F
100
AcDbEntity
  8
0
  6
Continuous
 62
     7
370
    25
100
AcDbLine
 10
6276.8307542195
 20
5039.3597248113
 30
0.0
 11
6276.8307542195
 21
5039.5675170191
 31
0.0
  0
LINE
  5
40D
330
1F
100
AcDbEntity
  8
0
  6
Continuous
 62
     7
370
    25
100
AcDbLine
 10
6277.5458516221
 20
5039.3597248113
 30
0.0
 11
6276.8307542195
 21
5039.3597248113
 31
0.0
  0
LINE
  5
40E
330
1F
100
AcDbEntity
  8
0
  6
Continuous
 62
     7
370
    25
100
AcDbLine
 10
6276.8047801935
 20
5038.3207637724
 30
0.0
 11
6277.5458516221
 21
5039.3597248113
 31
0.0
  0
LINE
  5
40F
330
1F
100
AcDbEntity
  8
0
  6
Continuous
 62
     7
370
    25
100
AcDbLine
 10
6276.8047801935
 20
5038.1129715646
 30
0.0
 11
6276.8047801935
 21
5038.3207637724
 31
0.0
  0
LINE
  5
410
330
1F
100
AcDbEntity
  8
0
  6
Continuous
 62
     7
370
    25
100
AcDbLine
 10
6277.8437412325
 20
5038.1129715646
 30
0.0
 11
6276.8047801935
 21
5038.1129715646
 31
0.0
  0
LINE
  5
411
330
1F
100
AcDbEntity
  8
0
  6
Continuous
 62
     7
370
    25
100
AcDbLine
 10
6308.5187553361
 20
5054.7681799928
 30
0.0
 11
6308.5187553361
 21
5013.7681799928
 31
0.0
  0
LINE
  5
412
330
1F
100
AcDbEntity
  8
0
  6
Continuous
 62
     7
370
    25
100
AcDbLine
 10
6239.5187553361
 20
5054.7681799928
 30
0.0
 11
6239.5187553361
 21
5013.7681799928
 31
0.0
  0
LWPOLYLINE
  5
413
330
1F
100
AcDbEntity
  8
0
  6
Continuous
 62
     7
370
    25
100
AcDbPolyline
 90
        5
 70
   128
 43
0.0
 10
6265.824581098
 20
5045.3235920735
 10
6265.7614806643
 20
5046.1696349236
 10
6265.6023765626
 20
5046.5595662577
 10
6265.4468679589
 20
5046.7023202825
 10
6265.2436151889
 20
5046.7554102554
  0
LWPOLYLINE
  5
414
330
1F
100
AcDbEntity
  8
0
  6
Continuous
 62
     7
370
    25
100
AcDbPolyline
 90
        5
 70
   128
 43
0.0
 10
6265.2649220071
 20
5043.8917738917
 10
6265.463686481
 20
5043.9506223744
 10
6265.6109316551
 20
5044.0987929659
 10
6265.7629396418
 20
5044.4869626046
 10
6265.824581098
 20
5045.3235920735
  0
LWPOLYLINE
  5
415
330
1F
100
AcDbEntity
  8
0
  6
Continuous
 62
     7
370
    25
100
AcDbPolyline
 90
        5
 70
   128
 43
0.0
 10
6264.6882174616
 20
5045.3235920735
 10
6264.7510510421
 20
5044.4795846881
 10
6264.9088276794
 20
5044.0901618499
 10
6265.0625743177
 20
5043.9461410233
 10
6265.2649220071
 20
5043.8917738917
  0
LWPOLYLINE
  5
416
330
1F
100
AcDbEntity
  8
0
  6
Continuous
 62
     7
370
    25
100
AcDbPolyline
 90
        5
 70
   128
 43
0.0
 10
6265.2436151889
 20
5046.7554102554
 10
6265.0455685016
 20
5046.6958445898
 10
6264.8996781102
 20
5046.5468312648
 10
6264.749714981
 20
5046.1587091837
 10
6264.6882174616
 20
5045.3235920735
  0
LWPOLYLINE
  5
417
330
1F
100
AcDbEntity
  8
0
  6
Continuous
 62
     7
370
    25
100
AcDbPolyline
 90
        5
 70
   128
 43
0.0
 10
6306.0490299352
 20
5049.9499981746
 10
6306.1374237313
 20
5049.9645139482
 10
6306.2161781184
 20
5050.0072893564
 10
6306.3290969681
 20
5050.1454649902
 10
6306.3944033118
 20
5050.4962644084
  0
LWPOLYLINE
  5
418
330
1F
100
AcDbEntity
  8
0
  6
Continuous
 62
     7
370
    25
100
AcDbPolyline
 90
        5
 70
   128
 43
0.0
 10
6306.0384779871
 20
5051.0409072655
 10
6305.950146918
 20
5051.0266150986
 10
6305.8710908649
 20
5050.9846793321
 10
6305.758314368
 20
5050.8465764126
 10
6305.6931046105
 20
5050.4962644084
  0
LWPOLYLINE
  5
419
330
1F
100
AcDbEntity
  8
0
  6
Continuous
 62
     7
370
    25
100
AcDbPolyline
 90
        5
 70
   128
 43
0.0
 10
6306.3944033118
 20
5050.4962644084
 10
6306.326719792
 20
5050.8505054342
 10
6306.2094258105
 20
5050.987511718
 10
6306.1281743836
 20
5051.0276493086
 10
6306.0384779871
 20
5051.0409072655
  0
LWPOLYLINE
  5
41A
330
1F
100
AcDbEntity
  8
0
  6
Continuous
 62
     7
370
    25
100
AcDbPolyline
 90
        5
 70
   128
 43
0.0
 10
6305.6931046105
 20
5050.4962644084
 10
6305.7603675059
 20
5050.1410670576
 10
6305.8777423365
 20
5050.0036373317
 10
6305.9591334373
 20
5049.9633174949
 10
6306.0490299352
 20
5049.9499981746
  0
LWPOLYLINE
  5
41B
330
1F
100
AcDbEntity
  8
0
  6
Continuous
 62
     7
370
    25
100
AcDbPolyline
 90
        5
 70
   128
 43
0.0
 10
6268.0518538253
 20
5045.3235920735
 10
6267.9887533915
 20
5046.1696349236
 10
6267.8296492899
 20
5046.5595662577
 10
6267.6741406862
 20
5046.7023202825
 10
6267.4708879162
 20
5046.7554102554
  0
LWPOLYLINE
  5
41C
330
1F
100
AcDbEntity
  8
0
  6
Continuous
 62
     7
370
    25
100
AcDbPolyline
 90
        5
 70
   128
 43
0.0
 10
6267.4921947344
 20
5043.8917738917
 10
6267.6909592083
 20
5043.9506223744
 10
6267.8382043823
 20
5044.0987929659
 10
6267.9902123691
 20
5044.4869626046
 10
6268.0518538253
 20
5045.3235920735
  0
LWPOLYLINE
  5
41D
330
1F
100
AcDbEntity
  8
0
  6
Continuous
 62
     7
370
    25
100
AcDbPolyline
 90
        5
 70
   128
 43
0.0
 10
6267.4708879162
 20
5046.7554102554
 10
6267.2728412289
 20
5046.6958445898
 10
6267.1269508375
 20
5046.5468312648
 10
6266.9769877083
 20
5046.1587091837
 10
6266.9154901889
 20
5045.3235920735
  0
LWPOLYLINE
  5
41E
330
1F
100
AcDbEntity
  8
0
  6
Continuous
 62
     7
370
    25
100
AcDbPolyline
 90
        5
 70
   128
 43
0.0
 10
6266.9154901889
 20
5045.3235920735
 10
6266.9783237694
 20
5044.4795846881
 10
6267.1361004067
 20
5044.0901618499
 10
6267.2898470449
 20
5043.9461410233
 10
6267.4921947344
 20
5043.8917738917
  0
LWPOLYLINE
  5
41F
330
1F
100
AcDbEntity
  8
0
  6
Continuous
 62
     7
370
    25
100
AcDbPolyline
 90
        5
 70
   128
 43
0.0
 10
6305.9908689781
 20
5047.6669153976
 10
6305.9369110326
 20
5048.0280905416
 10
6305.8329953037
 20
5048.1775538756
 10
6305.754553479
 20
5048.2245259908
 10
6305.6645702768
 20
5048.2403731898
  0
LWPOLYLINE
  5
420
330
1F
100
AcDbEntity
  8
0
  6
Continuous
 62
     7
370
    25
100
AcDbPolyline
 90
        5
 70
   128
 43
0.0
 10
6305.6791806664
 20
5047.1494640989
 10
6305.7611635204
 20
5047.1644884395
 10
6305.8329040093
 20
5047.2070594727
 10
6305.9334850434
 20
5047.3393852475
 10
6305.9908689781
 20
5047.6669153976
  0
LWPOLYLINE
  5
421
330
1F
100
AcDbEntity
  8
0
  6
Continuous
 62
     7
370
    25
100
AcDbPolyline
 90
        5
 70
   128
 43
0.0
 10
6305.3597813157
 20
5047.6937011119
 10
6305.4171817451
 20
5047.3514482453
 10
6305.5199611077
 20
5047.2118016172
 10
6305.5937837978
 20
5047.1657142215
 10
6305.6791806664
 20
5047.1494640989
  0
LWPOLYLINE
  5
422
330
1F
100
AcDbEntity
  8
0
  6
Continuous
 62
     7
370
    25
100
AcDbPolyline
 90
        5
 70
   128
 43
0.0
 10
6305.6645702768
 20
5048.2403731898
 10
6305.5801070402
 20
5048.223626421
 10
6305.5076910821
 20
5048.1766819145
 10
6305.4108916818
 20
5048.0345504341
 10
6305.3597813157
 20
5047.6937011119
  0
LINE
  5
423
330
1F
100
AcDbEntity
  8
0
  6
Continuous
 62
     7
370
    25
100
AcDbLine
 10
6242.2752807008
 20
5056.7681799928
 30
0.0
 11
6239.5187553361
 21
5056.7681799928
 31
0.0
  0
LINE
  5
424
330
1F
100
AcDbEntity
  8
0
  6
Continuous
 62
     7
370
    25
100
AcDbLine
 10
6244.7752807008
 20
5056.7681799928
 30
0.0
 11
6242.2752807008
 21
5056.7681799928
 31
0.0
  0
LINE
  5
425
330
1F
100
AcDbEntity
  8
0
  6
Continuous
 62
     7
370
    25
100
AcDbLine
 10
6246.2752807008
 20
5056.7681799928
 30
0.0
 11
6244.7752807008
 21
5056.7681799928
 31
0.0
  0
LINE
  5
426
330
1F
100
AcDbEntity
  8
0
  6
Continuous
 62
     7
370
    25
100
AcDbLine
 10
6248.7752807008
 20
5056.7681799928
 30
0.0
 11
6246.2752807008
 21
5056.7681799928
 31
0.0
  0
LINE
  5
427
330
1F
100
AcDbEntity
  8
0
  6
Continuous
 62
     7
370
    25
100
AcDbLine
 10
6250.2752807008
 20
5056.7681799928
 30
0.0
 11
6248.7752807008
 21
5056.7681799928
 31
0.0
  0
LINE
  5
428
330
1F
100
AcDbEntity
  8
0
  6
Continuous
 62
     7
370
    25
100
AcDbLine
 10
6252.7752807008
 20
5056.7681799928
 30
0.0
 11
6250.2752807008
 21
5056.7681799928
 31
0.0
  0
LINE
  5
429
330
1F
100
AcDbEntity
  8
0
  6
Continuous
 62
     7
370
    25
100
AcDbLine
 10
6254.2752807008
 20
5056.7681799928
 30
0.0
 11
6252.7752807008
 21
5056.7681799928
 31
0.0
  0
LINE
  5
42A
330
1F
100
AcDbEntity
  8
0
  6
Continuous
 62
     7
370
    25
100
AcDbLine
 10
6256.7752807008
 20
5056.7681799928
 30
0.0
 11
6254.2752807008
 21
5056.7681799928
 31
0.0
  0
LINE
  5
42B
330
1F
100
AcDbEntity
  8
0
  6
Continuous
 62
     7
370
    25
100
AcDbLine
 10
6258.2752807008
 20
5056.7681799928
 30
0.0
 11
6256.7752807008
 21
5056.7681799928
 31
0.0
  0
LINE
  5
42C
330
1F
100
AcDbEntity
  8
0
  6
Continuous
 62
     7
370
    25
100
AcDbLine
 10
6260.7752807008
 20
5056.7681799928
 30
0.0
 11
6258.2752807008
 21
5056.7681799928
 31
0.0
  0
LINE
  5
42D
330
1F
100
AcDbEntity
  8
0
  6
Continuous
 62
     7
370
    25
100
AcDbLine
 10
6262.2752807008
 20
5056.7681799928
 30
0.0
 11
6260.7752807008
 21
5056.7681799928
 31
0.0
  0
LINE
  5
42E
330
1F
100
AcDbEntity
  8
0
  6
Continuous
 62
     7
370
    25
100
AcDbLine
 10
6264.7752807008
 20
5056.7681799928
 30
0.0
 11
6262.2752807008
 21
5056.7681799928
 31
0.0
  0
LINE
  5
42F
330
1F
100
AcDbEntity
  8
0
  6
Continuous
 62
     7
370
    25
100
AcDbLine
 10
6266.2752807008
 20
5056.7681799928
 30
0.0
 11
6264.7752807008
 21
5056.7681799928
 31
0.0
  0
LINE
  5
430
330
1F
100
AcDbEntity
  8
0
  6
Continuous
 62
     7
370
    25
100
AcDbLine
 10
6268.7752807008
 20
5056.7681799928
 30
0.0
 11
6266.2752807008
 21
5056.7681799928
 31
0.0
  0
LINE
  5
431
330
1F
100
AcDbEntity
  8
0
  6
Continuous
 62
     7
370
    25
100
AcDbLine
 10
6270.2752807008
 20
5056.7681799928
 30
0.0
 11
6268.7752807008
 21
5056.7681799928
 31
0.0
  0
LINE
  5
432
330
1F
100
AcDbEntity
  8
0
  6
Continuous
 62
     7
370
    25
100
AcDbLine
 10
6272.7752807008
 20
5056.7681799928
 30
0.0
 11
6270.2752807008
 21
5056.7681799928
 31
0.0
  0
LINE
  5
433
330
1F
100
AcDbEntity
  8
0
  6
Continuous
 62
     7
370
    25
100
AcDbLine
 10
6274.2752807008
 20
5056.7681799928
 30
0.0
 11
6272.7752807008
 21
5056.7681799928
 31
0.0
  0
LINE
  5
434
330
1F
100
AcDbEntity
  8
0
  6
Continuous
 62
     7
370
    25
100
AcDbLine
 10
6276.7752807008
 20
5056.7681799928
 30
0.0
 11
6274.2752807008
 21
5056.7681799928
 31
0.0
  0
LINE
  5
435
330
1F
100
AcDbEntity
  8
0
  6
Continuous
 62
     7
370
    25
100
AcDbLine
 10
6278.2752807008
 20
5056.7681799928
 30
0.0
 11
6276.7752807008
 21
5056.7681799928
 31
0.0
  0
LINE
  5
436
330
1F
100
AcDbEntity
  8
0
  6
Continuous
 62
     7
370
    25
100
AcDbLine
 10
6280.7752807008
 20
5056.7681799928
 30
0.0
 11
6278.2752807008
 21
5056.7681799928
 31
0.0
  0
LINE
  5
437
330
1F
100
AcDbEntity
  8
0
  6
Continuous
 62
     7
370
    25
100
AcDbLine
 10
6282.2752807008
 20
5056.7681799928
 30
0.0
 11
6280.7752807008
 21
5056.7681799928
 31
0.0
  0
LINE
  5
438
330
1F
100
AcDbEntity
  8
0
  6
Continuous
 62
     7
370
    25
100
AcDbLine
 10
6284.7752807008
 20
5056.7681799928
 30
0.0
 11
6282.2752807008
 21
5056.7681799928
 31
0.0
  0
LINE
  5
439
330
1F
100
AcDbEntity
  8
0
  6
Continuous
 62
     7
370
    25
100
AcDbLine
 10
6286.2752807008
 20
5056.7681799928
 30
0.0
 11
6284.7752807008
 21
5056.7681799928
 31
0.0
  0
LINE
  5
43A
330
1F
100
AcDbEntity
  8
0
  6
Continuous
 62
     7
370
    25
100
AcDbLine
 10
6288.7752807008
 20
5056.7681799928
 30
0.0
 11
6286.2752807008
 21
5056.7681799928
 31
0.0
  0
LINE
  5
43B
330
1F
100
AcDbEntity
  8
0
  6
Continuous
 62
     7
370
    25
100
AcDbLine
 10
6290.2752807008
 20
5056.7681799928
 30
0.0
 11
6288.7752807008
 21
5056.7681799928
 31
0.0
  0
LINE
  5
43C
330
1F
100
AcDbEntity
  8
0
  6
Continuous
 62
     7
370
    25
100
AcDbLine
 10
6292.7752807008
 20
5056.7681799928
 30
0.0
 11
6290.2752807008
 21
5056.7681799928
 31
0.0
  0
LINE
  5
43D
330
1F
100
AcDbEntity
  8
0
  6
Continuous
 62
     7
370
    25
100
AcDbLine
 10
6294.2752807008
 20
5056.7681799928
 30
0.0
 11
6292.7752807008
 21
5056.7681799928
 31
0.0
  0
LINE
  5
43E
330
1F
100
AcDbEntity
  8
0
  6
Continuous
 62
     7
370
    25
100
AcDbLine
 10
6296.7752807008
 20
5056.7681799928
 30
0.0
 11
6294.2752807008
 21
5056.7681799928
 31
0.0
  0
LINE
  5
43F
330
1F
100
AcDbEntity
  8
0
  6
Continuous
 62
     7
370
    25
100
AcDbLine
 10
6298.2752807008
 20
5056.7681799928
 30
0.0
 11
6296.7752807008
 21
5056.7681799928
 31
0.0
  0
LINE
  5
440
330
1F
100
AcDbEntity
  8
0
  6
Continuous
 62
     7
370
    25
100
AcDbLine
 10
6300.7752807008
 20
5056.7681799928
 30
0.0
 11
6298.2752807008
 21
5056.7681799928
 31
0.0
  0
LINE
  5
441
330
1F
100
AcDbEntity
  8
0
  6
Continuous
 62
     7
370
    25
100
AcDbLine
 10
6302.2752807008
 20
5056.7681799928
 30
0.0
 11
6300.7752807008
 21
5056.7681799928
 31
0.0
  0
LINE
  5
442
330
1F
100
AcDbEntity
  8
0
  6
Continuous
 62
     7
370
    25
100
AcDbLine
 10
6304.7752807008
 20
5056.7681799928
 30
0.0
 11
6302.2752807008
 21
5056.7681799928
 31
0.0
  0
LINE
  5
443
330
1F
100
AcDbEntity
  8
0
  6
Continuous
 62
     7
370
    25
100
AcDbLine
 10
6308.5187553361
 20
5056.7681799928
 30
0.0
 11
6304.7752807008
 21
5056.7681799928
 31
0.0
  0
LINE
  5
444
330
1F
100
AcDbEntity
  8
0
  6
Continuous
 62
     7
370
    25
100
AcDbLine
 10
6308.5187553361
 20
5056.7681799928
 30
0.0
 11
6308.5187553361
 21
5054.7681799928
 31
0.0
  0
LINE
  5
445
330
1F
100
AcDbEntity
  8
0
  6
Continuous
 62
     7
370
    25
100
AcDbLine
 10
6239.5187553361
 20
5056.7681799928
 30
0.0
 11
6239.5187553361
 21
5054.7681799928
 31
0.0
  0
LINE
  5
446
330
1F
100
AcDbEntity
  8
0
  6
Continuous
 62
     7
370
    25
100
AcDbLine
 10
6256.0752913253
 20
5046.6645011644
 30
0.0
 11
6255.4609447344
 21
5046.6645011644
 31
0.0
  0
LWPOLYLINE
  5
447
330
1F
100
AcDbEntity
  8
0
  6
Continuous
 62
     7
370
    25
100
AcDbPolyline
 90
        3
 70
   128
 43
0.0
 10
6256.5703197344
 20
5046.5948988917
 10
6256.2963668489
 20
5046.6552691975
 10
6256.0752913253
 20
5046.6645011644
  0
ARC
  5
448
330
1F
100
AcDbEntity
  8
0
  6
Continuous
 62
     7
370
    25
100
AcDbCircle
 10
6255.8201583636
 20
5045.5429978649
 30
0.0
 40
1.291989880885809
100
AcDbArc
 50
351.3075990635
 51
54.5055000013
  0
LWPOLYLINE
  5
449
330
1F
100
AcDbEntity
  8
0
  6
Continuous
 62
     7
370
    25
100
AcDbPolyline
 90
        3
 70
   128
 43
0.0
 10
6256.9581038253
 20
5044.4926261644
 10
6257.07396041
 20
5044.9653549502
 10
6257.0973083707
 20
5045.3477398008
  0
ARC
  5
44A
330
1F
100
AcDbEntity
  8
0
  6
Continuous
 62
     7
370
    25
100
AcDbCircle
 10
6256.2053187209
 20
5044.7791513663
 30
0.0
 40
0.8054701140568851
100
AcDbArc
 50
261.4260448051
 51
339.162165319
  0
LINE
  5
44B
330
1F
100
AcDbEntity
  8
0
  6
Continuous
 62
     7
370
    25
100
AcDbLine
 10
6255.4609447344
 20
5043.9826829826
 30
0.0
 11
6256.0852345071
 21
5043.9826829826
 31
0.0
  0
LINE
  5
44C
330
1F
100
AcDbEntity
  8
0
  6
Continuous
 62
     7
370
    25
100
AcDbLine
 10
6255.4609447344
 20
5046.6645011644
 30
0.0
 11
6255.4609447344
 21
5043.9826829826
 31
0.0
  0
LINE
  5
44D
330
1F
100
AcDbEntity
  8
0
  6
Continuous
 62
     7
370
    25
100
AcDbLine
 10
6259.3174788253
 20
5046.6645011644
 30
0.0
 11
6258.3700356434
 21
5046.6645011644
 31
0.0
  0
ARC
  5
44E
330
1F
100
AcDbEntity
  8
0
  6
Continuous
 62
     7
370
    25
100
AcDbCircle
 10
6259.3982496844
 20
5046.1076329364
 30
0.0
 40
0.5626954372749883
100
AcDbArc
 50
359.9327778554
 51
98.2529030539
  0
LINE
  5
44F
330
1F
100
AcDbEntity
  8
0
  6
Continuous
 62
     7
370
    25
100
AcDbLine
 10
6258.3700356434
 20
5045.5281375281
 30
0.0
 11
6259.223018598
 21
5045.5281375281
 31
0.0
  0
LINE
  5
450
330
1F
100
AcDbEntity
  8
0
  6
Continuous
 62
     7
370
    25
100
AcDbLine
 10
6258.3700356434
 20
5046.6645011644
 30
0.0
 11
6258.3700356434
 21
5045.5281375281
 31
0.0
  0
ARC
  5
451
330
1F
100
AcDbEntity
  8
0
  6
Continuous
 62
     7
370
    25
100
AcDbCircle
 10
6259.355097443
 20
5046.1195461943
 30
0.0
 40
0.6059777486225587
100
AcDbArc
 50
257.4107641279
 51
358.8110839196
  0
LWPOLYLINE
  5
452
330
1F
100
AcDbEntity
  8
0
  6
Continuous
 62
     7
370
    25
100
AcDbPolyline
 90
        5
 70
   128
 43
0.0
 10
6267.5060788948
 20
5039.1129715646
 10
6267.4700215041
 20
5039.5964246218
 10
6267.3791048746
 20
5039.819242527
 10
6267.2902428153
 20
5039.9008162554
 10
6267.1740983753
 20
5039.9311533828
  0
LWPOLYLINE
  5
453
330
1F
100
AcDbEntity
  8
0
  6
Continuous
 62
     7
370
    25
100
AcDbPolyline
 90
        5
 70
   128
 43
0.0
 10
6267.1862737
 20
5038.2947897464
 10
6267.2998533994
 20
5038.3284174508
 10
6267.3839934988
 20
5038.4130863602
 10
6267.4708552056
 20
5038.6348975823
 10
6267.5060788948
 20
5039.1129715646
  0
LWPOLYLINE
  5
454
330
1F
100
AcDbEntity
  8
0
  6
Continuous
 62
     7
370
    25
100
AcDbPolyline
 90
        5
 70
   128
 43
0.0
 10
6266.8567282455
 20
5039.1129715646
 10
6266.8926331486
 20
5038.63068163
 10
6266.982791227
 20
5038.408154294
 10
6267.0706464489
 20
5038.3258566787
 10
6267.1862737
 20
5038.2947897464
  0
LWPOLYLINE
  5
455
330
1F
100
AcDbEntity
  8
0
  6
Continuous
 62
     7
370
    25
100
AcDbPolyline
 90
        5
 70
   128
 43
0.0
 10
6267.1740983753
 20
5039.9311533828
 10
6267.0609288398
 20
5039.8971158596
 10
6266.9775629018
 20
5039.8119653882
 10
6266.8918696851
 20
5039.5901813418
 10
6266.8567282455
 20
5039.1129715646
  0
LWPOLYLINE
  5
456
330
1F
100
AcDbEntity
  8
0
  6
Continuous
 62
     7
370
    25
100
AcDbPolyline
 90
        3
 70
   128
 43
0.0
 10
6304.3954956014
 20
5048.3483277353
 10
6304.3285267315
 20
5048.5776463278
 10
6304.2818592378
 20
5048.7594478651
  0
LINE
  5
457
330
1F
100
AcDbEntity
  8
0
  6
Continuous
 62
     7
370
    25
100
AcDbLine
 10
6304.5627033936
 20
5047.7988147482
 30
0.0
 11
6304.3954956014
 21
5048.3483277353
 31
0.0
  0
LINE
  5
458
330
1F
100
AcDbEntity
  8
0
  6
Continuous
 62
     7
370
    25
100
AcDbLine
 10
6304.0006092378
 20
5047.7988147482
 30
0.0
 11
6304.5627033936
 21
5047.7988147482
 31
0.0
  0
LINE
  5
459
330
1F
100
AcDbEntity
  8
0
  6
Continuous
 62
     7
370
    25
100
AcDbLine
 10
6304.1889209261
 20
5048.3807952677
 30
0.0
 11
6304.0006092378
 21
5047.7988147482
 31
0.0
  0
LWPOLYLINE
  5
45A
330
1F
100
AcDbEntity
  8
0
  6
Continuous
 62
     7
370
    25
100
AcDbPolyline
 90
        3
 70
   128
 43
0.0
 10
6304.2818592378
 20
5048.7594478651
 10
6304.2362125097
 20
5048.545808153
 10
6304.1889209261
 20
5048.3807952677
  0
LWPOLYLINE
  5
45B
330
1F
100
AcDbEntity
  8
0
  6
Continuous
 62
     7
370
    25
100
AcDbPolyline
 90
        5
 70
   128
 43
0.0
 10
6271.2641957779
 20
5038.2947897464
 10
6271.3777754773
 20
5038.3284174508
 10
6271.4619155768
 20
5038.4130863602
 10
6271.5487772835
 20
5038.6348975823
 10
6271.5840009727
 20
5039.1129715646
  0
LWPOLYLINE
  5
45C
330
1F
100
AcDbEntity
  8
0
  6
Continuous
 62
     7
370
    25
100
AcDbPolyline
 90
        5
 70
   128
 43
0.0
 10
6271.5840009727
 20
5039.1129715646
 10
6271.547943582
 20
5039.5964246218
 10
6271.4570269525
 20
5039.819242527
 10
6271.3681648933
 20
5039.9008162554
 10
6271.2520204532
 20
5039.9311533828
  0
LWPOLYLINE
  5
45D
330
1F
100
AcDbEntity
  8
0
  6
Continuous
 62
     7
370
    25
100
AcDbPolyline
 90
        5
 70
   128
 43
0.0
 10
6270.9346503234
 20
5039.1129715646
 10
6270.9705552265
 20
5038.63068163
 10
6271.060713305
 20
5038.408154294
 10
6271.1485685268
 20
5038.3258566787
 10
6271.2641957779
 20
5038.2947897464
  0
LWPOLYLINE
  5
45E
330
1F
100
AcDbEntity
  8
0
  6
Continuous
 62
     7
370
    25
100
AcDbPolyline
 90
        5
 70
   128
 43
0.0
 10
6271.2520204532
 20
5039.9311533828
 10
6271.1388509177
 20
5039.8971158596
 10
6271.0554849797
 20
5039.8119653882
 10
6270.969791763
 20
5039.5901813418
 10
6270.9346503234
 20
5039.1129715646
  0
CIRCLE
  5
45F
330
1F
100
AcDbEntity
  8
0
  6
Continuous
 62
     7
370
    25
100
AcDbCircle
 10
6301.5187553361
 20
5048.543629105
 30
0.0
 40
1.0
  0
LWPOLYLINE
  5
460
330
1F
100
AcDbEntity
  8
0
  6
Continuous
 62
     7
370
    25
100
AcDbPolyline
 90
        5
 70
   128
 43
0.0
 10
6253.0904944792
 20
5039.1129715646
 10
6253.0544370885
 20
5039.5964246218
 10
6252.963520459
 20
5039.819242527
 10
6252.8746583998
 20
5039.9008162554
 10
6252.7585139597
 20
5039.9311533828
  0
LWPOLYLINE
  5
461
330
1F
100
AcDbEntity
  8
0
  6
Continuous
 62
     7
370
    25
100
AcDbPolyline
 90
        5
 70
   128
 43
0.0
 10
6252.7706892844
 20
5038.2947897464
 10
6252.8842689838
 20
5038.3284174508
 10
6252.9684090833
 20
5038.4130863602
 10
6253.05527079
 20
5038.6348975823
 10
6253.0904944792
 20
5039.1129715646
  0
LWPOLYLINE
  5
462
330
1F
100
AcDbEntity
  8
0
  6
Continuous
 62
     7
370
    25
100
AcDbPolyline
 90
        5
 70
   128
 43
0.0
 10
6252.4411438299
 20
5039.1129715646
 10
6252.477048733
 20
5038.63068163
 10
6252.5672068115
 20
5038.408154294
 10
6252.6550620333
 20
5038.3258566787
 10
6252.7706892844
 20
5038.2947897464
  0
LWPOLYLINE
  5
463
330
1F
100
AcDbEntity
  8
0
  6
Continuous
 62
     7
370
    25
100
AcDbPolyline
 90
        5
 70
   128
 43
0.0
 10
6252.7585139597
 20
5039.9311533828
 10
6252.6453444242
 20
5039.8971158596
 10
6252.5619784862
 20
5039.8119653882
 10
6252.4762852695
 20
5039.5901813418
 10
6252.4411438299
 20
5039.1129715646
  0
LWPOLYLINE
  5
464
330
1F
100
AcDbEntity
  8
0
  6
Continuous
 62
     7
370
    25
100
AcDbPolyline
 90
        5
 70
   128
 43
0.0
 10
6254.363221752
 20
5039.1129715646
 10
6254.3271643613
 20
5039.5964246218
 10
6254.2362477317
 20
5039.819242527
 10
6254.1473856725
 20
5039.9008162554
 10
6254.0312412325
 20
5039.9311533828
  0
LWPOLYLINE
  5
465
330
1F
100
AcDbEntity
  8
0
  6
Continuous
 62
     7
370
    25
100
AcDbPolyline
 90
        5
 70
   128
 43
0.0
 10
6254.0434165571
 20
5038.2947897464
 10
6254.1569962565
 20
5038.3284174508
 10
6254.241136356
 20
5038.4130863602
 10
6254.3279980627
 20
5038.6348975823
 10
6254.363221752
 20
5039.1129715646
  0
LWPOLYLINE
  5
466
330
1F
100
AcDbEntity
  8
0
  6
Continuous
 62
     7
370
    25
100
AcDbPolyline
 90
        5
 70
   128
 43
0.0
 10
6253.7138711026
 20
5039.1129715646
 10
6253.7497760057
 20
5038.63068163
 10
6253.8399340842
 20
5038.408154294
 10
6253.9277893061
 20
5038.3258566787
 10
6254.0434165571
 20
5038.2947897464
  0
LWPOLYLINE
  5
467
330
1F
100
AcDbEntity
  8
0
  6
Continuous
 62
     7
370
    25
100
AcDbPolyline
 90
        5
 70
   128
 43
0.0
 10
6254.0312412325
 20
5039.9311533828
 10
6253.9180716969
 20
5039.8971158596
 10
6253.8347057589
 20
5039.8119653882
 10
6253.7490125422
 20
5039.5901813418
 10
6253.7138711026
 20
5039.1129715646
  0
LWPOLYLINE
  5
468
330
1F
100
AcDbEntity
  8
0
  6
Continuous
 62
     7
370
    25
100
AcDbPolyline
 90
        5
 70
   128
 43
0.0
 10
6274.4590009727
 20
5038.2947897464
 10
6274.5725806721
 20
5038.3284174508
 10
6274.6567207716
 20
5038.4130863602
 10
6274.7435824783
 20
5038.6348975823
 10
6274.7788061675
 20
5039.1129715646
  0
LWPOLYLINE
  5
469
330
1F
100
AcDbEntity
  8
0
  6
Continuous
 62
     7
370
    25
100
AcDbPolyline
 90
        5
 70
   128
 43
0.0
 10
6274.1294555182
 20
5039.1129715646
 10
6274.1653604213
 20
5038.63068163
 10
6274.2555184998
 20
5038.408154294
 10
6274.3433737216
 20
5038.3258566787
 10
6274.4590009727
 20
5038.2947897464
  0
LWPOLYLINE
  5
46A
330
1F
100
AcDbEntity
  8
0
  6
Continuous
 62
     7
370
    25
100
AcDbPolyline
 90
        5
 70
   128
 43
0.0
 10
6274.4468256481
 20
5039.9311533828
 10
6274.3336561125
 20
5039.8971158596
 10
6274.2502901745
 20
5039.8119653882
 10
6274.1645969578
 20
5039.5901813418
 10
6274.1294555182
 20
5039.1129715646
  0
LWPOLYLINE
  5
46B
330
1F
100
AcDbEntity
  8
0
  6
Continuous
 62
     7
370
    25
100
AcDbPolyline
 90
        5
 70
   128
 43
0.0
 10
6274.7788061675
 20
5039.1129715646
 10
6274.7427487768
 20
5039.5964246218
 10
6274.6518321473
 20
5039.819242527
 10
6274.5629700881
 20
5039.9008162554
 10
6274.4468256481
 20
5039.9311533828
  0
LWPOLYLINE
  5
46C
330
1F
100
AcDbEntity
  8
0
  6
Continuous
 62
     7
370
    25
100
AcDbPolyline
 90
        3
 70
   128
 43
0.0
 10
6261.5190659078
 20
5039.9047735126
 10
6261.4734191797
 20
5039.6911338005
 10
6261.4261275961
 20
5039.5261209152
  0
LWPOLYLINE
  5
46D
330
1F
100
AcDbEntity
  8
0
  6
Continuous
 62
     7
370
    25
100
AcDbPolyline
 90
        3
 70
   128
 43
0.0
 10
6261.6327022714
 20
5039.4936533828
 10
6261.5657334015
 20
5039.7229719753
 10
6261.5190659078
 20
5039.9047735126
  0
LINE
  5
46E
330
1F
100
AcDbEntity
  8
0
  6
Continuous
 62
     7
370
    25
100
AcDbLine
 10
6261.7999100636
 20
5038.9441403958
 30
0.0
 11
6261.6327022714
 21
5039.4936533828
 31
0.0
  0
LINE
  5
46F
330
1F
100
AcDbEntity
  8
0
  6
Continuous
 62
     7
370
    25
100
AcDbLine
 10
6261.2378159078
 20
5038.9441403958
 30
0.0
 11
6261.7999100636
 21
5038.9441403958
 31
0.0
  0
LINE
  5
470
330
1F
100
AcDbEntity
  8
0
  6
Continuous
 62
     7
370
    25
100
AcDbLine
 10
6261.4261275961
 20
5039.5261209152
 30
0.0
 11
6261.2378159078
 21
5038.9441403958
 31
0.0
  0
LINE
  5
471
330
1F
100
AcDbEntity
  8
0
  6
Continuous
 62
     7
370
    25
100
AcDbLine
 10
6273.4154901889
 20
5046.4279954826
 30
0.0
 11
6272.5468822344
 21
5044.8463193463
 31
0.0
  0
LINE
  5
472
330
1F
100
AcDbEntity
  8
0
  6
Continuous
 62
     7
370
    25
100
AcDbLine
 10
6273.4154901889
 20
5044.8463193463
 30
0.0
 11
6273.4154901889
 21
5046.4279954826
 31
0.0
  0
LINE
  5
473
330
1F
100
AcDbEntity
  8
0
  6
Continuous
 62
     7
370
    25
100
AcDbLine
 10
6272.5468822344
 20
5044.8463193463
 30
0.0
 11
6273.4154901889
 21
5044.8463193463
 31
0.0
  0
ARC
  5
474
330
1F
100
AcDbEntity
  8
0
  6
Continuous
 62
     7
370
    25
100
AcDbCircle
 10
6273.1326975644
 20
5038.8276730342
 30
0.0
 40
0.3797779133834902
100
AcDbArc
 50
349.4692753713
 51
82.1374128456
  0
LWPOLYLINE
  5
475
330
1F
100
AcDbEntity
  8
0
  6
Continuous
 62
     7
370
    25
100
AcDbPolyline
 90
        5
 70
   128
 43
0.0
 10
6273.1984490247
 20
5038.2947897464
 10
6273.3083294398
 20
5038.323747411
 10
6273.395351798
 20
5038.3977349822
 10
6273.4570951012
 20
5038.4940968127
 10
6273.5060788948
 20
5038.7582637724
  0
LWPOLYLINE
  5
476
330
1F
100
AcDbEntity
  8
0
  6
Continuous
 62
     7
370
    25
100
AcDbPolyline
 90
        4
 70
   128
 43
0.0
 10
6273.1846503234
 20
5039.2038806555
 10
6273.0262998138
 20
5039.1537948614
 10
6272.9146430279
 20
5039.0290862688
 10
6272.8567282455
 20
5038.7732800061
  0
ARC
  5
477
330
1F
100
AcDbEntity
  8
0
  6
Continuous
 62
     7
370
    25
100
AcDbCircle
 10
6273.270500381
 20
5038.7075138331
 30
0.0
 40
0.4189660721891543
100
AcDbArc
 50
170.9687843031
 51
260.0973767404
  0
ARC
  5
478
330
1F
100
AcDbEntity
  8
0
  6
Continuous
 62
     7
370
    25
100
AcDbCircle
 10
6262.0287835415
 20
5035.7381768529
 30
0.0
 40
0.363191872631998
100
AcDbArc
 50
352.906821003
 51
84.9961656751
  0
ARC
  5
479
330
1F
100
AcDbEntity
  8
0
  6
Continuous
 62
     7
370
    25
100
AcDbCircle
 10
6262.0326902641
 20
5035.6521416753
 30
0.0
 40
0.3588767936525974
100
AcDbArc
 50
275.2836555273
 51
6.5901570832
  0
LWPOLYLINE
  5
47A
330
1F
100
AcDbEntity
  8
0
  6
Continuous
 62
     7
370
    25
100
AcDbPolyline
 90
        4
 70
   128
 43
0.0
 10
6262.0604620117
 20
5036.0999845516
 10
6261.9090671657
 20
5036.0565495716
 10
6261.7996510103
 20
5035.9420259552
 10
6261.7398451286
 20
5035.7014455906
  0
ARC
  5
47B
330
1F
100
AcDbEntity
  8
0
  6
Continuous
 62
     7
370
    25
100
AcDbCircle
 10
6262.0984605916
 20
5035.6549262859
 30
0.0
 40
0.3616200990307336
100
AcDbArc
 50
172.6089107075
 51
264.8082660924
  0
LINE
  5
47C
330
1F
100
AcDbEntity
  8
0
  6
Continuous
 62
     7
370
    25
100
AcDbLine
 10
6268.8388711026
 20
5038.9441403958
 30
0.0
 11
6268.6716633104
 21
5039.4936533828
 31
0.0
  0
LINE
  5
47D
330
1F
100
AcDbEntity
  8
0
  6
Continuous
 62
     7
370
    25
100
AcDbLine
 10
6268.2767769468
 20
5038.9441403958
 30
0.0
 11
6268.8388711026
 21
5038.9441403958
 31
0.0
  0
LINE
  5
47E
330
1F
100
AcDbEntity
  8
0
  6
Continuous
 62
     7
370
    25
100
AcDbLine
 10
6268.4650886351
 20
5039.5261209152
 30
0.0
 11
6268.2767769468
 21
5038.9441403958
 31
0.0
  0
LWPOLYLINE
  5
47F
330
1F
100
AcDbEntity
  8
0
  6
Continuous
 62
     7
370
    25
100
AcDbPolyline
 90
        3
 70
   128
 43
0.0
 10
6268.6716633104
 20
5039.4936533828
 10
6268.6046944405
 20
5039.7229719753
 10
6268.5580269468
 20
5039.9047735126
  0
LWPOLYLINE
  5
480
330
1F
100
AcDbEntity
  8
0
  6
Continuous
 62
     7
370
    25
100
AcDbPolyline
 90
        3
 70
   128
 43
0.0
 10
6268.5580269468
 20
5039.9047735126
 10
6268.5123802187
 20
5039.6911338005
 10
6268.4650886351
 20
5039.5261209152
  0
LWPOLYLINE
  5
481
330
1F
100
AcDbEntity
  8
0
  6
Continuous
 62
     7
370
    25
100
AcDbPolyline
 90
        5
 70
   128
 43
0.0
 10
6258.9346503234
 20
5039.1129715646
 10
6258.8985929327
 20
5039.5964246218
 10
6258.8076763031
 20
5039.819242527
 10
6258.7188142439
 20
5039.9008162554
 10
6258.6026698039
 20
5039.9311533828
  0
LWPOLYLINE
  5
482
330
1F
100
AcDbEntity
  8
0
  6
Continuous
 62
     7
370
    25
100
AcDbPolyline
 90
        5
 70
   128
 43
0.0
 10
6258.6148451286
 20
5038.2947897464
 10
6258.728424828
 20
5038.3284174508
 10
6258.8125649274
 20
5038.4130863602
 10
6258.8994266341
 20
5038.6348975823
 10
6258.9346503234
 20
5039.1129715646
  0
LWPOLYLINE
  5
483
330
1F
100
AcDbEntity
  8
0
  6
Continuous
 62
     7
370
    25
100
AcDbPolyline
 90
        5
 70
   128
 43
0.0
 10
6258.285299674
 20
5039.1129715646
 10
6258.3212045772
 20
5038.63068163
 10
6258.4113626556
 20
5038.408154294
 10
6258.4992178775
 20
5038.3258566787
 10
6258.6148451286
 20
5038.2947897464
  0
LWPOLYLINE
  5
484
330
1F
100
AcDbEntity
  8
0
  6
Continuous
 62
     7
370
    25
100
AcDbPolyline
 90
        5
 70
   128
 43
0.0
 10
6258.6026698039
 20
5039.9311533828
 10
6258.4895002683
 20
5039.8971158596
 10
6258.4061343304
 20
5039.8119653882
 10
6258.3204411137
 20
5039.5901813418
 10
6258.285299674
 20
5039.1129715646
  0
ARC
  5
485
330
1F
100
AcDbEntity
  8
0
  6
Continuous
 62
     7
370
    25
100
AcDbCircle
 10
6244.2131667826
 20
5036.3582087743
 30
0.0
 40
0.5470626969044079
100
AcDbArc
 50
22.6792057404
 51
88.9485492868
  0
LWPOLYLINE
  5
486
330
1F
100
AcDbEntity
  8
0
  6
Continuous
 62
     7
370
    25
100
AcDbPolyline
 90
        3
 70
   128
 43
0.0
 10
6244.8047801935
 20
5036.1170300061
 10
6244.7794305765
 20
5036.37496283
 10
6244.7179295442
 20
5036.5691403958
  0
ARC
  5
487
330
1F
100
AcDbEntity
  8
0
  6
Continuous
 62
     7
370
    25
100
AcDbCircle
 10
6244.1301663094
 20
5035.9997441466
 30
0.0
 40
0.6847334266170677
100
AcDbArc
 50
277.4324256867
 51
9.8626500241
  0
LWPOLYLINE
  5
488
330
1F
100
AcDbEntity
  8
0
  6
Continuous
 62
     7
370
    25
100
AcDbPolyline
 90
        5
 70
   128
 43
0.0
 10
6244.2232055182
 20
5036.9051793568
 10
6243.9508351598
 20
5036.8344153896
 10
6243.7525030935
 20
5036.6341354302
 10
6243.6588800345
 20
5036.3667250997
 10
6243.6359490247
 20
5036.0833449412
  0
ARC
  5
489
330
1F
100
AcDbEntity
  8
0
  6
Continuous
 62
     7
370
    25
100
AcDbCircle
 10
6244.285337238
 20
5035.9756449204
 30
0.0
 40
0.6582585707972185
100
AcDbArc
 50
170.583297834
 51
264.1934529832
  0
ARC
  5
48A
330
1F
100
AcDbEntity
  8
0
  6
Continuous
 62
     7
370
    25
100
AcDbCircle
 10
6262.0303557188
 20
5036.6498981113
 30
0.0
 40
0.2831784699737801
100
AcDbArc
 50
352.755673518
 51
83.318627775
  0
LWPOLYLINE
  5
48B
330
1F
100
AcDbEntity
  8
0
  6
Continuous
 62
     7
370
    25
100
AcDbPolyline
 90
        4
 70
   128
 43
0.0
 10
6262.0657379857
 20
5036.3077767594
 10
6262.1818627695
 20
5036.3414822373
 10
6262.2654072162
 20
5036.4296787151
 10
6262.3112737
 20
5036.6141890971
  0
ARC
  5
48C
330
1F
100
AcDbEntity
  8
0
  6
Continuous
 62
     7
370
    25
100
AcDbCircle
 10
6262.093408127
 20
5036.5852701301
 30
0.0
 40
0.2788695170142242
100
AcDbArc
 50
171.2730218717
 51
264.3055974621
  0
LWPOLYLINE
  5
48D
330
1F
100
AcDbEntity
  8
0
  6
Continuous
 62
     7
370
    25
100
AcDbPolyline
 90
        4
 70
   128
 43
0.0
 10
6262.0633029208
 20
5036.9311533828
 10
6261.9483487434
 20
5036.897320091
 10
6261.8651251122
 20
5036.8099928727
 10
6261.8177672065
 20
5036.6275819542
  0
LINE
  5
48E
330
1F
100
AcDbEntity
  8
0
  6
Continuous
 62
     7
370
    25
100
AcDbLine
 10
6248.9760464273
 20
5036.8792053308
 30
0.0
 11
6248.5450399338
 21
5036.8792053308
 31
0.0
  0
ARC
  5
48F
330
1F
100
AcDbEntity
  8
0
  6
Continuous
 62
     7
370
    25
100
AcDbCircle
 10
6249.0431919096
 20
5036.5517189781
 30
0.0
 40
0.3342990084219501
100
AcDbArc
 50
354.9802864074
 51
101.5869361881
  0
LINE
  5
490
330
1F
100
AcDbEntity
  8
0
  6
Continuous
 62
     7
370
    25
100
AcDbLine
 10
6248.5450399338
 20
5036.1519326036
 30
0.0
 11
6248.9801048688
 21
5036.1519326036
 31
0.0
  0
LINE
  5
491
330
1F
100
AcDbEntity
  8
0
  6
Continuous
 62
     7
370
    25
100
AcDbLine
 10
6248.5450399338
 20
5036.8792053308
 30
0.0
 11
6248.5450399338
 21
5036.1519326036
 31
0.0
  0
ARC
  5
492
330
1F
100
AcDbEntity
  8
0
  6
Continuous
 62
     7
370
    25
100
AcDbCircle
 10
6249.0333043061
 20
5036.4920482707
 30
0.0
 40
0.3442511396748868
100
AcDbArc
 50
261.1100722675
 51
5.0696030268
  0
LINE
  5
493
330
1F
100
AcDbEntity
  8
0
  6
Continuous
 62
     7
370
    25
100
AcDbLine
 10
6257.4281568169
 20
5039.7440592269
 30
0.0
 11
6256.9318094143
 21
5038.8402442919
 31
0.0
  0
LINE
  5
494
330
1F
100
AcDbEntity
  8
0
  6
Continuous
 62
     7
370
    25
100
AcDbLine
 10
6257.4281568169
 20
5038.8402442919
 30
0.0
 11
6257.4281568169
 21
5039.7440592269
 31
0.0
  0
LINE
  5
495
330
1F
100
AcDbEntity
  8
0
  6
Continuous
 62
     7
370
    25
100
AcDbLine
 10
6256.9318094143
 20
5038.8402442919
 30
0.0
 11
6257.4281568169
 21
5038.8402442919
 31
0.0
  0
LWPOLYLINE
  5
496
330
1F
100
AcDbEntity
  8
0
  6
Continuous
 62
     7
370
    25
100
AcDbPolyline
 90
        3
 70
   128
 43
0.0
 10
6264.7138711026
 20
5036.9047735126
 10
6264.6682243745
 20
5036.6911338005
 10
6264.6209327909
 20
5036.5261209152
  0
LWPOLYLINE
  5
497
330
1F
100
AcDbEntity
  8
0
  6
Continuous
 62
     7
370
    25
100
AcDbPolyline
 90
        3
 70
   128
 43
0.0
 10
6264.8275074662
 20
5036.4936533828
 10
6264.7605385963
 20
5036.7229719753
 10
6264.7138711026
 20
5036.9047735126
  0
LINE
  5
498
330
1F
100
AcDbEntity
  8
0
  6
Continuous
 62
     7
370
    25
100
AcDbLine
 10
6264.9947152584
 20
5035.9441403958
 30
0.0
 11
6264.8275074662
 21
5036.4936533828
 31
0.0
  0
LINE
  5
499
330
1F
100
AcDbEntity
  8
0
  6
Continuous
 62
     7
370
    25
100
AcDbLine
 10
6264.4326211026
 20
5035.9441403958
 30
0.0
 11
6264.9947152584
 21
5035.9441403958
 31
0.0
  0
LINE
  5
49A
330
1F
100
AcDbEntity
  8
0
  6
Continuous
 62
     7
370
    25
100
AcDbLine
 10
6264.6209327909
 20
5036.5261209152
 30
0.0
 11
6264.4326211026
 21
5035.9441403958
 31
0.0
  0
LINE
  5
49B
330
1F
100
AcDbEntity
  8
0
  6
Continuous
 62
     7
370
    25
100
AcDbLine
 10
6255.4021827909
 20
5036.7440592269
 30
0.0
 11
6254.9058353883
 21
5035.8402442919
 31
0.0
  0
LINE
  5
49C
330
1F
100
AcDbEntity
  8
0
  6
Continuous
 62
     7
370
    25
100
AcDbLine
 10
6255.4021827909
 20
5035.8402442919
 30
0.0
 11
6255.4021827909
 21
5036.7440592269
 31
0.0
  0
LINE
  5
49D
330
1F
100
AcDbEntity
  8
0
  6
Continuous
 62
     7
370
    25
100
AcDbLine
 10
6254.9058353883
 20
5035.8402442919
 30
0.0
 11
6255.4021827909
 21
5035.8402442919
 31
0.0
  0
LINE
  5
49E
330
1F
100
AcDbEntity
  8
0
  6
Continuous
 62
     7
370
    25
100
AcDbLine
 10
6308.5187553361
 20
5011.7681799928
 30
0.0
 11
6304.7752807008
 21
5011.7681799928
 31
0.0
  0
LINE
  5
49F
330
1F
100
AcDbEntity
  8
0
  6
Continuous
 62
     7
370
    25
100
AcDbLine
 10
6302.2752807008
 20
5011.7681799928
 30
0.0
 11
6304.7752807008
 21
5011.7681799928
 31
0.0
  0
LINE
  5
4A0
330
1F
100
AcDbEntity
  8
0
  6
Continuous
 62
     7
370
    25
100
AcDbLine
 10
6302.2752807008
 20
5011.7681799928
 30
0.0
 11
6300.7752807008
 21
5011.7681799928
 31
0.0
  0
LINE
  5
4A1
330
1F
100
AcDbEntity
  8
0
  6
Continuous
 62
     7
370
    25
100
AcDbLine
 10
6298.2752807008
 20
5011.7681799928
 30
0.0
 11
6300.7752807008
 21
5011.7681799928
 31
0.0
  0
LINE
  5
4A2
330
1F
100
AcDbEntity
  8
0
  6
Continuous
 62
     7
370
    25
100
AcDbLine
 10
6298.2752807008
 20
5011.7681799928
 30
0.0
 11
6296.7752807008
 21
5011.7681799928
 31
0.0
  0
LINE
  5
4A3
330
1F
100
AcDbEntity
  8
0
  6
Continuous
 62
     7
370
    25
100
AcDbLine
 10
6294.2752807008
 20
5011.7681799928
 30
0.0
 11
6296.7752807008
 21
5011.7681799928
 31
0.0
  0
LINE
  5
4A4
330
1F
100
AcDbEntity
  8
0
  6
Continuous
 62
     7
370
    25
100
AcDbLine
 10
6294.2752807008
 20
5011.7681799928
 30
0.0
 11
6292.7752807008
 21
5011.7681799928
 31
0.0
  0
LINE
  5
4A5
330
1F
100
AcDbEntity
  8
0
  6
Continuous
 62
     7
370
    25
100
AcDbLine
 10
6290.2752807008
 20
5011.7681799928
 30
0.0
 11
6292.7752807008
 21
5011.7681799928
 31
0.0
  0
LINE
  5
4A6
330
1F
100
AcDbEntity
  8
0
  6
Continuous
 62
     7
370
    25
100
AcDbLine
 10
6290.2752807008
 20
5011.7681799928
 30
0.0
 11
6288.7752807008
 21
5011.7681799928
 31
0.0
  0
LINE
  5
4A7
330
1F
100
AcDbEntity
  8
0
  6
Continuous
 62
     7
370
    25
100
AcDbLine
 10
6286.2752807008
 20
5011.7681799928
 30
0.0
 11
6288.7752807008
 21
5011.7681799928
 31
0.0
  0
LINE
  5
4A8
330
1F
100
AcDbEntity
  8
0
  6
Continuous
 62
     7
370
    25
100
AcDbLine
 10
6286.2752807008
 20
5011.7681799928
 30
0.0
 11
6284.7752807008
 21
5011.7681799928
 31
0.0
  0
LINE
  5
4A9
330
1F
100
AcDbEntity
  8
0
  6
Continuous
 62
     7
370
    25
100
AcDbLine
 10
6282.2752807008
 20
5011.7681799928
 30
0.0
 11
6284.7752807008
 21
5011.7681799928
 31
0.0
  0
LINE
  5
4AA
330
1F
100
AcDbEntity
  8
0
  6
Continuous
 62
     7
370
    25
100
AcDbLine
 10
6282.2752807008
 20
5011.7681799928
 30
0.0
 11
6280.7752807008
 21
5011.7681799928
 31
0.0
  0
LINE
  5
4AB
330
1F
100
AcDbEntity
  8
0
  6
Continuous
 62
     7
370
    25
100
AcDbLine
 10
6278.2752807008
 20
5011.7681799928
 30
0.0
 11
6280.7752807008
 21
5011.7681799928
 31
0.0
  0
LINE
  5
4AC
330
1F
100
AcDbEntity
  8
0
  6
Continuous
 62
     7
370
    25
100
AcDbLine
 10
6278.2752807008
 20
5011.7681799928
 30
0.0
 11
6276.7752807008
 21
5011.7681799928
 31
0.0
  0
LINE
  5
4AD
330
1F
100
AcDbEntity
  8
0
  6
Continuous
 62
     7
370
    25
100
AcDbLine
 10
6274.2752807008
 20
5011.7681799928
 30
0.0
 11
6276.7752807008
 21
5011.7681799928
 31
0.0
  0
LINE
  5
4AE
330
1F
100
AcDbEntity
  8
0
  6
Continuous
 62
     7
370
    25
100
AcDbLine
 10
6274.2752807008
 20
5011.7681799928
 30
0.0
 11
6272.7752807008
 21
5011.7681799928
 31
0.0
  0
LINE
  5
4AF
330
1F
100
AcDbEntity
  8
0
  6
Continuous
 62
     7
370
    25
100
AcDbLine
 10
6270.2752807008
 20
5011.7681799928
 30
0.0
 11
6272.7752807008
 21
5011.7681799928
 31
0.0
  0
LINE
  5
4B0
330
1F
100
AcDbEntity
  8
0
  6
Continuous
 62
     7
370
    25
100
AcDbLine
 10
6270.2752807008
 20
5011.7681799928
 30
0.0
 11
6268.7752807008
 21
5011.7681799928
 31
0.0
  0
LINE
  5
4B1
330
1F
100
AcDbEntity
  8
0
  6
Continuous
 62
     7
370
    25
100
AcDbLine
 10
6266.2752807008
 20
5011.7681799928
 30
0.0
 11
6268.7752807008
 21
5011.7681799928
 31
0.0
  0
LINE
  5
4B2
330
1F
100
AcDbEntity
  8
0
  6
Continuous
 62
     7
370
    25
100
AcDbLine
 10
6266.2752807008
 20
5011.7681799928
 30
0.0
 11
6264.7752807008
 21
5011.7681799928
 31
0.0
  0
LINE
  5
4B3
330
1F
100
AcDbEntity
  8
0
  6
Continuous
 62
     7
370
    25
100
AcDbLine
 10
6262.2752807008
 20
5011.7681799928
 30
0.0
 11
6264.7752807008
 21
5011.7681799928
 31
0.0
  0
LINE
  5
4B4
330
1F
100
AcDbEntity
  8
0
  6
Continuous
 62
     7
370
    25
100
AcDbLine
 10
6262.2752807008
 20
5011.7681799928
 30
0.0
 11
6260.7752807008
 21
5011.7681799928
 31
0.0
  0
LINE
  5
4B5
330
1F
100
AcDbEntity
  8
0
  6
Continuous
 62
     7
370
    25
100
AcDbLine
 10
6258.2752807008
 20
5011.7681799928
 30
0.0
 11
6260.7752807008
 21
5011.7681799928
 31
0.0
  0
LINE
  5
4B6
330
1F
100
AcDbEntity
  8
0
  6
Continuous
 62
     7
370
    25
100
AcDbLine
 10
6258.2752807008
 20
5011.7681799928
 30
0.0
 11
6256.7752807008
 21
5011.7681799928
 31
0.0
  0
LINE
  5
4B7
330
1F
100
AcDbEntity
  8
0
  6
Continuous
 62
     7
370
    25
100
AcDbLine
 10
6254.2752807008
 20
5011.7681799928
 30
0.0
 11
6256.7752807008
 21
5011.7681799928
 31
0.0
  0
LINE
  5
4B8
330
1F
100
AcDbEntity
  8
0
  6
Continuous
 62
     7
370
    25
100
AcDbLine
 10
6254.2752807008
 20
5011.7681799928
 30
0.0
 11
6252.7752807008
 21
5011.7681799928
 31
0.0
  0
LINE
  5
4B9
330
1F
100
AcDbEntity
  8
0
  6
Continuous
 62
     7
370
    25
100
AcDbLine
 10
6250.2752807008
 20
5011.7681799928
 30
0.0
 11
6252.7752807008
 21
5011.7681799928
 31
0.0
  0
LINE
  5
4BA
330
1F
100
AcDbEntity
  8
0
  6
Continuous
 62
     7
370
    25
100
AcDbLine
 10
6250.2752807008
 20
5011.7681799928
 30
0.0
 11
6248.7752807008
 21
5011.7681799928
 31
0.0
  0
LINE
  5
4BB
330
1F
100
AcDbEntity
  8
0
  6
Continuous
 62
     7
370
    25
100
AcDbLine
 10
6246.2752807008
 20
5011.7681799928
 30
0.0
 11
6248.7752807008
 21
5011.7681799928
 31
0.0
  0
LINE
  5
4BC
330
1F
100
AcDbEntity
  8
0
  6
Continuous
 62
     7
370
    25
100
AcDbLine
 10
6246.2752807008
 20
5011.7681799928
 30
0.0
 11
6244.7752807008
 21
5011.7681799928
 31
0.0
  0
LINE
  5
4BD
330
1F
100
AcDbEntity
  8
0
  6
Continuous
 62
     7
370
    25
100
AcDbLine
 10
6242.2752807008
 20
5011.7681799928
 30
0.0
 11
6244.7752807008
 21
5011.7681799928
 31
0.0
  0
LINE
  5
4BE
330
1F
100
AcDbEntity
  8
0
  6
Continuous
 62
     7
370
    25
100
AcDbLine
 10
6242.2752807008
 20
5011.7681799928
 30
0.0
 11
6239.5187553361
 21
5011.7681799928
 31
0.0
  0
LINE
  5
4BF
330
1F
100
AcDbEntity
  8
0
  6
Continuous
 62
     7
370
    25
100
AcDbLine
 10
6308.5187553361
 20
5013.7681799928
 30
0.0
 11
6308.5187553361
 21
5011.7681799928
 31
0.0
  0
LINE
  5
4C0
330
1F
100
AcDbEntity
  8
0
  6
Continuous
 62
     7
370
    25
100
AcDbLine
 10
6239.5187553361
 20
5013.7681799928
 30
0.0
 11
6239.5187553361
 21
5011.7681799928
 31
0.0
  0
LINE
  5
4C1
330
1F
100
AcDbEntity
  8
0
  6
Continuous
 62
     7
370
    25
100
AcDbLine
 10
6308.5187553361
 20
5065.7681799928
 30
0.0
 11
6239.5187553361
 21
5065.7681799928
 31
0.0
  0
LINE
  5
4C2
330
1F
100
AcDbEntity
  8
0
  6
Continuous
 62
     7
370
    25
100
AcDbLine
 10
6308.5187553361
 20
5065.7681799928
 30
0.0
 11
6308.5187553361
 21
5056.7681799928
 31
0.0
  0
LINE
  5
4C3
330
1F
100
AcDbEntity
  8
0
  6
Continuous
 62
     7
370
    25
100
AcDbLine
 10
6239.5187553361
 20
5065.7681799928
 30
0.0
 11
6239.5187553361
 21
5056.7681799928
 31
0.0
  0
LINE
  5
4C4
330
1F
100
AcDbEntity
  8
0
  6
Continuous
 62
     7
370
    25
100
AcDbLine
 10
6308.5187553361
 20
5002.7681799928
 30
0.0
 11
6239.5187553361
 21
5002.7681799928
 31
0.0
  0
LINE
  5
4C5
330
1F
100
AcDbEntity
  8
0
  6
Continuous
 62
     7
370
    25
100
AcDbLine
 10
6308.5187553361
 20
5011.7681799928
 30
0.0
 11
6308.5187553361
 21
5002.7681799928
 31
0.0
  0
LINE
  5
4C6
330
1F
100
AcDbEntity
  8
0
  6
Continuous
 62
     7
370
    25
100
AcDbLine
 10
6239.5187553361
 20
5011.7681799928
 30
0.0
 11
6239.5187553361
 21
5002.7681799928
 31
0.0
  0
LINE
  5
4C7
330
1F
100
AcDbEntity
  8
0
  6
Continuous
 62
     7
370
    25
100
AcDbLine
 10
6296.0187553361
 20
5079.0282395112
 30
0.0
 11
6292.0187553361
 21
5079.0282395112
 31
0.0
  0
LINE
  5
4C8
330
1F
100
AcDbEntity
  8
0
  6
Continuous
 62
     7
370
    25
100
AcDbLine
 10
6292.0187553361
 20
5079.0282395112
 30
0.0
 11
6292.0187553361
 21
5078.8853823684
 31
0.0
  0
LINE
  5
4C9
330
1F
100
AcDbEntity
  8
0
  6
Continuous
 62
     7
370
    25
100
AcDbLine
 10
6292.0187553361
 20
5078.8853823684
 30
0.0
 11
6296.0187553361
 21
5078.8853823684
 31
0.0
  0
LINE
  5
4CA
330
1F
100
AcDbEntity
  8
0
  6
Continuous
 62
     7
370
    25
100
AcDbLine
 10
6296.0187553361
 20
5078.8853823684
 30
0.0
 11
6296.0187553361
 21
5079.0282395112
 31
0.0
  0
LINE
  5
4CB
330
1F
100
AcDbEntity
  8
0
  6
Continuous
 62
     7
370
    25
100
AcDbLine
 10
6285.0187553361
 20
5079.0282395112
 30
0.0
 11
6281.0187553361
 21
5079.0282395112
 31
0.0
  0
LINE
  5
4CC
330
1F
100
AcDbEntity
  8
0
  6
Continuous
 62
     7
370
    25
100
AcDbLine
 10
6281.0187553361
 20
5079.0282395112
 30
0.0
 11
6281.0187553361
 21
5078.8853823684
 31
0.0
  0
LINE
  5
4CD
330
1F
100
AcDbEntity
  8
0
  6
Continuous
 62
     7
370
    25
100
AcDbLine
 10
6281.0187553361
 20
5078.8853823684
 30
0.0
 11
6285.0187553361
 21
5078.8853823684
 31
0.0
  0
LINE
  5
4CE
330
1F
100
AcDbEntity
  8
0
  6
Continuous
 62
     7
370
    25
100
AcDbLine
 10
6285.0187553361
 20
5078.8853823684
 30
0.0
 11
6285.0187553361
 21
5079.0282395112
 31
0.0
  0
LINE
  5
4CF
330
1F
100
AcDbEntity
  8
0
  6
Continuous
 62
     7
370
    25
100
AcDbLine
 10
6308.5187553361
 20
5079.2681799928
 30
0.0
 11
6239.5187553361
 21
5079.2681799928
 31
0.0
  0
LINE
  5
4D0
330
1F
100
AcDbEntity
  8
0
  6
Continuous
 62
     7
370
    25
100
AcDbLine
 10
6308.5187553361
 20
5078.2681799928
 30
0.0
 11
6239.5187553361
 21
5078.2681799928
 31
0.0
  0
LINE
  5
4D1
330
1F
100
AcDbEntity
  8
0
  6
Continuous
 62
     7
370
    25
100
AcDbLine
 10
6304.0187553361
 20
5078.3253228499
 30
0.0
 11
6306.5187553361
 21
5078.4519397673
 31
0.0
  0
LINE
  5
4D2
330
1F
100
AcDbEntity
  8
0
  6
Continuous
 62
     7
370
    25
100
AcDbLine
 10
6306.5187553361
 20
5078.3253228499
 30
0.0
 11
6304.0187553361
 21
5078.3253228499
 31
0.0
  0
LINE
  5
4D3
330
1F
100
AcDbEntity
  8
0
  6
Continuous
 62
     7
370
    25
100
AcDbLine
 10
6243.634528442
 20
5078.7110371356
 30
0.0
 11
6246.134528442
 21
5078.7110371356
 31
0.0
  0
LINE
  5
4D4
330
1F
100
AcDbEntity
  8
0
  6
Continuous
 62
     7
370
    25
100
AcDbLine
 10
6241.5187553361
 20
5078.6038800682
 30
0.0
 11
6243.634528442
 21
5078.7110371356
 31
0.0
  0
LINE
  5
4D5
330
1F
100
AcDbEntity
  8
0
  6
Continuous
 62
     7
370
    25
100
AcDbLine
 10
6246.134528442
 20
5078.7110371356
 30
0.0
 11
6241.5187553361
 21
5078.4772631508
 31
0.0
  0
LINE
  5
4D6
330
1F
100
AcDbEntity
  8
0
  6
Continuous
 62
     7
370
    25
100
AcDbLine
 10
6282.5187553361
 20
5078.3253228499
 30
0.0
 11
6280.0187553361
 21
5078.3253228499
 31
0.0
  0
LINE
  5
4D7
330
1F
100
AcDbEntity
  8
0
  6
Continuous
 62
     7
370
    25
100
AcDbLine
 10
6290.134528442
 20
5078.7110371356
 30
0.0
 11
6282.5187553361
 21
5078.3253228499
 31
0.0
  0
LINE
  5
4D8
330
1F
100
AcDbEntity
  8
0
  6
Continuous
 62
     7
370
    25
100
AcDbLine
 10
6287.634528442
 20
5078.7110371356
 30
0.0
 11
6290.134528442
 21
5078.7110371356
 31
0.0
  0
LINE
  5
4D9
330
1F
100
AcDbEntity
  8
0
  6
Continuous
 62
     7
370
    25
100
AcDbLine
 10
6280.0187553361
 20
5078.3253228499
 30
0.0
 11
6287.634528442
 21
5078.7110371356
 31
0.0
  0
LINE
  5
4DA
330
1F
100
AcDbEntity
  8
0
  6
Continuous
 62
     7
370
    25
100
AcDbLine
 10
6286.5187553361
 20
5078.3253228499
 30
0.0
 11
6284.0187553361
 21
5078.3253228499
 31
0.0
  0
LINE
  5
4DB
330
1F
100
AcDbEntity
  8
0
  6
Continuous
 62
     7
370
    25
100
AcDbLine
 10
6294.134528442
 20
5078.7110371356
 30
0.0
 11
6286.5187553361
 21
5078.3253228499
 31
0.0
  0
LINE
  5
4DC
330
1F
100
AcDbEntity
  8
0
  6
Continuous
 62
     7
370
    25
100
AcDbLine
 10
6291.634528442
 20
5078.7110371356
 30
0.0
 11
6294.134528442
 21
5078.7110371356
 31
0.0
  0
LINE
  5
4DD
330
1F
100
AcDbEntity
  8
0
  6
Continuous
 62
     7
370
    25
100
AcDbLine
 10
6284.0187553361
 20
5078.3253228499
 30
0.0
 11
6291.634528442
 21
5078.7110371356
 31
0.0
  0
LINE
  5
4DE
330
1F
100
AcDbEntity
  8
0
  6
Continuous
 62
     7
370
    25
100
AcDbLine
 10
6274.5187553361
 20
5078.3253228499
 30
0.0
 11
6272.0187553361
 21
5078.3253228499
 31
0.0
  0
LINE
  5
4DF
330
1F
100
AcDbEntity
  8
0
  6
Continuous
 62
     7
370
    25
100
AcDbLine
 10
6282.134528442
 20
5078.7110371356
 30
0.0
 11
6274.5187553361
 21
5078.3253228499
 31
0.0
  0
LINE
  5
4E0
330
1F
100
AcDbEntity
  8
0
  6
Continuous
 62
     7
370
    25
100
AcDbLine
 10
6279.634528442
 20
5078.7110371356
 30
0.0
 11
6282.134528442
 21
5078.7110371356
 31
0.0
  0
LINE
  5
4E1
330
1F
100
AcDbEntity
  8
0
  6
Continuous
 62
     7
370
    25
100
AcDbLine
 10
6272.0187553361
 20
5078.3253228499
 30
0.0
 11
6279.634528442
 21
5078.7110371356
 31
0.0
  0
LINE
  5
4E2
330
1F
100
AcDbEntity
  8
0
  6
Continuous
 62
     7
370
    25
100
AcDbLine
 10
6278.5187553361
 20
5078.3253228499
 30
0.0
 11
6276.0187553361
 21
5078.3253228499
 31
0.0
  0
LINE
  5
4E3
330
1F
100
AcDbEntity
  8
0
  6
Continuous
 62
     7
370
    25
100
AcDbLine
 10
6286.134528442
 20
5078.7110371356
 30
0.0
 11
6278.5187553361
 21
5078.3253228499
 31
0.0
  0
LINE
  5
4E4
330
1F
100
AcDbEntity
  8
0
  6
Continuous
 62
     7
370
    25
100
AcDbLine
 10
6283.634528442
 20
5078.7110371356
 30
0.0
 11
6286.134528442
 21
5078.7110371356
 31
0.0
  0
LINE
  5
4E5
330
1F
100
AcDbEntity
  8
0
  6
Continuous
 62
     7
370
    25
100
AcDbLine
 10
6276.0187553361
 20
5078.3253228499
 30
0.0
 11
6283.634528442
 21
5078.7110371356
 31
0.0
  0
LINE
  5
4E6
330
1F
100
AcDbEntity
  8
0
  6
Continuous
 62
     7
370
    25
100
AcDbLine
 10
6298.5187553361
 20
5078.3253228499
 30
0.0
 11
6296.0187553361
 21
5078.3253228499
 31
0.0
  0
LINE
  5
4E7
330
1F
100
AcDbEntity
  8
0
  6
Continuous
 62
     7
370
    25
100
AcDbLine
 10
6306.134528442
 20
5078.7110371356
 30
0.0
 11
6298.5187553361
 21
5078.3253228499
 31
0.0
  0
LINE
  5
4E8
330
1F
100
AcDbEntity
  8
0
  6
Continuous
 62
     7
370
    25
100
AcDbLine
 10
6303.634528442
 20
5078.7110371356
 30
0.0
 11
6306.134528442
 21
5078.7110371356
 31
0.0
  0
LINE
  5
4E9
330
1F
100
AcDbEntity
  8
0
  6
Continuous
 62
     7
370
    25
100
AcDbLine
 10
6296.0187553361
 20
5078.3253228499
 30
0.0
 11
6303.634528442
 21
5078.7110371356
 31
0.0
  0
LINE
  5
4EA
330
1F
100
AcDbEntity
  8
0
  6
Continuous
 62
     7
370
    25
100
AcDbLine
 10
6300.0187553361
 20
5078.3253228499
 30
0.0
 11
6306.5187553361
 21
5078.6545268352
 31
0.0
  0
LINE
  5
4EB
330
1F
100
AcDbEntity
  8
0
  6
Continuous
 62
     7
370
    25
100
AcDbLine
 10
6302.5187553361
 20
5078.3253228499
 30
0.0
 11
6300.0187553361
 21
5078.3253228499
 31
0.0
  0
LINE
  5
4EC
330
1F
100
AcDbEntity
  8
0
  6
Continuous
 62
     7
370
    25
100
AcDbLine
 10
6306.5187553361
 20
5078.5279099178
 30
0.0
 11
6302.5187553361
 21
5078.3253228499
 31
0.0
  0
LINE
  5
4ED
330
1F
100
AcDbEntity
  8
0
  6
Continuous
 62
     7
370
    25
100
AcDbLine
 10
6290.5187553361
 20
5078.3253228499
 30
0.0
 11
6288.0187553361
 21
5078.3253228499
 31
0.0
  0
LINE
  5
4EE
330
1F
100
AcDbEntity
  8
0
  6
Continuous
 62
     7
370
    25
100
AcDbLine
 10
6298.134528442
 20
5078.7110371356
 30
0.0
 11
6290.5187553361
 21
5078.3253228499
 31
0.0
  0
LINE
  5
4EF
330
1F
100
AcDbEntity
  8
0
  6
Continuous
 62
     7
370
    25
100
AcDbLine
 10
6295.634528442
 20
5078.7110371356
 30
0.0
 11
6298.134528442
 21
5078.7110371356
 31
0.0
  0
LINE
  5
4F0
330
1F
100
AcDbEntity
  8
0
  6
Continuous
 62
     7
370
    25
100
AcDbLine
 10
6288.0187553361
 20
5078.3253228499
 30
0.0
 11
6295.634528442
 21
5078.7110371356
 31
0.0
  0
LINE
  5
4F1
330
1F
100
AcDbEntity
  8
0
  6
Continuous
 62
     7
370
    25
100
AcDbLine
 10
6294.5187553361
 20
5078.3253228499
 30
0.0
 11
6292.0187553361
 21
5078.3253228499
 31
0.0
  0
LINE
  5
4F2
330
1F
100
AcDbEntity
  8
0
  6
Continuous
 62
     7
370
    25
100
AcDbLine
 10
6302.134528442
 20
5078.7110371356
 30
0.0
 11
6294.5187553361
 21
5078.3253228499
 31
0.0
  0
LINE
  5
4F3
330
1F
100
AcDbEntity
  8
0
  6
Continuous
 62
     7
370
    25
100
AcDbLine
 10
6299.634528442
 20
5078.7110371356
 30
0.0
 11
6302.134528442
 21
5078.7110371356
 31
0.0
  0
LINE
  5
4F4
330
1F
100
AcDbEntity
  8
0
  6
Continuous
 62
     7
370
    25
100
AcDbLine
 10
6292.0187553361
 20
5078.3253228499
 30
0.0
 11
6299.634528442
 21
5078.7110371356
 31
0.0
  0
LINE
  5
4F5
330
1F
100
AcDbEntity
  8
0
  6
Continuous
 62
     7
370
    25
100
AcDbLine
 10
6250.5187553361
 20
5078.3253228499
 30
0.0
 11
6248.0187553361
 21
5078.3253228499
 31
0.0
  0
LINE
  5
4F6
330
1F
100
AcDbEntity
  8
0
  6
Continuous
 62
     7
370
    25
100
AcDbLine
 10
6258.134528442
 20
5078.7110371356
 30
0.0
 11
6250.5187553361
 21
5078.3253228499
 31
0.0
  0
LINE
  5
4F7
330
1F
100
AcDbEntity
  8
0
  6
Continuous
 62
     7
370
    25
100
AcDbLine
 10
6255.634528442
 20
5078.7110371356
 30
0.0
 11
6258.134528442
 21
5078.7110371356
 31
0.0
  0
LINE
  5
4F8
330
1F
100
AcDbEntity
  8
0
  6
Continuous
 62
     7
370
    25
100
AcDbLine
 10
6248.0187553361
 20
5078.3253228499
 30
0.0
 11
6255.634528442
 21
5078.7110371356
 31
0.0
  0
LINE
  5
4F9
330
1F
100
AcDbEntity
  8
0
  6
Continuous
 62
     7
370
    25
100
AcDbLine
 10
6254.5187553361
 20
5078.3253228499
 30
0.0
 11
6252.0187553361
 21
5078.3253228499
 31
0.0
  0
LINE
  5
4FA
330
1F
100
AcDbEntity
  8
0
  6
Continuous
 62
     7
370
    25
100
AcDbLine
 10
6262.134528442
 20
5078.7110371356
 30
0.0
 11
6254.5187553361
 21
5078.3253228499
 31
0.0
  0
LINE
  5
4FB
330
1F
100
AcDbEntity
  8
0
  6
Continuous
 62
     7
370
    25
100
AcDbLine
 10
6259.634528442
 20
5078.7110371356
 30
0.0
 11
6262.134528442
 21
5078.7110371356
 31
0.0
  0
LINE
  5
4FC
330
1F
100
AcDbEntity
  8
0
  6
Continuous
 62
     7
370
    25
100
AcDbLine
 10
6252.0187553361
 20
5078.3253228499
 30
0.0
 11
6259.634528442
 21
5078.7110371356
 31
0.0
  0
LINE
  5
4FD
330
1F
100
AcDbEntity
  8
0
  6
Continuous
 62
     7
370
    25
100
AcDbLine
 10
6242.5187553361
 20
5078.3253228499
 30
0.0
 11
6241.5187553361
 21
5078.3253228499
 31
0.0
  0
LINE
  5
4FE
330
1F
100
AcDbEntity
  8
0
  6
Continuous
 62
     7
370
    25
100
AcDbLine
 10
6250.134528442
 20
5078.7110371356
 30
0.0
 11
6242.5187553361
 21
5078.3253228499
 31
0.0
  0
LINE
  5
4FF
330
1F
100
AcDbEntity
  8
0
  6
Continuous
 62
     7
370
    25
100
AcDbLine
 10
6247.634528442
 20
5078.7110371356
 30
0.0
 11
6250.134528442
 21
5078.7110371356
 31
0.0
  0
LINE
  5
500
330
1F
100
AcDbEntity
  8
0
  6
Continuous
 62
     7
370
    25
100
AcDbLine
 10
6241.5187553361
 20
5078.4012930004
 30
0.0
 11
6247.634528442
 21
5078.7110371356
 31
0.0
  0
LINE
  5
501
330
1F
100
AcDbEntity
  8
0
  6
Continuous
 62
     7
370
    25
100
AcDbLine
 10
6246.5187553361
 20
5078.3253228499
 30
0.0
 11
6244.0187553361
 21
5078.3253228499
 31
0.0
  0
LINE
  5
502
330
1F
100
AcDbEntity
  8
0
  6
Continuous
 62
     7
370
    25
100
AcDbLine
 10
6254.134528442
 20
5078.7110371356
 30
0.0
 11
6246.5187553361
 21
5078.3253228499
 31
0.0
  0
LINE
  5
503
330
1F
100
AcDbEntity
  8
0
  6
Continuous
 62
     7
370
    25
100
AcDbLine
 10
6251.634528442
 20
5078.7110371356
 30
0.0
 11
6254.134528442
 21
5078.7110371356
 31
0.0
  0
LINE
  5
504
330
1F
100
AcDbEntity
  8
0
  6
Continuous
 62
     7
370
    25
100
AcDbLine
 10
6244.0187553361
 20
5078.3253228499
 30
0.0
 11
6251.634528442
 21
5078.7110371356
 31
0.0
  0
LINE
  5
505
330
1F
100
AcDbEntity
  8
0
  6
Continuous
 62
     7
370
    25
100
AcDbLine
 10
6266.5187553361
 20
5078.3253228499
 30
0.0
 11
6264.0187553361
 21
5078.3253228499
 31
0.0
  0
LINE
  5
506
330
1F
100
AcDbEntity
  8
0
  6
Continuous
 62
     7
370
    25
100
AcDbLine
 10
6274.134528442
 20
5078.7110371356
 30
0.0
 11
6266.5187553361
 21
5078.3253228499
 31
0.0
  0
LINE
  5
507
330
1F
100
AcDbEntity
  8
0
  6
Continuous
 62
     7
370
    25
100
AcDbLine
 10
6271.634528442
 20
5078.7110371356
 30
0.0
 11
6274.134528442
 21
5078.7110371356
 31
0.0
  0
LINE
  5
508
330
1F
100
AcDbEntity
  8
0
  6
Continuous
 62
     7
370
    25
100
AcDbLine
 10
6264.0187553361
 20
5078.3253228499
 30
0.0
 11
6271.634528442
 21
5078.7110371356
 31
0.0
  0
LINE
  5
509
330
1F
100
AcDbEntity
  8
0
  6
Continuous
 62
     7
370
    25
100
AcDbLine
 10
6270.5187553361
 20
5078.3253228499
 30
0.0
 11
6268.0187553361
 21
5078.3253228499
 31
0.0
  0
LINE
  5
50A
330
1F
100
AcDbEntity
  8
0
  6
Continuous
 62
     7
370
    25
100
AcDbLine
 10
6278.134528442
 20
5078.7110371356
 30
0.0
 11
6270.5187553361
 21
5078.3253228499
 31
0.0
  0
LINE
  5
50B
330
1F
100
AcDbEntity
  8
0
  6
Continuous
 62
     7
370
    25
100
AcDbLine
 10
6275.634528442
 20
5078.7110371356
 30
0.0
 11
6278.134528442
 21
5078.7110371356
 31
0.0
  0
LINE
  5
50C
330
1F
100
AcDbEntity
  8
0
  6
Continuous
 62
     7
370
    25
100
AcDbLine
 10
6268.0187553361
 20
5078.3253228499
 30
0.0
 11
6275.634528442
 21
5078.7110371356
 31
0.0
  0
LINE
  5
50D
330
1F
100
AcDbEntity
  8
0
  6
Continuous
 62
     7
370
    25
100
AcDbLine
 10
6258.5187553361
 20
5078.3253228499
 30
0.0
 11
6256.0187553361
 21
5078.3253228499
 31
0.0
  0
LINE
  5
50E
330
1F
100
AcDbEntity
  8
0
  6
Continuous
 62
     7
370
    25
100
AcDbLine
 10
6266.134528442
 20
5078.7110371356
 30
0.0
 11
6258.5187553361
 21
5078.3253228499
 31
0.0
  0
LINE
  5
50F
330
1F
100
AcDbEntity
  8
0
  6
Continuous
 62
     7
370
    25
100
AcDbLine
 10
6263.634528442
 20
5078.7110371356
 30
0.0
 11
6266.134528442
 21
5078.7110371356
 31
0.0
  0
LINE
  5
510
330
1F
100
AcDbEntity
  8
0
  6
Continuous
 62
     7
370
    25
100
AcDbLine
 10
6256.0187553361
 20
5078.3253228499
 30
0.0
 11
6263.634528442
 21
5078.7110371356
 31
0.0
  0
LINE
  5
511
330
1F
100
AcDbEntity
  8
0
  6
Continuous
 62
     7
370
    25
100
AcDbLine
 10
6262.5187553361
 20
5078.3253228499
 30
0.0
 11
6260.0187553361
 21
5078.3253228499
 31
0.0
  0
LINE
  5
512
330
1F
100
AcDbEntity
  8
0
  6
Continuous
 62
     7
370
    25
100
AcDbLine
 10
6270.134528442
 20
5078.7110371356
 30
0.0
 11
6262.5187553361
 21
5078.3253228499
 31
0.0
  0
LINE
  5
513
330
1F
100
AcDbEntity
  8
0
  6
Continuous
 62
     7
370
    25
100
AcDbLine
 10
6267.634528442
 20
5078.7110371356
 30
0.0
 11
6270.134528442
 21
5078.7110371356
 31
0.0
  0
LINE
  5
514
330
1F
100
AcDbEntity
  8
0
  6
Continuous
 62
     7
370
    25
100
AcDbLine
 10
6260.0187553361
 20
5078.3253228499
 30
0.0
 11
6267.634528442
 21
5078.7110371356
 31
0.0
  0
LINE
  5
515
330
1F
100
AcDbEntity
  8
0
  6
Continuous
 62
     7
370
    25
100
AcDbLine
 10
6279.5187553361
 20
5079.0282395112
 30
0.0
 11
6275.5187553361
 21
5079.0282395112
 31
0.0
  0
LINE
  5
516
330
1F
100
AcDbEntity
  8
0
  6
Continuous
 62
     7
370
    25
100
AcDbLine
 10
6275.5187553361
 20
5079.0282395112
 30
0.0
 11
6275.5187553361
 21
5078.8853823684
 31
0.0
  0
LINE
  5
517
330
1F
100
AcDbEntity
  8
0
  6
Continuous
 62
     7
370
    25
100
AcDbLine
 10
6275.5187553361
 20
5078.8853823684
 30
0.0
 11
6279.5187553361
 21
5078.8853823684
 31
0.0
  0
LINE
  5
518
330
1F
100
AcDbEntity
  8
0
  6
Continuous
 62
     7
370
    25
100
AcDbLine
 10
6279.5187553361
 20
5078.8853823684
 30
0.0
 11
6279.5187553361
 21
5079.0282395112
 31
0.0
  0
LINE
  5
519
330
1F
100
AcDbEntity
  8
0
  6
Continuous
 62
     7
370
    25
100
AcDbLine
 10
6290.5187553361
 20
5079.0282395112
 30
0.0
 11
6286.5187553361
 21
5079.0282395112
 31
0.0
  0
LINE
  5
51A
330
1F
100
AcDbEntity
  8
0
  6
Continuous
 62
     7
370
    25
100
AcDbLine
 10
6286.5187553361
 20
5079.0282395112
 30
0.0
 11
6286.5187553361
 21
5078.8853823684
 31
0.0
  0
LINE
  5
51B
330
1F
100
AcDbEntity
  8
0
  6
Continuous
 62
     7
370
    25
100
AcDbLine
 10
6286.5187553361
 20
5078.8853823684
 30
0.0
 11
6290.5187553361
 21
5078.8853823684
 31
0.0
  0
LINE
  5
51C
330
1F
100
AcDbEntity
  8
0
  6
Continuous
 62
     7
370
    25
100
AcDbLine
 10
6290.5187553361
 20
5078.8853823684
 30
0.0
 11
6290.5187553361
 21
5079.0282395112
 31
0.0
  0
LINE
  5
51D
330
1F
100
AcDbEntity
  8
0
  6
Continuous
 62
     7
370
    25
100
AcDbLine
 10
6306.5187553361
 20
5078.6545268352
 30
0.0
 11
6306.5187553361
 21
5078.5279099178
 31
0.0
  0
LINE
  5
51E
330
1F
100
AcDbEntity
  8
0
  6
Continuous
 62
     7
370
    25
100
AcDbLine
 10
6306.5187553361
 20
5078.4519397673
 30
0.0
 11
6306.5187553361
 21
5078.3253228499
 31
0.0
  0
LINE
  5
51F
330
1F
100
AcDbEntity
  8
0
  6
Continuous
 62
     7
370
    25
100
AcDbLine
 10
6241.5187553361
 20
5078.3253228499
 30
0.0
 11
6241.5187553361
 21
5078.4012930004
 31
0.0
  0
LINE
  5
520
330
1F
100
AcDbEntity
  8
0
  6
Continuous
 62
     7
370
    25
100
AcDbLine
 10
6241.5187553361
 20
5078.4772631508
 30
0.0
 11
6241.5187553361
 21
5078.6038800682
 31
0.0
  0
LINE
  5
521
330
1F
100
AcDbEntity
  8
0
  6
Continuous
 62
     7
370
    25
100
AcDbLine
 10
6308.5187553361
 20
5079.2681799928
 30
0.0
 11
6308.5187553361
 21
5078.2681799928
 31
0.0
  0
LINE
  5
522
330
1F
100
AcDbEntity
  8
0
  6
Continuous
 62
     7
370
    25
100
AcDbLine
 10
6239.5187553361
 20
5079.2681799928
 30
0.0
 11
6239.5187553361
 21
5078.2681799928
 31
0.0
  0
CIRCLE
  5
523
330
1F
100
AcDbEntity
  8
0
  6
Continuous
 62
     7
370
    25
100
AcDbCircle
 10
6301.5187553361
 20
5072.2681799928
 30
0.0
 40
2.5
  0
ARC
  5
524
330
1F
100
AcDbEntity
  8
0
  6
Continuous
 62
     7
370
    25
100
AcDbCircle
 10
6285.7521155219
 20
5070.4208597513
 30
0.0
 40
0.6946404829434809
100
AcDbArc
 50
30.0
 51
149.6988513238
  0
ARC
  5
525
330
1F
100
AcDbEntity
  8
0
  6
Continuous
 62
     7
370
    25
100
AcDbCircle
 10
6288.5187553361
 20
5072.0181799928
 30
0.0
 40
2.50000000000018
100
AcDbArc
 50
210.0
 51
330.0835135689
  0
ARC
  5
526
330
1F
100
AcDbEntity
  8
0
  6
Continuous
 62
     7
370
    25
100
AcDbCircle
 10
6291.2853810044
 20
5070.4208597513
 30
0.0
 40
0.6946404829440618
100
AcDbArc
 50
30.0
 51
149.6988513238
  0
ARC
  5
527
330
1F
100
AcDbEntity
  8
0
  6
Continuous
 62
     7
370
    25
100
AcDbCircle
 10
6294.0187553361
 20
5072.0181799928
 30
0.0
 40
2.471247221119786
100
AcDbArc
 50
210.3856324294
 51
149.6143675706
  0
ARC
  5
528
330
1F
100
AcDbEntity
  8
0
  6
Continuous
 62
     7
370
    25
100
AcDbCircle
 10
6291.2853810044
 20
5073.6155002342
 30
0.0
 40
0.6946404829440618
100
AcDbArc
 50
210.3011486762
 51
329.9999999999
  0
ARC
  5
529
330
1F
100
AcDbEntity
  8
0
  6
Continuous
 62
     7
370
    25
100
AcDbCircle
 10
6288.5187553361
 20
5072.0181799928
 30
0.0
 40
2.500000000000634
100
AcDbArc
 50
29.9164864311
 51
150.0
  0
ARC
  5
52A
330
1F
100
AcDbEntity
  8
0
  6
Continuous
 62
     7
370
    25
100
AcDbCircle
 10
6285.7521155219
 20
5073.6155002342
 30
0.0
 40
0.6946404829439357
100
AcDbArc
 50
210.3011486763
 51
329.9999999999
  0
ARC
  5
52B
330
1F
100
AcDbEntity
  8
0
  6
Continuous
 62
     7
370
    25
100
AcDbCircle
 10
6283.0187553361
 20
5072.0181799928
 30
0.0
 40
2.471222726230612
100
AcDbArc
 50
30.3011486762
 51
149.6988513238
  0
ARC
  5
52C
330
1F
100
AcDbEntity
  8
0
  6
Continuous
 62
     7
370
    25
100
AcDbCircle
 10
6280.2853951503
 20
5073.6155002342
 30
0.0
 40
0.6946404829445206
100
AcDbArc
 50
210.0000000001
 51
329.6988513238
  0
ARC
  5
52D
330
1F
100
AcDbEntity
  8
0
  6
Continuous
 62
     7
370
    25
100
AcDbCircle
 10
6277.5187553361
 20
5072.0181799928
 30
0.0
 40
2.500000000000008
100
AcDbArc
 50
30.0
 51
330.0
  0
ARC
  5
52E
330
1F
100
AcDbEntity
  8
0
  6
Continuous
 62
     7
370
    25
100
AcDbCircle
 10
6280.2853951503
 20
5070.4208597513
 30
0.0
 40
0.6946404829440618
100
AcDbArc
 50
30.3011486762
 51
150.0
  0
ARC
  5
52F
330
1F
100
AcDbEntity
  8
0
  6
Continuous
 62
     7
370
    25
100
AcDbCircle
 10
6283.0187553361
 20
5072.0181799928
 30
0.0
 40
2.471222726230612
100
AcDbArc
 50
210.3011486762
 51
329.6988513238
  0
LINE
  5
530
330
1F
100
AcDbEntity
  8
0
  6
Continuous
 62
     7
370
    25
100
AcDbLine
 10
6308.5187553361
 20
5078.2681799928
 30
0.0
 11
6308.5187553361
 21
5065.7681799928
 31
0.0
  0
LINE
  5
531
330
1F
100
AcDbEntity
  8
0
  6
Continuous
 62
     7
370
    25
100
AcDbLine
 10
6239.5187553361
 20
5078.2681799928
 30
0.0
 11
6239.5187553361
 21
5065.7681799928
 31
0.0
  0
CIRCLE
  5
532
330
1F
100
AcDbEntity
  8
0
  6
Continuous
 62
     7
370
    25
100
AcDbCircle
 10
6250.0187553361
 20
4996.5181799928
 30
0.0
 40
2.5
  0
CIRCLE
  5
533
330
1F
100
AcDbEntity
  8
0
  6
Continuous
 62
     7
370
    25
100
AcDbCircle
 10
6260.0187553361
 20
4996.5181799928
 30
0.0
 40
2.5
  0
LINE
  5
534
330
1F
100
AcDbEntity
  8
0
  6
Continuous
 62
     7
370
    25
100
AcDbLine
 10
6308.5187553361
 20
4990.2681799928
 30
0.0
 11
6239.5187553361
 21
4990.2681799928
 31
0.0
  0
LINE
  5
535
330
1F
100
AcDbEntity
  8
0
  6
Continuous
 62
     7
370
    25
100
AcDbLine
 10
6308.5187553361
 20
5002.7681799928
 30
0.0
 11
6308.5187553361
 21
4990.2681799928
 31
0.0
  0
LINE
  5
536
330
1F
100
AcDbEntity
  8
0
  6
Continuous
 62
     7
370
    25
100
AcDbLine
 10
6239.5187553361
 20
5002.7681799928
 30
0.0
 11
6239.5187553361
 21
4990.2681799928
 31
0.0
  0
LINE
  5
537
330
1F
100
AcDbEntity
  8
0
  6
Continuous
 62
     7
370
    25
100
AcDbLine
 10
6263.2687553361
 20
4989.2681799928
 30
0.0
 11
6263.2687553361
 21
4989.3753228499
 31
0.0
  0
LINE
  5
538
330
1F
100
AcDbEntity
  8
0
  6
Continuous
 62
     7
370
    25
100
AcDbLine
 10
6263.2687553361
 20
4989.2681799928
 30
0.0
 11
6239.5187553361
 21
4989.2681799928
 31
0.0
  0
LINE
  5
539
330
1F
100
AcDbEntity
  8
0
  6
Continuous
 62
     7
370
    25
100
AcDbLine
 10
6308.5187553361
 20
4989.2681799928
 30
0.0
 11
6284.7687553361
 21
4989.2681799928
 31
0.0
  0
LINE
  5
53A
330
1F
100
AcDbEntity
  8
0
  6
Continuous
 62
     7
370
    25
100
AcDbLine
 10
6284.7687553361
 20
4989.3753228499
 30
0.0
 11
6284.7687553361
 21
4989.2681799928
 31
0.0
  0
LINE
  5
53B
330
1F
100
AcDbEntity
  8
0
  6
Continuous
 62
     7
370
    25
100
AcDbLine
 10
6284.2687553361
 20
4989.3753228499
 30
0.0
 11
6284.7687553361
 21
4989.3753228499
 31
0.0
  0
LINE
  5
53C
330
1F
100
AcDbEntity
  8
0
  6
Continuous
 62
     7
370
    25
100
AcDbLine
 10
6263.7687553361
 20
4989.3753228499
 30
0.0
 11
6284.2687553361
 21
4989.3753228499
 31
0.0
  0
LINE
  5
53D
330
1F
100
AcDbEntity
  8
0
  6
Continuous
 62
     7
370
    25
100
AcDbLine
 10
6263.2687553361
 20
4989.3753228499
 30
0.0
 11
6263.7687553361
 21
4989.3753228499
 31
0.0
  0
LINE
  5
53E
330
1F
100
AcDbEntity
  8
0
  6
Continuous
 62
     7
370
    25
100
AcDbLine
 10
6304.0187553361
 20
4990.2110371356
 30
0.0
 11
6306.5187553361
 21
4990.2110371356
 31
0.0
  0
LINE
  5
53F
330
1F
100
AcDbEntity
  8
0
  6
Continuous
 62
     7
370
    25
100
AcDbLine
 10
6306.5187553361
 20
4990.0844202182
 30
0.0
 11
6304.0187553361
 21
4990.2110371356
 31
0.0
  0
LINE
  5
540
330
1F
100
AcDbEntity
  8
0
  6
Continuous
 62
     7
370
    25
100
AcDbLine
 10
6246.134528442
 20
4989.8253228499
 30
0.0
 11
6243.634528442
 21
4989.8253228499
 31
0.0
  0
LINE
  5
541
330
1F
100
AcDbEntity
  8
0
  6
Continuous
 62
     7
370
    25
100
AcDbLine
 10
6241.5187553361
 20
4990.0590968347
 30
0.0
 11
6246.134528442
 21
4989.8253228499
 31
0.0
  0
LINE
  5
542
330
1F
100
AcDbEntity
  8
0
  6
Continuous
 62
     7
370
    25
100
AcDbLine
 10
6243.634528442
 20
4989.8253228499
 30
0.0
 11
6241.5187553361
 21
4989.9324799173
 31
0.0
  0
LINE
  5
543
330
1F
100
AcDbEntity
  8
0
  6
Continuous
 62
     7
370
    25
100
AcDbLine
 10
6280.0187553361
 20
4990.2110371356
 30
0.0
 11
6282.5187553361
 21
4990.2110371356
 31
0.0
  0
LINE
  5
544
330
1F
100
AcDbEntity
  8
0
  6
Continuous
 62
     7
370
    25
100
AcDbLine
 10
6287.634528442
 20
4989.8253228499
 30
0.0
 11
6280.0187553361
 21
4990.2110371356
 31
0.0
  0
LINE
  5
545
330
1F
100
AcDbEntity
  8
0
  6
Continuous
 62
     7
370
    25
100
AcDbLine
 10
6290.134528442
 20
4989.8253228499
 30
0.0
 11
6287.634528442
 21
4989.8253228499
 31
0.0
  0
LINE
  5
546
330
1F
100
AcDbEntity
  8
0
  6
Continuous
 62
     7
370
    25
100
AcDbLine
 10
6282.5187553361
 20
4990.2110371356
 30
0.0
 11
6290.134528442
 21
4989.8253228499
 31
0.0
  0
LINE
  5
547
330
1F
100
AcDbEntity
  8
0
  6
Continuous
 62
     7
370
    25
100
AcDbLine
 10
6284.0187553361
 20
4990.2110371356
 30
0.0
 11
6286.5187553361
 21
4990.2110371356
 31
0.0
  0
LINE
  5
548
330
1F
100
AcDbEntity
  8
0
  6
Continuous
 62
     7
370
    25
100
AcDbLine
 10
6291.634528442
 20
4989.8253228499
 30
0.0
 11
6284.0187553361
 21
4990.2110371356
 31
0.0
  0
LINE
  5
549
330
1F
100
AcDbEntity
  8
0
  6
Continuous
 62
     7
370
    25
100
AcDbLine
 10
6294.134528442
 20
4989.8253228499
 30
0.0
 11
6291.634528442
 21
4989.8253228499
 31
0.0
  0
LINE
  5
54A
330
1F
100
AcDbEntity
  8
0
  6
Continuous
 62
     7
370
    25
100
AcDbLine
 10
6286.5187553361
 20
4990.2110371356
 30
0.0
 11
6294.134528442
 21
4989.8253228499
 31
0.0
  0
LINE
  5
54B
330
1F
100
AcDbEntity
  8
0
  6
Continuous
 62
     7
370
    25
100
AcDbLine
 10
6272.0187553361
 20
4990.2110371356
 30
0.0
 11
6274.5187553361
 21
4990.2110371356
 31
0.0
  0
LINE
  5
54C
330
1F
100
AcDbEntity
  8
0
  6
Continuous
 62
     7
370
    25
100
AcDbLine
 10
6279.634528442
 20
4989.8253228499
 30
0.0
 11
6272.0187553361
 21
4990.2110371356
 31
0.0
  0
LINE
  5
54D
330
1F
100
AcDbEntity
  8
0
  6
Continuous
 62
     7
370
    25
100
AcDbLine
 10
6282.134528442
 20
4989.8253228499
 30
0.0
 11
6279.634528442
 21
4989.8253228499
 31
0.0
  0
LINE
  5
54E
330
1F
100
AcDbEntity
  8
0
  6
Continuous
 62
     7
370
    25
100
AcDbLine
 10
6274.5187553361
 20
4990.2110371356
 30
0.0
 11
6282.134528442
 21
4989.8253228499
 31
0.0
  0
LINE
  5
54F
330
1F
100
AcDbEntity
  8
0
  6
Continuous
 62
     7
370
    25
100
AcDbLine
 10
6276.0187553361
 20
4990.2110371356
 30
0.0
 11
6278.5187553361
 21
4990.2110371356
 31
0.0
  0
LINE
  5
550
330
1F
100
AcDbEntity
  8
0
  6
Continuous
 62
     7
370
    25
100
AcDbLine
 10
6283.634528442
 20
4989.8253228499
 30
0.0
 11
6276.0187553361
 21
4990.2110371356
 31
0.0
  0
LINE
  5
551
330
1F
100
AcDbEntity
  8
0
  6
Continuous
 62
     7
370
    25
100
AcDbLine
 10
6286.134528442
 20
4989.8253228499
 30
0.0
 11
6283.634528442
 21
4989.8253228499
 31
0.0
  0
LINE
  5
552
330
1F
100
AcDbEntity
  8
0
  6
Continuous
 62
     7
370
    25
100
AcDbLine
 10
6278.5187553361
 20
4990.2110371356
 30
0.0
 11
6286.134528442
 21
4989.8253228499
 31
0.0
  0
LINE
  5
553
330
1F
100
AcDbEntity
  8
0
  6
Continuous
 62
     7
370
    25
100
AcDbLine
 10
6296.0187553361
 20
4990.2110371356
 30
0.0
 11
6298.5187553361
 21
4990.2110371356
 31
0.0
  0
LINE
  5
554
330
1F
100
AcDbEntity
  8
0
  6
Continuous
 62
     7
370
    25
100
AcDbLine
 10
6303.634528442
 20
4989.8253228499
 30
0.0
 11
6296.0187553361
 21
4990.2110371356
 31
0.0
  0
LINE
  5
555
330
1F
100
AcDbEntity
  8
0
  6
Continuous
 62
     7
370
    25
100
AcDbLine
 10
6306.134528442
 20
4989.8253228499
 30
0.0
 11
6303.634528442
 21
4989.8253228499
 31
0.0
  0
LINE
  5
556
330
1F
100
AcDbEntity
  8
0
  6
Continuous
 62
     7
370
    25
100
AcDbLine
 10
6298.5187553361
 20
4990.2110371356
 30
0.0
 11
6306.134528442
 21
4989.8253228499
 31
0.0
  0
LINE
  5
557
330
1F
100
AcDbEntity
  8
0
  6
Continuous
 62
     7
370
    25
100
AcDbLine
 10
6302.5187553361
 20
4990.2110371356
 30
0.0
 11
6306.5187553361
 21
4990.0084500678
 31
0.0
  0
LINE
  5
558
330
1F
100
AcDbEntity
  8
0
  6
Continuous
 62
     7
370
    25
100
AcDbLine
 10
6300.0187553361
 20
4990.2110371356
 30
0.0
 11
6302.5187553361
 21
4990.2110371356
 31
0.0
  0
LINE
  5
559
330
1F
100
AcDbEntity
  8
0
  6
Continuous
 62
     7
370
    25
100
AcDbLine
 10
6306.5187553361
 20
4989.8818331504
 30
0.0
 11
6300.0187553361
 21
4990.2110371356
 31
0.0
  0
LINE
  5
55A
330
1F
100
AcDbEntity
  8
0
  6
Continuous
 62
     7
370
    25
100
AcDbLine
 10
6288.0187553361
 20
4990.2110371356
 30
0.0
 11
6290.5187553361
 21
4990.2110371356
 31
0.0
  0
LINE
  5
55B
330
1F
100
AcDbEntity
  8
0
  6
Continuous
 62
     7
370
    25
100
AcDbLine
 10
6295.634528442
 20
4989.8253228499
 30
0.0
 11
6288.0187553361
 21
4990.2110371356
 31
0.0
  0
LINE
  5
55C
330
1F
100
AcDbEntity
  8
0
  6
Continuous
 62
     7
370
    25
100
AcDbLine
 10
6298.134528442
 20
4989.8253228499
 30
0.0
 11
6295.634528442
 21
4989.8253228499
 31
0.0
  0
LINE
  5
55D
330
1F
100
AcDbEntity
  8
0
  6
Continuous
 62
     7
370
    25
100
AcDbLine
 10
6290.5187553361
 20
4990.2110371356
 30
0.0
 11
6298.134528442
 21
4989.8253228499
 31
0.0
  0
LINE
  5
55E
330
1F
100
AcDbEntity
  8
0
  6
Continuous
 62
     7
370
    25
100
AcDbLine
 10
6292.0187553361
 20
4990.2110371356
 30
0.0
 11
6294.5187553361
 21
4990.2110371356
 31
0.0
  0
LINE
  5
55F
330
1F
100
AcDbEntity
  8
0
  6
Continuous
 62
     7
370
    25
100
AcDbLine
 10
6299.634528442
 20
4989.8253228499
 30
0.0
 11
6292.0187553361
 21
4990.2110371356
 31
0.0
  0
LINE
  5
560
330
1F
100
AcDbEntity
  8
0
  6
Continuous
 62
     7
370
    25
100
AcDbLine
 10
6302.134528442
 20
4989.8253228499
 30
0.0
 11
6299.634528442
 21
4989.8253228499
 31
0.0
  0
LINE
  5
561
330
1F
100
AcDbEntity
  8
0
  6
Continuous
 62
     7
370
    25
100
AcDbLine
 10
6294.5187553361
 20
4990.2110371356
 30
0.0
 11
6302.134528442
 21
4989.8253228499
 31
0.0
  0
LINE
  5
562
330
1F
100
AcDbEntity
  8
0
  6
Continuous
 62
     7
370
    25
100
AcDbLine
 10
6248.0187553361
 20
4990.2110371356
 30
0.0
 11
6250.5187553361
 21
4990.2110371356
 31
0.0
  0
LINE
  5
563
330
1F
100
AcDbEntity
  8
0
  6
Continuous
 62
     7
370
    25
100
AcDbLine
 10
6255.634528442
 20
4989.8253228499
 30
0.0
 11
6248.0187553361
 21
4990.2110371356
 31
0.0
  0
LINE
  5
564
330
1F
100
AcDbEntity
  8
0
  6
Continuous
 62
     7
370
    25
100
AcDbLine
 10
6258.134528442
 20
4989.8253228499
 30
0.0
 11
6255.634528442
 21
4989.8253228499
 31
0.0
  0
LINE
  5
565
330
1F
100
AcDbEntity
  8
0
  6
Continuous
 62
     7
370
    25
100
AcDbLine
 10
6250.5187553361
 20
4990.2110371356
 30
0.0
 11
6258.134528442
 21
4989.8253228499
 31
0.0
  0
LINE
  5
566
330
1F
100
AcDbEntity
  8
0
  6
Continuous
 62
     7
370
    25
100
AcDbLine
 10
6252.0187553361
 20
4990.2110371356
 30
0.0
 11
6254.5187553361
 21
4990.2110371356
 31
0.0
  0
LINE
  5
567
330
1F
100
AcDbEntity
  8
0
  6
Continuous
 62
     7
370
    25
100
AcDbLine
 10
6259.634528442
 20
4989.8253228499
 30
0.0
 11
6252.0187553361
 21
4990.2110371356
 31
0.0
  0
LINE
  5
568
330
1F
100
AcDbEntity
  8
0
  6
Continuous
 62
     7
370
    25
100
AcDbLine
 10
6262.134528442
 20
4989.8253228499
 30
0.0
 11
6259.634528442
 21
4989.8253228499
 31
0.0
  0
LINE
  5
569
330
1F
100
AcDbEntity
  8
0
  6
Continuous
 62
     7
370
    25
100
AcDbLine
 10
6254.5187553361
 20
4990.2110371356
 30
0.0
 11
6262.134528442
 21
4989.8253228499
 31
0.0
  0
LINE
  5
56A
330
1F
100
AcDbEntity
  8
0
  6
Continuous
 62
     7
370
    25
100
AcDbLine
 10
6241.5187553361
 20
4990.2110371356
 30
0.0
 11
6242.5187553361
 21
4990.2110371356
 31
0.0
  0
LINE
  5
56B
330
1F
100
AcDbEntity
  8
0
  6
Continuous
 62
     7
370
    25
100
AcDbLine
 10
6247.634528442
 20
4989.8253228499
 30
0.0
 11
6241.5187553361
 21
4990.1350669852
 31
0.0
  0
LINE
  5
56C
330
1F
100
AcDbEntity
  8
0
  6
Continuous
 62
     7
370
    25
100
AcDbLine
 10
6250.134528442
 20
4989.8253228499
 30
0.0
 11
6247.634528442
 21
4989.8253228499
 31
0.0
  0
LINE
  5
56D
330
1F
100
AcDbEntity
  8
0
  6
Continuous
 62
     7
370
    25
100
AcDbLine
 10
6242.5187553361
 20
4990.2110371356
 30
0.0
 11
6250.134528442
 21
4989.8253228499
 31
0.0
  0
LINE
  5
56E
330
1F
100
AcDbEntity
  8
0
  6
Continuous
 62
     7
370
    25
100
AcDbLine
 10
6244.0187553361
 20
4990.2110371356
 30
0.0
 11
6246.5187553361
 21
4990.2110371356
 31
0.0
  0
LINE
  5
56F
330
1F
100
AcDbEntity
  8
0
  6
Continuous
 62
     7
370
    25
100
AcDbLine
 10
6251.634528442
 20
4989.8253228499
 30
0.0
 11
6244.0187553361
 21
4990.2110371356
 31
0.0
  0
LINE
  5
570
330
1F
100
AcDbEntity
  8
0
  6
Continuous
 62
     7
370
    25
100
AcDbLine
 10
6254.134528442
 20
4989.8253228499
 30
0.0
 11
6251.634528442
 21
4989.8253228499
 31
0.0
  0
LINE
  5
571
330
1F
100
AcDbEntity
  8
0
  6
Continuous
 62
     7
370
    25
100
AcDbLine
 10
6246.5187553361
 20
4990.2110371356
 30
0.0
 11
6254.134528442
 21
4989.8253228499
 31
0.0
  0
LINE
  5
572
330
1F
100
AcDbEntity
  8
0
  6
Continuous
 62
     7
370
    25
100
AcDbLine
 10
6264.0187553361
 20
4990.2110371356
 30
0.0
 11
6266.5187553361
 21
4990.2110371356
 31
0.0
  0
LINE
  5
573
330
1F
100
AcDbEntity
  8
0
  6
Continuous
 62
     7
370
    25
100
AcDbLine
 10
6271.634528442
 20
4989.8253228499
 30
0.0
 11
6264.0187553361
 21
4990.2110371356
 31
0.0
  0
LINE
  5
574
330
1F
100
AcDbEntity
  8
0
  6
Continuous
 62
     7
370
    25
100
AcDbLine
 10
6274.134528442
 20
4989.8253228499
 30
0.0
 11
6271.634528442
 21
4989.8253228499
 31
0.0
  0
LINE
  5
575
330
1F
100
AcDbEntity
  8
0
  6
Continuous
 62
     7
370
    25
100
AcDbLine
 10
6266.5187553361
 20
4990.2110371356
 30
0.0
 11
6274.134528442
 21
4989.8253228499
 31
0.0
  0
LINE
  5
576
330
1F
100
AcDbEntity
  8
0
  6
Continuous
 62
     7
370
    25
100
AcDbLine
 10
6268.0187553361
 20
4990.2110371356
 30
0.0
 11
6270.5187553361
 21
4990.2110371356
 31
0.0
  0
LINE
  5
577
330
1F
100
AcDbEntity
  8
0
  6
Continuous
 62
     7
370
    25
100
AcDbLine
 10
6275.634528442
 20
4989.8253228499
 30
0.0
 11
6268.0187553361
 21
4990.2110371356
 31
0.0
  0
LINE
  5
578
330
1F
100
AcDbEntity
  8
0
  6
Continuous
 62
     7
370
    25
100
AcDbLine
 10
6278.134528442
 20
4989.8253228499
 30
0.0
 11
6275.634528442
 21
4989.8253228499
 31
0.0
  0
LINE
  5
579
330
1F
100
AcDbEntity
  8
0
  6
Continuous
 62
     7
370
    25
100
AcDbLine
 10
6270.5187553361
 20
4990.2110371356
 30
0.0
 11
6278.134528442
 21
4989.8253228499
 31
0.0
  0
LINE
  5
57A
330
1F
100
AcDbEntity
  8
0
  6
Continuous
 62
     7
370
    25
100
AcDbLine
 10
6256.0187553361
 20
4990.2110371356
 30
0.0
 11
6258.5187553361
 21
4990.2110371356
 31
0.0
  0
LINE
  5
57B
330
1F
100
AcDbEntity
  8
0
  6
Continuous
 62
     7
370
    25
100
AcDbLine
 10
6263.634528442
 20
4989.8253228499
 30
0.0
 11
6256.0187553361
 21
4990.2110371356
 31
0.0
  0
LINE
  5
57C
330
1F
100
AcDbEntity
  8
0
  6
Continuous
 62
     7
370
    25
100
AcDbLine
 10
6266.134528442
 20
4989.8253228499
 30
0.0
 11
6263.634528442
 21
4989.8253228499
 31
0.0
  0
LINE
  5
57D
330
1F
100
AcDbEntity
  8
0
  6
Continuous
 62
     7
370
    25
100
AcDbLine
 10
6258.5187553361
 20
4990.2110371356
 30
0.0
 11
6266.134528442
 21
4989.8253228499
 31
0.0
  0
LINE
  5
57E
330
1F
100
AcDbEntity
  8
0
  6
Continuous
 62
     7
370
    25
100
AcDbLine
 10
6260.0187553361
 20
4990.2110371356
 30
0.0
 11
6262.5187553361
 21
4990.2110371356
 31
0.0
  0
LINE
  5
57F
330
1F
100
AcDbEntity
  8
0
  6
Continuous
 62
     7
370
    25
100
AcDbLine
 10
6267.634528442
 20
4989.8253228499
 30
0.0
 11
6260.0187553361
 21
4990.2110371356
 31
0.0
  0
LINE
  5
580
330
1F
100
AcDbEntity
  8
0
  6
Continuous
 62
     7
370
    25
100
AcDbLine
 10
6270.134528442
 20
4989.8253228499
 30
0.0
 11
6267.634528442
 21
4989.8253228499
 31
0.0
  0
LINE
  5
581
330
1F
100
AcDbEntity
  8
0
  6
Continuous
 62
     7
370
    25
100
AcDbLine
 10
6262.5187553361
 20
4990.2110371356
 30
0.0
 11
6270.134528442
 21
4989.8253228499
 31
0.0
  0
LINE
  5
582
330
1F
100
AcDbEntity
  8
0
  6
Continuous
 62
     7
370
    25
100
AcDbLine
 10
6262.0187553361
 20
4989.6495121302
 30
0.0
 11
6262.0187553361
 21
4989.5066549873
 31
0.0
  0
LINE
  5
583
330
1F
100
AcDbEntity
  8
0
  6
Continuous
 62
     7
370
    25
100
AcDbLine
 10
6258.0187553361
 20
4989.6495121302
 30
0.0
 11
6262.0187553361
 21
4989.6495121302
 31
0.0
  0
LINE
  5
584
330
1F
100
AcDbEntity
  8
0
  6
Continuous
 62
     7
370
    25
100
AcDbLine
 10
6258.0187553361
 20
4989.5066549873
 30
0.0
 11
6258.0187553361
 21
4989.6495121302
 31
0.0
  0
LINE
  5
585
330
1F
100
AcDbEntity
  8
0
  6
Continuous
 62
     7
370
    25
100
AcDbLine
 10
6262.0187553361
 20
4989.5066549873
 30
0.0
 11
6258.0187553361
 21
4989.5066549873
 31
0.0
  0
LINE
  5
586
330
1F
100
AcDbEntity
  8
0
  6
Continuous
 62
     7
370
    25
100
AcDbLine
 10
6252.0187553361
 20
4989.6495121302
 30
0.0
 11
6252.0187553361
 21
4989.5066549873
 31
0.0
  0
LINE
  5
587
330
1F
100
AcDbEntity
  8
0
  6
Continuous
 62
     7
370
    25
100
AcDbLine
 10
6248.0187553361
 20
4989.6495121302
 30
0.0
 11
6252.0187553361
 21
4989.6495121302
 31
0.0
  0
LINE
  5
588
330
1F
100
AcDbEntity
  8
0
  6
Continuous
 62
     7
370
    25
100
AcDbLine
 10
6248.0187553361
 20
4989.5066549873
 30
0.0
 11
6248.0187553361
 21
4989.6495121302
 31
0.0
  0
LINE
  5
589
330
1F
100
AcDbEntity
  8
0
  6
Continuous
 62
     7
370
    25
100
AcDbLine
 10
6252.0187553361
 20
4989.5066549873
 30
0.0
 11
6248.0187553361
 21
4989.5066549873
 31
0.0
  0
LINE
  5
58A
330
1F
100
AcDbEntity
  8
0
  6
Continuous
 62
     7
370
    25
100
AcDbLine
 10
6306.5187553361
 20
4990.2110371356
 30
0.0
 11
6306.5187553361
 21
4990.0844202182
 31
0.0
  0
LINE
  5
58B
330
1F
100
AcDbEntity
  8
0
  6
Continuous
 62
     7
370
    25
100
AcDbLine
 10
6306.5187553361
 20
4990.0084500678
 30
0.0
 11
6306.5187553361
 21
4989.8818331504
 31
0.0
  0
LINE
  5
58C
330
1F
100
AcDbEntity
  8
0
  6
Continuous
 62
     7
370
    25
100
AcDbLine
 10
6241.5187553361
 20
4989.9324799173
 30
0.0
 11
6241.5187553361
 21
4990.0590968347
 31
0.0
  0
LINE
  5
58D
330
1F
100
AcDbEntity
  8
0
  6
Continuous
 62
     7
370
    25
100
AcDbLine
 10
6241.5187553361
 20
4990.1350669852
 30
0.0
 11
6241.5187553361
 21
4990.2110371356
 31
0.0
  0
LINE
  5
58E
330
1F
100
AcDbEntity
  8
0
  6
Continuous
 62
     7
370
    25
100
AcDbLine
 10
6308.5187553361
 20
4990.2681799928
 30
0.0
 11
6308.5187553361
 21
4989.2681799928
 31
0.0
  0
LINE
  5
58F
330
1F
100
AcDbEntity
  8
0
  6
Continuous
 62
     7
370
    25
100
AcDbLine
 10
6239.5187553361
 20
4990.2681799928
 30
0.0
 11
6239.5187553361
 21
4989.2681799928
 31
0.0
  0
LINE
  5
590
330
1F
100
AcDbEntity
  8
0
  6
Continuous
 62
     7
370
    25
100
AcDbLine
 10
6263.634528442
 20
5078.7110371356
 30
0.0
 11
6263.634528442
 21
5078.5844202182
 31
0.0
  0
LINE
  5
591
330
1F
100
AcDbEntity
  8
0
  6
Continuous
 62
     7
370
    25
100
AcDbLine
 10
6291.634528442
 20
5078.7110371356
 30
0.0
 11
6291.634528442
 21
5078.5844202182
 31
0.0
  0
LINE
  5
592
330
1F
100
AcDbEntity
  8
0
  6
Continuous
 62
     7
370
    25
100
AcDbLine
 10
6255.634528442
 20
5078.7110371356
 30
0.0
 11
6255.634528442
 21
5078.5844202182
 31
0.0
  0
LINE
  5
593
330
1F
100
AcDbEntity
  8
0
  6
Continuous
 62
     7
370
    25
100
AcDbLine
 10
6267.634528442
 20
5078.7110371356
 30
0.0
 11
6267.634528442
 21
5078.5844202182
 31
0.0
  0
LINE
  5
594
330
1F
100
AcDbEntity
  8
0
  6
Continuous
 62
     7
370
    25
100
AcDbLine
 10
6279.634528442
 20
5078.7110371356
 30
0.0
 11
6279.634528442
 21
5078.5844202182
 31
0.0
  0
LINE
  5
595
330
1F
100
AcDbEntity
  8
0
  6
Continuous
 62
     7
370
    25
100
AcDbLine
 10
6275.634528442
 20
5078.7110371356
 30
0.0
 11
6275.634528442
 21
5078.5844202182
 31
0.0
  0
LINE
  5
596
330
1F
100
AcDbEntity
  8
0
  6
Continuous
 62
     7
370
    25
100
AcDbLine
 10
6283.634528442
 20
5078.7110371356
 30
0.0
 11
6283.634528442
 21
5078.5844202182
 31
0.0
  0
LINE
  5
597
330
1F
100
AcDbEntity
  8
0
  6
Continuous
 62
     7
370
    25
100
AcDbLine
 10
6303.634528442
 20
5078.7110371356
 30
0.0
 11
6303.634528442
 21
5078.5844202182
 31
0.0
  0
LINE
  5
598
330
1F
100
AcDbEntity
  8
0
  6
Continuous
 62
     7
370
    25
100
AcDbLine
 10
6271.634528442
 20
5078.7110371356
 30
0.0
 11
6271.634528442
 21
5078.5844202182
 31
0.0
  0
LINE
  5
599
330
1F
100
AcDbEntity
  8
0
  6
Continuous
 62
     7
370
    25
100
AcDbLine
 10
6295.634528442
 20
5078.7110371356
 30
0.0
 11
6295.634528442
 21
5078.5844202182
 31
0.0
  0
LINE
  5
59A
330
1F
100
AcDbEntity
  8
0
  6
Continuous
 62
     7
370
    25
100
AcDbLine
 10
6287.634528442
 20
5078.7110371356
 30
0.0
 11
6287.634528442
 21
5078.5844202182
 31
0.0
  0
LINE
  5
59B
330
1F
100
AcDbEntity
  8
0
  6
Continuous
 62
     7
370
    25
100
AcDbLine
 10
6259.634528442
 20
5078.7110371356
 30
0.0
 11
6259.634528442
 21
5078.5844202182
 31
0.0
  0
LINE
  5
59C
330
1F
100
AcDbEntity
  8
0
  6
Continuous
 62
     7
370
    25
100
AcDbLine
 10
6251.634528442
 20
5078.7110371356
 30
0.0
 11
6251.634528442
 21
5078.5844202182
 31
0.0
  0
LINE
  5
59D
330
1F
100
AcDbEntity
  8
0
  6
Continuous
 62
     7
370
    25
100
AcDbLine
 10
6299.634528442
 20
5078.7110371356
 30
0.0
 11
6299.634528442
 21
5078.5844202182
 31
0.0
  0
LINE
  5
59E
330
1F
100
AcDbEntity
  8
0
  6
Continuous
 62
     7
370
    25
100
AcDbLine
 10
6291.634528442
 20
4989.9519397673
 30
0.0
 11
6291.634528442
 21
4989.8253228499
 31
0.0
  0
LINE
  5
59F
330
1F
100
AcDbEntity
  8
0
  6
Continuous
 62
     7
370
    25
100
AcDbLine
 10
6255.634528442
 20
4989.9519397673
 30
0.0
 11
6255.634528442
 21
4989.8253228499
 31
0.0
  0
LINE
  5
5A0
330
1F
100
AcDbEntity
  8
0
  6
Continuous
 62
     7
370
    25
100
AcDbLine
 10
6275.634528442
 20
4989.9519397673
 30
0.0
 11
6275.634528442
 21
4989.8253228499
 31
0.0
  0
LINE
  5
5A1
330
1F
100
AcDbEntity
  8
0
  6
Continuous
 62
     7
370
    25
100
AcDbLine
 10
6287.634528442
 20
4989.9519397673
 30
0.0
 11
6287.634528442
 21
4989.8253228499
 31
0.0
  0
LINE
  5
5A2
330
1F
100
AcDbEntity
  8
0
  6
Continuous
 62
     7
370
    25
100
AcDbLine
 10
6295.634528442
 20
4989.9519397673
 30
0.0
 11
6295.634528442
 21
4989.8253228499
 31
0.0
  0
LINE
  5
5A3
330
1F
100
AcDbEntity
  8
0
  6
Continuous
 62
     7
370
    25
100
AcDbLine
 10
6299.634528442
 20
4989.9519397673
 30
0.0
 11
6299.634528442
 21
4989.8253228499
 31
0.0
  0
LINE
  5
5A4
330
1F
100
AcDbEntity
  8
0
  6
Continuous
 62
     7
370
    25
100
AcDbLine
 10
6259.634528442
 20
4989.9519397673
 30
0.0
 11
6259.634528442
 21
4989.8253228499
 31
0.0
  0
LINE
  5
5A5
330
1F
100
AcDbEntity
  8
0
  6
Continuous
 62
     7
370
    25
100
AcDbLine
 10
6303.634528442
 20
4989.9519397673
 30
0.0
 11
6303.634528442
 21
4989.8253228499
 31
0.0
  0
LINE
  5
5A6
330
1F
100
AcDbEntity
  8
0
  6
Continuous
 62
     7
370
    25
100
AcDbLine
 10
6283.634528442
 20
4989.9519397673
 30
0.0
 11
6283.634528442
 21
4989.8253228499
 31
0.0
  0
LINE
  5
5A7
330
1F
100
AcDbEntity
  8
0
  6
Continuous
 62
     7
370
    25
100
AcDbLine
 10
6279.634528442
 20
4989.9519397673
 30
0.0
 11
6279.634528442
 21
4989.8253228499
 31
0.0
  0
LINE
  5
5A8
330
1F
100
AcDbEntity
  8
0
  6
Continuous
 62
     7
370
    25
100
AcDbLine
 10
6267.634528442
 20
4989.9519397673
 30
0.0
 11
6267.634528442
 21
4989.8253228499
 31
0.0
  0
LINE
  5
5A9
330
1F
100
AcDbEntity
  8
0
  6
Continuous
 62
     7
370
    25
100
AcDbLine
 10
6263.634528442
 20
4989.9519397673
 30
0.0
 11
6263.634528442
 21
4989.8253228499
 31
0.0
  0
LINE
  5
5AA
330
1F
100
AcDbEntity
  8
0
  6
Continuous
 62
     7
370
    25
100
AcDbLine
 10
6251.634528442
 20
4989.9519397673
 30
0.0
 11
6251.634528442
 21
4989.8253228499
 31
0.0
  0
LINE
  5
5AB
330
1F
100
AcDbEntity
  8
0
  6
Continuous
 62
     7
370
    25
100
AcDbLine
 10
6271.634528442
 20
4989.9519397673
 30
0.0
 11
6271.634528442
 21
4989.8253228499
 31
0.0
  0
LINE
  5
5AC
330
1F
100
AcDbEntity
  8
0
  6
Continuous
 62
     7
370
    25
100
AcDbLine
 10
6247.634528442
 20
5078.7110371356
 30
0.0
 11
6247.634528442
 21
5078.5844202182
 31
0.0
  0
LINE
  5
5AD
330
1F
100
AcDbEntity
  8
0
  6
Continuous
 62
     7
370
    25
100
AcDbLine
 10
6247.634528442
 20
4989.9519397673
 30
0.0
 11
6247.634528442
 21
4989.8253228499
 31
0.0
  0
LINE
  5
5AE
330
1F
100
AcDbEntity
  8
0
  6
Continuous
 62
     7
370
    25
100
AcDbLine
 10
6243.634528442
 20
5078.7110371356
 30
0.0
 11
6243.634528442
 21
5078.5844202182
 31
0.0
  0
LINE
  5
5AF
330
1F
100
AcDbEntity
  8
0
  6
Continuous
 62
     7
370
    25
100
AcDbLine
 10
6243.634528442
 20
4989.9519397673
 30
0.0
 11
6243.634528442
 21
4989.8253228499
 31
0.0
  0
ARC
  5
5B0
330
1F
100
AcDbEntity
  8
0
  6
Continuous
 62
     7
370
    25
100
AcDbCircle
 10
6283.2687553361
 20
4989.0504588698
 30
0.0
 40
1.000000000000368
100
AcDbArc
 50
286.3052124994
 51
0.0
  0
ARC
  5
5B1
330
1F
100
AcDbEntity
  8
0
  6
Continuous
 62
     7
370
    25
100
AcDbCircle
 10
6274.0187553361
 20
5020.6723125031
 30
0.0
 40
33.94698965320326
100
AcDbArc
 50
253.6947875006
 51
286.3052124994
  0
ARC
  5
5B2
330
1F
100
AcDbEntity
  8
0
  6
Continuous
 62
     7
370
    25
100
AcDbCircle
 10
6264.7687553361
 20
4989.0504588698
 30
0.0
 40
1.000000000000368
100
AcDbArc
 50
180.0
 51
253.6947875006
  0
LINE
  5
5B3
330
1F
100
AcDbEntity
  8
0
  6
Continuous
 62
     7
370
    25
100
AcDbLine
 10
6279.0187553361
 20
4988.8753228499
 30
0.0
 11
6279.0187553361
 21
4987.8753228499
 31
0.0
  0
LINE
  5
5B4
330
1F
100
AcDbEntity
  8
0
  6
Continuous
 62
     7
370
    25
100
AcDbLine
 10
6269.0187553361
 20
4988.8753228499
 30
0.0
 11
6279.0187553361
 21
4988.8753228499
 31
0.0
  0
LINE
  5
5B5
330
1F
100
AcDbEntity
  8
0
  6
Continuous
 62
     7
370
    25
100
AcDbLine
 10
6269.0187553361
 20
4987.8753228499
 30
0.0
 11
6269.0187553361
 21
4988.8753228499
 31
0.0
  0
LINE
  5
5B6
330
1F
100
AcDbEntity
  8
0
  6
Continuous
 62
     7
370
    25
100
AcDbLine
 10
6279.0187553361
 20
4987.8753228499
 30
0.0
 11
6269.0187553361
 21
4987.8753228499
 31
0.0
  0
LINE
  5
5B7
330
1F
100
AcDbEntity
  8
0
  6
Continuous
 62
     7
370
    25
100
AcDbLine
 10
6284.2687553361
 20
4989.3753228499
 30
0.0
 11
6284.2687553361
 21
4989.0504588698
 31
0.0
  0
LINE
  5
5B8
330
1F
100
AcDbEntity
  8
0
  6
Continuous
 62
     7
370
    25
100
AcDbLine
 10
6263.7687553361
 20
4989.0504588698
 30
0.0
 11
6263.7687553361
 21
4989.3753228499
 31
0.0
  0
ENDSEC
  0
SECTION
  2
OBJECTS
  0
DICTIONARY
  5
C
330
0
100
AcDbDictionary
281
     1
  3
ACAD_GROUP
350
D
  3
ACAD_LAYOUT
350
1A
  3
ACAD_MLINESTYLE
350
17
  3
ACAD_PLOTSETTINGS
350
19
  3
ACAD_PLOTSTYLENAME
350
E
  3
ACAD_SCALELIST
350
47
  3
DWGPROPS
350
5B9
  0
DICTIONARY
  5
D
102
{ACAD_REACTORS
330
C
102
}
330
C
100
AcDbDictionary
281
     1
  0
DICTIONARY
  5
1A
102
{ACAD_REACTORS
330
C
102
}
330
C
100
AcDbDictionary
281
     1
  3
Layout1
350
1E
  3
Layout2
350
26
  3
Model
350
22
  0
DICTIONARY
  5
17
102
{ACAD_REACTORS
330
C
102
}
330
C
100
AcDbDictionary
281
     1
  3
Standard
350
18
  0
DICTIONARY
  5
19
102
{ACAD_REACTORS
330
C
102
}
330
C
100
AcDbDictionary
281
     1
  0
ACDBDICTIONARYWDFLT
  5
E
102
{ACAD_REACTORS
330
C
102
}
330
C
100
AcDbDictionary
281
     1
  3
Normal
350
F
100
AcDbDictionaryWithDefault
340
F
  0
DICTIONARY
  5
47
102
{ACAD_REACTORS
330
C
102
}
330
C
100
AcDbDictionary
281
     1
  3
A0
350
48
  3
A1
350
49
  3
A2
350
4A
  3
A3
350
4B
  3
A4
350
4C
  3
A5
350
4D
  3
A6
350
4E
  3
A7
350
4F
  3
A8
350
50
  3
A9
350
51
  3
B0
350
52
  3
B1
350
53
  3
B2
350
54
  3
B3
350
55
  3
B4
350
56
  3
B5
350
57
  3
B6
350
58
  3
B7
350
59
  3
B8
350
5A
  3
B9
350
5B
  3
C0
350
5C
  3
C1
350
5D
  3
C2
350
5E
  3
C3
350
5F
  3
C4
350
60
  3
C5
350
61
  3
C6
350
62
  3
C7
350
63
  3
C8
350
64
  3
C9
350
65
  3
D0
350
66
  3
D1
350
67
  3
D2
350
68
  0
XRECORD
  5
5B9
102
{ACAD_REACTORS
330
C
102
}
330
C
100
AcDbXrecord
280
     1
  1
DWGPROPS COOKIE
  2

  3

  4

  6

  7

  8
radek.stransky
  9

300
=
301
=
302
=
303
=
304
=
305
=
306
=
307
=
308
=
309
=
 40
0.0
 41
2459744.195224722
 42
2459744.195225255
  1

 90
        0
  0
LAYOUT
  5
1E
102
{ACAD_REACTORS
330
1A
102
}
330
1A
100
AcDbPlotSettings
  1

  2
none_device
  4

  6

 40
0.0
 41
0.0
 42
0.0
 43
0.0
 44
0.0
 45
0.0
 46
0.0
 47
0.0
 48
0.0
 49
0.0
140
0.0
141
0.0
142
1.0
143
1.0
 70
   688
 72
     1
 73
     0
 74
     5
  7

 75
    16
147
1.0
148
0.0
149
0.0
100
AcDbLayout
  1
Layout1
 70
     1
 71
     1
 10
0.0
 20
0.0
 11
420.0
 21
297.0
 12
0.0
 22
0.0
 32
0.0
 14
1.0000000000E+20
 24
1.0000000000E+20
 34
1.0000000000E+20
 15
-1.0000000000E+20
 25
-1.0000000000E+20
 35
-1.0000000000E+20
146
0.0
 13
0.0
 23
0.0
 33
0.0
 16
1.0
 26
0.0
 36
0.0
 17
0.0
 27
1.0
 37
0.0
 76
     0
330
1B
  0
LAYOUT
  5
26
102
{ACAD_REACTORS
330
1A
102
}
330
1A
100
AcDbPlotSettings
  1

  2
none_device
  4

  6

 40
0.0
 41
0.0
 42
0.0
 43
0.0
 44
0.0
 45
0.0
 46
0.0
 47
0.0
 48
0.0
 49
0.0
140
0.0
141
0.0
142
1.0
143
1.0
 70
   688
 72
     1
 73
     0
 74
     5
  7

 75
    16
147
1.0
148
0.0
149
0.0
100
AcDbLayout
  1
Layout2
 70
     1
 71
     2
 10
0.0
 20
0.0
 11
0.0
 21
0.0
 12
0.0
 22
0.0
 32
0.0
 14
0.0
 24
0.0
 34
0.0
 15
0.0
 25
0.0
 35
0.0
146
0.0
 13
0.0
 23
0.0
 33
0.0
 16
1.0
 26
0.0
 36
0.0
 17
0.0
 27
1.0
 37
0.0
 76
     0
330
23
  0
LAYOUT
  5
22
102
{ACAD_REACTORS
330
1A
102
}
330
1A
100
AcDbPlotSettings
  1

  2
none_device
  4
Letter_(8.50_x_11.00_Inches)
  6

 40
6.35
 41
6.35
 42
6.35000508
 43
6.35000508
 44
215.9
 45
279.4
 46
0.0
 47
0.0
 48
0.0
 49
0.0
140
0.0
141
0.0
142
1.0
143
1.0
 70
  1712
 72
     1
 73
     0
 74
     0
  7

 75
     0
147
1.0
148
0.0
149
0.0
100
AcDbLayout
  1
Model
 70
     1
 71
     0
 10
0.0
 20
0.0
 11
20000.0
 21
10000.0
 12
0.0
 22
0.0
 32
0.0
 14
0.0
 24
0.0
 34
0.0
 15
20000.0
 25
10000.0
 35
0.0
146
0.0
 13
0.0
 23
0.0
 33
0.0
 16
1.0
 26
0.0
 36
0.0
 17
0.0
 27
1.0
 37
0.0
 76
     0
330
1F
331
29
  0
MLINESTYLE
  5
18
102
{ACAD_REACTORS
330
17
102
}
330
17
100
AcDbMlineStyle
  2
Standard
 70
     0
  3

 62
   256
 51
90.0
 52
90.0
 71
     2
 49
0.5
 62
   256
  6
BYLAYER
 49
-0.5
 62
   256
  6
BYLAYER
  0
ACDBPLACEHOLDER
  5
F
102
{ACAD_REACTORS
330
E
102
}
330
E
  0
SCALE
  5
48
102
{ACAD_REACTORS
330
47
102
}
330
47
100
AcDbScale
 70
     0
300
1:1
140
1.0
141
1.0
290
     1
  0
SCALE
  5
49
102
{ACAD_REACTORS
330
47
102
}
330
47
100
AcDbScale
 70
     0
300
1:2
140
1.0
141
2.0
290
     0
  0
SCALE
  5
4A
102
{ACAD_REACTORS
330
47
102
}
330
47
100
AcDbScale
 70
     0
300
1:4
140
1.0
141
4.0
290
     0
  0
SCALE
  5
4B
102
{ACAD_REACTORS
330
47
102
}
330
47
100
AcDbScale
 70
     0
300
1:5
140
1.0
141
5.0
290
     0
  0
SCALE
  5
4C
102
{ACAD_REACTORS
330
47
102
}
330
47
100
AcDbScale
 70
     0
300
1:8
140
1.0
141
8.0
290
     0
  0
SCALE
  5
4D
102
{ACAD_REACTORS
330
47
102
}
330
47
100
AcDbScale
 70
     0
300
1:10
140
1.0
141
10.0
290
     0
  0
SCALE
  5
4E
102
{ACAD_REACTORS
330
47
102
}
330
47
100
AcDbScale
 70
     0
300
1:16
140
1.0
141
16.0
290
     0
  0
SCALE
  5
4F
102
{ACAD_REACTORS
330
47
102
}
330
47
100
AcDbScale
 70
     0
300
1:20
140
1.0
141
20.0
290
     0
  0
SCALE
  5
50
102
{ACAD_REACTORS
330
47
102
}
330
47
100
AcDbScale
 70
     0
300
1:30
140
1.0
141
30.0
290
     0
  0
SCALE
  5
51
102
{ACAD_REACTORS
330
47
102
}
330
47
100
AcDbScale
 70
     0
300
1:40
140
1.0
141
40.0
290
     0
  0
SCALE
  5
52
102
{ACAD_REACTORS
330
47
102
}
330
47
100
AcDbScale
 70
     0
300
1:50
140
1.0
141
50.0
290
     0
  0
SCALE
  5
53
102
{ACAD_REACTORS
330
47
102
}
330
47
100
AcDbScale
 70
     0
300
1:100
140
1.0
141
100.0
290
     0
  0
SCALE
  5
54
102
{ACAD_REACTORS
330
47
102
}
330
47
100
AcDbScale
 70
     0
300
2:1
140
2.0
141
1.0
290
     0
  0
SCALE
  5
55
102
{ACAD_REACTORS
330
47
102
}
330
47
100
AcDbScale
 70
     0
300
4:1
140
4.0
141
1.0
290
     0
  0
SCALE
  5
56
102
{ACAD_REACTORS
330
47
102
}
330
47
100
AcDbScale
 70
     0
300
8:1
140
8.0
141
1.0
290
     0
  0
SCALE
  5
57
102
{ACAD_REACTORS
330
47
102
}
330
47
100
AcDbScale
 70
     0
300
10:1
140
10.0
141
1.0
290
     0
  0
SCALE
  5
58
102
{ACAD_REACTORS
330
47
102
}
330
47
100
AcDbScale
 70
     0
300
100:1
140
100.0
141
1.0
290
     0
  0
SCALE
  5
59
102
{ACAD_REACTORS
330
47
102
}
330
47
100
AcDbScale
 70
     0
300
1/128" = 1'-0"
140
0.0078125
141
12.0
290
     0
  0
SCALE
  5
5A
102
{ACAD_REACTORS
330
47
102
}
330
47
100
AcDbScale
 70
     0
300
1/64" = 1'-0"
140
0.015625
141
12.0
290
     0
  0
SCALE
  5
5B
102
{ACAD_REACTORS
330
47
102
}
330
47
100
AcDbScale
 70
     0
300
1/32" = 1'-0"
140
0.03125
141
12.0
290
     0
  0
SCALE
  5
5C
102
{ACAD_REACTORS
330
47
102
}
330
47
100
AcDbScale
 70
     0
300
1/16" = 1'-0"
140
0.0625
141
12.0
290
     0
  0
SCALE
  5
5D
102
{ACAD_REACTORS
330
47
102
}
330
47
100
AcDbScale
 70
     0
300
3/32" = 1'-0"
140
0.09375
141
12.0
290
     0
  0
SCALE
  5
5E
102
{ACAD_REACTORS
330
47
102
}
330
47
100
AcDbScale
 70
     0
300
1/8" = 1'-0"
140
0.125
141
12.0
290
     0
  0
SCALE
  5
5F
102
{ACAD_REACTORS
330
47
102
}
330
47
100
AcDbScale
 70
     0
300
3/16" = 1'-0"
140
0.1875
141
12.0
290
     0
  0
SCALE
  5
60
102
{ACAD_REACTORS
330
47
102
}
330
47
100
AcDbScale
 70
     0
300
1/4" = 1'-0"
140
0.25
141
12.0
290
     0
  0
SCALE
  5
61
102
{ACAD_REACTORS
330
47
102
}
330
47
100
AcDbScale
 70
     0
300
3/8" = 1'-0"
140
0.375
141
12.0
290
     0
  0
SCALE
  5
62
102
{ACAD_REACTORS
330
47
102
}
330
47
100
AcDbScale
 70
     0
300
1/2" = 1'-0"
140
0.5
141
12.0
290
     0
  0
SCALE
  5
63
102
{ACAD_REACTORS
330
47
102
}
330
47
100
AcDbScale
 70
     0
300
3/4" = 1'-0"
140
0.75
141
12.0
290
     0
  0
SCALE
  5
64
102
{ACAD_REACTORS
330
47
102
}
330
47
100
AcDbScale
 70
     0
300
1" = 1'-0"
140
1.0
141
12.0
290
     0
  0
SCALE
  5
65
102
{ACAD_REACTORS
330
47
102
}
330
47
100
AcDbScale
 70
     0
300
1-1/2" = 1'-0"
140
1.5
141
12.0
290
     0
  0
SCALE
  5
66
102
{ACAD_REACTORS
330
47
102
}
330
47
100
AcDbScale
 70
     0
300
3" = 1'-0"
140
3.0
141
12.0
290
     0
  0
SCALE
  5
67
102
{ACAD_REACTORS
330
47
102
}
330
47
100
AcDbScale
 70
     0
300
6" = 1'-0"
140
6.0
141
12.0
290
     0
  0
SCALE
  5
68
102
{ACAD_REACTORS
330
47
102
}
330
47
100
AcDbScale
 70
     0
300
1'-0" = 1'-0"
140
12.0
141
12.0
290
     0
  0
ENDSEC
  0
EOF
