  0
SECTION
  2
HEADER
  9
$ACADVER
  1
AC1015
  9
$ACADMAINTVER
 70
     6
  9
$DWGCODEPAGE
  3
ANSI_1250
  9
$INSBASE
 10
0.0
 20
0.0
 30
0.0
  9
$EXTMIN
 10
5324.018767257
 20
3922.4014837542
 30
0.0
  9
$EXTMAX
 10
8110.153936815
 20
5622.4490113816
 30
0.0
  9
$LIMMIN
 10
0.0
 20
0.0
  9
$LIMMAX
 10
420.0
 20
297.0
  9
$ORTHOMODE
 70
     0
  9
$REGENMODE
 70
     1
  9
$FILLMODE
 70
     1
  9
$QTEXTMODE
 70
     0
  9
$MIRRTEXT
 70
     1
  9
$LTSCALE
 40
1.0
  9
$ATTMODE
 70
     1
  9
$TEXTSIZE
 40
3.5
  9
$TRACEWID
 40
1.0
  9
$TEXTSTYLE
  7
Standard
  9
$CLAYER
  8
0
  9
$CELTYPE
  6
ByLayer
  9
$CECOLOR
 62
   256
  9
$CELTSCALE
 40
1.0
  9
$DISPSILH
 70
     0
  9
$DIMSCALE
 40
1.0
  9
$DIMASZ
 40
3.302
  9
$DIMEXO
 40
0.0
  9
$DIMDLI
 40
3.75
  9
$DIMRND
 40
0.0
  9
$DIMDLE
 40
0.0
  9
$DIMEXE
 40
1.0
  9
$DIMTP
 40
0.0
  9
$DIMTM
 40
0.0
  9
$DIMTXT
 40
3.5
  9
$DIMCEN
 40
2.5
  9
$DIMTSZ
 40
0.0
  9
$DIMTOL
 70
     0
  9
$DIMLIM
 70
     0
  9
$DIMTIH
 70
     1
  9
$DIMTOH
 70
     1
  9
$DIMSE1
 70
     0
  9
$DIMSE2
 70
     0
  9
$DIMTAD
 70
     1
  9
$DIMZIN
 70
     0
  9
$DIMBLK
  1

  9
$DIMASO
 70
     1
  9
$DIMSHO
 70
     1
  9
$DIMPOST
  1

  9
$DIMAPOST
  1

  9
$DIMALT
 70
     0
  9
$DIMALTD
 70
     3
  9
$DIMALTF
 40
0.0393700787
  9
$DIMLFAC
 40
1.0
  9
$DIMTOFL
 70
     1
  9
$DIMTVP
 40
0.0
  9
$DIMTIX
 70
     0
  9
$DIMSOXD
 70
     0
  9
$DIMSAH
 70
     0
  9
$DIMBLK1
  1

  9
$DIMBLK2
  1

  9
$DIMSTYLE
  2
ISO-25
  9
$DIMCLRD
 70
     0
  9
$DIMCLRE
 70
     0
  9
$DIMCLRT
 70
     0
  9
$DIMTFAC
 40
1.0
  9
$DIMGAP
 40
1.524
  9
$DIMJUST
 70
     0
  9
$DIMSD1
 70
     0
  9
$DIMSD2
 70
     0
  9
$DIMTOLJ
 70
     0
  9
$DIMTZIN
 70
     0
  9
$DIMALTZ
 70
     0
  9
$DIMALTTZ
 70
     0
  9
$DIMUPT
 70
     0
  9
$DIMDEC
 70
     2
  9
$DIMTDEC
 70
     2
  9
$DIMALTU
 70
     2
  9
$DIMALTTD
 70
     3
  9
$DIMTXSTY
  7
Standard
  9
$DIMAUNIT
 70
     0
  9
$DIMADEC
 70
     2
  9
$DIMALTRND
 40
0.0
  9
$DIMAZIN
 70
     0
  9
$DIMDSEP
 70
    44
  9
$DIMATFIT
 70
     3
  9
$DIMFRAC
 70
     0
  9
$DIMLDRBLK
  1

  9
$DIMLUNIT
 70
     2
  9
$DIMLWD
 70
    -2
  9
$DIMLWE
 70
    -2
  9
$DIMTMOVE
 70
     0
  9
$LUNITS
 70
     2
  9
$LUPREC
 70
     2
  9
$SKETCHINC
 40
1.0
  9
$FILLETRAD
 40
10.0
  9
$AUNITS
 70
     0
  9
$AUPREC
 70
     2
  9
$MENU
  1
.
  9
$ELEVATION
 40
0.0
  9
$PELEVATION
 40
0.0
  9
$THICKNESS
 40
0.0
  9
$LIMCHECK
 70
     0
  9
$CHAMFERA
 40
0.0
  9
$CHAMFERB
 40
0.0
  9
$CHAMFERC
 40
0.0
  9
$CHAMFERD
 40
0.0
  9
$SKPOLY
 70
     0
  9
$TDCREATE
 40
2459097.316036146
  9
$TDUCREATE
 40
2459097.232702813
  9
$TDUPDATE
 40
2459097.316066354
  9
$TDUUPDATE
 40
2459097.232733021
  9
$TDINDWG
 40
0.0000000116
  9
$TDUSRTIMER
 40
0.0000000116
  9
$USRTIMER
 70
     1
  9
$ANGBASE
 50
0.0
  9
$ANGDIR
 70
     0
  9
$PDMODE
 70
     0
  9
$PDSIZE
 40
-1.0
  9
$PLINEWID
 40
0.0
  9
$SPLFRAME
 70
     0
  9
$SPLINETYPE
 70
     6
  9
$SPLINESEGS
 70
     8
  9
$HANDSEED
  5
465
  9
$SURFTAB1
 70
     6
  9
$SURFTAB2
 70
     6
  9
$SURFTYPE
 70
     6
  9
$SURFU
 70
     6
  9
$SURFV
 70
     6
  9
$UCSBASE
  2

  9
$UCSNAME
  2

  9
$UCSORG
 10
0.0
 20
0.0
 30
0.0
  9
$UCSXDIR
 10
1.0
 20
0.0
 30
0.0
  9
$UCSYDIR
 10
0.0
 20
1.0
 30
0.0
  9
$UCSORTHOREF
  2

  9
$UCSORTHOVIEW
 70
     0
  9
$UCSORGTOP
 10
0.0
 20
0.0
 30
0.0
  9
$UCSORGBOTTOM
 10
0.0
 20
0.0
 30
0.0
  9
$UCSORGLEFT
 10
0.0
 20
0.0
 30
0.0
  9
$UCSORGRIGHT
 10
0.0
 20
0.0
 30
0.0
  9
$UCSORGFRONT
 10
0.0
 20
0.0
 30
0.0
  9
$UCSORGBACK
 10
0.0
 20
0.0
 30
0.0
  9
$PUCSBASE
  2

  9
$PUCSNAME
  2

  9
$PUCSORG
 10
0.0
 20
0.0
 30
0.0
  9
$PUCSXDIR
 10
1.0
 20
0.0
 30
0.0
  9
$PUCSYDIR
 10
0.0
 20
1.0
 30
0.0
  9
$PUCSORTHOREF
  2

  9
$PUCSORTHOVIEW
 70
     0
  9
$PUCSORGTOP
 10
0.0
 20
0.0
 30
0.0
  9
$PUCSORGBOTTOM
 10
0.0
 20
0.0
 30
0.0
  9
$PUCSORGLEFT
 10
0.0
 20
0.0
 30
0.0
  9
$PUCSORGRIGHT
 10
0.0
 20
0.0
 30
0.0
  9
$PUCSORGFRONT
 10
0.0
 20
0.0
 30
0.0
  9
$PUCSORGBACK
 10
0.0
 20
0.0
 30
0.0
  9
$USERI1
 70
     0
  9
$USERI2
 70
     0
  9
$USERI3
 70
     0
  9
$USERI4
 70
     0
  9
$USERI5
 70
     0
  9
$USERR1
 40
0.0
  9
$USERR2
 40
0.0
  9
$USERR3
 40
0.0
  9
$USERR4
 40
0.0
  9
$USERR5
 40
0.0
  9
$WORLDVIEW
 70
     1
  9
$SHADEDGE
 70
     3
  9
$SHADEDIF
 70
    70
  9
$TILEMODE
 70
     1
  9
$MAXACTVP
 70
    64
  9
$PINSBASE
 10
0.0
 20
0.0
 30
0.0
  9
$PLIMCHECK
 70
     0
  9
$PEXTMIN
 10
1.0000000000E+20
 20
1.0000000000E+20
 30
1.0000000000E+20
  9
$PEXTMAX
 10
-1.0000000000E+20
 20
-1.0000000000E+20
 30
-1.0000000000E+20
  9
$PLIMMIN
 10
0.0
 20
0.0
  9
$PLIMMAX
 10
420.0
 20
297.0
  9
$UNITMODE
 70
     0
  9
$VISRETAIN
 70
     1
  9
$PLINEGEN
 70
     0
  9
$PSLTSCALE
 70
     1
  9
$TREEDEPTH
 70
  3020
  9
$CMLSTYLE
  2
Standard
  9
$CMLJUST
 70
     0
  9
$CMLSCALE
 40
20.0
  9
$PROXYGRAPHICS
 70
     1
  9
$MEASUREMENT
 70
     1
  9
$CELWEIGHT
370
    -1
  9
$ENDCAPS
280
     0
  9
$JOINSTYLE
280
     0
  9
$LWDISPLAY
290
     1
  9
$INSUNITS
 70
     4
  9
$HYPERLINKBASE
  1

  9
$STYLESHEET
  1

  9
$XEDIT
290
     1
  9
$CEPSNTYPE
380
     0
  9
$PSTYLEMODE
290
     1
  9
$FINGERPRINTGUID
  2
{f09183b9-f00c-4779-ab9c-b26aa34a460a}
  9
$VERSIONGUID
  2
{FAEB1C32-E019-11D5-929B-00C0DF256EC4}
  9
$EXTNAMES
290
     1
  9
$PSVPSCALE
 40
0.0
  9
$OLESTARTUP
290
     0
  0
ENDSEC
  0
SECTION
  2
CLASSES
  0
CLASS
  1
ACDBDICTIONARYWDFLT
  2
AcDbDictionaryWithDefault
  3
ObjectDBX Classes
 90
        0
280
     0
281
     0
  0
CLASS
  1
VISUALSTYLE
  2
AcDbVisualStyle
  3
ObjectDBX Classes
 90
     4095
280
     0
281
     0
  0
CLASS
  1
MATERIAL
  2
AcDbMaterial
  3
ObjectDBX Classes
 90
     1153
280
     0
281
     0
  0
CLASS
  1
SCALE
  2
AcDbScale
  3
ObjectDBX Classes
 90
     1153
280
     0
281
     0
  0
CLASS
  1
TABLESTYLE
  2
AcDbTableStyle
  3
ObjectDBX Classes
 90
     4095
280
     0
281
     0
  0
CLASS
  1
MLEADERSTYLE
  2
AcDbMLeaderStyle
  3
ACDB_MLEADERSTYLE_CLASS
 90
     4095
280
     0
281
     0
  0
CLASS
  1
SUN
  2
AcDbSun
  3
SCENEOE
 90
     1153
280
     0
281
     0
  0
CLASS
  1
ACDBPLACEHOLDER
  2
AcDbPlaceHolder
  3
ObjectDBX Classes
 90
        0
280
     0
281
     0
  0
CLASS
  1
LAYOUT
  2
AcDbLayout
  3
ObjectDBX Classes
 90
        0
280
     0
281
     0
  0
ENDSEC
  0
SECTION
  2
TABLES
  0
TABLE
  2
VPORT
  5
8
330
0
100
AcDbSymbolTable
 70
     1
  0
VPORT
  5
29
330
8
100
AcDbSymbolTableRecord
100
AcDbViewportTableRecord
  2
*Active
 70
     0
 10
0.0
 20
0.0
 11
1.0
 21
1.0
 12
6717.086352036
 22
4772.4252475679
 13
0.0
 23
0.0
 14
10.0
 24
10.0
 15
10.0
 25
10.0
 16
0.0
 26
0.0
 36
1.0
 17
0.0
 27
0.0
 37
0.0
 40
1734.0484781799
 41
1.6388572227
 42
50.0
 43
0.0
 44
0.0
 50
0.0
 51
0.0
 71
     0
 72
   100
 73
     1
 74
     3
 75
     0
 76
     0
 77
     0
 78
     0
281
     0
 65
     1
110
0.0
120
0.0
130
0.0
111
1.0
121
0.0
131
0.0
112
0.0
122
1.0
132
0.0
 79
     0
146
0.0
  0
ENDTAB
  0
TABLE
  2
LTYPE
  5
5
330
0
100
AcDbSymbolTable
 70
     6
  0
LTYPE
  5
14
330
5
100
AcDbSymbolTableRecord
100
AcDbLinetypeTableRecord
  2
ByBlock
 70
     0
  3

 72
    65
 73
     0
 40
0.0
  0
LTYPE
  5
15
330
5
100
AcDbSymbolTableRecord
100
AcDbLinetypeTableRecord
  2
ByLayer
 70
     0
  3

 72
    65
 73
     0
 40
0.0
  0
LTYPE
  5
16
330
5
100
AcDbSymbolTableRecord
100
AcDbLinetypeTableRecord
  2
Continuous
 70
     0
  3
Solid line
 72
    65
 73
     0
 40
0.0
  0
LTYPE
  5
6E
330
5
100
AcDbSymbolTableRecord
100
AcDbLinetypeTableRecord
  2
HIDDEN
 70
     0
  3
Hidden __ __ __ __ __ __ __ __ __ __ __ __ __ __
 72
    65
 73
     2
 40
1.905
 49
1.27
 74
     0
 49
-0.635
 74
     0
  0
LTYPE
  5
6F
330
5
100
AcDbSymbolTableRecord
100
AcDbLinetypeTableRecord
  2
PHANTOM
 70
     0
  3
Phantom ______  __  __  ______  __  __  ______
 72
    65
 73
     6
 40
12.7
 49
6.35
 74
     0
 49
-1.27
 74
     0
 49
1.27
 74
     0
 49
-1.27
 74
     0
 49
1.27
 74
     0
 49
-1.27
 74
     0
  0
LTYPE
  5
70
330
5
100
AcDbSymbolTableRecord
100
AcDbLinetypeTableRecord
  2
CENTER
 70
     0
  3
Center ____ _ ____ _ ____ _ ____ _ ____ _ ____
 72
    65
 73
     4
 40
10.16
 49
6.35
 74
     0
 49
-1.27
 74
     0
 49
1.27
 74
     0
 49
-1.27
 74
     0
  0
LTYPE
  5
71
330
5
100
AcDbSymbolTableRecord
100
AcDbLinetypeTableRecord
  2
CENTERX2
 70
     0
  3
Center (2x) ________  __  ________  __  _____
 72
    65
 73
     4
 40
20.32
 49
12.7
 74
     0
 49
-2.54
 74
     0
 49
2.54
 74
     0
 49
-2.54
 74
     0
  0
LTYPE
  5
72
330
5
100
AcDbSymbolTableRecord
100
AcDbLinetypeTableRecord
  2
DOT2
 70
     0
  3
Dot (.5x) ........................................
 72
    65
 73
     2
 40
0.635
 49
0.0
 74
     0
 49
-0.635
 74
     0
  0
ENDTAB
  0
TABLE
  2
LAYER
  5
2
330
0
100
AcDbSymbolTable
 70
     1
  0
LAYER
  5
10
330
2
100
AcDbSymbolTableRecord
100
AcDbLayerTableRecord
  2
0
 70
     0
 62
     7
  6
Continuous
370
    -3
390
F
  0
ENDTAB
  0
TABLE
  2
STYLE
  5
3
330
0
100
AcDbSymbolTable
 70
     1
  0
STYLE
  5
11
330
3
100
AcDbSymbolTableRecord
100
AcDbTextStyleTableRecord
  2
Standard
 70
     0
 40
0.0
 41
1.0
 50
0.0
 71
     0
 42
3.5
  3
txt
  4

  0
ENDTAB
  0
TABLE
  2
VIEW
  5
6
330
0
100
AcDbSymbolTable
 70
     0
  0
ENDTAB
  0
TABLE
  2
UCS
  5
7
330
0
100
AcDbSymbolTable
 70
     0
  0
ENDTAB
  0
TABLE
  2
APPID
  5
9
330
0
100
AcDbSymbolTable
 70
     1
  0
APPID
  5
12
330
9
100
AcDbSymbolTableRecord
100
AcDbRegAppTableRecord
  2
ACAD
 70
     0
  0
ENDTAB
  0
TABLE
  2
DIMSTYLE
  5
A
330
0
100
AcDbSymbolTable
 70
     1
100
AcDbDimStyleTable
  0
DIMSTYLE
105
27
330
A
100
AcDbSymbolTableRecord
100
AcDbDimStyleTableRecord
  2
ISO-25
 70
     0
 41
2.5
 42
0.625
 43
3.75
 44
1.25
 73
     0
 74
     0
 77
     1
 78
     8
140
2.5
141
2.5
143
0.0393700787
147
0.625
171
     3
172
     1
178
     0
271
     2
272
     2
274
     3
278
    44
283
     0
284
     8
340
11
  0
ENDTAB
  0
TABLE
  2
BLOCK_RECORD
  5
1
330
0
100
AcDbSymbolTable
 70
     1
  0
BLOCK_RECORD
  5
1F
330
1
100
AcDbSymbolTableRecord
100
AcDbBlockTableRecord
  2
*Model_Space
340
22
  0
BLOCK_RECORD
  5
1B
330
1
100
AcDbSymbolTableRecord
100
AcDbBlockTableRecord
  2
*Paper_Space
340
1E
  0
BLOCK_RECORD
  5
23
330
1
100
AcDbSymbolTableRecord
100
AcDbBlockTableRecord
  2
*Paper_Space0
340
26
  0
ENDTAB
  0
ENDSEC
  0
SECTION
  2
BLOCKS
  0
BLOCK
  5
20
330
1F
100
AcDbEntity
  8
0
100
AcDbBlockBegin
  2
*Model_Space
 70
     0
 10
0.0
 20
0.0
 30
0.0
  3
*Model_Space
  1

  0
ENDBLK
  5
21
330
1F
100
AcDbEntity
  8
0
100
AcDbBlockEnd
  0
BLOCK
  5
1C
330
1B
100
AcDbEntity
 67
     1
  8
0
100
AcDbBlockBegin
  2
*Paper_Space
 70
     0
 10
0.0
 20
0.0
 30
0.0
  3
*Paper_Space
  1

  0
ENDBLK
  5
1D
330
1B
100
AcDbEntity
 67
     1
  8
0
100
AcDbBlockEnd
  0
BLOCK
  5
24
330
23
100
AcDbEntity
  8
0
100
AcDbBlockBegin
  2
*Paper_Space0
 70
     0
 10
0.0
 20
0.0
 30
0.0
  3
*Paper_Space0
  1

  0
ENDBLK
  5
25
330
23
100
AcDbEntity
  8
0
100
AcDbBlockEnd
  0
ENDSEC
  0
SECTION
  2
ENTITIES
  0
ARC
  5
73
330
1F
100
AcDbEntity
  8
0
  6
Continuous
 62
     7
100
AcDbCircle
 10
5452.1891114621
 20
4931.9498756492
 30
0.0
 40
3.000000000000701
100
AcDbArc
 50
90.0006255572
 51
173.3453670356
  0
ARC
  5
74
330
1F
100
AcDbEntity
  8
0
  6
Continuous
 62
     7
100
AcDbCircle
 10
5500.8484302045
 20
4931.9498756491
 30
0.0
 40
2.999999999999316
100
AcDbArc
 50
6.6546329656
 51
90.000512807
  0
ARC
  5
75
330
1F
100
AcDbEntity
  8
0
  6
Continuous
 62
     7
100
AcDbCircle
 10
5452.3969034314
 20
4807.9498804173
 30
0.0
 40
3.000000000000419
100
AcDbArc
 50
185.8478511548
 51
270.0003184282
  0
ARC
  5
76
330
1F
100
AcDbEntity
  8
0
  6
Continuous
 62
     7
100
AcDbCircle
 10
5500.6405786306
 20
4807.9498804173
 30
0.0
 40
2.999999999999514
100
AcDbArc
 50
269.9996815718
 51
354.1521488452
  0
ARC
  5
77
330
1F
100
AcDbEntity
  8
0
  6
Continuous
 62
     7
100
AcDbCircle
 10
5456.5187391236
 20
4948.4498718344
 30
0.0
 40
3.000000000000607
100
AcDbArc
 50
89.9995992941
 51
179.9998315231
  0
ARC
  5
78
330
1F
100
AcDbEntity
  8
0
  6
Continuous
 62
     7
100
AcDbCircle
 10
5496.5187429383
 20
4948.4498718345
 30
0.0
 40
3.00000000000125
100
AcDbArc
 50
0.0001684735
 51
89.99926234
  0
ARC
  5
79
330
1F
100
AcDbEntity
  8
0
  6
Continuous
 62
     7
100
AcDbCircle
 10
5476.518755336
 20
4912.949886165
 30
0.0
 40
40.00000000000001
100
AcDbArc
 50
22.5226735859
 51
54.9003678044
  0
ARC
  5
7A
330
1F
100
AcDbEntity
  8
0
  6
Continuous
 62
     7
100
AcDbCircle
 10
5476.518755336
 20
4912.949886165
 30
0.0
 40
40.00000000000023
100
AcDbArc
 50
125.0996321952
 51
216.1070114061
  0
ARC
  5
7B
330
1F
100
AcDbEntity
  8
0
  6
Continuous
 62
     7
100
AcDbCircle
 10
5476.518755336
 20
4912.949886165
 30
0.0
 40
40.00000000000058
100
AcDbArc
 50
323.8929885945
 51
22.5226735859
  0
ARC
  5
7C
330
1F
100
AcDbEntity
  8
0
  6
Continuous
 62
     7
100
AcDbCircle
 10
5674.0187612966
 20
5312.9657644089
 30
0.0
 40
20.00000000000015
100
AcDbArc
 50
24.7217543182
 51
155.2782456818
  0
ARC
  5
7D
330
1F
100
AcDbEntity
  8
0
  6
Continuous
 62
     7
100
AcDbCircle
 10
5674.0187612966
 20
5312.9658279287
 30
0.0
 40
20.00000000000053
100
AcDbArc
 50
204.7217543182
 51
335.2782456818
  0
ARC
  5
7E
330
1F
100
AcDbEntity
  8
0
  6
Continuous
 62
     7
100
AcDbCircle
 10
6274.0187553361
 20
5312.9657927284
 30
0.0
 40
19.9999999999999
100
AcDbArc
 50
24.7216650031
 51
155.2783349969
  0
ARC
  5
7F
330
1F
100
AcDbEntity
  8
0
  6
Continuous
 62
     7
100
AcDbCircle
 10
6274.0187553361
 20
5312.9657927284
 30
0.0
 40
19.99999712236144
100
AcDbArc
 50
204.7216470975
 51
335.2783529025
  0
ARC
  5
80
330
1F
100
AcDbEntity
  8
0
  6
Continuous
 62
     7
100
AcDbCircle
 10
6874.0187493756
 20
5312.9657644089
 30
0.0
 40
20.00000000000015
100
AcDbArc
 50
24.7217543182
 51
155.2782456818
  0
ARC
  5
81
330
1F
100
AcDbEntity
  8
0
  6
Continuous
 62
     7
100
AcDbCircle
 10
6874.0187493756
 20
5312.9658279287
 30
0.0
 40
20.00000000000053
100
AcDbArc
 50
204.7217543182
 51
335.2782456818
  0
ARC
  5
82
330
1F
100
AcDbEntity
  8
0
  6
Continuous
 62
     7
100
AcDbCircle
 10
6874.1280805892
 20
5535.112214837
 30
0.0
 40
32.33678116108137
100
AcDbArc
 50
270.3200245647
 51
277.0048444396
  0
ARC
  5
83
330
1F
100
AcDbEntity
  8
0
  6
Continuous
 62
     7
100
AcDbCircle
 10
6875.9284765909
 20
5520.6909773645
 30
0.0
 40
18.76020545070844
100
AcDbArc
 50
277.5088603204
 51
284.9283680881
  0
ARC
  5
84
330
1F
100
AcDbEntity
  8
0
  6
Continuous
 62
     7
100
AcDbCircle
 10
6878.8866069658
 20
5510.9056529191
 30
0.0
 40
7.61029576008134
100
AcDbArc
 50
284.2609517606
 51
297.2233789925
  0
ARC
  5
85
330
1F
100
AcDbEntity
  8
0
  6
Continuous
 62
     7
100
AcDbCircle
 10
6882.3616176992
 20
5504.2539345545
 30
0.0
 40
0.9029360463592023
100
AcDbArc
 50
304.3214255589
 51
1.5237830274
  0
ARC
  5
86
330
1F
100
AcDbEntity
  8
0
  6
Continuous
 62
     7
100
AcDbCircle
 10
6878.2880386293
 20
5496.829613684
 30
0.0
 40
9.348898174090918
100
AcDbArc
 50
65.4254284304
 51
77.2505041481
  0
ARC
  5
87
330
1F
100
AcDbEntity
  8
0
  6
Continuous
 62
     7
100
AcDbCircle
 10
6874.0310990737
 20
5471.9441017425
 30
0.0
 40
34.65303778707724
100
AcDbArc
 50
85.5780287099
 51
90.4998272584
  0
ARC
  5
88
330
1F
100
AcDbEntity
  8
0
  6
Continuous
 62
     7
100
AcDbCircle
 10
6872.1093708263
 20
5487.713710659
 30
0.0
 40
18.76138912614183
100
AcDbArc
 50
97.5094578557
 51
104.9283179396
  0
ARC
  5
89
330
1F
100
AcDbEntity
  8
0
  6
Continuous
 62
     7
100
AcDbCircle
 10
6865.6758027338
 20
5504.1520104141
 30
0.0
 40
0.9028018742016659
100
AcDbArc
 50
124.3212205883
 51
181.532821053
  0
ARC
  5
8A
330
1F
100
AcDbEntity
  8
0
  6
Continuous
 62
     7
100
AcDbCircle
 10
6867.3896287651
 20
5507.2896291814
 30
0.0
 40
3.590982214241566
100
AcDbArc
 50
234.2907613375
 51
244.8141662083
  0
ARC
  5
8B
330
1F
100
AcDbEntity
  8
0
  6
Continuous
 62
     7
100
AcDbCircle
 10
6869.7503788211
 20
5511.5793536873
 30
0.0
 40
9.352155108944753
100
AcDbArc
 50
245.4283641467
 51
257.2492483148
  0
ARC
  5
8C
330
1F
100
AcDbEntity
  8
0
  6
Continuous
 62
     7
100
AcDbCircle
 10
6873.0780154538
 20
5527.1887923317
 30
0.0
 40
24.37345206186603
100
AcDbArc
 50
258.1880689594
 51
265.898178888
  0
ARC
  5
8D
330
1F
100
AcDbEntity
  8
0
  6
Continuous
 62
     7
100
AcDbCircle
 10
6874.0050487421
 20
5536.4222799627
 30
0.0
 40
34.61359684142248
100
AcDbArc
 50
265.5752228754
 51
270.5026330929
  0
ARC
  5
8E
330
1F
100
AcDbEntity
  8
0
  6
Continuous
 62
     7
100
AcDbCircle
 10
6881.7780001059
 20
5505.3128618429
 30
0.0
 40
1.011452879789464
100
AcDbArc
 50
305.6856637856
 51
346.4909766799
  0
ARC
  5
8F
330
1F
100
AcDbEntity
  8
0
  6
Continuous
 62
     7
100
AcDbCircle
 10
6875.8195394489
 20
5520.7559668704
 30
0.0
 40
17.73776152261555
100
AcDbArc
 50
277.2943838786
 51
285.1420120105
  0
ARC
  5
90
330
1F
100
AcDbEntity
  8
0
  6
Continuous
 62
     7
100
AcDbCircle
 10
6874.0067616832
 20
5535.6256555742
 30
0.0
 40
32.72167504303922
100
AcDbArc
 50
265.4326792326
 51
270.6451767357
  0
ARC
  5
91
330
1F
100
AcDbEntity
  8
0
  6
Continuous
 62
     7
100
AcDbCircle
 10
6869.9866025003
 20
5512.1323297929
 30
0.0
 40
8.835009636811794
100
AcDbArc
 50
245.08018978
 51
257.5957427985
  0
ARC
  5
92
330
1F
100
AcDbEntity
  8
0
  6
Continuous
 62
     7
100
AcDbCircle
 10
6874.0307577605
 20
5473.746492145
 30
0.0
 40
32.72128595972847
100
AcDbArc
 50
85.4326611563
 51
90.6451162671
  0
ARC
  5
93
330
1F
100
AcDbEntity
  8
0
  6
Continuous
 62
     7
100
AcDbCircle
 10
6872.217525521
 20
5488.6176951152
 30
0.0
 40
17.73581134488429
100
AcDbArc
 50
97.293583415
 51
105.1422651192
  0
ARC
  5
94
330
1F
100
AcDbEntity
  8
0
  6
Continuous
 62
     7
100
AcDbCircle
 10
6878.0519137881
 20
5497.2422083417
 30
0.0
 40
8.832060553744823
100
AcDbArc
 50
65.0785798839
 51
77.5978978602
  0
ARC
  5
95
330
1F
100
AcDbEntity
  8
0
  6
Continuous
 62
     7
100
AcDbCircle
 10
6866.1340477962
 20
5504.1575116273
 30
0.0
 40
0.8592962439798011
100
AcDbArc
 50
122.7270686587
 51
183.1251749862
  0
ARC
  5
96
330
1F
100
AcDbEntity
  8
0
  6
Continuous
 62
     7
100
AcDbCircle
 10
6881.9033467898
 20
5504.2483496051
 30
0.0
 40
0.859398878030093
100
AcDbArc
 50
302.7309264352
 51
3.1231152178
  0
ARC
  5
97
330
1F
100
AcDbEntity
  8
0
  6
Continuous
 62
     7
100
AcDbCircle
 10
6869.9866025003
 20
5511.166406722
 30
0.0
 40
8.835009636811122
100
AcDbArc
 50
245.08018978
 51
257.5957427986
  0
ARC
  5
98
330
1F
100
AcDbEntity
  8
0
  6
Continuous
 62
     7
100
AcDbCircle
 10
6875.8195394489
 20
5519.7900437995
 30
0.0
 40
17.73776152261468
100
AcDbArc
 50
277.2943838786
 51
285.1420120105
  0
ARC
  5
99
330
1F
100
AcDbEntity
  8
0
  6
Continuous
 62
     7
100
AcDbCircle
 10
6874.0067616832
 20
5534.6597325033
 30
0.0
 40
32.72167504303842
100
AcDbArc
 50
265.4326792326
 51
270.6451767357
  0
ARC
  5
9A
330
1F
100
AcDbEntity
  8
0
  6
Continuous
 62
     7
100
AcDbCircle
 10
6274.1282047724
 20
5535.1098599029
 30
0.0
 40
32.33442552549499
100
AcDbArc
 50
270.3198136339
 51
277.0050897216
  0
ARC
  5
9B
330
1F
100
AcDbEntity
  8
0
  6
Continuous
 62
     7
100
AcDbCircle
 10
6275.9285746971
 20
5520.6901038439
 30
0.0
 40
18.75933011765338
100
AcDbArc
 50
277.5089933965
 51
284.9286968681
  0
ARC
  5
9C
330
1F
100
AcDbEntity
  8
0
  6
Continuous
 62
     7
100
AcDbCircle
 10
6278.8865953446
 20
5510.9058323598
 30
0.0
 40
7.610466775603371
100
AcDbArc
 50
284.2605332039
 51
297.2229285769
  0
ARC
  5
9D
330
1F
100
AcDbEntity
  8
0
  6
Continuous
 62
     7
100
AcDbCircle
 10
6282.3616627699
 20
5504.2538660642
 30
0.0
 40
0.9028689821041648
100
AcDbArc
 50
304.3229002515
 51
1.5282441554
  0
ARC
  5
9E
330
1F
100
AcDbEntity
  8
0
  6
Continuous
 62
     7
100
AcDbCircle
 10
6278.2876723901
 20
5496.8285559259
 30
0.0
 40
9.35001723499899
100
AcDbArc
 50
65.4260187266
 51
77.249568111
  0
ARC
  5
9F
330
1F
100
AcDbEntity
  8
0
  6
Continuous
 62
     7
100
AcDbCircle
 10
6274.0311212424
 20
5471.9443442668
 30
0.0
 40
34.65279529147032
100
AcDbArc
 50
85.5780126134
 51
90.4998344574
  0
ARC
  5
A0
330
1F
100
AcDbEntity
  8
0
  6
Continuous
 62
     7
100
AcDbCircle
 10
6272.110069937
 20
5487.7100150784
 30
0.0
 40
18.76514633844314
100
AcDbArc
 50
97.5101448668
 51
104.9275453978
  0
ARC
  5
A1
330
1F
100
AcDbEntity
  8
0
  6
Continuous
 62
     7
100
AcDbCircle
 10
6265.6758538526
 20
5504.15196594
 30
0.0
 40
0.9028756194777571
100
AcDbArc
 50
124.3230698947
 51
181.5298725273
  0
ARC
  5
A2
330
1F
100
AcDbEntity
  8
0
  6
Continuous
 62
     7
100
AcDbCircle
 10
6267.3886118374
 20
5507.287717309
 30
0.0
 40
3.588819182921549
100
AcDbArc
 50
234.2865078135
 51
244.8158741512
  0
ARC
  5
A3
330
1F
100
AcDbEntity
  8
0
  6
Continuous
 62
     7
100
AcDbCircle
 10
6269.7507571863
 20
5511.5804120765
 30
0.0
 40
9.35327483406731
100
AcDbArc
 50
245.4289543516
 51
257.2483123823
  0
ARC
  5
A4
330
1F
100
AcDbEntity
  8
0
  6
Continuous
 62
     7
100
AcDbCircle
 10
6273.0784552201
 20
5527.1922011231
 30
0.0
 40
24.37688366852979
100
AcDbArc
 50
258.1886413614
 51
265.8977180519
  0
ARC
  5
A5
330
1F
100
AcDbEntity
  8
0
  6
Continuous
 62
     7
100
AcDbCircle
 10
6274.005038494
 20
5536.4220375191
 30
0.0
 40
34.61335442681073
100
AcDbArc
 50
265.5752067518
 51
270.5026403192
  0
ARC
  5
A6
330
1F
100
AcDbEntity
  8
0
  6
Continuous
 62
     7
100
AcDbCircle
 10
6281.7779305643
 20
5505.3129332607
 30
0.0
 40
1.011559277172673
100
AcDbArc
 50
305.6871203567
 51
346.4882642127
  0
ARC
  5
A7
330
1F
100
AcDbEntity
  8
0
  6
Continuous
 62
     7
100
AcDbCircle
 10
6275.8200257766
 20
5520.753472012
 30
0.0
 40
17.73522184505965
100
AcDbArc
 50
277.2937664336
 51
285.1425482064
  0
ARC
  5
A8
330
1F
100
AcDbEntity
  8
0
  6
Continuous
 62
     7
100
AcDbCircle
 10
6274.0067698163
 20
5535.6262806444
 30
0.0
 40
32.72229976601595
100
AcDbArc
 50
265.4327304898
 51
270.6451165811
  0
ARC
  5
A9
330
1F
100
AcDbEntity
  8
0
  6
Continuous
 62
     7
100
AcDbCircle
 10
6269.9868718203
 20
5512.133092285
 30
0.0
 40
8.835817403930449
100
AcDbArc
 50
245.0806503925
 51
257.594945311
  0
ARC
  5
AA
330
1F
100
AcDbEntity
  8
0
  6
Continuous
 62
     7
100
AcDbCircle
 10
6274.0307408559
 20
5473.745478405
 30
0.0
 40
32.72229976601425
100
AcDbArc
 50
85.4327304898
 51
90.6451165811
  0
ARC
  5
AB
330
1F
100
AcDbEntity
  8
0
  6
Continuous
 62
     7
100
AcDbCircle
 10
6272.2174848956
 20
5488.6182870374
 30
0.0
 40
17.73522184505976
100
AcDbArc
 50
97.2937664336
 51
105.1425482063
  0
ARC
  5
AC
330
1F
100
AcDbEntity
  8
0
  6
Continuous
 62
     7
100
AcDbCircle
 10
6278.0516867412
 20
5497.2413521991
 30
0.0
 40
8.832940460300582
100
AcDbArc
 50
65.0794753182
 51
77.5978002814
  0
ARC
  5
AD
330
1F
100
AcDbEntity
  8
0
  6
Continuous
 62
     7
100
AcDbCircle
 10
6266.1341269623
 20
5504.1574600174
 30
0.0
 40
0.8593832677679412
100
AcDbArc
 50
122.7297321714
 51
183.1214122177
  0
ARC
  5
AE
330
1F
100
AcDbEntity
  8
0
  6
Continuous
 62
     7
100
AcDbCircle
 10
6281.9032795301
 20
5504.2484012218
 30
0.0
 40
0.8594859181315304
100
AcDbArc
 50
302.7335898108
 51
3.1193525996
  0
ARC
  5
AF
330
1F
100
AcDbEntity
  8
0
  6
Continuous
 62
     7
100
AcDbCircle
 10
6269.9868718203
 20
5511.1671692141
 30
0.0
 40
8.835817403932944
100
AcDbArc
 50
245.0806503926
 51
257.594945311
  0
ARC
  5
B0
330
1F
100
AcDbEntity
  8
0
  6
Continuous
 62
     7
100
AcDbCircle
 10
6275.8200257766
 20
5519.7875489411
 30
0.0
 40
17.73522184506053
100
AcDbArc
 50
277.2937664336
 51
285.1425482064
  0
ARC
  5
B1
330
1F
100
AcDbEntity
  8
0
  6
Continuous
 62
     7
100
AcDbCircle
 10
6274.0067698163
 20
5534.6603575735
 30
0.0
 40
32.72229976601606
100
AcDbArc
 50
265.4327304898
 51
270.6451165811
  0
ARC
  5
B2
330
1F
100
AcDbEntity
  8
0
  6
Continuous
 62
     7
100
AcDbCircle
 10
5674.1282391528
 20
5535.1089480108
 30
0.0
 40
32.33351356696884
100
AcDbArc
 50
270.3197970479
 51
277.0051876671
  0
ARC
  5
B3
330
1F
100
AcDbEntity
  8
0
  6
Continuous
 62
     7
100
AcDbCircle
 10
5675.9292730622
 20
5520.6864120447
 30
0.0
 40
18.75557675627323
100
AcDbArc
 50
277.5083066905
 51
284.9294691048
  0
ARC
  5
B4
330
1F
100
AcDbEntity
  8
0
  6
Continuous
 62
     7
100
AcDbCircle
 10
5678.8866358443
 20
5510.905791779
 30
0.0
 40
7.610411481461464
100
AcDbArc
 50
284.2601355887
 51
297.2227872277
  0
ARC
  5
B5
330
1F
100
AcDbEntity
  8
0
  6
Continuous
 62
     7
100
AcDbCircle
 10
5682.3617138972
 20
5504.2538215841
 30
0.0
 40
0.9027952271404656
100
AcDbArc
 50
304.3210506854
 51
1.5311929654
  0
ARC
  5
B6
330
1F
100
AcDbEntity
  8
0
  6
Continuous
 62
     7
100
AcDbCircle
 10
5678.2880505503
 20
5496.829613684
 30
0.0
 40
9.348898174090918
100
AcDbArc
 50
65.4254284304
 51
77.2505041481
  0
ARC
  5
B7
330
1F
100
AcDbEntity
  8
0
  6
Continuous
 62
     7
100
AcDbCircle
 10
5674.0311109946
 20
5471.9441017425
 30
0.0
 40
34.65303778707736
100
AcDbArc
 50
85.5780287099
 51
90.4998272583
  0
ARC
  5
B8
330
1F
100
AcDbEntity
  8
0
  6
Continuous
 62
     7
100
AcDbCircle
 10
5672.1101680854
 20
5487.709141224
 30
0.0
 40
18.76602200705498
100
AcDbArc
 50
97.5100117729
 51
104.9272166357
  0
ARC
  5
B9
330
1F
100
AcDbEntity
  8
0
  6
Continuous
 62
     7
100
AcDbCircle
 10
5665.6758989095
 20
5504.151897459
 30
0.0
 40
0.9029426681981068
100
AcDbArc
 50
124.3215948109
 51
181.5254119251
  0
ARC
  5
BA
330
1F
100
AcDbEntity
  8
0
  6
Continuous
 62
     7
100
AcDbCircle
 10
5667.3896406858
 20
5507.2896291816
 30
0.0
 40
3.590982214240863
100
AcDbArc
 50
234.2907613412
 51
244.8141662134
  0
ARC
  5
BB
330
1F
100
AcDbEntity
  8
0
  6
Continuous
 62
     7
100
AcDbCircle
 10
5669.7503907421
 20
5511.5793536873
 30
0.0
 40
9.352155108944753
100
AcDbArc
 50
245.4283641467
 51
257.2492483148
  0
ARC
  5
BC
330
1F
100
AcDbEntity
  8
0
  6
Continuous
 62
     7
100
AcDbCircle
 10
5673.0786281598
 20
5527.1937461821
 30
0.0
 40
24.37843619794597
100
AcDbArc
 50
258.1889330269
 51
265.8976033047
  0
ARC
  5
BD
330
1F
100
AcDbEntity
  8
0
  6
Continuous
 62
     7
100
AcDbCircle
 10
5674.005060663
 20
5536.4222799627
 30
0.0
 40
34.61359684142239
100
AcDbArc
 50
265.5752228754
 51
270.502633093
  0
ARC
  5
BE
330
1F
100
AcDbEntity
  8
0
  6
Continuous
 62
     7
100
AcDbCircle
 10
5681.7780120268
 20
5505.3128618429
 30
0.0
 40
1.011452879789252
100
AcDbArc
 50
305.6856637856
 51
346.49097668
  0
ARC
  5
BF
330
1F
100
AcDbEntity
  8
0
  6
Continuous
 62
     7
100
AcDbCircle
 10
5675.8199851512
 20
5520.7540639342
 30
0.0
 40
17.73581134488499
100
AcDbArc
 50
277.293583415
 51
285.1422651192
  0
ARC
  5
C0
330
1F
100
AcDbEntity
  8
0
  6
Continuous
 62
     7
100
AcDbCircle
 10
5674.0067529117
 20
5535.6252669044
 30
0.0
 40
32.7212859597302
100
AcDbArc
 50
265.4326611563
 51
270.6451162671
  0
ARC
  5
C1
330
1F
100
AcDbEntity
  8
0
  6
Continuous
 62
     7
100
AcDbCircle
 10
5669.9866446387
 20
5512.1322357137
 30
0.0
 40
8.834937048908797
100
AcDbArc
 50
245.0797549876
 51
257.5950428298
  0
ARC
  5
C2
330
1F
100
AcDbEntity
  8
0
  6
Continuous
 62
     7
100
AcDbCircle
 10
5674.030748989
 20
5473.7461034752
 30
0.0
 40
32.72167504303751
100
AcDbArc
 50
85.4326792326
 51
90.6451767357
  0
ARC
  5
C3
330
1F
100
AcDbEntity
  8
0
  6
Continuous
 62
     7
100
AcDbCircle
 10
5672.2179712233
 20
5488.615792179
 30
0.0
 40
17.73776152261676
100
AcDbArc
 50
97.2943838786
 51
105.1420120105
  0
ARC
  5
C4
330
1F
100
AcDbEntity
  8
0
  6
Continuous
 62
     7
100
AcDbCircle
 10
5678.051955979
 20
5497.2421145147
 30
0.0
 40
8.83213288940755
100
AcDbArc
 50
65.0790144469
 51
77.5985980147
  0
ARC
  5
C5
330
1F
100
AcDbEntity
  8
0
  6
Continuous
 62
     7
100
AcDbCircle
 10
5666.1340597172
 20
5504.1575116273
 30
0.0
 40
0.8592962439804483
100
AcDbArc
 50
122.7270686664
 51
183.1251749903
  0
ARC
  5
C6
330
1F
100
AcDbEntity
  8
0
  6
Continuous
 62
     7
100
AcDbCircle
 10
5681.9033587108
 20
5504.2483496052
 30
0.0
 40
0.8593988780304049
100
AcDbArc
 50
302.7309264276
 51
3.1231152136
  0
ARC
  5
C7
330
1F
100
AcDbEntity
  8
0
  6
Continuous
 62
     7
100
AcDbCircle
 10
5669.9866446387
 20
5511.1663126428
 30
0.0
 40
8.834937048911314
100
AcDbArc
 50
245.0797549876
 51
257.5950428298
  0
ARC
  5
C8
330
1F
100
AcDbEntity
  8
0
  6
Continuous
 62
     7
100
AcDbCircle
 10
5675.8199851512
 20
5519.7881408633
 30
0.0
 40
17.73581134488499
100
AcDbArc
 50
277.293583415
 51
285.1422651192
  0
ARC
  5
C9
330
1F
100
AcDbEntity
  8
0
  6
Continuous
 62
     7
100
AcDbCircle
 10
5674.0067529117
 20
5534.6593438335
 30
0.0
 40
32.72128595972939
100
AcDbArc
 50
265.4326611563
 51
270.6451162671
  0
CIRCLE
  5
CA
330
1F
100
AcDbEntity
  8
0
  6
Continuous
 62
     7
100
AcDbCircle
 10
5674.0187553361
 20
5512.9657967648
 30
0.0
 40
29.5
  0
CIRCLE
  5
CB
330
1F
100
AcDbEntity
  8
0
  6
Continuous
 62
     7
100
AcDbCircle
 10
5674.0187553361
 20
5512.9657967648
 30
0.0
 40
30.00000000000091
  0
CIRCLE
  5
CC
330
1F
100
AcDbEntity
  8
0
  6
Continuous
 62
     7
100
AcDbCircle
 10
6274.0187553361
 20
5512.9657967648
 30
0.0
 40
29.5
  0
CIRCLE
  5
CD
330
1F
100
AcDbEntity
  8
0
  6
Continuous
 62
     7
100
AcDbCircle
 10
6274.0187553361
 20
5512.9657967648
 30
0.0
 40
29.99999999999909
  0
CIRCLE
  5
CE
330
1F
100
AcDbEntity
  8
0
  6
Continuous
 62
     7
100
AcDbCircle
 10
6874.0187553361
 20
5512.9657967648
 30
0.0
 40
29.5
  0
CIRCLE
  5
CF
330
1F
100
AcDbEntity
  8
0
  6
Continuous
 62
     7
100
AcDbCircle
 10
6874.0187553361
 20
5512.9657967648
 30
0.0
 40
30.0
  0
ARC
  5
D0
330
1F
100
AcDbEntity
  8
0
  6
Continuous
 62
     7
100
AcDbCircle
 10
5674.0187553361
 20
5512.9657967648
 30
0.0
 40
13.99999999999986
100
AcDbArc
 50
339.5575579255
 51
200.4424420745
  0
ARC
  5
D1
330
1F
100
AcDbEntity
  8
0
  6
Continuous
 62
     7
100
AcDbCircle
 10
5674.0187612965
 20
5512.9658317236
 30
0.0
 40
13.00000000000052
100
AcDbArc
 50
339.1744632394
 51
200.8255367606
  0
ARC
  5
D2
330
1F
100
AcDbEntity
  8
0
  6
Continuous
 62
     7
100
AcDbCircle
 10
5674.0187553361
 20
5512.9657967648
 30
0.0
 40
13.99999999999986
100
AcDbArc
 50
200.4424420745
 51
339.5575579255
  0
ARC
  5
D3
330
1F
100
AcDbEntity
  8
0
  6
Continuous
 62
     7
100
AcDbCircle
 10
5674.1491336339
 20
5534.7695723618
 30
0.0
 40
32.50916579064504
100
AcDbArc
 50
270.3983761936
 51
276.9300513714
  0
ARC
  5
D4
330
1F
100
AcDbEntity
  8
0
  6
Continuous
 62
     7
100
AcDbCircle
 10
5673.1488107279
 20
5527.6274400057
 30
0.0
 40
25.33145815539773
100
AcDbArc
 50
258.4773668058
 51
265.8930585278
  0
ARC
  5
D5
330
1F
100
AcDbEntity
  8
0
  6
Continuous
 62
     7
100
AcDbCircle
 10
6874.0187553361
 20
5512.9657967648
 30
0.0
 40
14.00000000000071
100
AcDbArc
 50
339.5575579255
 51
200.4424420745
  0
ARC
  5
D6
330
1F
100
AcDbEntity
  8
0
  6
Continuous
 62
     7
100
AcDbCircle
 10
6874.0187493757
 20
5512.9658317236
 30
0.0
 40
13.00000000000064
100
AcDbArc
 50
339.1744632394
 51
200.8255367606
  0
ARC
  5
D7
330
1F
100
AcDbEntity
  8
0
  6
Continuous
 62
     7
100
AcDbCircle
 10
6874.0187553361
 20
5512.9657967648
 30
0.0
 40
14.00000000000071
100
AcDbArc
 50
200.4424420745
 51
339.5575579255
  0
ARC
  5
D8
330
1F
100
AcDbEntity
  8
0
  6
Continuous
 62
     7
100
AcDbCircle
 10
6874.1489102484
 20
5534.7738051784
 30
0.0
 40
32.51340039057776
100
AcDbArc
 50
270.398802003
 51
276.9296255621
  0
ARC
  5
D9
330
1F
100
AcDbEntity
  8
0
  6
Continuous
 62
     7
100
AcDbCircle
 10
6873.1483480844
 20
5527.623478993
 30
0.0
 40
25.32747503465366
100
AcDbArc
 50
258.476708076
 51
265.8934337911
  0
ARC
  5
DA
330
1F
100
AcDbEntity
  8
0
  6
Continuous
 62
     7
100
AcDbCircle
 10
6274.0187553361
 20
5512.9657967648
 30
0.0
 40
13.99999999999986
100
AcDbArc
 50
200.4424420745
 51
339.5575579255
  0
ARC
  5
DB
330
1F
100
AcDbEntity
  8
0
  6
Continuous
 62
     7
100
AcDbCircle
 10
6274.0187553361
 20
5512.9657967648
 30
0.0
 40
12.99999801708533
100
AcDbArc
 50
339.1746247611
 51
200.8253752389
  0
ARC
  5
DC
330
1F
100
AcDbEntity
  8
0
  6
Continuous
 62
     7
100
AcDbCircle
 10
6274.0187553361
 20
5512.9657967648
 30
0.0
 40
13.99999999999986
100
AcDbArc
 50
339.5575579255
 51
200.4424420745
  0
ARC
  5
DD
330
1F
100
AcDbEntity
  8
0
  6
Continuous
 62
     7
100
AcDbCircle
 10
6274.1491410723
 20
5534.7697931949
 30
0.0
 40
32.50938676488857
100
AcDbArc
 50
270.3984106037
 51
276.930029851
  0
ARC
  5
DE
330
1F
100
AcDbEntity
  8
0
  6
Continuous
 62
     7
100
AcDbCircle
 10
6273.148432587
 20
5527.6243656416
 30
0.0
 40
25.32836554834674
100
AcDbArc
 50
258.4768675681
 51
265.893383922
  0
ARC
  5
DF
330
1F
100
AcDbEntity
  8
0
  6
Continuous
 62
     7
100
AcDbCircle
 10
7631.7392270445
 20
5607.9797330133
 30
0.0
 40
4.324969328314497
100
AcDbArc
 50
206.0594629037
 51
241.4760001529
  0
ARC
  5
E0
330
1F
100
AcDbEntity
  8
0
  6
Continuous
 62
     7
100
AcDbCircle
 10
7631.7392270445
 20
5607.9797578743
 30
0.0
 40
4.324969328313628
100
AcDbArc
 50
118.523999847
 51
153.9405370962
  0
ARC
  5
E1
330
1F
100
AcDbEntity
  8
0
  6
Continuous
 62
     7
100
AcDbCircle
 10
7631.7392270446
 20
5517.9797294369
 30
0.0
 40
4.324969328314284
100
AcDbArc
 50
206.0594629017
 51
241.4760001519
  0
ARC
  5
E2
330
1F
100
AcDbEntity
  8
0
  6
Continuous
 62
     7
100
AcDbCircle
 10
7631.7392071947
 20
5517.9797435098
 30
0.0
 40
4.324969328314711
100
AcDbArc
 50
118.5237005553
 51
153.9399385117
  0
ARC
  5
E3
330
1F
100
AcDbEntity
  8
0
  6
Continuous
 62
     7
100
AcDbCircle
 10
7644.8855310463
 20
4932.9498823247
 30
0.0
 40
20.00000000000015
100
AcDbArc
 50
359.9999692642
 51
89.9999453585
  0
ARC
  5
E4
330
1F
100
AcDbEntity
  8
0
  6
Continuous
 62
     7
100
AcDbCircle
 10
7644.8855310463
 20
4892.949899014
 30
0.0
 40
20.00000000000091
100
AcDbArc
 50
270.0000546415
 51
359.9999453585
  0
ARC
  5
E5
330
1F
100
AcDbEntity
  8
0
  6
Continuous
 62
     7
100
AcDbCircle
 10
7896.8835842679
 20
4931.949875649
 30
0.0
 40
3.000000000000476
100
AcDbArc
 50
6.6546329679
 51
89.9999436271
  0
ARC
  5
E6
330
1F
100
AcDbEntity
  8
0
  6
Continuous
 62
     7
100
AcDbCircle
 10
7848.4321170994
 20
4807.9498804173
 30
0.0
 40
2.999999999999627
100
AcDbArc
 50
185.8478511552
 51
269.9997492462
  0
ARC
  5
E7
330
1F
100
AcDbEntity
  8
0
  6
Continuous
 62
     7
100
AcDbCircle
 10
7896.6757624962
 20
4807.9498804173
 30
0.0
 40
3.000000000000621
100
AcDbArc
 50
269.9999661637
 51
354.1521488443
  0
ARC
  5
E8
330
1F
100
AcDbEntity
  8
0
  6
Continuous
 62
     7
100
AcDbCircle
 10
7815.5539225125
 20
4935.9498837553
 30
0.0
 40
3.000000000000237
100
AcDbArc
 50
89.999599296
 51
179.9998315232
  0
ARC
  5
E9
330
1F
100
AcDbEntity
  8
0
  6
Continuous
 62
     7
100
AcDbCircle
 10
7815.5539225125
 20
4889.9498975834
 30
0.0
 40
3.000000000000237
100
AcDbArc
 50
180.0001684768
 51
270.000400704
  0
ARC
  5
EA
330
1F
100
AcDbEntity
  8
0
  6
Continuous
 62
     7
100
AcDbCircle
 10
7852.5539229893
 20
4948.4498718344
 30
0.0
 40
3.000000000000606
100
AcDbArc
 50
89.999599296
 51
179.9998315231
  0
ARC
  5
EB
330
1F
100
AcDbEntity
  8
0
  6
Continuous
 62
     7
100
AcDbCircle
 10
7892.5539417052
 20
4948.4498718343
 30
0.0
 40
3.000000000000703
100
AcDbArc
 50
0.0001684781
 51
90.0001161139
  0
ARC
  5
EC
330
1F
100
AcDbEntity
  8
0
  6
Continuous
 62
     7
100
AcDbCircle
 10
7662.4580218374
 20
5312.9657860574
 30
0.0
 40
28.00000000000168
100
AcDbArc
 50
15.4636342606
 51
45.5847087679
  0
ARC
  5
ED
330
1F
100
AcDbEntity
  8
0
  6
Continuous
 62
     7
100
AcDbCircle
 10
7662.4580213854
 20
5312.9658058373
 30
0.0
 40
28.00000000000062
100
AcDbArc
 50
314.415292527
 51
344.5348076015
  0
ARC
  5
EE
330
1F
100
AcDbEntity
  8
0
  6
Continuous
 62
     7
100
AcDbCircle
 10
7632.2539475463
 20
5620.2490108295
 30
0.0
 40
2.200000000000023
100
AcDbArc
 50
78.0005868032
 51
179.9994031918
  0
ARC
  5
EF
330
1F
100
AcDbEntity
  8
0
  6
Continuous
 62
     7
100
AcDbCircle
 10
7677.8539296651
 20
5610.556434494
 30
0.0
 40
2.200000000001099
100
AcDbArc
 50
0.0005141914
 51
78.0001894258
  0
ARC
  5
F0
330
1F
100
AcDbEntity
  8
0
  6
Continuous
 62
     7
100
AcDbCircle
 10
8107.8539368176
 20
5200.7657967648
 30
0.0
 40
2.200000000000728
100
AcDbArc
 50
0.0000003125
 51
89.9999996901
  0
ARC
  5
F1
330
1F
100
AcDbEntity
  8
0
  6
Continuous
 62
     7
100
AcDbCircle
 10
7850.1851564533
 20
4932.0912442144
 30
0.0
 40
2.860414789648644
100
AcDbArc
 50
92.0233201084
 51
175.8644139496
  0
ARC
  5
F2
330
1F
100
AcDbEntity
  8
0
  6
Continuous
 62
     7
100
AcDbCircle
 10
7690.0540079538
 20
5485.0177192941
 30
0.0
 40
14.04532662979782
100
AcDbArc
 50
83.2538341642
 51
96.661811633
  0
ARC
  5
F3
330
1F
100
AcDbEntity
  8
0
  6
Continuous
 62
     7
100
AcDbCircle
 10
5337.5187598333
 20
4400.8161935247
 30
0.0
 40
4.324969328313373
100
AcDbArc
 50
116.0594629037
 51
151.4760001529
  0
ARC
  5
F4
330
1F
100
AcDbEntity
  8
0
  6
Continuous
 62
     7
100
AcDbCircle
 10
5337.5187846943
 20
4400.8161935247
 30
0.0
 40
4.324969328314173
100
AcDbArc
 50
28.5239998471
 51
63.9405370963
  0
ARC
  5
F5
330
1F
100
AcDbEntity
  8
0
  6
Continuous
 62
     7
100
AcDbCircle
 10
5477.5187455282
 20
4400.8161935247
 30
0.0
 40
4.324969328314497
100
AcDbArc
 50
116.0594629037
 51
151.4760001529
  0
ARC
  5
F6
330
1F
100
AcDbEntity
  8
0
  6
Continuous
 62
     7
100
AcDbCircle
 10
5477.5187703892
 20
4400.8161935247
 30
0.0
 40
4.324969328314173
100
AcDbArc
 50
28.5239998471
 51
63.9405370963
  0
ARC
  5
F7
330
1F
100
AcDbEntity
  8
0
  6
Continuous
 62
     7
100
AcDbCircle
 10
5476.5187553361
 20
4160.0014837517
 30
0.0
 40
5.250000000001203
100
AcDbArc
 50
98.2132107017
 51
261.7867892983
  0
ARC
  5
F8
330
1F
100
AcDbEntity
  8
0
  6
Continuous
 62
     7
100
AcDbCircle
 10
5476.5187553361
 20
4160.0014837517
 30
0.0
 40
5.250000000000553
100
AcDbArc
 50
278.2132107017
 51
81.7867892983
  0
ARC
  5
F9
330
1F
100
AcDbEntity
  8
0
  6
Continuous
 62
     7
100
AcDbCircle
 10
5476.5187553361
 20
4160.0014837517
 30
0.0
 40
5.250000000000303
100
AcDbArc
 50
81.7867892983
 51
98.2132107017
  0
ARC
  5
FA
330
1F
100
AcDbEntity
  8
0
  6
Continuous
 62
     7
100
AcDbCircle
 10
5476.5187553361
 20
4160.0014837517
 30
0.0
 40
5.250000000001203
100
AcDbArc
 50
261.7867892983
 51
278.2132107017
  0
CIRCLE
  5
FB
330
1F
100
AcDbEntity
  8
0
  6
Continuous
 62
     7
100
AcDbCircle
 10
5476.5187553361
 20
4160.0014837517
 30
0.0
 40
34.99999999999727
  0
CIRCLE
  5
FC
330
1F
100
AcDbEntity
  8
0
  6
Continuous
 62
     7
100
AcDbCircle
 10
5476.5187553361
 20
4160.0014837517
 30
0.0
 40
35.16921944985461
  0
CIRCLE
  5
FD
330
1F
100
AcDbEntity
  8
0
  6
Continuous
 62
     7
100
AcDbCircle
 10
5476.5187553361
 20
4160.0014837517
 30
0.0
 40
24.96512544439156
  0
CIRCLE
  5
FE
330
1F
100
AcDbEntity
  8
0
  6
Continuous
 62
     7
100
AcDbCircle
 10
5476.5187553361
 20
4160.0014837517
 30
0.0
 40
21.99999999999727
  0
CIRCLE
  5
FF
330
1F
100
AcDbEntity
  8
0
  6
Continuous
 62
     7
100
AcDbCircle
 10
5476.5187553361
 20
4160.0014837517
 30
0.0
 40
20.49999999999727
  0
CIRCLE
  5
100
330
1F
100
AcDbEntity
  8
0
  6
Continuous
 62
     7
100
AcDbCircle
 10
5476.5187553361
 20
4160.0014837517
 30
0.0
 40
19.48700763430043
  0
CIRCLE
  5
101
330
1F
100
AcDbEntity
  8
0
  6
Continuous
 62
     7
100
AcDbCircle
 10
5476.5187553361
 20
4160.0014837517
 30
0.0
 40
5.699999999997999
  0
CIRCLE
  5
102
330
1F
100
AcDbEntity
  8
0
  6
Continuous
 62
     7
100
AcDbCircle
 10
5476.5187553361
 20
4174.0014837517
 30
0.0
 40
5.0
  0
CIRCLE
  5
103
330
1F
100
AcDbEntity
  8
0
  6
Continuous
 62
     7
100
AcDbCircle
 10
5488.6431109891
 20
4167.0014837517
 30
0.0
 40
5.0
  0
CIRCLE
  5
104
330
1F
100
AcDbEntity
  8
0
  6
Continuous
 62
     7
100
AcDbCircle
 10
5488.6431109891
 20
4153.0014837517
 30
0.0
 40
5.0
  0
CIRCLE
  5
105
330
1F
100
AcDbEntity
  8
0
  6
Continuous
 62
     7
100
AcDbCircle
 10
5476.5187553361
 20
4146.0014837517
 30
0.0
 40
5.0
  0
CIRCLE
  5
106
330
1F
100
AcDbEntity
  8
0
  6
Continuous
 62
     7
100
AcDbCircle
 10
5464.3943996831
 20
4153.0014837517
 30
0.0
 40
5.000000000000909
  0
CIRCLE
  5
107
330
1F
100
AcDbEntity
  8
0
  6
Continuous
 62
     7
100
AcDbCircle
 10
5464.3943996831
 20
4167.0014837517
 30
0.0
 40
5.0
  0
ARC
  5
108
330
1F
100
AcDbEntity
  8
0
  6
Continuous
 62
     7
100
AcDbCircle
 10
5476.5187553361
 20
4160.0014837517
 30
0.0
 40
14.50000000000293
100
AcDbArc
 50
249.8908584034
 51
290.1091415968
  0
ARC
  5
109
330
1F
100
AcDbEntity
  8
0
  6
Continuous
 62
     7
100
AcDbCircle
 10
5476.5187786797
 20
4160.0015185706
 30
0.0
 40
16.33403069561502
100
AcDbArc
 50
326.6129257652
 51
333.3868042559
  0
ARC
  5
10A
330
1F
100
AcDbEntity
  8
0
  6
Continuous
 62
     7
100
AcDbCircle
 10
5476.5187553361
 20
4160.0014837517
 30
0.0
 40
14.49999999999854
100
AcDbArc
 50
9.8908583956
 51
50.1091416045
  0
ARC
  5
10B
330
1F
100
AcDbEntity
  8
0
  6
Continuous
 62
     7
100
AcDbCircle
 10
5476.518741031
 20
4160.0014837043
 30
0.0
 40
16.33403069561404
100
AcDbArc
 50
86.6130469173
 51
93.3869530827
  0
ARC
  5
10C
330
1F
100
AcDbEntity
  8
0
  6
Continuous
 62
     7
100
AcDbCircle
 10
5476.5187553361
 20
4160.0014837517
 30
0.0
 40
14.50000000000275
100
AcDbArc
 50
129.8908583991
 51
170.1091416011
  0
ARC
  5
10D
330
1F
100
AcDbEntity
  8
0
  6
Continuous
 62
     7
100
AcDbCircle
 10
5476.5187629869
 20
4160.0015185706
 30
0.0
 40
16.33403069561462
100
AcDbArc
 50
206.6131957442
 51
213.3870742349
  0
LINE
  5
10E
330
1F
100
AcDbEntity
  8
0
  6
Continuous
 62
     7
100
AcDbLine
 10
7224.0187434152
 20
5622.4490113816
 30
0.0
 11
7222.0187691644
 21
5622.4490113816
 31
0.0
  0
LINE
  5
10F
330
1F
100
AcDbEntity
  8
0
  6
Continuous
 62
     7
100
AcDbLine
 10
5326.0187415078
 20
5622.4490113816
 30
0.0
 11
5324.018767257
 21
5622.4490113816
 31
0.0
  0
LINE
  5
110
330
1F
100
AcDbEntity
  8
0
  6
Continuous
 62
     7
100
AcDbLine
 10
7222.0187691644
 20
5622.4490113816
 30
0.0
 11
5326.0187415078
 21
5622.4490113816
 31
0.0
  0
LINE
  5
111
330
1F
100
AcDbEntity
  8
0
  6
Continuous
 62
     7
100
AcDbLine
 10
5460.5187682107
 20
4952.9657967648
 30
0.0
 11
5460.5187682107
 21
4951.4498718343
 31
0.0
  0
LINE
  5
112
330
1F
100
AcDbEntity
  8
0
  6
Continuous
 62
     7
100
AcDbLine
 10
5460.5187682107
 20
4937.4498732648
 30
0.0
 11
5460.5187682107
 21
4934.949875649
 31
0.0
  0
LINE
  5
113
330
1F
100
AcDbEntity
  8
0
  6
Continuous
 62
     7
100
AcDbLine
 10
5492.5187734559
 20
4934.949875649
 30
0.0
 11
5492.5187734559
 21
4937.4498732648
 31
0.0
  0
LINE
  5
114
330
1F
100
AcDbEntity
  8
0
  6
Continuous
 62
     7
100
AcDbLine
 10
5492.5187734559
 20
4951.4498718343
 30
0.0
 11
5492.5187734559
 21
4952.9657967648
 31
0.0
  0
LINE
  5
115
330
1F
100
AcDbEntity
  8
0
  6
Continuous
 62
     7
100
AcDbLine
 10
5442.518761535
 20
4874.9498732648
 30
0.0
 11
5449.4125155404
 21
4807.6442189774
 31
0.0
  0
LINE
  5
116
330
1F
100
AcDbEntity
  8
0
  6
Continuous
 62
     7
100
AcDbLine
 10
5503.6249665216
 20
4807.6442189774
 30
0.0
 11
5510.5187801316
 21
4874.9498732648
 31
0.0
  0
LINE
  5
117
330
1F
100
AcDbEntity
  8
0
  6
Continuous
 62
     7
100
AcDbLine
 10
5510.5187801316
 20
4874.9498732648
 30
0.0
 11
5503.8282183602
 21
4932.2975285611
 31
0.0
  0
LINE
  5
118
330
1F
100
AcDbEntity
  8
0
  6
Continuous
 62
     7
100
AcDbLine
 10
5449.2093233064
 20
4932.2975285611
 30
0.0
 11
5442.518761535
 21
4874.9498732648
 31
0.0
  0
LINE
  5
119
330
1F
100
AcDbEntity
  8
0
  6
Continuous
 62
     7
100
AcDbLine
 10
5501.5187767938
 20
4937.4498732648
 30
0.0
 11
5499.5187429383
 21
4941.449881371
 31
0.0
  0
LINE
  5
11A
330
1F
100
AcDbEntity
  8
0
  6
Continuous
 62
     7
100
AcDbLine
 10
5453.5187391236
 20
4941.449881371
 30
0.0
 11
5451.5187648728
 21
4937.4498732648
 31
0.0
  0
LINE
  5
11B
330
1F
100
AcDbEntity
  8
0
  6
Continuous
 62
     7
100
AcDbLine
 10
5453.5187391236
 20
4948.4498806558
 30
0.0
 11
5453.5187391236
 21
4941.449881371
 31
0.0
  0
LINE
  5
11C
330
1F
100
AcDbEntity
  8
0
  6
Continuous
 62
     7
100
AcDbLine
 10
5499.5187429383
 20
4941.449881371
 30
0.0
 11
5499.5187429383
 21
4948.4498806558
 31
0.0
  0
LINE
  5
11D
330
1F
100
AcDbEntity
  8
0
  6
Continuous
 62
     7
100
AcDbLine
 10
5460.5187682107
 20
4937.4498732648
 30
0.0
 11
5460.5187682107
 21
4934.949875649
 31
0.0
  0
LINE
  5
11E
330
1F
100
AcDbEntity
  8
0
  6
Continuous
 62
     7
100
AcDbLine
 10
5492.5187734559
 20
4934.949875649
 30
0.0
 11
5492.5187734559
 21
4937.4498732648
 31
0.0
  0
LINE
  5
11F
330
1F
100
AcDbEntity
  8
0
  6
Continuous
 62
     7
100
AcDbLine
 10
5672.4281219438
 20
5499.0564592442
 30
0.0
 11
5672.5187806085
 21
5498.9658005795
 31
0.0
  0
LINE
  5
120
330
1F
100
AcDbEntity
  8
0
  6
Continuous
 62
     7
100
AcDbLine
 10
5675.5187419847
 20
5498.9658005795
 30
0.0
 11
5675.6094006494
 21
5499.0564592442
 31
0.0
  0
LINE
  5
121
330
1F
100
AcDbEntity
  8
0
  6
Continuous
 62
     7
100
AcDbLine
 10
6872.4281100228
 20
5499.0564592442
 30
0.0
 11
6872.5187686875
 21
5498.9658005795
 31
0.0
  0
LINE
  5
122
330
1F
100
AcDbEntity
  8
0
  6
Continuous
 62
     7
100
AcDbLine
 10
6875.5187300637
 20
5498.9658005795
 30
0.0
 11
6875.6093887284
 21
5499.0564592442
 31
0.0
  0
LINE
  5
123
330
1F
100
AcDbEntity
  8
0
  6
Continuous
 62
     7
100
AcDbLine
 10
6272.4280978225
 20
5499.0564592442
 30
0.0
 11
6272.5187553231
 21
5498.9658005795
 31
0.0
  0
LINE
  5
124
330
1F
100
AcDbEntity
  8
0
  6
Continuous
 62
     7
100
AcDbLine
 10
6275.5187553491
 20
5498.9658005795
 30
0.0
 11
6275.6094128497
 21
5499.0564592442
 31
0.0
  0
LINE
  5
125
330
1F
100
AcDbEntity
  8
0
  6
Continuous
 62
     7
100
AcDbLine
 10
6864.7687343553
 20
5504.8066087327
 30
0.0
 11
6864.7687343553
 21
5504.2029030881
 31
0.0
  0
LINE
  5
126
330
1F
100
AcDbEntity
  8
0
  6
Continuous
 62
     7
100
AcDbLine
 10
6883.268764396
 20
5504.2029030881
 30
0.0
 11
6883.268764396
 21
5504.8066087327
 31
0.0
  0
LINE
  5
127
330
1F
100
AcDbEntity
  8
0
  6
Continuous
 62
     7
100
AcDbLine
 10
6881.5187720254
 20
5505.168826159
 30
0.0
 11
6881.5187720254
 21
5505.3693957887
 31
0.0
  0
LINE
  5
128
330
1F
100
AcDbEntity
  8
0
  6
Continuous
 62
     7
100
AcDbLine
 10
6866.5187267259
 20
5505.8655150494
 30
0.0
 11
6866.5187267259
 21
5505.168826159
 31
0.0
  0
LINE
  5
129
330
1F
100
AcDbEntity
  8
0
  6
Continuous
 62
     7
100
AcDbLine
 10
6264.7687552169
 20
5504.8066087327
 30
0.0
 11
6264.7687552169
 21
5504.2029030881
 31
0.0
  0
LINE
  5
12A
330
1F
100
AcDbEntity
  8
0
  6
Continuous
 62
     7
100
AcDbLine
 10
6283.2687554553
 20
5504.2029030881
 30
0.0
 11
6283.2687554553
 21
5504.8066087327
 31
0.0
  0
LINE
  5
12B
330
1F
100
AcDbEntity
  8
0
  6
Continuous
 62
     7
100
AcDbLine
 10
6281.5187551685
 20
5505.168826159
 30
0.0
 11
6281.5187551685
 21
5505.3693957887
 31
0.0
  0
LINE
  5
12C
330
1F
100
AcDbEntity
  8
0
  6
Continuous
 62
     7
100
AcDbLine
 10
6266.5187555037
 20
5505.8655150494
 30
0.0
 11
6266.5187555037
 21
5505.168826159
 31
0.0
  0
LINE
  5
12D
330
1F
100
AcDbEntity
  8
0
  6
Continuous
 62
     7
100
AcDbLine
 10
5664.7687462762
 20
5504.8066087327
 30
0.0
 11
5664.7687462762
 21
5504.2029030881
 31
0.0
  0
LINE
  5
12E
330
1F
100
AcDbEntity
  8
0
  6
Continuous
 62
     7
100
AcDbLine
 10
5683.2687763169
 20
5504.2029030881
 30
0.0
 11
5683.2687763169
 21
5504.8066087327
 31
0.0
  0
LINE
  5
12F
330
1F
100
AcDbEntity
  8
0
  6
Continuous
 62
     7
100
AcDbLine
 10
5681.5187839463
 20
5505.168826159
 30
0.0
 11
5681.5187839463
 21
5505.3693957887
 31
0.0
  0
LINE
  5
130
330
1F
100
AcDbEntity
  8
0
  6
Continuous
 62
     7
100
AcDbLine
 10
5666.5187386468
 20
5505.8655150494
 30
0.0
 11
5666.5187386468
 21
5505.168826159
 31
0.0
  0
LINE
  5
131
330
1F
100
AcDbEntity
  8
0
  6
Continuous
 62
     7
100
AcDbLine
 10
5675.6687668756
 20
5499.0609295926
 30
0.0
 11
5675.6687668756
 21
5499.063373383
 31
0.0
  0
LINE
  5
132
330
1F
100
AcDbEntity
  8
0
  6
Continuous
 62
     7
100
AcDbLine
 10
6875.6687549546
 20
5499.0609295926
 30
0.0
 11
6875.6687549546
 21
5499.063373383
 31
0.0
  0
LINE
  5
133
330
1F
100
AcDbEntity
  8
0
  6
Continuous
 62
     7
100
AcDbLine
 10
6275.6687553272
 20
5499.0609295926
 30
0.0
 11
6275.6687553272
 21
5499.063373383
 31
0.0
  0
LINE
  5
134
330
1F
100
AcDbEntity
  8
0
  6
Continuous
 62
     7
100
AcDbLine
 10
7177.3687509492
 20
5176.3057958594
 30
0.0
 11
5370.668759723
 21
5176.3057958594
 31
0.0
  0
LINE
  5
135
330
1F
100
AcDbEntity
  8
0
  6
Continuous
 62
     7
100
AcDbLine
 10
5370.668759723
 20
5176.3057958594
 30
0.0
 11
5370.668759723
 21
5177.9557958505
 31
0.0
  0
LINE
  5
136
330
1F
100
AcDbEntity
  8
0
  6
Continuous
 62
     7
100
AcDbLine
 10
7177.3687509492
 20
5177.9557958505
 30
0.0
 11
5370.668759723
 21
5177.9557958505
 31
0.0
  0
LINE
  5
137
330
1F
100
AcDbEntity
  8
0
  6
Continuous
 62
     7
100
AcDbLine
 10
7177.3687509492
 20
5176.3057958594
 30
0.0
 11
7177.3687509492
 21
5177.9557958505
 31
0.0
  0
LINE
  5
138
330
1F
100
AcDbEntity
  8
0
  6
Continuous
 62
     7
100
AcDbLine
 10
7177.3687509492
 20
4954.6158023438
 30
0.0
 11
5370.668759723
 21
4954.6158023438
 31
0.0
  0
LINE
  5
139
330
1F
100
AcDbEntity
  8
0
  6
Continuous
 62
     7
100
AcDbLine
 10
5370.668759723
 20
4954.6158023438
 30
0.0
 11
5370.668759723
 21
5176.3057958594
 31
0.0
  0
LINE
  5
13A
330
1F
100
AcDbEntity
  8
0
  6
Continuous
 62
     7
100
AcDbLine
 10
7177.3687509492
 20
4954.6158023438
 30
0.0
 11
7177.3687509492
 21
5176.3057958594
 31
0.0
  0
LINE
  5
13B
330
1F
100
AcDbEntity
  8
0
  6
Continuous
 62
     7
100
AcDbLine
 10
7177.3687509492
 20
5176.3057958594
 30
0.0
 11
7179.0187267259
 21
5176.3057958594
 31
0.0
  0
LINE
  5
13C
330
1F
100
AcDbEntity
  8
0
  6
Continuous
 62
     7
100
AcDbLine
 10
7179.0187267259
 20
4954.6158023438
 30
0.0
 11
7179.0187267259
 21
5176.3057958594
 31
0.0
  0
LINE
  5
13D
330
1F
100
AcDbEntity
  8
0
  6
Continuous
 62
     7
100
AcDbLine
 10
7179.0187267259
 20
4954.6158023438
 30
0.0
 11
7177.3687509492
 21
4954.6158023438
 31
0.0
  0
LINE
  5
13E
330
1F
100
AcDbEntity
  8
0
  6
Continuous
 62
     7
100
AcDbLine
 10
7177.3687509492
 20
4952.9657967648
 30
0.0
 11
5370.668759723
 21
4952.9657967648
 31
0.0
  0
LINE
  5
13F
330
1F
100
AcDbEntity
  8
0
  6
Continuous
 62
     7
100
AcDbLine
 10
7177.3687509492
 20
4952.9657967648
 30
0.0
 11
7177.3687509492
 21
4954.6158023438
 31
0.0
  0
LINE
  5
140
330
1F
100
AcDbEntity
  8
0
  6
Continuous
 62
     7
100
AcDbLine
 10
5370.668759723
 20
4952.9657967648
 30
0.0
 11
5370.668759723
 21
4954.6158023438
 31
0.0
  0
LINE
  5
141
330
1F
100
AcDbEntity
  8
0
  6
Continuous
 62
     7
100
AcDbLine
 10
5369.0187839463
 20
4954.6158023438
 30
0.0
 11
5369.0187839463
 21
5176.3057958594
 31
0.0
  0
LINE
  5
142
330
1F
100
AcDbEntity
  8
0
  6
Continuous
 62
     7
100
AcDbLine
 10
5369.0187839463
 20
5176.3057958594
 30
0.0
 11
5370.668759723
 21
5176.3057958594
 31
0.0
  0
LINE
  5
143
330
1F
100
AcDbEntity
  8
0
  6
Continuous
 62
     7
100
AcDbLine
 10
5370.668759723
 20
4954.6158023438
 30
0.0
 11
5369.0187839463
 21
4954.6158023438
 31
0.0
  0
LINE
  5
144
330
1F
100
AcDbEntity
  8
0
  6
Continuous
 62
     7
100
AcDbLine
 10
7224.0187434152
 20
4952.9657967648
 30
0.0
 11
7224.0187434152
 21
5177.9557958505
 31
0.0
  0
LINE
  5
145
330
1F
100
AcDbEntity
  8
0
  6
Continuous
 62
     7
100
AcDbLine
 10
7220.918765445
 20
4952.9657967648
 30
0.0
 11
7224.0187434152
 21
4952.9657967648
 31
0.0
  0
LINE
  5
146
330
1F
100
AcDbEntity
  8
0
  6
Continuous
 62
     7
100
AcDbLine
 10
7220.918765445
 20
4952.9657967648
 30
0.0
 11
7220.918765445
 21
5177.9557958505
 31
0.0
  0
LINE
  5
147
330
1F
100
AcDbEntity
  8
0
  6
Continuous
 62
     7
100
AcDbLine
 10
7224.0187434152
 20
5177.9557958505
 30
0.0
 11
7220.918765445
 21
5177.9557958505
 31
0.0
  0
LINE
  5
148
330
1F
100
AcDbEntity
  8
0
  6
Continuous
 62
     7
100
AcDbLine
 10
7182.1187643006
 20
4952.9657967648
 30
0.0
 11
7220.918765445
 21
4952.9657967648
 31
0.0
  0
LINE
  5
149
330
1F
100
AcDbEntity
  8
0
  6
Continuous
 62
     7
100
AcDbLine
 10
7182.1187643006
 20
4952.9657967648
 30
0.0
 11
7182.1187643006
 21
5177.9557958505
 31
0.0
  0
LINE
  5
14A
330
1F
100
AcDbEntity
  8
0
  6
Continuous
 62
     7
100
AcDbLine
 10
7220.918765445
 20
5177.9557958505
 30
0.0
 11
7182.1187643006
 21
5177.9557958505
 31
0.0
  0
LINE
  5
14B
330
1F
100
AcDbEntity
  8
0
  6
Continuous
 62
     7
100
AcDbLine
 10
7179.0187267259
 20
5177.9557958505
 30
0.0
 11
7182.1187643006
 21
5177.9557958505
 31
0.0
  0
LINE
  5
14C
330
1F
100
AcDbEntity
  8
0
  6
Continuous
 62
     7
100
AcDbLine
 10
7182.1187643006
 20
4952.9657967648
 30
0.0
 11
7179.0187267259
 21
4952.9657967648
 31
0.0
  0
LINE
  5
14D
330
1F
100
AcDbEntity
  8
0
  6
Continuous
 62
     7
100
AcDbLine
 10
7179.0187267259
 20
4952.9657967648
 30
0.0
 11
7179.0187267259
 21
4954.6158023438
 31
0.0
  0
LINE
  5
14E
330
1F
100
AcDbEntity
  8
0
  6
Continuous
 62
     7
100
AcDbLine
 10
7179.0187267259
 20
5176.3057958594
 30
0.0
 11
7179.0187267259
 21
5177.9557958505
 31
0.0
  0
LINE
  5
14F
330
1F
100
AcDbEntity
  8
0
  6
Continuous
 62
     7
100
AcDbLine
 10
7224.0187434152
 20
5202.9657967648
 30
0.0
 11
7222.0187691644
 21
5202.9657967648
 31
0.0
  0
LINE
  5
150
330
1F
100
AcDbEntity
  8
0
  6
Continuous
 62
     7
100
AcDbLine
 10
7224.0187434152
 20
5202.9657967648
 30
0.0
 11
7224.0187434152
 21
5200.7657967768
 31
0.0
  0
LINE
  5
151
330
1F
100
AcDbEntity
  8
0
  6
Continuous
 62
     7
100
AcDbLine
 10
7224.0187434152
 20
5200.7657967768
 30
0.0
 11
7222.0187691644
 21
5200.7657967768
 31
0.0
  0
LINE
  5
152
330
1F
100
AcDbEntity
  8
0
  6
Continuous
 62
     7
100
AcDbLine
 10
7222.0187691644
 20
5202.9657967648
 30
0.0
 11
7222.0187691644
 21
5200.7657967768
 31
0.0
  0
LINE
  5
153
330
1F
100
AcDbEntity
  8
0
  6
Continuous
 62
     7
100
AcDbLine
 10
7224.0187434152
 20
5200.7657967768
 30
0.0
 11
7224.0187434152
 21
5177.9657963923
 31
0.0
  0
LINE
  5
154
330
1F
100
AcDbEntity
  8
0
  6
Continuous
 62
     7
100
AcDbLine
 10
7224.0187434152
 20
5177.9657963923
 30
0.0
 11
7222.0187691644
 21
5177.9657963923
 31
0.0
  0
LINE
  5
155
330
1F
100
AcDbEntity
  8
0
  6
Continuous
 62
     7
100
AcDbLine
 10
7222.0187691644
 20
5200.7657967768
 30
0.0
 11
7222.0187691644
 21
5177.9657963923
 31
0.0
  0
LINE
  5
156
330
1F
100
AcDbEntity
  8
0
  6
Continuous
 62
     7
100
AcDbLine
 10
7224.0187434152
 20
5177.9657963923
 30
0.0
 11
7224.0187434152
 21
5177.9557958505
 31
0.0
  0
LINE
  5
157
330
1F
100
AcDbEntity
  8
0
  6
Continuous
 62
     7
100
AcDbLine
 10
7222.0187691644
 20
5177.9657963923
 30
0.0
 11
7222.0187691644
 21
5177.9557958505
 31
0.0
  0
LINE
  5
158
330
1F
100
AcDbEntity
  8
0
  6
Continuous
 62
     7
100
AcDbLine
 10
7224.0187434152
 20
5610.5564542375
 30
0.0
 11
7222.0187691644
 21
5610.5564542375
 31
0.0
  0
LINE
  5
159
330
1F
100
AcDbEntity
  8
0
  6
Continuous
 62
     7
100
AcDbLine
 10
7224.0187434152
 20
5610.5564542375
 30
0.0
 11
7224.0187434152
 21
5202.9657967648
 31
0.0
  0
LINE
  5
15A
330
1F
100
AcDbEntity
  8
0
  6
Continuous
 62
     7
100
AcDbLine
 10
7222.0187691644
 20
5610.5564542375
 30
0.0
 11
7222.0187691644
 21
5202.9657967648
 31
0.0
  0
LINE
  5
15B
330
1F
100
AcDbEntity
  8
0
  6
Continuous
 62
     7
100
AcDbLine
 10
7224.0187434152
 20
5612.7083607278
 30
0.0
 11
7222.0187691644
 21
5612.7083607278
 31
0.0
  0
LINE
  5
15C
330
1F
100
AcDbEntity
  8
0
  6
Continuous
 62
     7
100
AcDbLine
 10
7224.0187434152
 20
5612.7083607278
 30
0.0
 11
7224.0187434152
 21
5610.5564542375
 31
0.0
  0
LINE
  5
15D
330
1F
100
AcDbEntity
  8
0
  6
Continuous
 62
     7
100
AcDbLine
 10
7222.0187691644
 20
5612.7083607278
 30
0.0
 11
7222.0187691644
 21
5610.5564542375
 31
0.0
  0
LINE
  5
15E
330
1F
100
AcDbEntity
  8
0
  6
Continuous
 62
     7
100
AcDbLine
 10
7224.0187434152
 20
5622.4009402356
 30
0.0
 11
7222.0187691644
 21
5622.4009402356
 31
0.0
  0
LINE
  5
15F
330
1F
100
AcDbEntity
  8
0
  6
Continuous
 62
     7
100
AcDbLine
 10
7224.0187434152
 20
5622.4009402356
 30
0.0
 11
7224.0187434152
 21
5612.7083607278
 31
0.0
  0
LINE
  5
160
330
1F
100
AcDbEntity
  8
0
  6
Continuous
 62
     7
100
AcDbLine
 10
7222.0187691644
 20
5622.4009402356
 30
0.0
 11
7222.0187691644
 21
5612.7083607278
 31
0.0
  0
LINE
  5
161
330
1F
100
AcDbEntity
  8
0
  6
Continuous
 62
     7
100
AcDbLine
 10
7224.0187434152
 20
5622.4490113816
 30
0.0
 11
7224.0187434152
 21
5622.4009402356
 31
0.0
  0
LINE
  5
162
330
1F
100
AcDbEntity
  8
0
  6
Continuous
 62
     7
100
AcDbLine
 10
7222.0187691644
 20
5622.4490113816
 30
0.0
 11
7222.0187691644
 21
5622.4009402356
 31
0.0
  0
LINE
  5
163
330
1F
100
AcDbEntity
  8
0
  6
Continuous
 62
     7
100
AcDbLine
 10
5327.1187452272
 20
4952.9657967648
 30
0.0
 11
5327.1187452272
 21
5177.9557958505
 31
0.0
  0
LINE
  5
164
330
1F
100
AcDbEntity
  8
0
  6
Continuous
 62
     7
100
AcDbLine
 10
5327.1187452272
 20
4952.9657967648
 30
0.0
 11
5324.018767257
 21
4952.9657967648
 31
0.0
  0
LINE
  5
165
330
1F
100
AcDbEntity
  8
0
  6
Continuous
 62
     7
100
AcDbLine
 10
5324.018767257
 20
4952.9657967648
 30
0.0
 11
5324.018767257
 21
5177.9557958505
 31
0.0
  0
LINE
  5
166
330
1F
100
AcDbEntity
  8
0
  6
Continuous
 62
     7
100
AcDbLine
 10
5324.018767257
 20
5177.9557958505
 30
0.0
 11
5327.1187452272
 21
5177.9557958505
 31
0.0
  0
LINE
  5
167
330
1F
100
AcDbEntity
  8
0
  6
Continuous
 62
     7
100
AcDbLine
 10
5365.9187463716
 20
4952.9657967648
 30
0.0
 11
5365.9187463716
 21
5177.9557958505
 31
0.0
  0
LINE
  5
168
330
1F
100
AcDbEntity
  8
0
  6
Continuous
 62
     7
100
AcDbLine
 10
5365.9187463716
 20
4952.9657967648
 30
0.0
 11
5327.1187452272
 21
4952.9657967648
 31
0.0
  0
LINE
  5
169
330
1F
100
AcDbEntity
  8
0
  6
Continuous
 62
     7
100
AcDbLine
 10
5327.1187452272
 20
5177.9557958505
 30
0.0
 11
5365.9187463716
 21
5177.9557958505
 31
0.0
  0
LINE
  5
16A
330
1F
100
AcDbEntity
  8
0
  6
Continuous
 62
     7
100
AcDbLine
 10
5365.9187463716
 20
4952.9657967648
 30
0.0
 11
5369.0187839463
 21
4952.9657967648
 31
0.0
  0
LINE
  5
16B
330
1F
100
AcDbEntity
  8
0
  6
Continuous
 62
     7
100
AcDbLine
 10
5369.0187839463
 20
4952.9657967648
 30
0.0
 11
5369.0187839463
 21
4954.6158023438
 31
0.0
  0
LINE
  5
16C
330
1F
100
AcDbEntity
  8
0
  6
Continuous
 62
     7
100
AcDbLine
 10
5369.0187839463
 20
5176.3057958594
 30
0.0
 11
5369.0187839463
 21
5177.9557958505
 31
0.0
  0
LINE
  5
16D
330
1F
100
AcDbEntity
  8
0
  6
Continuous
 62
     7
100
AcDbLine
 10
5369.0187839463
 20
5177.9557958505
 30
0.0
 11
5365.9187463716
 21
5177.9557958505
 31
0.0
  0
LINE
  5
16E
330
1F
100
AcDbEntity
  8
0
  6
Continuous
 62
     7
100
AcDbLine
 10
5324.018767257
 20
5200.7657967768
 30
0.0
 11
5326.0187415078
 21
5200.7657967768
 31
0.0
  0
LINE
  5
16F
330
1F
100
AcDbEntity
  8
0
  6
Continuous
 62
     7
100
AcDbLine
 10
5324.018767257
 20
5202.9657967648
 30
0.0
 11
5324.018767257
 21
5200.7657967768
 31
0.0
  0
LINE
  5
170
330
1F
100
AcDbEntity
  8
0
  6
Continuous
 62
     7
100
AcDbLine
 10
5324.018767257
 20
5202.9657967648
 30
0.0
 11
5326.0187415078
 21
5202.9657967648
 31
0.0
  0
LINE
  5
171
330
1F
100
AcDbEntity
  8
0
  6
Continuous
 62
     7
100
AcDbLine
 10
5326.0187415078
 20
5202.9657967648
 30
0.0
 11
5326.0187415078
 21
5200.7657967768
 31
0.0
  0
LINE
  5
172
330
1F
100
AcDbEntity
  8
0
  6
Continuous
 62
     7
100
AcDbLine
 10
5324.018767257
 20
5177.9657963923
 30
0.0
 11
5326.0187415078
 21
5177.9657963923
 31
0.0
  0
LINE
  5
173
330
1F
100
AcDbEntity
  8
0
  6
Continuous
 62
     7
100
AcDbLine
 10
5324.018767257
 20
5200.7657967768
 30
0.0
 11
5324.018767257
 21
5177.9657963923
 31
0.0
  0
LINE
  5
174
330
1F
100
AcDbEntity
  8
0
  6
Continuous
 62
     7
100
AcDbLine
 10
5326.0187415078
 20
5200.7657967768
 30
0.0
 11
5326.0187415078
 21
5177.9657963923
 31
0.0
  0
LINE
  5
175
330
1F
100
AcDbEntity
  8
0
  6
Continuous
 62
     7
100
AcDbLine
 10
5324.018767257
 20
5177.9657963923
 30
0.0
 11
5324.018767257
 21
5177.9557958505
 31
0.0
  0
LINE
  5
176
330
1F
100
AcDbEntity
  8
0
  6
Continuous
 62
     7
100
AcDbLine
 10
5326.0187415078
 20
5177.9657963923
 30
0.0
 11
5326.0187415078
 21
5177.9557958505
 31
0.0
  0
LINE
  5
177
330
1F
100
AcDbEntity
  8
0
  6
Continuous
 62
     7
100
AcDbLine
 10
5324.018767257
 20
5610.5564542375
 30
0.0
 11
5326.0187415078
 21
5610.5564542375
 31
0.0
  0
LINE
  5
178
330
1F
100
AcDbEntity
  8
0
  6
Continuous
 62
     7
100
AcDbLine
 10
5324.018767257
 20
5610.5564542375
 30
0.0
 11
5324.018767257
 21
5202.9657967648
 31
0.0
  0
LINE
  5
179
330
1F
100
AcDbEntity
  8
0
  6
Continuous
 62
     7
100
AcDbLine
 10
5326.0187415078
 20
5610.5564542375
 30
0.0
 11
5326.0187415078
 21
5202.9657967648
 31
0.0
  0
LINE
  5
17A
330
1F
100
AcDbEntity
  8
0
  6
Continuous
 62
     7
100
AcDbLine
 10
5324.018767257
 20
5612.7083607278
 30
0.0
 11
5326.0187415078
 21
5612.7083607278
 31
0.0
  0
LINE
  5
17B
330
1F
100
AcDbEntity
  8
0
  6
Continuous
 62
     7
100
AcDbLine
 10
5324.018767257
 20
5612.7083607278
 30
0.0
 11
5324.018767257
 21
5610.5564542375
 31
0.0
  0
LINE
  5
17C
330
1F
100
AcDbEntity
  8
0
  6
Continuous
 62
     7
100
AcDbLine
 10
5326.0187415078
 20
5612.7083607278
 30
0.0
 11
5326.0187415078
 21
5610.5564542375
 31
0.0
  0
LINE
  5
17D
330
1F
100
AcDbEntity
  8
0
  6
Continuous
 62
     7
100
AcDbLine
 10
5324.018767257
 20
5622.4009402356
 30
0.0
 11
5326.0187415078
 21
5622.4009402356
 31
0.0
  0
LINE
  5
17E
330
1F
100
AcDbEntity
  8
0
  6
Continuous
 62
     7
100
AcDbLine
 10
5324.018767257
 20
5622.4009402356
 30
0.0
 11
5324.018767257
 21
5612.7083607278
 31
0.0
  0
LINE
  5
17F
330
1F
100
AcDbEntity
  8
0
  6
Continuous
 62
     7
100
AcDbLine
 10
5326.0187415078
 20
5622.4009402356
 30
0.0
 11
5326.0187415078
 21
5612.7083607278
 31
0.0
  0
LINE
  5
180
330
1F
100
AcDbEntity
  8
0
  6
Continuous
 62
     7
100
AcDbLine
 10
5324.018767257
 20
5622.4490113816
 30
0.0
 11
5324.018767257
 21
5622.4009402356
 31
0.0
  0
LINE
  5
181
330
1F
100
AcDbEntity
  8
0
  6
Continuous
 62
     7
100
AcDbLine
 10
5326.0187415078
 20
5622.4490113816
 30
0.0
 11
5326.0187415078
 21
5622.4009402356
 31
0.0
  0
LINE
  5
182
330
1F
100
AcDbEntity
  8
0
  6
Continuous
 62
     7
100
AcDbLine
 10
7222.0187691644
 20
5202.9657967648
 30
0.0
 11
5326.0187415078
 21
5202.9657967648
 31
0.0
  0
LINE
  5
183
330
1F
100
AcDbEntity
  8
0
  6
Continuous
 62
     7
100
AcDbLine
 10
5326.0187415078
 20
5200.7657967768
 30
0.0
 11
7222.0187691644
 21
5200.7657967768
 31
0.0
  0
LINE
  5
184
330
1F
100
AcDbEntity
  8
0
  6
Continuous
 62
     7
100
AcDbLine
 10
5326.0187415078
 20
5177.9657963923
 30
0.0
 11
7222.0187691644
 21
5177.9657963923
 31
0.0
  0
LINE
  5
185
330
1F
100
AcDbEntity
  8
0
  6
Continuous
 62
     7
100
AcDbLine
 10
5326.0187415078
 20
5610.5564542375
 30
0.0
 11
7222.0187691644
 21
5610.5564542375
 31
0.0
  0
LINE
  5
186
330
1F
100
AcDbEntity
  8
0
  6
Continuous
 62
     7
100
AcDbLine
 10
7222.0187691644
 20
5612.7083607278
 30
0.0
 11
5326.0187415078
 21
5612.7083607278
 31
0.0
  0
LINE
  5
187
330
1F
100
AcDbEntity
  8
0
  6
Continuous
 62
     7
100
AcDbLine
 10
5326.0187415078
 20
5622.4009402356
 30
0.0
 11
7222.0187691644
 21
5622.4009402356
 31
0.0
  0
LINE
  5
188
330
1F
100
AcDbEntity
  8
0
  6
Continuous
 62
     7
100
AcDbLine
 10
5442.518761535
 20
4874.9498732648
 30
0.0
 11
5510.5187801316
 21
4874.9498732648
 31
0.0
  0
LINE
  5
189
330
1F
100
AcDbEntity
  8
0
  6
Continuous
 62
     7
100
AcDbLine
 10
5452.189078708
 20
4934.949875649
 30
0.0
 11
5500.848403354
 21
4934.949875649
 31
0.0
  0
LINE
  5
18A
330
1F
100
AcDbEntity
  8
0
  6
Continuous
 62
     7
100
AcDbLine
 10
5452.3969201043
 20
4804.9498804173
 30
0.0
 11
5500.6405619577
 21
4804.9498804173
 31
0.0
  0
LINE
  5
18B
330
1F
100
AcDbEntity
  8
0
  6
Continuous
 62
     7
100
AcDbLine
 10
5453.5187391236
 20
4941.449881371
 30
0.0
 11
5499.5187429383
 21
4941.449881371
 31
0.0
  0
LINE
  5
18C
330
1F
100
AcDbEntity
  8
0
  6
Continuous
 62
     7
100
AcDbLine
 10
5451.5187648728
 20
4937.4498732648
 30
0.0
 11
5501.5187767938
 21
4937.4498732648
 31
0.0
  0
LINE
  5
18D
330
1F
100
AcDbEntity
  8
0
  6
Continuous
 62
     7
100
AcDbLine
 10
5456.5187601045
 20
4951.4498718343
 30
0.0
 11
5496.5187815621
 21
4951.4498718343
 31
0.0
  0
LINE
  5
18E
330
1F
100
AcDbEntity
  8
0
  6
Continuous
 62
     7
100
AcDbLine
 10
5493.0187372163
 20
4934.949875649
 30
0.0
 11
5492.5187734559
 21
4935.3161461911
 31
0.0
  0
LINE
  5
18F
330
1F
100
AcDbEntity
  8
0
  6
Continuous
 62
     7
100
AcDbLine
 10
5460.5187682107
 20
4935.3161461911
 30
0.0
 11
5460.0187448457
 21
4934.949875649
 31
0.0
  0
LINE
  5
190
330
1F
100
AcDbEntity
  8
0
  6
Continuous
 62
     7
100
AcDbLine
 10
5681.5687326387
 20
5316.9657968244
 30
0.0
 11
5666.4687303498
 21
5316.9657968244
 31
0.0
  0
LINE
  5
191
330
1F
100
AcDbEntity
  8
0
  6
Continuous
 62
     7
100
AcDbLine
 10
5681.5687326387
 20
5306.3657962046
 30
0.0
 11
5666.4687303498
 21
5306.3657962046
 31
0.0
  0
LINE
  5
192
330
1F
100
AcDbEntity
  8
0
  6
Continuous
 62
     7
100
AcDbLine
 10
6881.5687803224
 20
5316.9657968244
 30
0.0
 11
6866.4687780335
 21
5316.9657968244
 31
0.0
  0
LINE
  5
193
330
1F
100
AcDbEntity
  8
0
  6
Continuous
 62
     7
100
AcDbLine
 10
6881.5687803224
 20
5306.3657962046
 30
0.0
 11
6866.4687780335
 21
5306.3657962046
 31
0.0
  0
LINE
  5
194
330
1F
100
AcDbEntity
  8
0
  6
Continuous
 62
     7
100
AcDbLine
 10
6281.5687555492
 20
5316.9657968244
 30
0.0
 11
6266.468755123
 21
5316.9657968244
 31
0.0
  0
LINE
  5
195
330
1F
100
AcDbEntity
  8
0
  6
Continuous
 62
     7
100
AcDbLine
 10
6281.5687555492
 20
5306.3657962046
 30
0.0
 11
6266.468755123
 21
5306.3657962046
 31
0.0
  0
LINE
  5
196
330
1F
100
AcDbEntity
  8
0
  6
Continuous
 62
     7
100
AcDbLine
 10
5681.5187839463
 20
5317.2657944522
 30
0.0
 11
5666.5187386468
 21
5317.2657944522
 31
0.0
  0
LINE
  5
197
330
1F
100
AcDbEntity
  8
0
  6
Continuous
 62
     7
100
AcDbLine
 10
5666.5187386468
 20
5306.2657945118
 30
0.0
 11
5681.5187839463
 21
5306.2657945118
 31
0.0
  0
LINE
  5
198
330
1F
100
AcDbEntity
  8
0
  6
Continuous
 62
     7
100
AcDbLine
 10
6281.5187551685
 20
5317.2657944522
 30
0.0
 11
6266.5187555037
 21
5317.2657944522
 31
0.0
  0
LINE
  5
199
330
1F
100
AcDbEntity
  8
0
  6
Continuous
 62
     7
100
AcDbLine
 10
6266.5187555037
 20
5306.2657945118
 30
0.0
 11
6281.5187551685
 21
5306.2657945118
 31
0.0
  0
LINE
  5
19A
330
1F
100
AcDbEntity
  8
0
  6
Continuous
 62
     7
100
AcDbLine
 10
6881.5187720254
 20
5317.2657944522
 30
0.0
 11
6866.5187267259
 21
5317.2657944522
 31
0.0
  0
LINE
  5
19B
330
1F
100
AcDbEntity
  8
0
  6
Continuous
 62
     7
100
AcDbLine
 10
6866.5187267259
 20
5306.2657945118
 30
0.0
 11
6881.5187720254
 21
5306.2657945118
 31
0.0
  0
LINE
  5
19C
330
1F
100
AcDbEntity
  8
0
  6
Continuous
 62
     7
100
AcDbLine
 10
5688.0187300637
 20
4952.8658099732
 30
0.0
 11
5688.0187300637
 21
4952.9657967648
 31
0.0
  0
LINE
  5
19D
330
1F
100
AcDbEntity
  8
0
  6
Continuous
 62
     7
100
AcDbLine
 10
5660.0187329248
 20
4952.8658099732
 30
0.0
 11
5660.0187329248
 21
4952.9657967648
 31
0.0
  0
LINE
  5
19E
330
1F
100
AcDbEntity
  8
0
  6
Continuous
 62
     7
100
AcDbLine
 10
5688.0187300637
 20
4952.8658099732
 30
0.0
 11
5660.0187329248
 21
4952.8658099732
 31
0.0
  0
LINE
  5
19F
330
1F
100
AcDbEntity
  8
0
  6
Continuous
 62
     7
100
AcDbLine
 10
6288.0187557682
 20
4952.8658099732
 30
0.0
 11
6288.0187557682
 21
4952.9657967648
 31
0.0
  0
LINE
  5
1A0
330
1F
100
AcDbEntity
  8
0
  6
Continuous
 62
     7
100
AcDbLine
 10
6288.0187557682
 20
4952.8658099732
 30
0.0
 11
6260.018754904
 21
4952.8658099732
 31
0.0
  0
LINE
  5
1A1
330
1F
100
AcDbEntity
  8
0
  6
Continuous
 62
     7
100
AcDbLine
 10
6260.018754904
 20
4952.8658099732
 30
0.0
 11
6260.018754904
 21
4952.9657967648
 31
0.0
  0
LINE
  5
1A2
330
1F
100
AcDbEntity
  8
0
  6
Continuous
 62
     7
100
AcDbLine
 10
6860.0187806085
 20
4952.8658099732
 30
0.0
 11
6860.0187806085
 21
4952.9657967648
 31
0.0
  0
LINE
  5
1A3
330
1F
100
AcDbEntity
  8
0
  6
Continuous
 62
     7
100
AcDbLine
 10
6888.0187777474
 20
4952.8658099732
 30
0.0
 11
6888.0187777474
 21
4952.9657967648
 31
0.0
  0
LINE
  5
1A4
330
1F
100
AcDbEntity
  8
0
  6
Continuous
 62
     7
100
AcDbLine
 10
6888.0187777474
 20
4952.8658099732
 30
0.0
 11
6860.0187806085
 21
4952.8658099732
 31
0.0
  0
LINE
  5
1A5
330
1F
100
AcDbEntity
  8
0
  6
Continuous
 62
     7
100
AcDbLine
 10
5675.5187419847
 20
5498.9658005795
 30
0.0
 11
5672.5187806085
 21
5498.9658005795
 31
0.0
  0
LINE
  5
1A6
330
1F
100
AcDbEntity
  8
0
  6
Continuous
 62
     7
100
AcDbLine
 10
6875.5187300637
 20
5498.9658005795
 30
0.0
 11
6872.5187686875
 21
5498.9658005795
 31
0.0
  0
LINE
  5
1A7
330
1F
100
AcDbEntity
  8
0
  6
Continuous
 62
     7
100
AcDbLine
 10
6275.5187553491
 20
5498.9658005795
 30
0.0
 11
6272.5187553231
 21
5498.9658005795
 31
0.0
  0
LINE
  5
1A8
330
1F
100
AcDbEntity
  8
0
  6
Continuous
 62
     7
100
AcDbLine
 10
6880.7613161996
 20
5503.5298772416
 30
0.0
 11
6880.7613161996
 21
5502.5639541707
 31
0.0
  0
LINE
  5
1A9
330
1F
100
AcDbEntity
  8
0
  6
Continuous
 62
     7
100
AcDbLine
 10
6883.264234443
 20
5504.8816509805
 30
0.0
 11
6883.264234443
 21
5504.2779453359
 31
0.0
  0
LINE
  5
1AA
330
1F
100
AcDbEntity
  8
0
  6
Continuous
 62
     7
100
AcDbLine
 10
6882.1760324433
 20
5505.6433685384
 30
0.0
 11
6882.1760324433
 21
5505.3316958508
 31
0.0
  0
LINE
  5
1AB
330
1F
100
AcDbEntity
  8
0
  6
Continuous
 62
     7
100
AcDbLine
 10
6880.3512362435
 20
5506.1640449128
 30
0.0
 11
6880.3512362435
 21
5505.9480078778
 31
0.0
  0
LINE
  5
1AC
330
1F
100
AcDbEntity
  8
0
  6
Continuous
 62
     7
100
AcDbLine
 10
6876.7028955415
 20
5506.6625185571
 30
0.0
 11
6876.7028955415
 21
5506.493986424
 31
0.0
  0
LINE
  5
1AD
330
1F
100
AcDbEntity
  8
0
  6
Continuous
 62
     7
100
AcDbLine
 10
6873.7288025811
 20
5506.7576475701
 30
0.0
 11
6873.7288025811
 21
5506.5958209596
 31
0.0
  0
LINE
  5
1AE
330
1F
100
AcDbEntity
  8
0
  6
Continuous
 62
     7
100
AcDbLine
 10
6869.6574477151
 20
5506.4959831796
 30
0.0
 11
6869.6574477151
 21
5506.314189013
 31
0.0
  0
LINE
  5
1AF
330
1F
100
AcDbEntity
  8
0
  6
Continuous
 62
     7
100
AcDbLine
 10
6867.2762421563
 20
5506.0702570043
 30
0.0
 11
6867.2762421563
 21
5505.8418818078
 31
0.0
  0
LINE
  5
1B0
330
1F
100
AcDbEntity
  8
0
  6
Continuous
 62
     7
100
AcDbLine
 10
6865.1667741731
 20
5505.3357489667
 30
0.0
 11
6865.1667741731
 21
5504.8976250253
 31
0.0
  0
LINE
  5
1B1
330
1F
100
AcDbEntity
  8
0
  6
Continuous
 62
     7
100
AcDbLine
 10
6865.8614663079
 20
5504.0400333962
 30
0.0
 11
6865.8614663079
 21
5503.0741103253
 31
0.0
  0
LINE
  5
1B2
330
1F
100
AcDbEntity
  8
0
  6
Continuous
 62
     7
100
AcDbLine
 10
6871.3346032098
 20
5502.8777726254
 30
0.0
 11
6871.3346032098
 21
5501.9118495545
 31
0.0
  0
LINE
  5
1B3
330
1F
100
AcDbEntity
  8
0
  6
Continuous
 62
     7
100
AcDbLine
 10
6867.470434089
 20
5503.8700409493
 30
0.0
 11
6866.5701655343
 21
5504.2507954202
 31
0.0
  0
LINE
  5
1B4
330
1F
100
AcDbEntity
  8
0
  6
Continuous
 62
     7
100
AcDbLine
 10
6866.5701655343
 20
5504.2507954202
 30
0.0
 11
6865.9954575494
 21
5504.6716936192
 31
0.0
  0
LINE
  5
1B5
330
1F
100
AcDbEntity
  8
0
  6
Continuous
 62
     7
100
AcDbLine
 10
6865.9954575494
 20
5504.6716936192
 30
0.0
 11
6865.7714632943
 21
5505.114287909
 31
0.0
  0
LINE
  5
1B6
330
1F
100
AcDbEntity
  8
0
  6
Continuous
 62
     7
100
AcDbLine
 10
6865.7714632943
 20
5505.114287909
 30
0.0
 11
6865.9078387216
 21
5505.5592961869
 31
0.0
  0
LINE
  5
1B7
330
1F
100
AcDbEntity
  8
0
  6
Continuous
 62
     7
100
AcDbLine
 10
6865.9078387216
 20
5505.5592961869
 30
0.0
 11
6866.0352734521
 21
5505.7071753106
 31
0.0
  0
LINE
  5
1B8
330
1F
100
AcDbEntity
  8
0
  6
Continuous
 62
     7
100
AcDbLine
 10
6882.193377395
 20
5505.4567761979
 30
0.0
 11
6882.2660354569
 21
5505.2233942113
 31
0.0
  0
LINE
  5
1B9
330
1F
100
AcDbEntity
  8
0
  6
Continuous
 62
     7
100
AcDbLine
 10
6882.2660354569
 20
5505.2233942113
 30
0.0
 11
6882.1296600297
 21
5504.7783859334
 31
0.0
  0
LINE
  5
1BA
330
1F
100
AcDbEntity
  8
0
  6
Continuous
 62
     7
100
AcDbLine
 10
6882.1296600297
 20
5504.7783859334
 30
0.0
 11
6881.6387561753
 21
5504.3504543862
 31
0.0
  0
LINE
  5
1BB
330
1F
100
AcDbEntity
  8
0
  6
Continuous
 62
     7
100
AcDbLine
 10
6881.6387561753
 20
5504.3504543862
 30
0.0
 11
6880.8148411706
 21
5503.9583154282
 31
0.0
  0
LINE
  5
1BC
330
1F
100
AcDbEntity
  8
0
  6
Continuous
 62
     7
100
AcDbLine
 10
6880.8148411706
 20
5503.9583154282
 30
0.0
 11
6879.693916221
 21
5503.6190457902
 31
0.0
  0
LINE
  5
1BD
330
1F
100
AcDbEntity
  8
0
  6
Continuous
 62
     7
100
AcDbLine
 10
6879.693916221
 20
5503.6190457902
 30
0.0
 11
6878.3249167398
 21
5503.3475168309
 31
0.0
  0
LINE
  5
1BE
330
1F
100
AcDbEntity
  8
0
  6
Continuous
 62
     7
100
AcDbLine
 10
6878.3249167398
 20
5503.3475168309
 30
0.0
 11
6876.767745395
 21
5503.1556196771
 31
0.0
  0
LINE
  5
1BF
330
1F
100
AcDbEntity
  8
0
  6
Continuous
 62
     7
100
AcDbLine
 10
6876.767745395
 20
5503.1556196771
 30
0.0
 11
6875.0904110864
 21
5503.0516691766
 31
0.0
  0
LINE
  5
1C0
330
1F
100
AcDbEntity
  8
0
  6
Continuous
 62
     7
100
AcDbLine
 10
6875.0904110864
 20
5503.0516691766
 30
0.0
 11
6873.3662871316
 21
5503.0402846894
 31
0.0
  0
LINE
  5
1C1
330
1F
100
AcDbEntity
  8
0
  6
Continuous
 62
     7
100
AcDbLine
 10
6873.3662871316
 20
5503.0402846894
 30
0.0
 11
6871.670654197
 21
5503.1218834481
 31
0.0
  0
LINE
  5
1C2
330
1F
100
AcDbEntity
  8
0
  6
Continuous
 62
     7
100
AcDbLine
 10
6871.670654197
 20
5503.1218834481
 30
0.0
 11
6870.0776008561
 21
5503.2929785809
 31
0.0
  0
LINE
  5
1C3
330
1F
100
AcDbEntity
  8
0
  6
Continuous
 62
     7
100
AcDbLine
 10
6870.0776008561
 20
5503.2929785809
 30
0.0
 11
6868.6568645433
 21
5503.5460599027
 31
0.0
  0
LINE
  5
1C4
330
1F
100
AcDbEntity
  8
0
  6
Continuous
 62
     7
100
AcDbLine
 10
6868.6568645433
 20
5503.5460599027
 30
0.0
 11
6867.470434089
 21
5503.8700409493
 31
0.0
  0
LINE
  5
1C5
330
1F
100
AcDbEntity
  8
0
  6
Continuous
 62
     7
100
AcDbLine
 10
6882.7614692643
 20
5505.2610941491
 30
0.0
 11
6883.0233124688
 21
5505.2521236501
 31
0.0
  0
LINE
  5
1C6
330
1F
100
AcDbEntity
  8
0
  6
Continuous
 62
     7
100
AcDbLine
 10
6880.7613161996
 20
5503.5298772416
 30
0.0
 11
6880.4528621629
 21
5503.6340363583
 31
0.0
  0
LINE
  5
1C7
330
1F
100
AcDbEntity
  8
0
  6
Continuous
 62
     7
100
AcDbLine
 10
6871.4011219934
 20
5503.007889565
 30
0.0
 11
6871.3346032098
 21
5502.8777726254
 31
0.0
  0
LINE
  5
1C8
330
1F
100
AcDbEntity
  8
0
  6
Continuous
 62
     7
100
AcDbLine
 10
6865.8614663079
 20
5504.0400333962
 30
0.0
 11
6866.2639764741
 21
5504.1198738179
 31
0.0
  0
LINE
  5
1C9
330
1F
100
AcDbEntity
  8
0
  6
Continuous
 62
     7
100
AcDbLine
 10
6866.5187267259
 20
5505.2452095113
 30
0.0
 11
6865.9954575494
 21
5505.6376166902
 31
0.0
  0
LINE
  5
1CA
330
1F
100
AcDbEntity
  8
0
  6
Continuous
 62
     7
100
AcDbLine
 10
6865.9954575494
 20
5505.6376166902
 30
0.0
 11
6865.958443065
 21
5505.6794889531
 31
0.0
  0
LINE
  5
1CB
330
1F
100
AcDbEntity
  8
0
  6
Continuous
 62
     7
100
AcDbLine
 10
6881.6384581521
 20
5505.3161986432
 30
0.0
 11
6881.5187720254
 21
5505.2452095113
 31
0.0
  0
LINE
  5
1CC
330
1F
100
AcDbEntity
  8
0
  6
Continuous
 62
     7
100
AcDbLine
 10
6876.6363767579
 20
5506.3638694844
 30
0.0
 11
6876.7028955415
 21
5506.493986424
 31
0.0
  0
LINE
  5
1CD
330
1F
100
AcDbEntity
  8
0
  6
Continuous
 62
     7
100
AcDbLine
 10
6873.6623434022
 20
5506.46570402
 30
0.0
 11
6873.7288025811
 21
5506.5958209596
 31
0.0
  0
LINE
  5
1CE
330
1F
100
AcDbEntity
  8
0
  6
Continuous
 62
     7
100
AcDbLine
 10
6868.0657056764
 20
5503.9881177506
 30
0.0
 11
6867.2242073014
 21
5504.3469377122
 31
0.0
  0
LINE
  5
1CF
330
1F
100
AcDbEntity
  8
0
  6
Continuous
 62
     7
100
AcDbLine
 10
6867.2242073014
 20
5504.3469377122
 30
0.0
 11
6866.7004016831
 21
5504.7442026696
 31
0.0
  0
LINE
  5
1D0
330
1F
100
AcDbEntity
  8
0
  6
Continuous
 62
     7
100
AcDbLine
 10
6866.7004016831
 20
5504.7442026696
 30
0.0
 11
6866.5187863305
 21
5505.1613159738
 31
0.0
  0
LINE
  5
1D1
330
1F
100
AcDbEntity
  8
0
  6
Continuous
 62
     7
100
AcDbLine
 10
6866.5187863305
 20
5505.1613159738
 30
0.0
 11
6866.6878847077
 21
5505.5787571034
 31
0.0
  0
LINE
  5
1D2
330
1F
100
AcDbEntity
  8
0
  6
Continuous
 62
     7
100
AcDbLine
 10
6866.6878847077
 20
5505.5787571034
 30
0.0
 11
6867.1997693971
 21
5505.9770651421
 31
0.0
  0
LINE
  5
1D3
330
1F
100
AcDbEntity
  8
0
  6
Continuous
 62
     7
100
AcDbLine
 10
6867.1997693971
 20
5505.9770651421
 30
0.0
 11
6867.2762421563
 21
5506.0189374051
 31
0.0
  0
LINE
  5
1D4
330
1F
100
AcDbEntity
  8
0
  6
Continuous
 62
     7
100
AcDbLine
 10
6881.469836612
 20
5505.390227612
 30
0.0
 11
6881.4715651467
 21
5505.3862042985
 31
0.0
  0
LINE
  5
1D5
330
1F
100
AcDbEntity
  8
0
  6
Continuous
 62
     7
100
AcDbLine
 10
6881.4715651467
 20
5505.3862042985
 30
0.0
 11
6881.4778832391
 21
5504.96646839
 31
0.0
  0
LINE
  5
1D6
330
1F
100
AcDbEntity
  8
0
  6
Continuous
 62
     7
100
AcDbLine
 10
6881.4778832391
 20
5504.96646839
 30
0.0
 11
6881.1353949502
 21
5504.5561798177
 31
0.0
  0
LINE
  5
1D7
330
1F
100
AcDbEntity
  8
0
  6
Continuous
 62
     7
100
AcDbLine
 10
6881.1353949502
 20
5504.5561798177
 30
0.0
 11
6880.4601339295
 21
5504.1745312772
 31
0.0
  0
LINE
  5
1D8
330
1F
100
AcDbEntity
  8
0
  6
Continuous
 62
     7
100
AcDbLine
 10
6880.4601339295
 20
5504.1745312772
 30
0.0
 11
6879.4836906388
 21
5503.8394041619
 31
0.0
  0
LINE
  5
1D9
330
1F
100
AcDbEntity
  8
0
  6
Continuous
 62
     7
100
AcDbLine
 10
6879.4836906388
 20
5503.8394041619
 30
0.0
 11
6878.251722236
 21
5503.5664148889
 31
0.0
  0
LINE
  5
1DA
330
1F
100
AcDbEntity
  8
0
  6
Continuous
 62
     7
100
AcDbLine
 10
6878.251722236
 20
5503.5664148889
 30
0.0
 11
6876.8218068078
 21
5503.3683784566
 31
0.0
  0
LINE
  5
1DB
330
1F
100
AcDbEntity
  8
0
  6
Continuous
 62
     7
100
AcDbLine
 10
6876.8218068078
 20
5503.3683784566
 30
0.0
 11
6875.2608207658
 21
5503.2545037827
 31
0.0
  0
LINE
  5
1DC
330
1F
100
AcDbEntity
  8
0
  6
Continuous
 62
     7
100
AcDbLine
 10
6875.2608207658
 20
5503.2545037827
 30
0.0
 11
6873.6417797998
 21
5503.2301552854
 31
0.0
  0
LINE
  5
1DD
330
1F
100
AcDbEntity
  8
0
  6
Continuous
 62
     7
100
AcDbLine
 10
6873.6417797998
 20
5503.2301552854
 30
0.0
 11
6872.0403818086
 21
5503.2964356503
 31
0.0
  0
LINE
  5
1DE
330
1F
100
AcDbEntity
  8
0
  6
Continuous
 62
     7
100
AcDbLine
 10
6872.0403818086
 20
5503.2964356503
 30
0.0
 11
6870.5314306214
 21
5503.4503050408
 31
0.0
  0
LINE
  5
1DF
330
1F
100
AcDbEntity
  8
0
  6
Continuous
 62
     7
100
AcDbLine
 10
6870.5314306214
 20
5503.4503050408
 30
0.0
 11
6869.1855577424
 21
5503.6845214925
 31
0.0
  0
LINE
  5
1E0
330
1F
100
AcDbEntity
  8
0
  6
Continuous
 62
     7
100
AcDbLine
 10
6869.1855577424
 20
5503.6845214925
 30
0.0
 11
6868.0657056764
 21
5503.9881177506
 31
0.0
  0
LINE
  5
1E1
330
1F
100
AcDbEntity
  8
0
  6
Continuous
 62
     7
100
AcDbLine
 10
6873.6623434022
 20
5506.757081326
 30
0.0
 11
6873.6623434022
 21
5506.46570402
 31
0.0
  0
LINE
  5
1E2
330
1F
100
AcDbEntity
  8
0
  6
Continuous
 62
     7
100
AcDbLine
 10
6869.6574477151
 20
5506.314189013
 30
0.0
 11
6869.9659017518
 21
5506.2100000939
 31
0.0
  0
LINE
  5
1E3
330
1F
100
AcDbEntity
  8
0
  6
Continuous
 62
     7
100
AcDbLine
 10
6867.2762421563
 20
5505.8418818078
 30
0.0
 11
6867.5846365884
 21
5505.7377226911
 31
0.0
  0
LINE
  5
1E4
330
1F
100
AcDbEntity
  8
0
  6
Continuous
 62
     7
100
AcDbLine
 10
6869.9659017518
 20
5506.5335639081
 30
0.0
 11
6869.9659017518
 21
5506.2100000939
 31
0.0
  0
LINE
  5
1E5
330
1F
100
AcDbEntity
  8
0
  6
Continuous
 62
     7
100
AcDbLine
 10
6880.3512362435
 20
5505.9480078778
 30
0.0
 11
6879.948785682
 21
5505.8681674561
 31
0.0
  0
LINE
  5
1E6
330
1F
100
AcDbEntity
  8
0
  6
Continuous
 62
     7
100
AcDbLine
 10
6882.1760324433
 20
5505.3316958508
 30
0.0
 11
6881.7735222772
 21
5505.2518852315
 31
0.0
  0
LINE
  5
1E7
330
1F
100
AcDbEntity
  8
0
  6
Continuous
 62
     7
100
AcDbLine
 10
6879.948785682
 20
5506.2465973458
 30
0.0
 11
6879.948785682
 21
5505.8681674561
 31
0.0
  0
LINE
  5
1E8
330
1F
100
AcDbEntity
  8
0
  6
Continuous
 62
     7
100
AcDbLine
 10
6865.6694797471
 20
5505.5676706395
 30
0.0
 11
6865.6694797471
 21
5504.8803992829
 31
0.0
  0
LINE
  5
1E9
330
1F
100
AcDbEntity
  8
0
  6
Continuous
 62
     7
100
AcDbLine
 10
6865.6694797471
 20
5504.8803992829
 30
0.0
 11
6865.1667741731
 21
5504.8976250253
 31
0.0
  0
LINE
  5
1EA
330
1F
100
AcDbEntity
  8
0
  6
Continuous
 62
     7
100
AcDbLine
 10
6865.2760294869
 20
5504.1106649003
 30
0.0
 11
6864.7733239129
 21
5504.1278608403
 31
0.0
  0
LINE
  5
1EB
330
1F
100
AcDbEntity
  8
0
  6
Continuous
 62
     7
100
AcDbLine
 10
6865.2760294869
 20
5504.2951710782
 30
0.0
 11
6865.2760294869
 21
5504.1106649003
 31
0.0
  0
LINE
  5
1EC
330
1F
100
AcDbEntity
  8
0
  6
Continuous
 62
     7
100
AcDbLine
 10
6882.7614692643
 20
5505.2610941491
 30
0.0
 11
6882.7614692643
 21
5504.2951710782
 31
0.0
  0
LINE
  5
1ED
330
1F
100
AcDbEntity
  8
0
  6
Continuous
 62
     7
100
AcDbLine
 10
6882.7614692643
 20
5504.2951710782
 30
0.0
 11
6883.264234443
 21
5504.2779453359
 31
0.0
  0
LINE
  5
1EE
330
1F
100
AcDbEntity
  8
0
  6
Continuous
 62
     7
100
AcDbLine
 10
6882.3680190042
 20
5503.5254068932
 30
0.0
 11
6882.8707245782
 21
5503.5082109532
 31
0.0
  0
LINE
  5
1EF
330
1F
100
AcDbEntity
  8
0
  6
Continuous
 62
     7
100
AcDbLine
 10
6882.3680190042
 20
5504.4913299642
 30
0.0
 11
6882.3680190042
 21
5503.5254068932
 31
0.0
  0
LINE
  5
1F0
330
1F
100
AcDbEntity
  8
0
  6
Continuous
 62
     7
100
AcDbLine
 10
6866.2639764741
 20
5504.1198738179
 30
0.0
 11
6866.2639764741
 21
5503.153950747
 31
0.0
  0
LINE
  5
1F1
330
1F
100
AcDbEntity
  8
0
  6
Continuous
 62
     7
100
AcDbLine
 10
6865.8614663079
 20
5503.0741103253
 30
0.0
 11
6866.2639764741
 21
5503.153950747
 31
0.0
  0
LINE
  5
1F2
330
1F
100
AcDbEntity
  8
0
  6
Continuous
 62
     7
100
AcDbLine
 10
6867.6862625077
 20
5502.4578281007
 30
0.0
 11
6868.0887726739
 21
5502.53763872
 31
0.0
  0
LINE
  5
1F3
330
1F
100
AcDbEntity
  8
0
  6
Continuous
 62
     7
100
AcDbLine
 10
6868.0887726739
 20
5503.5035617909
 30
0.0
 11
6868.0887726739
 21
5502.53763872
 31
0.0
  0
LINE
  5
1F4
330
1F
100
AcDbEntity
  8
0
  6
Continuous
 62
     7
100
AcDbLine
 10
6880.4528621629
 20
5503.6340363583
 30
0.0
 11
6880.4528621629
 21
5502.6681132874
 31
0.0
  0
LINE
  5
1F5
330
1F
100
AcDbEntity
  8
0
  6
Continuous
 62
     7
100
AcDbLine
 10
6878.0716566041
 20
5503.1617589555
 30
0.0
 11
6878.0716566041
 21
5502.1958358846
 31
0.0
  0
LINE
  5
1F6
330
1F
100
AcDbEntity
  8
0
  6
Continuous
 62
     7
100
AcDbLine
 10
6880.7613161996
 20
5502.5639541707
 30
0.0
 11
6880.4528621629
 21
5502.6681132874
 31
0.0
  0
LINE
  5
1F7
330
1F
100
AcDbEntity
  8
0
  6
Continuous
 62
     7
100
AcDbLine
 10
6878.3800510362
 20
5502.0916469655
 30
0.0
 11
6878.0716566041
 21
5502.1958358846
 31
0.0
  0
LINE
  5
1F8
330
1F
100
AcDbEntity
  8
0
  6
Continuous
 62
     7
100
AcDbLine
 10
6871.4011219934
 20
5503.007889565
 30
0.0
 11
6871.4011219934
 21
5502.0419664941
 31
0.0
  0
LINE
  5
1F9
330
1F
100
AcDbEntity
  8
0
  6
Continuous
 62
     7
100
AcDbLine
 10
6874.3752149537
 20
5502.9060550294
 30
0.0
 11
6874.3752149537
 21
5501.9401319585
 31
0.0
  0
LINE
  5
1FA
330
1F
100
AcDbEntity
  8
0
  6
Continuous
 62
     7
100
AcDbLine
 10
6871.4011219934
 20
5502.0419664941
 30
0.0
 11
6871.3346032098
 21
5501.9118495545
 31
0.0
  0
LINE
  5
1FB
330
1F
100
AcDbEntity
  8
0
  6
Continuous
 62
     7
100
AcDbLine
 10
6874.3752149537
 20
5501.9401319585
 30
0.0
 11
6874.3086961701
 21
5501.8100150189
 31
0.0
  0
LINE
  5
1FC
330
1F
100
AcDbEntity
  8
0
  6
Continuous
 62
     7
100
AcDbLine
 10
6280.7612928234
 20
5503.5298772416
 30
0.0
 11
6280.7612928234
 21
5502.5639541707
 31
0.0
  0
LINE
  5
1FD
330
1F
100
AcDbEntity
  8
0
  6
Continuous
 62
     7
100
AcDbLine
 10
6283.2642106011
 20
5504.8816509805
 30
0.0
 11
6283.2642106011
 21
5504.2779453359
 31
0.0
  0
LINE
  5
1FE
330
1F
100
AcDbEntity
  8
0
  6
Continuous
 62
     7
100
AcDbLine
 10
6282.1760439917
 20
5505.6433685384
 30
0.0
 11
6282.1760439917
 21
5505.3316958508
 31
0.0
  0
LINE
  5
1FF
330
1F
100
AcDbEntity
  8
0
  6
Continuous
 62
     7
100
AcDbLine
 10
6280.3512659527
 20
5506.1640449128
 30
0.0
 11
6280.3512659527
 21
5505.9480078778
 31
0.0
  0
LINE
  5
200
330
1F
100
AcDbEntity
  8
0
  6
Continuous
 62
     7
100
AcDbLine
 10
6276.7029087197
 20
5506.6625185571
 30
0.0
 11
6276.7029087197
 21
5506.493986424
 31
0.0
  0
LINE
  5
201
330
1F
100
AcDbEntity
  8
0
  6
Continuous
 62
     7
100
AcDbLine
 10
6273.7288225114
 20
5506.7576475701
 30
0.0
 11
6273.7288225114
 21
5506.5958209596
 31
0.0
  0
LINE
  5
202
330
1F
100
AcDbEntity
  8
0
  6
Continuous
 62
     7
100
AcDbLine
 10
6269.6574327208
 20
5506.4959831796
 30
0.0
 11
6269.6574327208
 21
5506.314189013
 31
0.0
  0
LINE
  5
203
330
1F
100
AcDbEntity
  8
0
  6
Continuous
 62
     7
100
AcDbLine
 10
6267.2762178488
 20
5506.0702570043
 30
0.0
 11
6267.2762178488
 21
5505.8418818078
 31
0.0
  0
LINE
  5
204
330
1F
100
AcDbEntity
  8
0
  6
Continuous
 62
     7
100
AcDbLine
 10
6265.1667596444
 20
5505.3357489667
 30
0.0
 11
6265.1667596444
 21
5504.8976250253
 31
0.0
  0
LINE
  5
205
330
1F
100
AcDbEntity
  8
0
  6
Continuous
 62
     7
100
AcDbLine
 10
6265.8614666805
 20
5504.0400333962
 30
0.0
 11
6265.8614666805
 21
5503.0741103253
 31
0.0
  0
LINE
  5
206
330
1F
100
AcDbEntity
  8
0
  6
Continuous
 62
     7
100
AcDbLine
 10
6271.3346019525
 20
5502.8777726254
 30
0.0
 11
6271.3346019525
 21
5501.9118495545
 31
0.0
  0
LINE
  5
207
330
1F
100
AcDbEntity
  8
0
  6
Continuous
 62
     7
100
AcDbLine
 10
6267.4704149038
 20
5503.8700409493
 30
0.0
 11
6266.5701817393
 21
5504.2507954202
 31
0.0
  0
LINE
  5
208
330
1F
100
AcDbEntity
  8
0
  6
Continuous
 62
     7
100
AcDbLine
 10
6266.5701817393
 20
5504.2507954202
 30
0.0
 11
6265.9954867929
 21
5504.6716936192
 31
0.0
  0
LINE
  5
209
330
1F
100
AcDbEntity
  8
0
  6
Continuous
 62
     7
100
AcDbLine
 10
6265.9954867929
 20
5504.6716936192
 30
0.0
 11
6265.7714478344
 21
5505.114287909
 31
0.0
  0
LINE
  5
20A
330
1F
100
AcDbEntity
  8
0
  6
Continuous
 62
     7
100
AcDbLine
 10
6265.7714478344
 20
5505.114287909
 30
0.0
 11
6265.9078549266
 21
5505.5592961869
 31
0.0
  0
LINE
  5
20B
330
1F
100
AcDbEntity
  8
0
  6
Continuous
 62
     7
100
AcDbLine
 10
6265.9078549266
 20
5505.5592961869
 30
0.0
 11
6266.0352514729
 21
5505.7071753106
 31
0.0
  0
LINE
  5
20C
330
1F
100
AcDbEntity
  8
0
  6
Continuous
 62
     7
100
AcDbLine
 10
6282.1933963939
 20
5505.4567761979
 30
0.0
 11
6282.2660628378
 21
5505.2233942113
 31
0.0
  0
LINE
  5
20D
330
1F
100
AcDbEntity
  8
0
  6
Continuous
 62
     7
100
AcDbLine
 10
6282.2660628378
 20
5505.2233942113
 30
0.0
 11
6282.1296557456
 21
5504.7783859334
 31
0.0
  0
LINE
  5
20E
330
1F
100
AcDbEntity
  8
0
  6
Continuous
 62
     7
100
AcDbLine
 10
6282.1296557456
 20
5504.7783859334
 30
0.0
 11
6281.6387630671
 21
5504.3504543862
 31
0.0
  0
LINE
  5
20F
330
1F
100
AcDbEntity
  8
0
  6
Continuous
 62
     7
100
AcDbLine
 10
6281.6387630671
 20
5504.3504543862
 30
0.0
 11
6280.8148392148
 21
5503.9583154282
 31
0.0
  0
LINE
  5
210
330
1F
100
AcDbEntity
  8
0
  6
Continuous
 62
     7
100
AcDbLine
 10
6280.8148392148
 20
5503.9583154282
 30
0.0
 11
6280.461527095
 21
5503.8351424298
 31
0.0
  0
LINE
  5
211
330
1F
100
AcDbEntity
  8
0
  6
Continuous
 62
     7
100
AcDbLine
 10
6267.7926818512
 20
5503.7679083905
 30
0.0
 11
6267.4704149038
 21
5503.8700409493
 31
0.0
  0
LINE
  5
212
330
1F
100
AcDbEntity
  8
0
  6
Continuous
 62
     7
100
AcDbLine
 10
6282.7614919886
 20
5505.2610941491
 30
0.0
 11
6283.0233035281
 21
5505.2521236501
 31
0.0
  0
LINE
  5
213
330
1F
100
AcDbEntity
  8
0
  6
Continuous
 62
     7
100
AcDbLine
 10
6280.7612928234
 20
5503.5298772416
 30
0.0
 11
6280.4528453059
 21
5503.6340363583
 31
0.0
  0
LINE
  5
214
330
1F
100
AcDbEntity
  8
0
  6
Continuous
 62
     7
100
AcDbLine
 10
6271.4011095602
 20
5503.007889565
 30
0.0
 11
6271.3346019525
 21
5502.8777726254
 31
0.0
  0
LINE
  5
215
330
1F
100
AcDbEntity
  8
0
  6
Continuous
 62
     7
100
AcDbLine
 10
6265.8614666805
 20
5504.0400333962
 30
0.0
 11
6266.2639698617
 21
5504.1198738179
 31
0.0
  0
LINE
  5
216
330
1F
100
AcDbEntity
  8
0
  6
Continuous
 62
     7
100
AcDbLine
 10
6266.5187555037
 20
5505.2452095113
 30
0.0
 11
6265.9954867929
 21
5505.6376166902
 31
0.0
  0
LINE
  5
217
330
1F
100
AcDbEntity
  8
0
  6
Continuous
 62
     7
100
AcDbLine
 10
6265.9954867929
 20
5505.6376166902
 30
0.0
 11
6265.9584704459
 21
5505.6794889531
 31
0.0
  0
LINE
  5
218
330
1F
100
AcDbEntity
  8
0
  6
Continuous
 62
     7
100
AcDbLine
 10
6281.6384724945
 20
5505.3161986432
 30
0.0
 11
6281.5187551685
 21
5505.2452095113
 31
0.0
  0
LINE
  5
219
330
1F
100
AcDbEntity
  8
0
  6
Continuous
 62
     7
100
AcDbLine
 10
6276.636401112
 20
5506.3638694844
 30
0.0
 11
6276.7029087197
 21
5506.493986424
 31
0.0
  0
LINE
  5
21A
330
1F
100
AcDbEntity
  8
0
  6
Continuous
 62
     7
100
AcDbLine
 10
6273.6623149037
 20
5506.46570402
 30
0.0
 11
6273.7288225114
 21
5506.5958209596
 31
0.0
  0
LINE
  5
21B
330
1F
100
AcDbEntity
  8
0
  6
Continuous
 62
     7
100
AcDbLine
 10
6268.0657186218
 20
5503.9881177506
 30
0.0
 11
6267.2242137276
 21
5504.3469377122
 31
0.0
  0
LINE
  5
21C
330
1F
100
AcDbEntity
  8
0
  6
Continuous
 62
     7
100
AcDbLine
 10
6267.2242137276
 20
5504.3469377122
 30
0.0
 11
6266.7004141629
 21
5504.7442026696
 31
0.0
  0
LINE
  5
21D
330
1F
100
AcDbEntity
  8
0
  6
Continuous
 62
     7
100
AcDbLine
 10
6266.7004141629
 20
5504.7442026696
 30
0.0
 11
6266.5188118488
 21
5505.1613159738
 31
0.0
  0
LINE
  5
21E
330
1F
100
AcDbEntity
  8
0
  6
Continuous
 62
     7
100
AcDbLine
 10
6266.5188118488
 20
5505.1613159738
 30
0.0
 11
6266.6878985844
 21
5505.5787571034
 31
0.0
  0
LINE
  5
21F
330
1F
100
AcDbEntity
  8
0
  6
Continuous
 62
     7
100
AcDbLine
 10
6266.6878985844
 20
5505.5787571034
 30
0.0
 11
6267.1997683726
 21
5505.9770651421
 31
0.0
  0
LINE
  5
220
330
1F
100
AcDbEntity
  8
0
  6
Continuous
 62
     7
100
AcDbLine
 10
6267.1997683726
 20
5505.9770651421
 30
0.0
 11
6267.2762178488
 21
5506.0189374051
 31
0.0
  0
LINE
  5
221
330
1F
100
AcDbEntity
  8
0
  6
Continuous
 62
     7
100
AcDbLine
 10
6281.4698225491
 20
5505.390227612
 30
0.0
 11
6281.471586474
 21
5505.3862042985
 31
0.0
  0
LINE
  5
222
330
1F
100
AcDbEntity
  8
0
  6
Continuous
 62
     7
100
AcDbLine
 10
6281.471586474
 20
5505.3862042985
 30
0.0
 11
6281.4778812833
 21
5504.96646839
 31
0.0
  0
LINE
  5
223
330
1F
100
AcDbEntity
  8
0
  6
Continuous
 62
     7
100
AcDbLine
 10
6281.4778812833
 20
5504.96646839
 30
0.0
 11
6281.1353953227
 21
5504.5561798177
 31
0.0
  0
LINE
  5
224
330
1F
100
AcDbEntity
  8
0
  6
Continuous
 62
     7
100
AcDbLine
 10
6281.1353953227
 20
5504.5561798177
 30
0.0
 11
6280.4601431496
 21
5504.1745312772
 31
0.0
  0
LINE
  5
225
330
1F
100
AcDbEntity
  8
0
  6
Continuous
 62
     7
100
AcDbLine
 10
6280.4601431496
 20
5504.1745312772
 30
0.0
 11
6279.4836989276
 21
5503.8394041619
 31
0.0
  0
LINE
  5
226
330
1F
100
AcDbEntity
  8
0
  6
Continuous
 62
     7
100
AcDbLine
 10
6279.4836989276
 20
5503.8394041619
 30
0.0
 11
6278.2517202802
 21
5503.5664148889
 31
0.0
  0
LINE
  5
227
330
1F
100
AcDbEntity
  8
0
  6
Continuous
 62
     7
100
AcDbLine
 10
6278.2517202802
 20
5503.5664148889
 30
0.0
 11
6276.8218125354
 21
5503.3683784566
 31
0.0
  0
LINE
  5
228
330
1F
100
AcDbEntity
  8
0
  6
Continuous
 62
     7
100
AcDbLine
 10
6276.8218125354
 20
5503.3683784566
 30
0.0
 11
6275.2608372036
 21
5503.2545037827
 31
0.0
  0
LINE
  5
229
330
1F
100
AcDbEntity
  8
0
  6
Continuous
 62
     7
100
AcDbLine
 10
6275.2608372036
 20
5503.2545037827
 30
0.0
 11
6273.6417833737
 21
5503.2301552854
 31
0.0
  0
LINE
  5
22A
330
1F
100
AcDbEntity
  8
0
  6
Continuous
 62
     7
100
AcDbLine
 10
6273.6417833737
 20
5503.2301552854
 30
0.0
 11
6272.0403563369
 21
5503.2964356503
 31
0.0
  0
LINE
  5
22B
330
1F
100
AcDbEntity
  8
0
  6
Continuous
 62
     7
100
AcDbLine
 10
6272.0403563369
 20
5503.2964356503
 30
0.0
 11
6270.5314370476
 21
5503.4503050408
 31
0.0
  0
LINE
  5
22C
330
1F
100
AcDbEntity
  8
0
  6
Continuous
 62
     7
100
AcDbLine
 10
6270.5314370476
 20
5503.4503050408
 30
0.0
 11
6269.1855809323
 21
5503.6845214925
 31
0.0
  0
LINE
  5
22D
330
1F
100
AcDbEntity
  8
0
  6
Continuous
 62
     7
100
AcDbLine
 10
6269.1855809323
 20
5503.6845214925
 30
0.0
 11
6268.0657186218
 21
5503.9881177506
 31
0.0
  0
LINE
  5
22E
330
1F
100
AcDbEntity
  8
0
  6
Continuous
 62
     7
100
AcDbLine
 10
6273.6623149037
 20
5506.757081326
 30
0.0
 11
6273.6623149037
 21
5506.46570402
 31
0.0
  0
LINE
  5
22F
330
1F
100
AcDbEntity
  8
0
  6
Continuous
 62
     7
100
AcDbLine
 10
6269.6574327208
 20
5506.314189013
 30
0.0
 11
6269.9658797726
 21
5506.2100000939
 31
0.0
  0
LINE
  5
230
330
1F
100
AcDbEntity
  8
0
  6
Continuous
 62
     7
100
AcDbLine
 10
6267.2762178488
 20
5505.8418818078
 30
0.0
 11
6267.5846653663
 21
5505.7377226911
 31
0.0
  0
LINE
  5
231
330
1F
100
AcDbEntity
  8
0
  6
Continuous
 62
     7
100
AcDbLine
 10
6269.9658797726
 20
5506.5335639081
 30
0.0
 11
6269.9658797726
 21
5506.2100000939
 31
0.0
  0
LINE
  5
232
330
1F
100
AcDbEntity
  8
0
  6
Continuous
 62
     7
100
AcDbLine
 10
6280.3512659527
 20
5505.9480078778
 30
0.0
 11
6279.9487623058
 21
5505.8681674561
 31
0.0
  0
LINE
  5
233
330
1F
100
AcDbEntity
  8
0
  6
Continuous
 62
     7
100
AcDbLine
 10
6282.1760439917
 20
5505.3316958508
 30
0.0
 11
6281.7735408105
 21
5505.2518852315
 31
0.0
  0
LINE
  5
234
330
1F
100
AcDbEntity
  8
0
  6
Continuous
 62
     7
100
AcDbLine
 10
6279.9487623058
 20
5506.2465973458
 30
0.0
 11
6279.9487623058
 21
5505.8681674561
 31
0.0
  0
LINE
  5
235
330
1F
100
AcDbEntity
  8
0
  6
Continuous
 62
     7
100
AcDbLine
 10
6265.669478257
 20
5505.5676706395
 30
0.0
 11
6265.669478257
 21
5504.8803992829
 31
0.0
  0
LINE
  5
236
330
1F
100
AcDbEntity
  8
0
  6
Continuous
 62
     7
100
AcDbLine
 10
6265.669478257
 20
5504.8803992829
 30
0.0
 11
6265.1667596444
 21
5504.8976250253
 31
0.0
  0
LINE
  5
237
330
1F
100
AcDbEntity
  8
0
  6
Continuous
 62
     7
100
AcDbLine
 10
6265.2760186836
 20
5504.1106649003
 30
0.0
 11
6264.7733000711
 21
5504.1278608403
 31
0.0
  0
LINE
  5
238
330
1F
100
AcDbEntity
  8
0
  6
Continuous
 62
     7
100
AcDbLine
 10
6265.2760186836
 20
5504.2951710782
 30
0.0
 11
6265.2760186836
 21
5504.1106649003
 31
0.0
  0
LINE
  5
239
330
1F
100
AcDbEntity
  8
0
  6
Continuous
 62
     7
100
AcDbLine
 10
6282.7614919886
 20
5505.2610941491
 30
0.0
 11
6282.7614919886
 21
5504.2951710782
 31
0.0
  0
LINE
  5
23A
330
1F
100
AcDbEntity
  8
0
  6
Continuous
 62
     7
100
AcDbLine
 10
6282.7614919886
 20
5504.2951710782
 30
0.0
 11
6283.2642106011
 21
5504.2779453359
 31
0.0
  0
LINE
  5
23B
330
1F
100
AcDbEntity
  8
0
  6
Continuous
 62
     7
100
AcDbLine
 10
6282.3680324152
 20
5503.5254068932
 30
0.0
 11
6282.8707510278
 21
5503.5082109532
 31
0.0
  0
LINE
  5
23C
330
1F
100
AcDbEntity
  8
0
  6
Continuous
 62
     7
100
AcDbLine
 10
6282.3680324152
 20
5504.4913299642
 30
0.0
 11
6282.3680324152
 21
5503.5254068932
 31
0.0
  0
LINE
  5
23D
330
1F
100
AcDbEntity
  8
0
  6
Continuous
 62
     7
100
AcDbLine
 10
6266.2639698617
 20
5504.1198738179
 30
0.0
 11
6266.2639698617
 21
5503.153950747
 31
0.0
  0
LINE
  5
23E
330
1F
100
AcDbEntity
  8
0
  6
Continuous
 62
     7
100
AcDbLine
 10
6265.8614666805
 20
5503.0741103253
 30
0.0
 11
6266.2639698617
 21
5503.153950747
 31
0.0
  0
LINE
  5
23F
330
1F
100
AcDbEntity
  8
0
  6
Continuous
 62
     7
100
AcDbLine
 10
6267.6862447195
 20
5502.4578281007
 30
0.0
 11
6268.0887483664
 21
5502.53763872
 31
0.0
  0
LINE
  5
240
330
1F
100
AcDbEntity
  8
0
  6
Continuous
 62
     7
100
AcDbLine
 10
6268.0887483664
 20
5503.5035617909
 30
0.0
 11
6268.0887483664
 21
5502.53763872
 31
0.0
  0
LINE
  5
241
330
1F
100
AcDbEntity
  8
0
  6
Continuous
 62
     7
100
AcDbLine
 10
6280.4528453059
 20
5503.6340363583
 30
0.0
 11
6280.4528453059
 21
5502.6681132874
 31
0.0
  0
LINE
  5
242
330
1F
100
AcDbEntity
  8
0
  6
Continuous
 62
     7
100
AcDbLine
 10
6280.7612928234
 20
5502.5639541707
 30
0.0
 11
6280.4528453059
 21
5502.6681132874
 31
0.0
  0
LINE
  5
243
330
1F
100
AcDbEntity
  8
0
  6
Continuous
 62
     7
100
AcDbLine
 10
6278.0716308996
 20
5503.1617589555
 30
0.0
 11
6278.0716308996
 21
5502.1958358846
 31
0.0
  0
LINE
  5
244
330
1F
100
AcDbEntity
  8
0
  6
Continuous
 62
     7
100
AcDbLine
 10
6278.3800779514
 20
5502.0916469655
 30
0.0
 11
6278.0716308996
 21
5502.1958358846
 31
0.0
  0
LINE
  5
245
330
1F
100
AcDbEntity
  8
0
  6
Continuous
 62
     7
100
AcDbLine
 10
6271.4011095602
 20
5503.007889565
 30
0.0
 11
6271.4011095602
 21
5502.0419664941
 31
0.0
  0
LINE
  5
246
330
1F
100
AcDbEntity
  8
0
  6
Continuous
 62
     7
100
AcDbLine
 10
6274.3751957685
 20
5502.9060550294
 30
0.0
 11
6274.3751957685
 21
5501.9401319585
 31
0.0
  0
LINE
  5
247
330
1F
100
AcDbEntity
  8
0
  6
Continuous
 62
     7
100
AcDbLine
 10
6271.4011095602
 20
5502.0419664941
 30
0.0
 11
6271.3346019525
 21
5501.9118495545
 31
0.0
  0
LINE
  5
248
330
1F
100
AcDbEntity
  8
0
  6
Continuous
 62
     7
100
AcDbLine
 10
6274.3751957685
 20
5501.9401319585
 30
0.0
 11
6274.3086881608
 21
5501.8100150189
 31
0.0
  0
LINE
  5
249
330
1F
100
AcDbEntity
  8
0
  6
Continuous
 62
     7
100
AcDbLine
 10
5680.7612685159
 20
5503.5298772416
 30
0.0
 11
5680.7612685159
 21
5502.5639541707
 31
0.0
  0
LINE
  5
24A
330
1F
100
AcDbEntity
  8
0
  6
Continuous
 62
     7
100
AcDbLine
 10
5683.2641867593
 20
5504.8816509805
 30
0.0
 11
5683.2641867593
 21
5504.2779453359
 31
0.0
  0
LINE
  5
24B
330
1F
100
AcDbEntity
  8
0
  6
Continuous
 62
     7
100
AcDbLine
 10
5682.1760443643
 20
5505.6433685384
 30
0.0
 11
5682.1760443643
 21
5505.3316958508
 31
0.0
  0
LINE
  5
24C
330
1F
100
AcDbEntity
  8
0
  6
Continuous
 62
     7
100
AcDbLine
 10
5680.3512481645
 20
5506.1640449128
 30
0.0
 11
5680.3512481645
 21
5505.9480078778
 31
0.0
  0
LINE
  5
24D
330
1F
100
AcDbEntity
  8
0
  6
Continuous
 62
     7
100
AcDbLine
 10
5676.7029074624
 20
5506.6625185571
 30
0.0
 11
5676.7029074624
 21
5506.493986424
 31
0.0
  0
LINE
  5
24E
330
1F
100
AcDbEntity
  8
0
  6
Continuous
 62
     7
100
AcDbLine
 10
5673.7288145021
 20
5506.7576475701
 30
0.0
 11
5673.7288145021
 21
5506.5958209596
 31
0.0
  0
LINE
  5
24F
330
1F
100
AcDbEntity
  8
0
  6
Continuous
 62
     7
100
AcDbLine
 10
5669.657459636
 20
5506.4959831796
 30
0.0
 11
5669.657459636
 21
5506.314189013
 31
0.0
  0
LINE
  5
250
330
1F
100
AcDbEntity
  8
0
  6
Continuous
 62
     7
100
AcDbLine
 10
5667.2761944726
 20
5506.0702570043
 30
0.0
 11
5667.2761944726
 21
5505.8418818078
 31
0.0
  0
LINE
  5
251
330
1F
100
AcDbEntity
  8
0
  6
Continuous
 62
     7
100
AcDbLine
 10
5665.166786094
 20
5505.3357489667
 30
0.0
 11
5665.166786094
 21
5504.8976250253
 31
0.0
  0
LINE
  5
252
330
1F
100
AcDbEntity
  8
0
  6
Continuous
 62
     7
100
AcDbLine
 10
5665.8614782289
 20
5504.0400333962
 30
0.0
 11
5665.8614782289
 21
5503.0741103253
 31
0.0
  0
LINE
  5
253
330
1F
100
AcDbEntity
  8
0
  6
Continuous
 62
     7
100
AcDbLine
 10
5671.3346151307
 20
5502.8777726254
 30
0.0
 11
5671.3346151307
 21
5501.9118495545
 31
0.0
  0
LINE
  5
254
330
1F
100
AcDbEntity
  8
0
  6
Continuous
 62
     7
100
AcDbLine
 10
5667.4703864053
 20
5503.8700409493
 30
0.0
 11
5666.5701774552
 21
5504.2507954202
 31
0.0
  0
LINE
  5
255
330
1F
100
AcDbEntity
  8
0
  6
Continuous
 62
     7
100
AcDbLine
 10
5666.5701774552
 20
5504.2507954202
 30
0.0
 11
5665.9954694703
 21
5504.6716936192
 31
0.0
  0
LINE
  5
256
330
1F
100
AcDbEntity
  8
0
  6
Continuous
 62
     7
100
AcDbLine
 10
5665.9954694703
 20
5504.6716936192
 30
0.0
 11
5665.7714752153
 21
5505.114287909
 31
0.0
  0
LINE
  5
257
330
1F
100
AcDbEntity
  8
0
  6
Continuous
 62
     7
100
AcDbLine
 10
5665.7714752153
 20
5505.114287909
 30
0.0
 11
5665.9078506425
 21
5505.5592961869
 31
0.0
  0
LINE
  5
258
330
1F
100
AcDbEntity
  8
0
  6
Continuous
 62
     7
100
AcDbLine
 10
5665.9078506425
 20
5505.5592961869
 30
0.0
 11
5666.0352257684
 21
5505.7071753106
 31
0.0
  0
LINE
  5
259
330
1F
100
AcDbEntity
  8
0
  6
Continuous
 62
     7
100
AcDbLine
 10
5682.1933893159
 20
5505.4567761979
 30
0.0
 11
5682.2660473779
 21
5505.2233942113
 31
0.0
  0
LINE
  5
25A
330
1F
100
AcDbEntity
  8
0
  6
Continuous
 62
     7
100
AcDbLine
 10
5682.2660473779
 20
5505.2233942113
 30
0.0
 11
5682.1296719506
 21
5504.7783859334
 31
0.0
  0
LINE
  5
25B
330
1F
100
AcDbEntity
  8
0
  6
Continuous
 62
     7
100
AcDbLine
 10
5682.1296719506
 20
5504.7783859334
 30
0.0
 11
5681.6387680963
 21
5504.3504543862
 31
0.0
  0
LINE
  5
25C
330
1F
100
AcDbEntity
  8
0
  6
Continuous
 62
     7
100
AcDbLine
 10
5681.6387680963
 20
5504.3504543862
 30
0.0
 11
5680.8148530915
 21
5503.9583154282
 31
0.0
  0
LINE
  5
25D
330
1F
100
AcDbEntity
  8
0
  6
Continuous
 62
     7
100
AcDbLine
 10
5680.8148530915
 20
5503.9583154282
 30
0.0
 11
5680.4615167573
 21
5503.8351424298
 31
0.0
  0
LINE
  5
25E
330
1F
100
AcDbEntity
  8
0
  6
Continuous
 62
     7
100
AcDbLine
 10
5667.7926687196
 20
5503.7679083905
 30
0.0
 11
5667.4703864053
 21
5503.8700409493
 31
0.0
  0
LINE
  5
25F
330
1F
100
AcDbEntity
  8
0
  6
Continuous
 62
     7
100
AcDbLine
 10
5682.7614811853
 20
5505.2610941491
 30
0.0
 11
5683.0233243898
 21
5505.2521236501
 31
0.0
  0
LINE
  5
260
330
1F
100
AcDbEntity
  8
0
  6
Continuous
 62
     7
100
AcDbLine
 10
5680.7612685159
 20
5503.5298772416
 30
0.0
 11
5680.4528740838
 21
5503.6340363583
 31
0.0
  0
LINE
  5
261
330
1F
100
AcDbEntity
  8
0
  6
Continuous
 62
     7
100
AcDbLine
 10
5671.4011339143
 20
5503.007889565
 30
0.0
 11
5671.3346151307
 21
5502.8777726254
 31
0.0
  0
LINE
  5
262
330
1F
100
AcDbEntity
  8
0
  6
Continuous
 62
     7
100
AcDbLine
 10
5665.8614782289
 20
5504.0400333962
 30
0.0
 11
5666.263988395
 21
5504.1198738179
 31
0.0
  0
LINE
  5
263
330
1F
100
AcDbEntity
  8
0
  6
Continuous
 62
     7
100
AcDbLine
 10
5666.5187386468
 20
5505.2452095113
 30
0.0
 11
5665.9954694703
 21
5505.6376166902
 31
0.0
  0
LINE
  5
264
330
1F
100
AcDbEntity
  8
0
  6
Continuous
 62
     7
100
AcDbLine
 10
5665.9954694703
 20
5505.6376166902
 30
0.0
 11
5665.9584549859
 21
5505.6794889531
 31
0.0
  0
LINE
  5
265
330
1F
100
AcDbEntity
  8
0
  6
Continuous
 62
     7
100
AcDbLine
 10
5681.638470073
 20
5505.3161986432
 30
0.0
 11
5681.5187839463
 21
5505.2452095113
 31
0.0
  0
LINE
  5
266
330
1F
100
AcDbEntity
  8
0
  6
Continuous
 62
     7
100
AcDbLine
 10
5676.6363886788
 20
5506.3638694844
 30
0.0
 11
5676.7029074624
 21
5506.493986424
 31
0.0
  0
LINE
  5
267
330
1F
100
AcDbEntity
  8
0
  6
Continuous
 62
     7
100
AcDbLine
 10
5673.6622957185
 20
5506.46570402
 30
0.0
 11
5673.7288145021
 21
5506.5958209596
 31
0.0
  0
LINE
  5
268
330
1F
100
AcDbEntity
  8
0
  6
Continuous
 62
     7
100
AcDbLine
 10
5668.0657175973
 20
5503.9881177506
 30
0.0
 11
5667.2242192224
 21
5504.3469377122
 31
0.0
  0
LINE
  5
269
330
1F
100
AcDbEntity
  8
0
  6
Continuous
 62
     7
100
AcDbLine
 10
5667.2242192224
 20
5504.3469377122
 30
0.0
 11
5666.7004136041
 21
5504.7442026696
 31
0.0
  0
LINE
  5
26A
330
1F
100
AcDbEntity
  8
0
  6
Continuous
 62
     7
100
AcDbLine
 10
5666.7004136041
 20
5504.7442026696
 30
0.0
 11
5666.5187982514
 21
5505.1613159738
 31
0.0
  0
LINE
  5
26B
330
1F
100
AcDbEntity
  8
0
  6
Continuous
 62
     7
100
AcDbLine
 10
5666.5187982514
 20
5505.1613159738
 30
0.0
 11
5666.6878966287
 21
5505.5787571034
 31
0.0
  0
LINE
  5
26C
330
1F
100
AcDbEntity
  8
0
  6
Continuous
 62
     7
100
AcDbLine
 10
5666.6878966287
 20
5505.5787571034
 30
0.0
 11
5667.199781318
 21
5505.9770651421
 31
0.0
  0
LINE
  5
26D
330
1F
100
AcDbEntity
  8
0
  6
Continuous
 62
     7
100
AcDbLine
 10
5667.199781318
 20
5505.9770651421
 30
0.0
 11
5667.2761944726
 21
5506.0189374051
 31
0.0
  0
LINE
  5
26E
330
1F
100
AcDbEntity
  8
0
  6
Continuous
 62
     7
100
AcDbLine
 10
5681.469848533
 20
5505.390227612
 30
0.0
 11
5681.4715770677
 21
5505.3862042985
 31
0.0
  0
LINE
  5
26F
330
1F
100
AcDbEntity
  8
0
  6
Continuous
 62
     7
100
AcDbLine
 10
5681.4715770677
 20
5505.3862042985
 30
0.0
 11
5681.47789516
 21
5504.96646839
 31
0.0
  0
LINE
  5
270
330
1F
100
AcDbEntity
  8
0
  6
Continuous
 62
     7
100
AcDbLine
 10
5681.47789516
 20
5504.96646839
 30
0.0
 11
5681.1354068711
 21
5504.5561798177
 31
0.0
  0
LINE
  5
271
330
1F
100
AcDbEntity
  8
0
  6
Continuous
 62
     7
100
AcDbLine
 10
5681.1354068711
 20
5504.5561798177
 30
0.0
 11
5680.4601458505
 21
5504.1745312772
 31
0.0
  0
LINE
  5
272
330
1F
100
AcDbEntity
  8
0
  6
Continuous
 62
     7
100
AcDbLine
 10
5680.4601458505
 20
5504.1745312772
 30
0.0
 11
5679.4837025598
 21
5503.8394041619
 31
0.0
  0
LINE
  5
273
330
1F
100
AcDbEntity
  8
0
  6
Continuous
 62
     7
100
AcDbLine
 10
5679.4837025598
 20
5503.8394041619
 30
0.0
 11
5678.2517341569
 21
5503.5664148889
 31
0.0
  0
LINE
  5
274
330
1F
100
AcDbEntity
  8
0
  6
Continuous
 62
     7
100
AcDbLine
 10
5678.2517341569
 20
5503.5664148889
 30
0.0
 11
5676.8218187287
 21
5503.3683784566
 31
0.0
  0
LINE
  5
275
330
1F
100
AcDbEntity
  8
0
  6
Continuous
 62
     7
100
AcDbLine
 10
5676.8218187287
 20
5503.3683784566
 30
0.0
 11
5675.2608326867
 21
5503.2545037827
 31
0.0
  0
LINE
  5
276
330
1F
100
AcDbEntity
  8
0
  6
Continuous
 62
     7
100
AcDbLine
 10
5675.2608326867
 20
5503.2545037827
 30
0.0
 11
5673.6417917207
 21
5503.2301552854
 31
0.0
  0
LINE
  5
277
330
1F
100
AcDbEntity
  8
0
  6
Continuous
 62
     7
100
AcDbLine
 10
5673.6417917207
 20
5503.2301552854
 30
0.0
 11
5672.0403341249
 21
5503.2964356503
 31
0.0
  0
LINE
  5
278
330
1F
100
AcDbEntity
  8
0
  6
Continuous
 62
     7
100
AcDbLine
 10
5672.0403341249
 20
5503.2964356503
 30
0.0
 11
5670.5314425424
 21
5503.4503050408
 31
0.0
  0
LINE
  5
279
330
1F
100
AcDbEntity
  8
0
  6
Continuous
 62
     7
100
AcDbLine
 10
5670.5314425424
 20
5503.4503050408
 30
0.0
 11
5669.1855696633
 21
5503.6845214925
 31
0.0
  0
LINE
  5
27A
330
1F
100
AcDbEntity
  8
0
  6
Continuous
 62
     7
100
AcDbLine
 10
5669.1855696633
 20
5503.6845214925
 30
0.0
 11
5668.0657175973
 21
5503.9881177506
 31
0.0
  0
LINE
  5
27B
330
1F
100
AcDbEntity
  8
0
  6
Continuous
 62
     7
100
AcDbLine
 10
5673.6622957185
 20
5506.757081326
 30
0.0
 11
5673.6622957185
 21
5506.46570402
 31
0.0
  0
LINE
  5
27C
330
1F
100
AcDbEntity
  8
0
  6
Continuous
 62
     7
100
AcDbLine
 10
5669.657459636
 20
5506.314189013
 30
0.0
 11
5669.9658540681
 21
5506.2100000939
 31
0.0
  0
LINE
  5
27D
330
1F
100
AcDbEntity
  8
0
  6
Continuous
 62
     7
100
AcDbLine
 10
5667.2761944726
 20
5505.8418818078
 30
0.0
 11
5667.5846485093
 21
5505.7377226911
 31
0.0
  0
LINE
  5
27E
330
1F
100
AcDbEntity
  8
0
  6
Continuous
 62
     7
100
AcDbLine
 10
5669.9658540681
 20
5506.5335639081
 30
0.0
 11
5669.9658540681
 21
5506.2100000939
 31
0.0
  0
LINE
  5
27F
330
1F
100
AcDbEntity
  8
0
  6
Continuous
 62
     7
100
AcDbLine
 10
5680.3512481645
 20
5505.9480078778
 30
0.0
 11
5679.9487379983
 21
5505.8681674561
 31
0.0
  0
LINE
  5
280
330
1F
100
AcDbEntity
  8
0
  6
Continuous
 62
     7
100
AcDbLine
 10
5682.1760443643
 20
5505.3316958508
 30
0.0
 11
5681.7735341981
 21
5505.2518852315
 31
0.0
  0
LINE
  5
281
330
1F
100
AcDbEntity
  8
0
  6
Continuous
 62
     7
100
AcDbLine
 10
5679.9487379983
 20
5506.2465973458
 30
0.0
 11
5679.9487379983
 21
5505.8681674561
 31
0.0
  0
LINE
  5
282
330
1F
100
AcDbEntity
  8
0
  6
Continuous
 62
     7
100
AcDbLine
 10
5665.669491668
 20
5505.5676706395
 30
0.0
 11
5665.669491668
 21
5504.8803992829
 31
0.0
  0
LINE
  5
283
330
1F
100
AcDbEntity
  8
0
  6
Continuous
 62
     7
100
AcDbLine
 10
5665.669491668
 20
5504.8803992829
 30
0.0
 11
5665.166786094
 21
5504.8976250253
 31
0.0
  0
LINE
  5
284
330
1F
100
AcDbEntity
  8
0
  6
Continuous
 62
     7
100
AcDbLine
 10
5665.2760414079
 20
5504.1106649003
 30
0.0
 11
5664.7732762292
 21
5504.1278608403
 31
0.0
  0
LINE
  5
285
330
1F
100
AcDbEntity
  8
0
  6
Continuous
 62
     7
100
AcDbLine
 10
5665.2760414079
 20
5504.2951710782
 30
0.0
 11
5665.2760414079
 21
5504.1106649003
 31
0.0
  0
LINE
  5
286
330
1F
100
AcDbEntity
  8
0
  6
Continuous
 62
     7
100
AcDbLine
 10
5682.7614811853
 20
5505.2610941491
 30
0.0
 11
5682.7614811853
 21
5504.2951710782
 31
0.0
  0
LINE
  5
287
330
1F
100
AcDbEntity
  8
0
  6
Continuous
 62
     7
100
AcDbLine
 10
5682.7614811853
 20
5504.2951710782
 30
0.0
 11
5683.2641867593
 21
5504.2779453359
 31
0.0
  0
LINE
  5
288
330
1F
100
AcDbEntity
  8
0
  6
Continuous
 62
     7
100
AcDbLine
 10
5682.3680309251
 20
5503.5254068932
 30
0.0
 11
5682.8707364991
 21
5503.5082109532
 31
0.0
  0
LINE
  5
289
330
1F
100
AcDbEntity
  8
0
  6
Continuous
 62
     7
100
AcDbLine
 10
5682.3680309251
 20
5504.4913299642
 30
0.0
 11
5682.3680309251
 21
5503.5254068932
 31
0.0
  0
LINE
  5
28A
330
1F
100
AcDbEntity
  8
0
  6
Continuous
 62
     7
100
AcDbLine
 10
5666.263988395
 20
5504.1198738179
 30
0.0
 11
5666.263988395
 21
5503.153950747
 31
0.0
  0
LINE
  5
28B
330
1F
100
AcDbEntity
  8
0
  6
Continuous
 62
     7
100
AcDbLine
 10
5665.8614782289
 20
5503.0741103253
 30
0.0
 11
5666.263988395
 21
5503.153950747
 31
0.0
  0
LINE
  5
28C
330
1F
100
AcDbEntity
  8
0
  6
Continuous
 62
     7
100
AcDbLine
 10
5667.6862744287
 20
5502.4578281007
 30
0.0
 11
5668.0887249902
 21
5502.53763872
 31
0.0
  0
LINE
  5
28D
330
1F
100
AcDbEntity
  8
0
  6
Continuous
 62
     7
100
AcDbLine
 10
5668.0887249902
 20
5503.5035617909
 30
0.0
 11
5668.0887249902
 21
5502.53763872
 31
0.0
  0
LINE
  5
28E
330
1F
100
AcDbEntity
  8
0
  6
Continuous
 62
     7
100
AcDbLine
 10
5680.4528740838
 20
5503.6340363583
 30
0.0
 11
5680.4528740838
 21
5502.6681132874
 31
0.0
  0
LINE
  5
28F
330
1F
100
AcDbEntity
  8
0
  6
Continuous
 62
     7
100
AcDbLine
 10
5680.7612685159
 20
5502.5639541707
 30
0.0
 11
5680.4528740838
 21
5502.6681132874
 31
0.0
  0
LINE
  5
290
330
1F
100
AcDbEntity
  8
0
  6
Continuous
 62
     7
100
AcDbLine
 10
5678.0716089204
 20
5503.1617589555
 30
0.0
 11
5678.0716089204
 21
5502.1958358846
 31
0.0
  0
LINE
  5
291
330
1F
100
AcDbEntity
  8
0
  6
Continuous
 62
     7
100
AcDbLine
 10
5678.3800629571
 20
5502.0916469655
 30
0.0
 11
5678.0716089204
 21
5502.1958358846
 31
0.0
  0
LINE
  5
292
330
1F
100
AcDbEntity
  8
0
  6
Continuous
 62
     7
100
AcDbLine
 10
5671.4011339143
 20
5503.007889565
 30
0.0
 11
5671.4011339143
 21
5502.0419664941
 31
0.0
  0
LINE
  5
293
330
1F
100
AcDbEntity
  8
0
  6
Continuous
 62
     7
100
AcDbLine
 10
5674.37516727
 20
5502.9060550294
 30
0.0
 11
5674.37516727
 21
5501.9401319585
 31
0.0
  0
LINE
  5
294
330
1F
100
AcDbEntity
  8
0
  6
Continuous
 62
     7
100
AcDbLine
 10
5671.4011339143
 20
5502.0419664941
 30
0.0
 11
5671.3346151307
 21
5501.9118495545
 31
0.0
  0
LINE
  5
295
330
1F
100
AcDbEntity
  8
0
  6
Continuous
 62
     7
100
AcDbLine
 10
5674.37516727
 20
5501.9401319585
 30
0.0
 11
5674.3087080911
 21
5501.8100150189
 31
0.0
  0
LINE
  5
296
330
1F
100
AcDbEntity
  8
0
  6
Continuous
 62
     7
100
AcDbLine
 10
5687.1370847036
 20
5508.0760693075
 30
0.0
 11
5686.1694363549
 21
5508.3440251908
 31
0.0
  0
LINE
  5
297
330
1F
100
AcDbEntity
  8
0
  6
Continuous
 62
     7
100
AcDbLine
 10
5661.8680862382
 20
5508.3440251908
 30
0.0
 11
5660.9004259686
 21
5508.0760693075
 31
0.0
  0
LINE
  5
298
330
1F
100
AcDbEntity
  8
0
  6
Continuous
 62
     7
100
AcDbLine
 10
5661.8680862382
 20
5508.3440251908
 30
0.0
 11
5686.1694363549
 21
5508.3440251908
 31
0.0
  0
LINE
  5
299
330
1F
100
AcDbEntity
  8
0
  6
Continuous
 62
     7
100
AcDbLine
 10
5674.0187314942
 20
5506.7587502561
 30
0.0
 11
5675.8876351312
 21
5506.7125566564
 31
0.0
  0
LINE
  5
29A
330
1F
100
AcDbEntity
  8
0
  6
Continuous
 62
     7
100
AcDbLine
 10
5675.8876351312
 20
5506.7125566564
 30
0.0
 11
5677.6889471009
 21
5506.5756745896
 31
0.0
  0
LINE
  5
29B
330
1F
100
AcDbEntity
  8
0
  6
Continuous
 62
     7
100
AcDbLine
 10
5677.6889471009
 20
5506.5756745896
 30
0.0
 11
5679.3575791314
 21
5506.3530214391
 31
0.0
  0
LINE
  5
29C
330
1F
100
AcDbEntity
  8
0
  6
Continuous
 62
     7
100
AcDbLine
 10
5679.3575791314
 20
5506.3530214391
 30
0.0
 11
5680.8332709268
 21
5506.052673634
 31
0.0
  0
LINE
  5
29D
330
1F
100
AcDbEntity
  8
0
  6
Continuous
 62
     7
100
AcDbLine
 10
5680.8332709268
 20
5506.052673634
 30
0.0
 11
5682.0626763299
 21
5505.6854494176
 31
0.0
  0
LINE
  5
29E
330
1F
100
AcDbEntity
  8
0
  6
Continuous
 62
     7
100
AcDbLine
 10
5682.0626763299
 20
5505.6854494176
 30
0.0
 11
5683.0013898805
 21
5505.2646406255
 31
0.0
  0
LINE
  5
29F
330
1F
100
AcDbEntity
  8
0
  6
Continuous
 62
     7
100
AcDbLine
 10
5683.0013898805
 20
5505.2646406255
 30
0.0
 11
5683.6153773263
 21
5504.8054762444
 31
0.0
  0
LINE
  5
2A0
330
1F
100
AcDbEntity
  8
0
  6
Continuous
 62
     7
100
AcDbLine
 10
5683.6153773263
 20
5504.8054762444
 30
0.0
 11
5683.8825849488
 21
5504.3245263657
 31
0.0
  0
LINE
  5
2A1
330
1F
100
AcDbEntity
  8
0
  6
Continuous
 62
     7
100
AcDbLine
 10
5683.8825849488
 20
5504.3245263657
 30
0.0
 11
5683.7932375863
 21
5503.8391657433
 31
0.0
  0
LINE
  5
2A2
330
1F
100
AcDbEntity
  8
0
  6
Continuous
 62
     7
100
AcDbLine
 10
5683.7932375863
 20
5503.8391657433
 30
0.0
 11
5683.3506134942
 21
5503.3669777474
 31
0.0
  0
LINE
  5
2A3
330
1F
100
AcDbEntity
  8
0
  6
Continuous
 62
     7
100
AcDbLine
 10
5683.3506134942
 20
5503.3669777474
 30
0.0
 11
5682.570746322
 21
5502.9250093064
 31
0.0
  0
LINE
  5
2A4
330
1F
100
AcDbEntity
  8
0
  6
Continuous
 62
     7
100
AcDbLine
 10
5682.570746322
 20
5502.9250093064
 30
0.0
 11
5681.4817694619
 21
5502.5292046628
 31
0.0
  0
LINE
  5
2A5
330
1F
100
AcDbEntity
  8
0
  6
Continuous
 62
     7
100
AcDbLine
 10
5681.4817694619
 20
5502.5292046628
 30
0.0
 11
5680.1230815843
 21
5502.1938987336
 31
0.0
  0
LINE
  5
2A6
330
1F
100
AcDbEntity
  8
0
  6
Continuous
 62
     7
100
AcDbLine
 10
5680.1230815843
 20
5502.1938987336
 30
0.0
 11
5678.5437373117
 21
5501.9311912618
 31
0.0
  0
LINE
  5
2A7
330
1F
100
AcDbEntity
  8
0
  6
Continuous
 62
     7
100
AcDbLine
 10
5678.5437373117
 20
5501.9311912618
 30
0.0
 11
5676.8008378938
 21
5501.7506189904
 31
0.0
  0
LINE
  5
2A8
330
1F
100
AcDbEntity
  8
0
  6
Continuous
 62
     7
100
AcDbLine
 10
5676.8008378938
 20
5501.7506189904
 30
0.0
 11
5674.9574450448
 21
5501.6586490235
 31
0.0
  0
LINE
  5
2A9
330
1F
100
AcDbEntity
  8
0
  6
Continuous
 62
     7
100
AcDbLine
 10
5674.9574450448
 20
5501.6586490235
 30
0.0
 11
5673.0800775483
 21
5501.6586490235
 31
0.0
  0
LINE
  5
2AA
330
1F
100
AcDbEntity
  8
0
  6
Continuous
 62
     7
100
AcDbLine
 10
5673.0800775483
 20
5501.6586490235
 30
0.0
 11
5671.2366250947
 21
5501.7506189904
 31
0.0
  0
LINE
  5
2AB
330
1F
100
AcDbEntity
  8
0
  6
Continuous
 62
     7
100
AcDbLine
 10
5671.2366250947
 20
5501.7506189904
 30
0.0
 11
5669.4937852815
 21
5501.9311912618
 31
0.0
  0
LINE
  5
2AC
330
1F
100
AcDbEntity
  8
0
  6
Continuous
 62
     7
100
AcDbLine
 10
5669.4937852815
 20
5501.9311912618
 30
0.0
 11
5667.9144410089
 21
5502.1938987336
 31
0.0
  0
LINE
  5
2AD
330
1F
100
AcDbEntity
  8
0
  6
Continuous
 62
     7
100
AcDbLine
 10
5667.9144410089
 20
5502.1938987336
 30
0.0
 11
5666.5557531312
 21
5502.5292046628
 31
0.0
  0
LINE
  5
2AE
330
1F
100
AcDbEntity
  8
0
  6
Continuous
 62
     7
100
AcDbLine
 10
5666.5557531312
 20
5502.5292046628
 30
0.0
 11
5665.4667762712
 21
5502.9250093064
 31
0.0
  0
LINE
  5
2AF
330
1F
100
AcDbEntity
  8
0
  6
Continuous
 62
     7
100
AcDbLine
 10
5665.4667762712
 20
5502.9250093064
 30
0.0
 11
5664.6868494943
 21
5503.3669777474
 31
0.0
  0
LINE
  5
2B0
330
1F
100
AcDbEntity
  8
0
  6
Continuous
 62
     7
100
AcDbLine
 10
5664.6868494943
 20
5503.3669777474
 30
0.0
 11
5664.2442850068
 21
5503.8391657433
 31
0.0
  0
LINE
  5
2B1
330
1F
100
AcDbEntity
  8
0
  6
Continuous
 62
     7
100
AcDbLine
 10
5664.2442850068
 20
5503.8391657433
 30
0.0
 11
5664.1549376443
 21
5504.3245263657
 31
0.0
  0
LINE
  5
2B2
330
1F
100
AcDbEntity
  8
0
  6
Continuous
 62
     7
100
AcDbLine
 10
5664.1549376443
 20
5504.3245263657
 30
0.0
 11
5664.4221452668
 21
5504.8054762444
 31
0.0
  0
LINE
  5
2B3
330
1F
100
AcDbEntity
  8
0
  6
Continuous
 62
     7
100
AcDbLine
 10
5664.4221452668
 20
5504.8054762444
 30
0.0
 11
5665.0361327127
 21
5505.2646406255
 31
0.0
  0
LINE
  5
2B4
330
1F
100
AcDbEntity
  8
0
  6
Continuous
 62
     7
100
AcDbLine
 10
5665.0361327127
 20
5505.2646406255
 30
0.0
 11
5665.9748462632
 21
5505.6854494176
 31
0.0
  0
LINE
  5
2B5
330
1F
100
AcDbEntity
  8
0
  6
Continuous
 62
     7
100
AcDbLine
 10
5665.9748462632
 20
5505.6854494176
 30
0.0
 11
5667.2042516664
 21
5506.052673634
 31
0.0
  0
LINE
  5
2B6
330
1F
100
AcDbEntity
  8
0
  6
Continuous
 62
     7
100
AcDbLine
 10
5667.2042516664
 20
5506.052673634
 30
0.0
 11
5668.6799434617
 21
5506.3530214391
 31
0.0
  0
LINE
  5
2B7
330
1F
100
AcDbEntity
  8
0
  6
Continuous
 62
     7
100
AcDbLine
 10
5668.6799434617
 20
5506.3530214391
 30
0.0
 11
5670.3485754922
 21
5506.5756745896
 31
0.0
  0
LINE
  5
2B8
330
1F
100
AcDbEntity
  8
0
  6
Continuous
 62
     7
100
AcDbLine
 10
5670.3485754922
 20
5506.5756745896
 30
0.0
 11
5672.149887462
 21
5506.7125566564
 31
0.0
  0
LINE
  5
2B9
330
1F
100
AcDbEntity
  8
0
  6
Continuous
 62
     7
100
AcDbLine
 10
5672.149887462
 20
5506.7125566564
 30
0.0
 11
5674.0187314942
 21
5506.7587502561
 31
0.0
  0
LINE
  5
2BA
330
1F
100
AcDbEntity
  8
0
  6
Continuous
 62
     7
100
AcDbLine
 10
5683.2481531098
 20
5505.1119037232
 30
0.0
 11
5683.393767257
 21
5504.6858795247
 31
0.0
  0
LINE
  5
2BB
330
1F
100
AcDbEntity
  8
0
  6
Continuous
 62
     7
100
AcDbLine
 10
5683.393767257
 20
5504.6858795247
 30
0.0
 11
5683.2687763169
 21
5504.2909689507
 31
0.0
  0
LINE
  5
2BC
330
1F
100
AcDbEntity
  8
0
  6
Continuous
 62
     7
100
AcDbLine
 10
5682.3680309251
 20
5503.582329329
 30
0.0
 11
5681.8137673333
 21
5503.3378310761
 31
0.0
  0
LINE
  5
2BD
330
1F
100
AcDbEntity
  8
0
  6
Continuous
 62
     7
100
AcDbLine
 10
5681.8137673333
 20
5503.3378310761
 30
0.0
 11
5680.7612685159
 21
5502.9999919496
 31
0.0
  0
LINE
  5
2BE
330
1F
100
AcDbEntity
  8
0
  6
Continuous
 62
     7
100
AcDbLine
 10
5665.8614782289
 20
5503.4900017342
 30
0.0
 11
5665.357401748
 21
5503.7573285661
 31
0.0
  0
LINE
  5
2BF
330
1F
100
AcDbEntity
  8
0
  6
Continuous
 62
     7
100
AcDbLine
 10
5665.357401748
 20
5503.7573285661
 30
0.0
 11
5664.898982425
 21
5504.1235693059
 31
0.0
  0
LINE
  5
2C0
330
1F
100
AcDbEntity
  8
0
  6
Continuous
 62
     7
100
AcDbLine
 10
5664.7687462762
 20
5504.2909689507
 30
0.0
 11
5664.6437553361
 21
5504.6858795247
 31
0.0
  0
LINE
  5
2C1
330
1F
100
AcDbEntity
  8
0
  6
Continuous
 62
     7
100
AcDbLine
 10
5664.6437553361
 20
5504.6858795247
 30
0.0
 11
5664.7893694833
 21
5505.1119037232
 31
0.0
  0
LINE
  5
2C2
330
1F
100
AcDbEntity
  8
0
  6
Continuous
 62
     7
100
AcDbLine
 10
6887.1370847036
 20
5508.0760693075
 30
0.0
 11
6886.169424434
 21
5508.3440251908
 31
0.0
  0
LINE
  5
2C3
330
1F
100
AcDbEntity
  8
0
  6
Continuous
 62
     7
100
AcDbLine
 10
6861.8680743173
 20
5508.3440251908
 30
0.0
 11
6860.9004259686
 21
5508.0760693075
 31
0.0
  0
LINE
  5
2C4
330
1F
100
AcDbEntity
  8
0
  6
Continuous
 62
     7
100
AcDbLine
 10
6861.8680743173
 20
5508.3440251908
 30
0.0
 11
6886.169424434
 21
5508.3440251908
 31
0.0
  0
LINE
  5
2C5
330
1F
100
AcDbEntity
  8
0
  6
Continuous
 62
     7
100
AcDbLine
 10
6874.018779178
 20
5506.7587502561
 30
0.0
 11
6875.8876232102
 21
5506.7125566564
 31
0.0
  0
LINE
  5
2C6
330
1F
100
AcDbEntity
  8
0
  6
Continuous
 62
     7
100
AcDbLine
 10
6875.8876232102
 20
5506.7125566564
 30
0.0
 11
6877.68893518
 21
5506.5756745896
 31
0.0
  0
LINE
  5
2C7
330
1F
100
AcDbEntity
  8
0
  6
Continuous
 62
     7
100
AcDbLine
 10
6877.68893518
 20
5506.5756745896
 30
0.0
 11
6879.3575672105
 21
5506.3530214391
 31
0.0
  0
LINE
  5
2C8
330
1F
100
AcDbEntity
  8
0
  6
Continuous
 62
     7
100
AcDbLine
 10
6879.3575672105
 20
5506.3530214391
 30
0.0
 11
6880.8332590058
 21
5506.052673634
 31
0.0
  0
LINE
  5
2C9
330
1F
100
AcDbEntity
  8
0
  6
Continuous
 62
     7
100
AcDbLine
 10
6880.8332590058
 20
5506.052673634
 30
0.0
 11
6882.062664409
 21
5505.6854494176
 31
0.0
  0
LINE
  5
2CA
330
1F
100
AcDbEntity
  8
0
  6
Continuous
 62
     7
100
AcDbLine
 10
6882.062664409
 20
5505.6854494176
 30
0.0
 11
6883.0013779595
 21
5505.2646406255
 31
0.0
  0
LINE
  5
2CB
330
1F
100
AcDbEntity
  8
0
  6
Continuous
 62
     7
100
AcDbLine
 10
6883.0013779595
 20
5505.2646406255
 30
0.0
 11
6883.6153654054
 21
5504.8054762444
 31
0.0
  0
LINE
  5
2CC
330
1F
100
AcDbEntity
  8
0
  6
Continuous
 62
     7
100
AcDbLine
 10
6883.6153654054
 20
5504.8054762444
 30
0.0
 11
6883.8825730279
 21
5504.3245263657
 31
0.0
  0
LINE
  5
2CD
330
1F
100
AcDbEntity
  8
0
  6
Continuous
 62
     7
100
AcDbLine
 10
6883.8825730279
 20
5504.3245263657
 30
0.0
 11
6883.7932256654
 21
5503.8391657433
 31
0.0
  0
LINE
  5
2CE
330
1F
100
AcDbEntity
  8
0
  6
Continuous
 62
     7
100
AcDbLine
 10
6883.7932256654
 20
5503.8391657433
 30
0.0
 11
6883.3506611779
 21
5503.3669777474
 31
0.0
  0
LINE
  5
2CF
330
1F
100
AcDbEntity
  8
0
  6
Continuous
 62
     7
100
AcDbLine
 10
6883.3506611779
 20
5503.3669777474
 30
0.0
 11
6882.570734401
 21
5502.9250093064
 31
0.0
  0
LINE
  5
2D0
330
1F
100
AcDbEntity
  8
0
  6
Continuous
 62
     7
100
AcDbLine
 10
6882.570734401
 20
5502.9250093064
 30
0.0
 11
6881.481757541
 21
5502.5292046628
 31
0.0
  0
LINE
  5
2D1
330
1F
100
AcDbEntity
  8
0
  6
Continuous
 62
     7
100
AcDbLine
 10
6881.481757541
 20
5502.5292046628
 30
0.0
 11
6880.1230696633
 21
5502.1938987336
 31
0.0
  0
LINE
  5
2D2
330
1F
100
AcDbEntity
  8
0
  6
Continuous
 62
     7
100
AcDbLine
 10
6880.1230696633
 20
5502.1938987336
 30
0.0
 11
6878.5437253907
 21
5501.9311912618
 31
0.0
  0
LINE
  5
2D3
330
1F
100
AcDbEntity
  8
0
  6
Continuous
 62
     7
100
AcDbLine
 10
6878.5437253907
 20
5501.9311912618
 30
0.0
 11
6876.8008855775
 21
5501.7506189904
 31
0.0
  0
LINE
  5
2D4
330
1F
100
AcDbEntity
  8
0
  6
Continuous
 62
     7
100
AcDbLine
 10
6876.8008855775
 20
5501.7506189904
 30
0.0
 11
6874.9574331239
 21
5501.6586490235
 31
0.0
  0
LINE
  5
2D5
330
1F
100
AcDbEntity
  8
0
  6
Continuous
 62
     7
100
AcDbLine
 10
6874.9574331239
 20
5501.6586490235
 30
0.0
 11
6873.0800656274
 21
5501.6586490235
 31
0.0
  0
LINE
  5
2D6
330
1F
100
AcDbEntity
  8
0
  6
Continuous
 62
     7
100
AcDbLine
 10
6873.0800656274
 20
5501.6586490235
 30
0.0
 11
6871.2366727784
 21
5501.7506189904
 31
0.0
  0
LINE
  5
2D7
330
1F
100
AcDbEntity
  8
0
  6
Continuous
 62
     7
100
AcDbLine
 10
6871.2366727784
 20
5501.7506189904
 30
0.0
 11
6869.4937733605
 21
5501.9311912618
 31
0.0
  0
LINE
  5
2D8
330
1F
100
AcDbEntity
  8
0
  6
Continuous
 62
     7
100
AcDbLine
 10
6869.4937733605
 20
5501.9311912618
 30
0.0
 11
6867.9144290879
 21
5502.1938987336
 31
0.0
  0
LINE
  5
2D9
330
1F
100
AcDbEntity
  8
0
  6
Continuous
 62
     7
100
AcDbLine
 10
6867.9144290879
 20
5502.1938987336
 30
0.0
 11
6866.5557412103
 21
5502.5292046628
 31
0.0
  0
LINE
  5
2DA
330
1F
100
AcDbEntity
  8
0
  6
Continuous
 62
     7
100
AcDbLine
 10
6866.5557412103
 20
5502.5292046628
 30
0.0
 11
6865.4667643502
 21
5502.9250093064
 31
0.0
  0
LINE
  5
2DB
330
1F
100
AcDbEntity
  8
0
  6
Continuous
 62
     7
100
AcDbLine
 10
6865.4667643502
 20
5502.9250093064
 30
0.0
 11
6864.686897178
 21
5503.3669777474
 31
0.0
  0
LINE
  5
2DC
330
1F
100
AcDbEntity
  8
0
  6
Continuous
 62
     7
100
AcDbLine
 10
6864.686897178
 20
5503.3669777474
 30
0.0
 11
6864.2442730859
 21
5503.8391657433
 31
0.0
  0
LINE
  5
2DD
330
1F
100
AcDbEntity
  8
0
  6
Continuous
 62
     7
100
AcDbLine
 10
6864.2442730859
 20
5503.8391657433
 30
0.0
 11
6864.1549257234
 21
5504.3245263657
 31
0.0
  0
LINE
  5
2DE
330
1F
100
AcDbEntity
  8
0
  6
Continuous
 62
     7
100
AcDbLine
 10
6864.1549257234
 20
5504.3245263657
 30
0.0
 11
6864.4221333459
 21
5504.8054762444
 31
0.0
  0
LINE
  5
2DF
330
1F
100
AcDbEntity
  8
0
  6
Continuous
 62
     7
100
AcDbLine
 10
6864.4221333459
 20
5504.8054762444
 30
0.0
 11
6865.0361207917
 21
5505.2646406255
 31
0.0
  0
LINE
  5
2E0
330
1F
100
AcDbEntity
  8
0
  6
Continuous
 62
     7
100
AcDbLine
 10
6865.0361207917
 20
5505.2646406255
 30
0.0
 11
6865.9748343423
 21
5505.6854494176
 31
0.0
  0
LINE
  5
2E1
330
1F
100
AcDbEntity
  8
0
  6
Continuous
 62
     7
100
AcDbLine
 10
6865.9748343423
 20
5505.6854494176
 30
0.0
 11
6867.2042397454
 21
5506.052673634
 31
0.0
  0
LINE
  5
2E2
330
1F
100
AcDbEntity
  8
0
  6
Continuous
 62
     7
100
AcDbLine
 10
6867.2042397454
 20
5506.052673634
 30
0.0
 11
6868.6799315408
 21
5506.3530214391
 31
0.0
  0
LINE
  5
2E3
330
1F
100
AcDbEntity
  8
0
  6
Continuous
 62
     7
100
AcDbLine
 10
6868.6799315408
 20
5506.3530214391
 30
0.0
 11
6870.3485635713
 21
5506.5756745896
 31
0.0
  0
LINE
  5
2E4
330
1F
100
AcDbEntity
  8
0
  6
Continuous
 62
     7
100
AcDbLine
 10
6870.3485635713
 20
5506.5756745896
 30
0.0
 11
6872.149875541
 21
5506.7125566564
 31
0.0
  0
LINE
  5
2E5
330
1F
100
AcDbEntity
  8
0
  6
Continuous
 62
     7
100
AcDbLine
 10
6872.149875541
 20
5506.7125566564
 30
0.0
 11
6874.018779178
 21
5506.7587502561
 31
0.0
  0
LINE
  5
2E6
330
1F
100
AcDbEntity
  8
0
  6
Continuous
 62
     7
100
AcDbLine
 10
6883.2481411889
 20
5505.1119037232
 30
0.0
 11
6883.3937553361
 21
5504.6858795247
 31
0.0
  0
LINE
  5
2E7
330
1F
100
AcDbEntity
  8
0
  6
Continuous
 62
     7
100
AcDbLine
 10
6883.3937553361
 20
5504.6858795247
 30
0.0
 11
6883.268764396
 21
5504.2909689507
 31
0.0
  0
LINE
  5
2E8
330
1F
100
AcDbEntity
  8
0
  6
Continuous
 62
     7
100
AcDbLine
 10
6882.3680190042
 20
5503.582329329
 30
0.0
 11
6881.8137554124
 21
5503.3378310761
 31
0.0
  0
LINE
  5
2E9
330
1F
100
AcDbEntity
  8
0
  6
Continuous
 62
     7
100
AcDbLine
 10
6881.8137554124
 20
5503.3378310761
 30
0.0
 11
6880.7613161996
 21
5502.9999919496
 31
0.0
  0
LINE
  5
2EA
330
1F
100
AcDbEntity
  8
0
  6
Continuous
 62
     7
100
AcDbLine
 10
6865.8614663079
 20
5503.4900017342
 30
0.0
 11
6865.3573898271
 21
5503.7573285661
 31
0.0
  0
LINE
  5
2EB
330
1F
100
AcDbEntity
  8
0
  6
Continuous
 62
     7
100
AcDbLine
 10
6865.3573898271
 20
5503.7573285661
 30
0.0
 11
6864.8989705041
 21
5504.1235693059
 31
0.0
  0
LINE
  5
2EC
330
1F
100
AcDbEntity
  8
0
  6
Continuous
 62
     7
100
AcDbLine
 10
6864.7687343553
 20
5504.2909689507
 30
0.0
 11
6864.6437434152
 21
5504.6858795247
 31
0.0
  0
LINE
  5
2ED
330
1F
100
AcDbEntity
  8
0
  6
Continuous
 62
     7
100
AcDbLine
 10
6864.6437434152
 20
5504.6858795247
 30
0.0
 11
6864.7893575624
 21
5505.1119037232
 31
0.0
  0
LINE
  5
2EE
330
1F
100
AcDbEntity
  8
0
  6
Continuous
 62
     7
100
AcDbLine
 10
6261.8680691019
 20
5508.3440251908
 30
0.0
 11
6286.1694415703
 21
5508.3440251908
 31
0.0
  0
LINE
  5
2EF
330
1F
100
AcDbEntity
  8
0
  6
Continuous
 62
     7
100
AcDbLine
 10
6287.1370847036
 20
5508.0760693075
 30
0.0
 11
6286.1694415703
 21
5508.3440251908
 31
0.0
  0
LINE
  5
2F0
330
1F
100
AcDbEntity
  8
0
  6
Continuous
 62
     7
100
AcDbLine
 10
6261.8680691019
 20
5508.3440251908
 30
0.0
 11
6260.9004259686
 21
5508.0760693075
 31
0.0
  0
LINE
  5
2F1
330
1F
100
AcDbEntity
  8
0
  6
Continuous
 62
     7
100
AcDbLine
 10
6274.0187553361
 20
5506.7587502561
 30
0.0
 11
6275.8876113592
 21
5506.7125566564
 31
0.0
  0
LINE
  5
2F2
330
1F
100
AcDbEntity
  8
0
  6
Continuous
 62
     7
100
AcDbLine
 10
6275.8876113592
 20
5506.7125566564
 30
0.0
 11
6277.6889220484
 21
5506.5756745896
 31
0.0
  0
LINE
  5
2F3
330
1F
100
AcDbEntity
  8
0
  6
Continuous
 62
     7
100
AcDbLine
 10
6277.6889220484
 20
5506.5756745896
 30
0.0
 11
6279.3575834155
 21
5506.3530214391
 31
0.0
  0
LINE
  5
2F4
330
1F
100
AcDbEntity
  8
0
  6
Continuous
 62
     7
100
AcDbLine
 10
6279.3575834155
 20
5506.3530214391
 30
0.0
 11
6280.8332854554
 21
5506.052673634
 31
0.0
  0
LINE
  5
2F5
330
1F
100
AcDbEntity
  8
0
  6
Continuous
 62
     7
100
AcDbLine
 10
6280.8332854554
 20
5506.052673634
 30
0.0
 11
6282.0626927212
 21
5505.6854494176
 31
0.0
  0
LINE
  5
2F6
330
1F
100
AcDbEntity
  8
0
  6
Continuous
 62
     7
100
AcDbLine
 10
6282.0626927212
 20
5505.6854494176
 30
0.0
 11
6283.0013708815
 21
5505.2646406255
 31
0.0
  0
LINE
  5
2F7
330
1F
100
AcDbEntity
  8
0
  6
Continuous
 62
     7
100
AcDbLine
 10
6283.0013708815
 20
5505.2646406255
 30
0.0
 11
6283.6153946489
 21
5504.8054762444
 31
0.0
  0
LINE
  5
2F8
330
1F
100
AcDbEntity
  8
0
  6
Continuous
 62
     7
100
AcDbLine
 10
6283.6153946489
 20
5504.8054762444
 30
0.0
 11
6283.8825706065
 21
5504.3245263657
 31
0.0
  0
LINE
  5
2F9
330
1F
100
AcDbEntity
  8
0
  6
Continuous
 62
     7
100
AcDbLine
 10
6283.8825706065
 20
5504.3245263657
 30
0.0
 11
6283.7932418704
 21
5503.8391657433
 31
0.0
  0
LINE
  5
2FA
330
1F
100
AcDbEntity
  8
0
  6
Continuous
 62
     7
100
AcDbLine
 10
6283.7932418704
 20
5503.8391657433
 30
0.0
 11
6283.3506382674
 21
5503.3669777474
 31
0.0
  0
LINE
  5
2FB
330
1F
100
AcDbEntity
  8
0
  6
Continuous
 62
     7
100
AcDbLine
 10
6283.3506382674
 20
5503.3669777474
 30
0.0
 11
6282.570756194
 21
5502.9250093064
 31
0.0
  0
LINE
  5
2FC
330
1F
100
AcDbEntity
  8
0
  6
Continuous
 62
     7
100
AcDbLine
 10
6282.570756194
 20
5502.9250093064
 30
0.0
 11
6281.4817825936
 21
5502.5292046628
 31
0.0
  0
LINE
  5
2FD
330
1F
100
AcDbEntity
  8
0
  6
Continuous
 62
     7
100
AcDbLine
 10
6281.4817825936
 20
5502.5292046628
 30
0.0
 11
6280.1230751581
 21
5502.1938987336
 31
0.0
  0
LINE
  5
2FE
330
1F
100
AcDbEntity
  8
0
  6
Continuous
 62
     7
100
AcDbLine
 10
6280.1230751581
 20
5502.1938987336
 30
0.0
 11
6278.5437420614
 21
5501.9311912618
 31
0.0
  0
LINE
  5
2FF
330
1F
100
AcDbEntity
  8
0
  6
Continuous
 62
     7
100
AcDbLine
 10
6278.5437420614
 20
5501.9311912618
 30
0.0
 11
6276.8008642968
 21
5501.7506189904
 31
0.0
  0
LINE
  5
300
330
1F
100
AcDbEntity
  8
0
  6
Continuous
 62
     7
100
AcDbLine
 10
6276.8008642968
 20
5501.7506189904
 30
0.0
 11
6274.9574337874
 21
5501.6586490235
 31
0.0
  0
LINE
  5
301
330
1F
100
AcDbEntity
  8
0
  6
Continuous
 62
     7
100
AcDbLine
 10
6274.9574337874
 20
5501.6586490235
 30
0.0
 11
6273.0800768848
 21
5501.6586490235
 31
0.0
  0
LINE
  5
302
330
1F
100
AcDbEntity
  8
0
  6
Continuous
 62
     7
100
AcDbLine
 10
6273.0800768848
 20
5501.6586490235
 30
0.0
 11
6271.2366463754
 21
5501.7506189904
 31
0.0
  0
LINE
  5
303
330
1F
100
AcDbEntity
  8
0
  6
Continuous
 62
     7
100
AcDbLine
 10
6271.2366463754
 20
5501.7506189904
 30
0.0
 11
6269.4937686108
 21
5501.9311912618
 31
0.0
  0
LINE
  5
304
330
1F
100
AcDbEntity
  8
0
  6
Continuous
 62
     7
100
AcDbLine
 10
6269.4937686108
 20
5501.9311912618
 30
0.0
 11
6267.9144355141
 21
5502.1938987336
 31
0.0
  0
LINE
  5
305
330
1F
100
AcDbEntity
  8
0
  6
Continuous
 62
     7
100
AcDbLine
 10
6267.9144355141
 20
5502.1938987336
 30
0.0
 11
6266.5557280786
 21
5502.5292046628
 31
0.0
  0
LINE
  5
306
330
1F
100
AcDbEntity
  8
0
  6
Continuous
 62
     7
100
AcDbLine
 10
6266.5557280786
 20
5502.5292046628
 30
0.0
 11
6265.4667544782
 21
5502.9250093064
 31
0.0
  0
LINE
  5
307
330
1F
100
AcDbEntity
  8
0
  6
Continuous
 62
     7
100
AcDbLine
 10
6265.4667544782
 20
5502.9250093064
 30
0.0
 11
6264.6868724048
 21
5503.3669777474
 31
0.0
  0
LINE
  5
308
330
1F
100
AcDbEntity
  8
0
  6
Continuous
 62
     7
100
AcDbLine
 10
6264.6868724048
 20
5503.3669777474
 30
0.0
 11
6264.2442688018
 21
5503.8391657433
 31
0.0
  0
LINE
  5
309
330
1F
100
AcDbEntity
  8
0
  6
Continuous
 62
     7
100
AcDbLine
 10
6264.2442688018
 20
5503.8391657433
 30
0.0
 11
6264.1549400657
 21
5504.3245263657
 31
0.0
  0
LINE
  5
30A
330
1F
100
AcDbEntity
  8
0
  6
Continuous
 62
     7
100
AcDbLine
 10
6264.1549400657
 20
5504.3245263657
 30
0.0
 11
6264.4221160233
 21
5504.8054762444
 31
0.0
  0
LINE
  5
30B
330
1F
100
AcDbEntity
  8
0
  6
Continuous
 62
     7
100
AcDbLine
 10
6264.4221160233
 20
5504.8054762444
 30
0.0
 11
6265.0361397907
 21
5505.2646406255
 31
0.0
  0
LINE
  5
30C
330
1F
100
AcDbEntity
  8
0
  6
Continuous
 62
     7
100
AcDbLine
 10
6265.0361397907
 20
5505.2646406255
 30
0.0
 11
6265.974817951
 21
5505.6854494176
 31
0.0
  0
LINE
  5
30D
330
1F
100
AcDbEntity
  8
0
  6
Continuous
 62
     7
100
AcDbLine
 10
6265.974817951
 20
5505.6854494176
 30
0.0
 11
6267.2042252168
 21
5506.052673634
 31
0.0
  0
LINE
  5
30E
330
1F
100
AcDbEntity
  8
0
  6
Continuous
 62
     7
100
AcDbLine
 10
6267.2042252168
 20
5506.052673634
 30
0.0
 11
6268.6799272567
 21
5506.3530214391
 31
0.0
  0
LINE
  5
30F
330
1F
100
AcDbEntity
  8
0
  6
Continuous
 62
     7
100
AcDbLine
 10
6268.6799272567
 20
5506.3530214391
 30
0.0
 11
6270.3485886238
 21
5506.5756745896
 31
0.0
  0
LINE
  5
310
330
1F
100
AcDbEntity
  8
0
  6
Continuous
 62
     7
100
AcDbLine
 10
6270.3485886238
 20
5506.5756745896
 30
0.0
 11
6272.149899313
 21
5506.7125566564
 31
0.0
  0
LINE
  5
311
330
1F
100
AcDbEntity
  8
0
  6
Continuous
 62
     7
100
AcDbLine
 10
6272.149899313
 20
5506.7125566564
 30
0.0
 11
6274.0187553361
 21
5506.7587502561
 31
0.0
  0
LINE
  5
312
330
1F
100
AcDbEntity
  8
0
  6
Continuous
 62
     7
100
AcDbLine
 10
6283.2481275916
 20
5505.1119037232
 30
0.0
 11
6283.3937557086
 21
5504.6858795247
 31
0.0
  0
LINE
  5
313
330
1F
100
AcDbEntity
  8
0
  6
Continuous
 62
     7
100
AcDbLine
 10
6283.3937557086
 20
5504.6858795247
 30
0.0
 11
6283.2687554553
 21
5504.2909689507
 31
0.0
  0
LINE
  5
314
330
1F
100
AcDbEntity
  8
0
  6
Continuous
 62
     7
100
AcDbLine
 10
6282.3680324152
 20
5503.582329329
 30
0.0
 11
6281.8137827933
 21
5503.3378310761
 31
0.0
  0
LINE
  5
315
330
1F
100
AcDbEntity
  8
0
  6
Continuous
 62
     7
100
AcDbLine
 10
6281.8137827933
 20
5503.3378310761
 30
0.0
 11
6280.7612928234
 21
5502.9999919496
 31
0.0
  0
LINE
  5
316
330
1F
100
AcDbEntity
  8
0
  6
Continuous
 62
     7
100
AcDbLine
 10
6265.8614666805
 20
5503.4900017342
 30
0.0
 11
6265.3573846117
 21
5503.7573285661
 31
0.0
  0
LINE
  5
317
330
1F
100
AcDbEntity
  8
0
  6
Continuous
 62
     7
100
AcDbLine
 10
6265.3573846117
 20
5503.7573285661
 30
0.0
 11
6264.898969014
 21
5504.1235693059
 31
0.0
  0
LINE
  5
318
330
1F
100
AcDbEntity
  8
0
  6
Continuous
 62
     7
100
AcDbLine
 10
6264.7687552169
 20
5504.2909689507
 30
0.0
 11
6264.6437549636
 21
5504.6858795247
 31
0.0
  0
LINE
  5
319
330
1F
100
AcDbEntity
  8
0
  6
Continuous
 62
     7
100
AcDbLine
 10
6264.6437549636
 20
5504.6858795247
 30
0.0
 11
6264.7893830806
 21
5505.1119037232
 31
0.0
  0
LINE
  5
31A
330
1F
100
AcDbEntity
  8
0
  6
Continuous
 62
     7
100
AcDbLine
 10
5449.4125155404
 20
4807.6442189774
 30
0.0
 11
5503.6249665216
 21
4807.6442189774
 31
0.0
  0
LINE
  5
31B
330
1F
100
AcDbEntity
  8
0
  6
Continuous
 62
     7
100
AcDbLine
 10
5503.8282183602
 20
4932.2975285611
 30
0.0
 11
5449.2093233064
 21
4932.2975285611
 31
0.0
  0
LINE
  5
31C
330
1F
100
AcDbEntity
  8
0
  6
Continuous
 62
     7
100
AcDbLine
 10
5453.5187391236
 20
4948.4498806558
 30
0.0
 11
5499.5187429383
 21
4948.4498806558
 31
0.0
  0
LINE
  5
31D
330
1F
100
AcDbEntity
  8
0
  6
Continuous
 62
     7
100
AcDbLine
 10
7629.6739381336
 20
5604.1797407231
 30
0.0
 11
7630.0539475464
 21
5604.1797407231
 31
0.0
  0
LINE
  5
31E
330
1F
100
AcDbEntity
  8
0
  6
Continuous
 62
     7
100
AcDbLine
 10
7630.0539475464
 20
5611.7797501645
 30
0.0
 11
7629.6739381336
 21
5611.7797501645
 31
0.0
  0
LINE
  5
31F
330
1F
100
AcDbEntity
  8
0
  6
Continuous
 62
     7
100
AcDbLine
 10
7629.6739381336
 20
5514.1797371468
 30
0.0
 11
7630.0539475464
 21
5514.1797371468
 31
0.0
  0
LINE
  5
320
330
1F
100
AcDbEntity
  8
0
  6
Continuous
 62
     7
100
AcDbLine
 10
7630.0539475464
 20
5521.7797465882
 30
0.0
 11
7629.6739381336
 21
5521.7797465882
 31
0.0
  0
LINE
  5
321
330
1F
100
AcDbEntity
  8
0
  6
Continuous
 62
     7
100
AcDbLine
 10
7644.8855501198
 20
4952.9498823247
 30
0.0
 11
7629.8855346226
 21
4952.9498823247
 31
0.0
  0
LINE
  5
322
330
1F
100
AcDbEntity
  8
0
  6
Continuous
 62
     7
100
AcDbLine
 10
7629.8855346226
 20
4872.949899014
 30
0.0
 11
7644.8855501198
 21
4872.949899014
 31
0.0
  0
LINE
  5
323
330
1F
100
AcDbEntity
  8
0
  6
Continuous
 62
     7
100
AcDbLine
 10
7629.8855346226
 20
4932.9498715959
 30
0.0
 11
7619.8855441593
 21
4932.9498715959
 31
0.0
  0
LINE
  5
324
330
1F
100
AcDbEntity
  8
0
  6
Continuous
 62
     7
100
AcDbLine
 10
7619.8855441593
 20
4892.9498799405
 30
0.0
 11
7629.8855346226
 21
4892.9498799405
 31
0.0
  0
LINE
  5
325
330
1F
100
AcDbEntity
  8
0
  6
Continuous
 62
     7
100
AcDbLine
 10
7812.5539225125
 20
4932.9498715959
 30
0.0
 11
7664.8855310463
 21
4932.9498715959
 31
0.0
  0
LINE
  5
326
330
1F
100
AcDbEntity
  8
0
  6
Continuous
 62
     7
100
AcDbLine
 10
7664.8855310463
 20
4892.9498799405
 30
0.0
 11
7812.5539225125
 21
4892.9498799405
 31
0.0
  0
LINE
  5
327
330
1F
100
AcDbEntity
  8
0
  6
Continuous
 62
     7
100
AcDbLine
 10
7856.553922274
 20
4952.9657967648
 30
0.0
 11
7856.553922274
 21
4951.4498718343
 31
0.0
  0
LINE
  5
328
330
1F
100
AcDbEntity
  8
0
  6
Continuous
 62
     7
100
AcDbLine
 10
7856.553922274
 20
4937.4498732648
 30
0.0
 11
7856.553922274
 21
4934.949875649
 31
0.0
  0
LINE
  5
329
330
1F
100
AcDbEntity
  8
0
  6
Continuous
 62
     7
100
AcDbLine
 10
7888.5539424204
 20
4934.949875649
 30
0.0
 11
7888.5539424204
 21
4937.4498732648
 31
0.0
  0
LINE
  5
32A
330
1F
100
AcDbEntity
  8
0
  6
Continuous
 62
     7
100
AcDbLine
 10
7888.5539424204
 20
4951.4498718343
 30
0.0
 11
7888.5539424204
 21
4952.9657967648
 31
0.0
  0
LINE
  5
32B
330
1F
100
AcDbEntity
  8
0
  6
Continuous
 62
     7
100
AcDbLine
 10
7838.5539454006
 20
4874.9498732648
 30
0.0
 11
7845.4477292084
 21
4807.6442189774
 31
0.0
  0
LINE
  5
32C
330
1F
100
AcDbEntity
  8
0
  6
Continuous
 62
     7
100
AcDbLine
 10
7899.6601503872
 20
4807.6442189774
 30
0.0
 11
7906.553934195
 21
4874.9498732648
 31
0.0
  0
LINE
  5
32D
330
1F
100
AcDbEntity
  8
0
  6
Continuous
 62
     7
100
AcDbLine
 10
7906.553934195
 20
4874.9498732648
 30
0.0
 11
7899.8633724236
 21
4932.2975285611
 31
0.0
  0
LINE
  5
32E
330
1F
100
AcDbEntity
  8
0
  6
Continuous
 62
     7
100
AcDbLine
 10
7840.4250246071
 20
4890.9879036508
 30
0.0
 11
7838.5539454006
 21
4874.9498732648
 31
0.0
  0
LINE
  5
32F
330
1F
100
AcDbEntity
  8
0
  6
Continuous
 62
     7
100
AcDbLine
 10
7828.5539251351
 20
4940.4498942456
 30
0.0
 11
7824.5539468312
 21
4938.9498837552
 31
0.0
  0
LINE
  5
330
330
1F
100
AcDbEntity
  8
0
  6
Continuous
 62
     7
100
AcDbLine
 10
7824.5539468312
 20
4886.9498975835
 30
0.0
 11
7828.5539251351
 21
4885.4498870931
 31
0.0
  0
LINE
  5
331
330
1F
100
AcDbEntity
  8
0
  6
Continuous
 62
     7
100
AcDbLine
 10
7824.5539468312
 20
4938.9498837552
 30
0.0
 11
7815.5539434933
 21
4938.9498837552
 31
0.0
  0
LINE
  5
332
330
1F
100
AcDbEntity
  8
0
  6
Continuous
 62
     7
100
AcDbLine
 10
7815.5539434933
 20
4886.9498975835
 30
0.0
 11
7824.5539468312
 21
4886.9498975835
 31
0.0
  0
LINE
  5
333
330
1F
100
AcDbEntity
  8
0
  6
Continuous
 62
     7
100
AcDbLine
 10
7897.5539308571
 20
4937.4498732648
 30
0.0
 11
7895.5539417052
 21
4941.449881371
 31
0.0
  0
LINE
  5
334
330
1F
100
AcDbEntity
  8
0
  6
Continuous
 62
     7
100
AcDbLine
 10
7849.5539229893
 20
4941.449881371
 30
0.0
 11
7847.5539487385
 21
4937.4498732648
 31
0.0
  0
LINE
  5
335
330
1F
100
AcDbEntity
  8
0
  6
Continuous
 62
     7
100
AcDbLine
 10
7849.5539229893
 20
4948.4498806558
 30
0.0
 11
7849.5539229893
 21
4941.449881371
 31
0.0
  0
LINE
  5
336
330
1F
100
AcDbEntity
  8
0
  6
Continuous
 62
     7
100
AcDbLine
 10
7895.5539417052
 20
4941.449881371
 30
0.0
 11
7895.5539417052
 21
4948.4498806558
 31
0.0
  0
LINE
  5
337
330
1F
100
AcDbEntity
  8
0
  6
Continuous
 62
     7
100
AcDbLine
 10
7828.5539251351
 20
4890.9498758874
 30
0.0
 11
7840.448777058
 21
4890.9498758874
 31
0.0
  0
LINE
  5
338
330
1F
100
AcDbEntity
  8
0
  6
Continuous
 62
     7
100
AcDbLine
 10
7845.5539446854
 20
4934.949875649
 30
0.0
 11
7828.5539251351
 21
4934.949875649
 31
0.0
  0
LINE
  5
339
330
1F
100
AcDbEntity
  8
0
  6
Continuous
 62
     7
100
AcDbLine
 10
7856.553922274
 20
4937.4498732648
 30
0.0
 11
7856.553922274
 21
4934.949875649
 31
0.0
  0
LINE
  5
33A
330
1F
100
AcDbEntity
  8
0
  6
Continuous
 62
     7
100
AcDbLine
 10
7888.5539424204
 20
4934.949875649
 30
0.0
 11
7888.5539424204
 21
4937.4498732648
 31
0.0
  0
LINE
  5
33B
330
1F
100
AcDbEntity
  8
0
  6
Continuous
 62
     7
100
AcDbLine
 10
7689.6039348625
 20
5306.3657962046
 30
0.0
 11
7689.6039348625
 21
5316.9657968244
 31
0.0
  0
LINE
  5
33C
330
1F
100
AcDbEntity
  8
0
  6
Continuous
 62
     7
100
AcDbLine
 10
7680.053929665
 20
5292.9658003411
 30
0.0
 11
7682.0539337181
 21
5292.9658003411
 31
0.0
  0
LINE
  5
33D
330
1F
100
AcDbEntity
  8
0
  6
Continuous
 62
     7
100
AcDbLine
 10
7682.0539337181
 20
5332.9657919965
 30
0.0
 11
7680.053929665
 21
5332.9657919965
 31
0.0
  0
LINE
  5
33E
330
1F
100
AcDbEntity
  8
0
  6
Continuous
 62
     7
100
AcDbLine
 10
7689.453939774
 20
5317.2657944522
 30
0.0
 11
7689.453939774
 21
5320.4081662259
 31
0.0
  0
LINE
  5
33F
330
1F
100
AcDbEntity
  8
0
  6
Continuous
 62
     7
100
AcDbLine
 10
7689.453939774
 20
5305.5234261117
 30
0.0
 11
7689.453939774
 21
5306.2657945118
 31
0.0
  0
LINE
  5
340
330
1F
100
AcDbEntity
  8
0
  6
Continuous
 62
     7
100
AcDbLine
 10
7682.5539272808
 20
5542.9658003411
 30
0.0
 11
7680.053929665
 21
5542.9658003411
 31
0.0
  0
LINE
  5
341
330
1F
100
AcDbEntity
  8
0
  6
Continuous
 62
     7
100
AcDbLine
 10
7680.053929665
 20
5482.9657979569
 30
0.0
 11
7682.5539272808
 21
5482.9657979569
 31
0.0
  0
LINE
  5
342
330
1F
100
AcDbEntity
  8
0
  6
Continuous
 62
     7
100
AcDbLine
 10
7682.5539272808
 20
5482.9657979569
 30
0.0
 11
7683.0539506458
 21
5483.4657915196
 31
0.0
  0
LINE
  5
343
330
1F
100
AcDbEntity
  8
0
  6
Continuous
 62
     7
100
AcDbLine
 10
7683.0539506458
 20
5542.4658067784
 30
0.0
 11
7682.5539272808
 21
5542.9658003411
 31
0.0
  0
LINE
  5
344
330
1F
100
AcDbEntity
  8
0
  6
Continuous
 62
     7
100
AcDbLine
 10
7691.7039257073
 20
5498.9658005795
 30
0.0
 11
7814.0539330029
 21
5498.9658005795
 31
0.0
  0
LINE
  5
345
330
1F
100
AcDbEntity
  8
0
  6
Continuous
 62
     7
100
AcDbLine
 10
7683.0539506458
 20
5498.9658005795
 30
0.0
 11
7688.4246271633
 21
5498.9658005795
 31
0.0
  0
LINE
  5
346
330
1F
100
AcDbEntity
  8
0
  6
Continuous
 62
     7
100
AcDbLine
 10
7848.0539423012
 20
5526.9657977185
 30
0.0
 11
7683.0539506458
 21
5526.9657977185
 31
0.0
  0
LINE
  5
347
330
1F
100
AcDbEntity
  8
0
  6
Continuous
 62
     7
100
AcDbLine
 10
7849.0539294266
 20
5525.9658105931
 30
0.0
 11
7848.0539423012
 21
5526.9657977185
 31
0.0
  0
LINE
  5
348
330
1F
100
AcDbEntity
  8
0
  6
Continuous
 62
     7
100
AcDbLine
 10
7630.0539475464
 20
5599.5658047757
 30
0.0
 11
7630.0539475464
 21
5620.2490337453
 31
0.0
  0
LINE
  5
349
330
1F
100
AcDbEntity
  8
0
  6
Continuous
 62
     7
100
AcDbLine
 10
7632.7113312268
 20
5622.4009402356
 30
0.0
 11
7678.3113282704
 21
5612.7083607278
 31
0.0
  0
LINE
  5
34A
330
1F
100
AcDbEntity
  8
0
  6
Continuous
 62
     7
100
AcDbLine
 10
7680.053929665
 20
5610.5564542375
 30
0.0
 11
7680.053929665
 21
5202.9657967648
 31
0.0
  0
LINE
  5
34B
330
1F
100
AcDbEntity
  8
0
  6
Continuous
 62
     7
100
AcDbLine
 10
7680.053929665
 20
5202.9657967648
 30
0.0
 11
8107.8539368295
 21
5202.9657967648
 31
0.0
  0
LINE
  5
34C
330
1F
100
AcDbEntity
  8
0
  6
Continuous
 62
     7
100
AcDbLine
 10
8110.0539368176
 20
5200.7657967768
 30
0.0
 11
8110.0539368176
 21
5177.9657963923
 31
0.0
  0
LINE
  5
34D
330
1F
100
AcDbEntity
  8
0
  6
Continuous
 62
     7
100
AcDbLine
 10
8110.0539368176
 20
5177.9657963923
 30
0.0
 11
8107.0539367915
 21
5177.9657963923
 31
0.0
  0
LINE
  5
34E
330
1F
100
AcDbEntity
  8
0
  6
Continuous
 62
     7
100
AcDbLine
 10
8107.0539367915
 20
5177.9657963923
 30
0.0
 11
8107.0539367915
 21
5177.9557958505
 31
0.0
  0
LINE
  5
34F
330
1F
100
AcDbEntity
  8
0
  6
Continuous
 62
     7
100
AcDbLine
 10
8107.0539367915
 20
4952.9657967648
 30
0.0
 11
8107.0539367915
 21
5177.9557958505
 31
0.0
  0
LINE
  5
350
330
1F
100
AcDbEntity
  8
0
  6
Continuous
 62
     7
100
AcDbLine
 10
7633.1539255165
 20
5597.5658007226
 30
0.0
 11
7633.1539255165
 21
4952.9657967648
 31
0.0
  0
LINE
  5
351
330
1F
100
AcDbEntity
  8
0
  6
Continuous
 62
     7
100
AcDbLine
 10
7634.1539424442
 20
5597.5658007226
 30
0.0
 11
7634.1539424442
 21
5599.5658047757
 31
0.0
  0
LINE
  5
352
330
1F
100
AcDbEntity
  8
0
  6
Continuous
 62
     7
100
AcDbLine
 10
7634.1539424442
 20
5599.5658047757
 30
0.0
 11
7630.0539475464
 21
5599.5658047757
 31
0.0
  0
LINE
  5
353
330
1F
100
AcDbEntity
  8
0
  6
Continuous
 62
     7
100
AcDbLine
 10
8107.0539367915
 20
4952.9657967648
 30
0.0
 11
7633.1539255165
 21
4952.9657967648
 31
0.0
  0
LINE
  5
354
330
1F
100
AcDbEntity
  8
0
  6
Continuous
 62
     7
100
AcDbLine
 10
7633.1539255165
 20
5597.5658007226
 30
0.0
 11
7634.1539424442
 21
5597.5658007226
 31
0.0
  0
LINE
  5
355
330
1F
100
AcDbEntity
  8
0
  6
Continuous
 62
     7
100
AcDbLine
 10
7630.0539475464
 20
4952.9657967648
 30
0.0
 11
7630.0539475464
 21
5597.5658007226
 31
0.0
  0
LINE
  5
356
330
1F
100
AcDbEntity
  8
0
  6
Continuous
 62
     7
100
AcDbLine
 10
7630.0539475464
 20
5597.5658007226
 30
0.0
 11
7633.1539255165
 21
5597.5658007226
 31
0.0
  0
LINE
  5
357
330
1F
100
AcDbEntity
  8
0
  6
Continuous
 62
     7
100
AcDbLine
 10
7633.1539255165
 20
4952.9657967648
 30
0.0
 11
7630.0539475464
 21
4952.9657967648
 31
0.0
  0
LINE
  5
358
330
1F
100
AcDbEntity
  8
0
  6
Continuous
 62
     7
100
AcDbLine
 10
8110.153936815
 20
4952.9657967648
 30
0.0
 11
8110.153936815
 21
5177.9557958505
 31
0.0
  0
LINE
  5
359
330
1F
100
AcDbEntity
  8
0
  6
Continuous
 62
     7
100
AcDbLine
 10
8110.153936815
 20
4952.9657967648
 30
0.0
 11
8107.0539367915
 21
4952.9657967648
 31
0.0
  0
LINE
  5
35A
330
1F
100
AcDbEntity
  8
0
  6
Continuous
 62
     7
100
AcDbLine
 10
8107.0539367915
 20
5177.9557958505
 30
0.0
 11
8110.153936815
 21
5177.9557958505
 31
0.0
  0
LINE
  5
35B
330
1F
100
AcDbEntity
  8
0
  6
Continuous
 62
     7
100
AcDbLine
 10
7631.2539380573
 20
5599.5658047757
 30
0.0
 11
7631.2539380573
 21
5597.9658074937
 31
0.0
  0
LINE
  5
35C
330
1F
100
AcDbEntity
  8
0
  6
Continuous
 62
     7
100
AcDbLine
 10
7630.0539475464
 20
5597.9658074937
 30
0.0
 11
7631.2539380573
 21
5597.9658074937
 31
0.0
  0
LINE
  5
35D
330
1F
100
AcDbEntity
  8
0
  6
Continuous
 62
     7
100
AcDbLine
 10
7630.0539475464
 20
5599.5658047757
 30
0.0
 11
7630.0539475464
 21
5597.9658074937
 31
0.0
  0
LINE
  5
35E
330
1F
100
AcDbEntity
  8
0
  6
Continuous
 62
     7
100
AcDbLine
 10
7627.8539401077
 20
5606.0797579846
 30
0.0
 11
7627.8539401077
 21
5609.879732903
 31
0.0
  0
LINE
  5
35F
330
1F
100
AcDbEntity
  8
0
  6
Continuous
 62
     7
100
AcDbLine
 10
7629.6739381336
 20
5604.1797407231
 30
0.0
 11
7629.6739381336
 21
5611.7797501645
 31
0.0
  0
LINE
  5
360
330
1F
100
AcDbEntity
  8
0
  6
Continuous
 62
     7
100
AcDbLine
 10
7627.8539401077
 20
5519.8140152059
 30
0.0
 11
7627.8539401077
 21
5519.879759129
 31
0.0
  0
LINE
  5
361
330
1F
100
AcDbEntity
  8
0
  6
Continuous
 62
     7
100
AcDbLine
 10
7627.8539401077
 20
5516.0797544084
 30
0.0
 11
7627.8539401077
 21
5519.8140152059
 31
0.0
  0
LINE
  5
362
330
1F
100
AcDbEntity
  8
0
  6
Continuous
 62
     7
100
AcDbLine
 10
7629.6739381336
 20
5521.6482885442
 30
0.0
 11
7629.6739381336
 21
5521.7797465882
 31
0.0
  0
LINE
  5
363
330
1F
100
AcDbEntity
  8
0
  6
Continuous
 62
     7
100
AcDbLine
 10
7629.6739381336
 20
5514.1797371468
 30
0.0
 11
7629.6739381336
 21
5521.6482885442
 31
0.0
  0
LINE
  5
364
330
1F
100
AcDbEntity
  8
0
  6
Continuous
 62
     7
100
AcDbLine
 10
7633.5539322876
 20
5598.979742106
 30
0.0
 11
7632.0539515995
 21
5598.979742106
 31
0.0
  0
LINE
  5
365
330
1F
100
AcDbEntity
  8
0
  6
Continuous
 62
     7
100
AcDbLine
 10
7632.0539515995
 20
5598.979742106
 30
0.0
 11
7632.0539515995
 21
5597.5658007226
 31
0.0
  0
LINE
  5
366
330
1F
100
AcDbEntity
  8
0
  6
Continuous
 62
     7
100
AcDbLine
 10
7633.5539322876
 20
5598.979742106
 30
0.0
 11
7633.5539322876
 21
5597.5658007226
 31
0.0
  0
LINE
  5
367
330
1F
100
AcDbEntity
  8
0
  6
Continuous
 62
     7
100
AcDbLine
 10
7632.0539515995
 20
5598.979742106
 30
0.0
 11
7632.0539515995
 21
5599.5658047757
 31
0.0
  0
LINE
  5
368
330
1F
100
AcDbEntity
  8
0
  6
Continuous
 62
     7
100
AcDbLine
 10
7633.5539322876
 20
5599.5658047757
 30
0.0
 11
7633.5539322876
 21
5598.979742106
 31
0.0
  0
LINE
  5
369
330
1F
100
AcDbEntity
  8
0
  6
Continuous
 62
     7
100
AcDbLine
 10
7629.8855346226
 20
4952.9498823247
 30
0.0
 11
7629.8855346226
 21
4872.949899014
 31
0.0
  0
LINE
  5
36A
330
1F
100
AcDbEntity
  8
0
  6
Continuous
 62
     7
100
AcDbLine
 10
7664.8855310463
 20
4932.9498715959
 30
0.0
 11
7664.8855310463
 21
4892.9498799405
 31
0.0
  0
LINE
  5
36B
330
1F
100
AcDbEntity
  8
0
  6
Continuous
 62
     7
100
AcDbLine
 10
7619.8855441593
 20
4932.9498715959
 30
0.0
 11
7619.8855441593
 21
4892.9498799405
 31
0.0
  0
LINE
  5
36C
330
1F
100
AcDbEntity
  8
0
  6
Continuous
 62
     7
100
AcDbLine
 10
7838.5539454006
 20
4874.9498732648
 30
0.0
 11
7906.553934195
 21
4874.9498732648
 31
0.0
  0
LINE
  5
36D
330
1F
100
AcDbEntity
  8
0
  6
Continuous
 62
     7
100
AcDbLine
 10
7824.5539468312
 20
4938.9498837552
 30
0.0
 11
7824.5539468312
 21
4886.9498975835
 31
0.0
  0
LINE
  5
36E
330
1F
100
AcDbEntity
  8
0
  6
Continuous
 62
     7
100
AcDbLine
 10
7828.5539251351
 20
4940.4498942456
 30
0.0
 11
7828.5539251351
 21
4885.4498870931
 31
0.0
  0
LINE
  5
36F
330
1F
100
AcDbEntity
  8
0
  6
Continuous
 62
     7
100
AcDbLine
 10
7850.0841659092
 20
4934.949875649
 30
0.0
 11
7896.8835872196
 21
4934.949875649
 31
0.0
  0
LINE
  5
370
330
1F
100
AcDbEntity
  8
0
  6
Continuous
 62
     7
100
AcDbLine
 10
7848.43210397
 20
4804.9498804173
 30
0.0
 11
7896.6757607245
 21
4804.9498804173
 31
0.0
  0
LINE
  5
371
330
1F
100
AcDbEntity
  8
0
  6
Continuous
 62
     7
100
AcDbLine
 10
7812.5539225125
 20
4935.9498925767
 30
0.0
 11
7812.5539225125
 21
4889.949888762
 31
0.0
  0
LINE
  5
372
330
1F
100
AcDbEntity
  8
0
  6
Continuous
 62
     7
100
AcDbLine
 10
7849.5539229893
 20
4941.449881371
 30
0.0
 11
7895.5539417052
 21
4941.449881371
 31
0.0
  0
LINE
  5
373
330
1F
100
AcDbEntity
  8
0
  6
Continuous
 62
     7
100
AcDbLine
 10
7847.5539487385
 20
4937.4498732648
 30
0.0
 11
7897.5539308571
 21
4937.4498732648
 31
0.0
  0
LINE
  5
374
330
1F
100
AcDbEntity
  8
0
  6
Continuous
 62
     7
100
AcDbLine
 10
7852.5539439701
 20
4951.4498718343
 30
0.0
 11
7892.5539356255
 21
4951.4498718343
 31
0.0
  0
LINE
  5
375
330
1F
100
AcDbEntity
  8
0
  6
Continuous
 62
     7
100
AcDbLine
 10
7688.4836059593
 20
5316.9657968244
 30
0.0
 11
7687.7716880821
 21
5316.9657968244
 31
0.0
  0
LINE
  5
376
330
1F
100
AcDbEntity
  8
0
  6
Continuous
 62
     7
100
AcDbLine
 10
7688.4836059593
 20
5306.3657962046
 30
0.0
 11
7688.0577307724
 21
5306.3657962046
 31
0.0
  0
LINE
  5
377
330
1F
100
AcDbEntity
  8
0
  6
Continuous
 62
     7
100
AcDbLine
 10
7689.6039348625
 20
5316.9657968244
 30
0.0
 11
7688.4836059593
 21
5316.9657968244
 31
0.0
  0
LINE
  5
378
330
1F
100
AcDbEntity
  8
0
  6
Continuous
 62
     7
100
AcDbLine
 10
7689.6039348625
 20
5306.3657962046
 30
0.0
 11
7688.4836059593
 21
5306.3657962046
 31
0.0
  0
LINE
  5
379
330
1F
100
AcDbEntity
  8
0
  6
Continuous
 62
     7
100
AcDbLine
 10
7682.0539337181
 20
5304.6015881262
 30
0.0
 11
7682.0539337181
 21
5292.9658003411
 31
0.0
  0
LINE
  5
37A
330
1F
100
AcDbEntity
  8
0
  6
Continuous
 62
     7
100
AcDbLine
 10
7682.0539337181
 20
5332.9657919965
 30
0.0
 11
7682.0539337181
 21
5321.3300042114
 31
0.0
  0
LINE
  5
37B
330
1F
100
AcDbEntity
  8
0
  6
Continuous
 62
     7
100
AcDbLine
 10
7689.453939774
 20
5317.2657944522
 30
0.0
 11
7688.3487206482
 21
5317.2657944522
 31
0.0
  0
LINE
  5
37C
330
1F
100
AcDbEntity
  8
0
  6
Continuous
 62
     7
100
AcDbLine
 10
7688.3487206482
 20
5306.2657945118
 30
0.0
 11
7689.453939774
 21
5306.2657945118
 31
0.0
  0
LINE
  5
37D
330
1F
100
AcDbEntity
  8
0
  6
Continuous
 62
     7
100
AcDbLine
 10
8105.1539367595
 20
4952.8658099732
 30
0.0
 11
8098.1539365434
 21
4952.8658099732
 31
0.0
  0
LINE
  5
37E
330
1F
100
AcDbEntity
  8
0
  6
Continuous
 62
     7
100
AcDbLine
 10
8098.1539365434
 20
4952.8658099732
 30
0.0
 11
8098.1539365434
 21
4952.9657967648
 31
0.0
  0
LINE
  5
37F
330
1F
100
AcDbEntity
  8
0
  6
Continuous
 62
     7
100
AcDbLine
 10
8105.1539367595
 20
4952.8658099732
 30
0.0
 11
8105.1539367595
 21
4952.9657967648
 31
0.0
  0
LINE
  5
380
330
1F
100
AcDbEntity
  8
0
  6
Continuous
 62
     7
100
AcDbLine
 10
7688.9499527001
 20
5498.9658005795
 30
0.0
 11
7688.5539394402
 21
5498.9658005795
 31
0.0
  0
LINE
  5
381
330
1F
100
AcDbEntity
  8
0
  6
Continuous
 62
     7
100
AcDbLine
 10
7691.5539306187
 20
5498.9658005795
 30
0.0
 11
7688.9499527001
 21
5498.9658005795
 31
0.0
  0
LINE
  5
382
330
1F
100
AcDbEntity
  8
0
  6
Continuous
 62
     7
100
AcDbLine
 10
7682.5539272808
 20
5524.5377429089
 30
0.0
 11
7682.5539272808
 21
5542.9658003411
 31
0.0
  0
LINE
  5
383
330
1F
100
AcDbEntity
  8
0
  6
Continuous
 62
     7
100
AcDbLine
 10
7682.5539272808
 20
5482.9657979569
 30
0.0
 11
7682.5539272808
 21
5524.5377429089
 31
0.0
  0
LINE
  5
384
330
1F
100
AcDbEntity
  8
0
  6
Continuous
 62
     7
100
AcDbLine
 10
7683.0539506458
 20
5524.3448920808
 30
0.0
 11
7683.0539506458
 21
5483.4657915196
 31
0.0
  0
LINE
  5
385
330
1F
100
AcDbEntity
  8
0
  6
Continuous
 62
     7
100
AcDbLine
 10
7683.0539506458
 20
5542.4658067784
 30
0.0
 11
7683.0539506458
 21
5524.3448920808
 31
0.0
  0
LINE
  5
386
330
1F
100
AcDbEntity
  8
0
  6
Continuous
 62
     7
100
AcDbLine
 10
7848.0539423012
 20
5508.0760725102
 30
0.0
 11
7848.0539423012
 21
5526.9657977185
 31
0.0
  0
LINE
  5
387
330
1F
100
AcDbEntity
  8
0
  6
Continuous
 62
     7
100
AcDbLine
 10
7814.0539330029
 20
5498.9658005795
 30
0.0
 11
7814.2249685311
 21
5499.0116365514
 31
0.0
  0
LINE
  5
388
330
1F
100
AcDbEntity
  8
0
  6
Continuous
 62
     7
100
AcDbLine
 10
7814.2249685311
 20
5499.0116365514
 30
0.0
 11
7814.7369426274
 21
5499.1488166413
 31
0.0
  0
LINE
  5
389
330
1F
100
AcDbEntity
  8
0
  6
Continuous
 62
     7
100
AcDbLine
 10
7814.7369426274
 20
5499.1488166413
 30
0.0
 11
7815.5864876293
 21
5499.3764467797
 31
0.0
  0
LINE
  5
38A
330
1F
100
AcDbEntity
  8
0
  6
Continuous
 62
     7
100
AcDbLine
 10
7815.5864876293
 20
5499.3764467797
 30
0.0
 11
7816.768060305
 21
5499.6930368504
 31
0.0
  0
LINE
  5
38B
330
1F
100
AcDbEntity
  8
0
  6
Continuous
 62
     7
100
AcDbLine
 10
7816.768060305
 20
5499.6930368504
 30
0.0
 11
7818.273941853
 21
5500.0965304933
 31
0.0
  0
LINE
  5
38C
330
1F
100
AcDbEntity
  8
0
  6
Continuous
 62
     7
100
AcDbLine
 10
7818.273941853
 20
5500.0965304933
 30
0.0
 11
7820.0942379021
 21
5500.5842753014
 31
0.0
  0
LINE
  5
38D
330
1F
100
AcDbEntity
  8
0
  6
Continuous
 62
     7
100
AcDbLine
 10
7820.0942379021
 20
5500.5842753014
 30
0.0
 11
7822.2170275234
 21
5501.1530824265
 31
0.0
  0
LINE
  5
38E
330
1F
100
AcDbEntity
  8
0
  6
Continuous
 62
     7
100
AcDbLine
 10
7822.2170275234
 20
5501.1530824265
 30
0.0
 11
7824.6284526371
 21
5501.7992265782
 31
0.0
  0
LINE
  5
38F
330
1F
100
AcDbEntity
  8
0
  6
Continuous
 62
     7
100
AcDbLine
 10
7824.6284526371
 20
5501.7992265782
 30
0.0
 11
7827.3127180123
 21
5502.5184758267
 31
0.0
  0
LINE
  5
390
330
1F
100
AcDbEntity
  8
0
  6
Continuous
 62
     7
100
AcDbLine
 10
7827.3127180123
 20
5502.5184758267
 30
0.0
 11
7830.2522402786
 21
5503.3061214051
 31
0.0
  0
LINE
  5
391
330
1F
100
AcDbEntity
  8
0
  6
Continuous
 62
     7
100
AcDbLine
 10
7830.2522402786
 20
5503.3061214051
 30
0.0
 11
7833.427767136
 21
5504.1570075116
 31
0.0
  0
LINE
  5
392
330
1F
100
AcDbEntity
  8
0
  6
Continuous
 62
     7
100
AcDbLine
 10
7833.427767136
 20
5504.1570075116
 30
0.0
 11
7836.8184965634
 21
5505.0655313096
 31
0.0
  0
LINE
  5
393
330
1F
100
AcDbEntity
  8
0
  6
Continuous
 62
     7
100
AcDbLine
 10
7836.8184965634
 20
5505.0655313096
 30
0.0
 11
7840.4022854351
 21
5506.0258217416
 31
0.0
  0
LINE
  5
394
330
1F
100
AcDbEntity
  8
0
  6
Continuous
 62
     7
100
AcDbLine
 10
7840.4022854351
 20
5506.0258217416
 30
0.0
 11
7844.155619719
 21
5507.0315309129
 31
0.0
  0
LINE
  5
395
330
1F
100
AcDbEntity
  8
0
  6
Continuous
 62
     7
100
AcDbLine
 10
7844.155619719
 20
5507.0315309129
 30
0.0
 11
7848.0539423012
 21
5508.0760725102
 31
0.0
  0
LINE
  5
396
330
1F
100
AcDbEntity
  8
0
  6
Continuous
 62
     7
100
AcDbLine
 10
7849.0539294266
 20
5525.9658105931
 30
0.0
 11
7849.0539294266
 21
5508.3440251908
 31
0.0
  0
LINE
  5
397
330
1F
100
AcDbEntity
  8
0
  6
Continuous
 62
     7
100
AcDbLine
 10
7849.0539294266
 20
5508.3440251908
 30
0.0
 11
7848.0539423012
 21
5508.0760725102
 31
0.0
  0
LINE
  5
398
330
1F
100
AcDbEntity
  8
0
  6
Continuous
 62
     7
100
AcDbLine
 10
7644.8855501198
 20
4952.9498823247
 30
0.0
 11
7644.8855501198
 21
4872.949899014
 31
0.0
  0
LINE
  5
399
330
1F
100
AcDbEntity
  8
0
  6
Continuous
 62
     7
100
AcDbLine
 10
7845.4477292084
 20
4807.6442189774
 30
0.0
 11
7899.6601503872
 21
4807.6442189774
 31
0.0
  0
LINE
  5
39A
330
1F
100
AcDbEntity
  8
0
  6
Continuous
 62
     7
100
AcDbLine
 10
7899.8633724236
 20
4932.2975285611
 30
0.0
 11
7847.3321896576
 21
4932.2975285611
 31
0.0
  0
LINE
  5
39B
330
1F
100
AcDbEntity
  8
0
  6
Continuous
 62
     7
100
AcDbLine
 10
7815.5539434933
 20
4938.9498837552
 30
0.0
 11
7815.5539434933
 21
4886.9498975835
 31
0.0
  0
LINE
  5
39C
330
1F
100
AcDbEntity
  8
0
  6
Continuous
 62
     7
100
AcDbLine
 10
7849.5539229893
 20
4948.4498806558
 30
0.0
 11
7895.5539417052
 21
4948.4498806558
 31
0.0
  0
LINE
  5
39D
330
1F
100
AcDbEntity
  8
0
  6
Continuous
 62
     7
100
AcDbLine
 10
5333.7187675431
 20
4402.8814824356
 30
0.0
 11
5333.7187675431
 21
4402.5014730228
 31
0.0
  0
LINE
  5
39E
330
1F
100
AcDbEntity
  8
0
  6
Continuous
 62
     7
100
AcDbLine
 10
5341.3187769845
 20
4402.5014730228
 30
0.0
 11
5341.3187769845
 21
4402.8814824356
 31
0.0
  0
LINE
  5
39F
330
1F
100
AcDbEntity
  8
0
  6
Continuous
 62
     7
100
AcDbLine
 10
5473.718753238
 20
4402.8814824356
 30
0.0
 11
5473.718753238
 21
4402.5014730228
 31
0.0
  0
LINE
  5
3A0
330
1F
100
AcDbEntity
  8
0
  6
Continuous
 62
     7
100
AcDbLine
 10
5481.3187626794
 20
4402.5014730228
 30
0.0
 11
5481.3187626794
 21
4402.8814824356
 31
0.0
  0
LINE
  5
3A1
330
1F
100
AcDbEntity
  8
0
  6
Continuous
 62
     7
100
AcDbLine
 10
5516.5187624887
 20
4402.5014730228
 30
0.0
 11
5516.5187624887
 21
4402.6698859467
 31
0.0
  0
LINE
  5
3A2
330
1F
100
AcDbEntity
  8
0
  6
Continuous
 62
     7
100
AcDbLine
 10
5436.518779178
 20
4402.6698859467
 30
0.0
 11
5436.518779178
 21
4402.5014730228
 31
0.0
  0
LINE
  5
3A3
330
1F
100
AcDbEntity
  8
0
  6
Continuous
 62
     7
100
AcDbLine
 10
5496.5187815621
 20
4402.6698859467
 30
0.0
 11
5496.5187815621
 21
4412.6698764099
 31
0.0
  0
LINE
  5
3A4
330
1F
100
AcDbEntity
  8
0
  6
Continuous
 62
     7
100
AcDbLine
 10
5456.5187601045
 20
4412.6698764099
 30
0.0
 11
5456.5187601045
 21
4402.6698859467
 31
0.0
  0
LINE
  5
3A5
330
1F
100
AcDbEntity
  8
0
  6
Continuous
 62
     7
100
AcDbLine
 10
5704.0187624887
 20
4350.0014932884
 30
0.0
 11
5704.0187624887
 21
4352.5014909042
 31
0.0
  0
LINE
  5
3A6
330
1F
100
AcDbEntity
  8
0
  6
Continuous
 62
     7
100
AcDbLine
 10
5644.0187601045
 20
4352.5014909042
 30
0.0
 11
5644.0187601045
 21
4350.0014932884
 31
0.0
  0
LINE
  5
3A7
330
1F
100
AcDbEntity
  8
0
  6
Continuous
 62
     7
100
AcDbLine
 10
5644.0187601045
 20
4350.0014932884
 30
0.0
 11
5644.5187834695
 21
4349.5014699234
 31
0.0
  0
LINE
  5
3A8
330
1F
100
AcDbEntity
  8
0
  6
Continuous
 62
     7
100
AcDbLine
 10
5703.5187391237
 20
4349.5014699233
 30
0.0
 11
5704.0187624887
 21
4350.0014932884
 31
0.0
  0
LINE
  5
3A9
330
1F
100
AcDbEntity
  8
0
  6
Continuous
 62
     7
100
AcDbLine
 10
6304.0187546655
 20
4350.0014932884
 30
0.0
 11
6304.0187546655
 21
4352.5014909042
 31
0.0
  0
LINE
  5
3AA
330
1F
100
AcDbEntity
  8
0
  6
Continuous
 62
     7
100
AcDbLine
 10
6244.0187560067
 20
4352.5014909042
 30
0.0
 11
6244.0187560067
 21
4350.0014932884
 31
0.0
  0
LINE
  5
3AB
330
1F
100
AcDbEntity
  8
0
  6
Continuous
 62
     7
100
AcDbLine
 10
6244.0187560067
 20
4350.0014932884
 30
0.0
 11
6244.5187551573
 21
4349.5014699234
 31
0.0
  0
LINE
  5
3AC
330
1F
100
AcDbEntity
  8
0
  6
Continuous
 62
     7
100
AcDbLine
 10
6303.5187555149
 20
4349.5014699234
 30
0.0
 11
6304.0187546655
 21
4350.0014932884
 31
0.0
  0
LINE
  5
3AD
330
1F
100
AcDbEntity
  8
0
  6
Continuous
 62
     7
100
AcDbLine
 10
6904.0187505677
 20
4350.0014932884
 30
0.0
 11
6904.0187505677
 21
4352.5014909042
 31
0.0
  0
LINE
  5
3AE
330
1F
100
AcDbEntity
  8
0
  6
Continuous
 62
     7
100
AcDbLine
 10
6844.0187481835
 20
4352.5014909042
 30
0.0
 11
6844.0187481835
 21
4350.0014932884
 31
0.0
  0
LINE
  5
3AF
330
1F
100
AcDbEntity
  8
0
  6
Continuous
 62
     7
100
AcDbLine
 10
6844.0187481835
 20
4350.0014932884
 30
0.0
 11
6844.5187715486
 21
4349.5014699234
 31
0.0
  0
LINE
  5
3B0
330
1F
100
AcDbEntity
  8
0
  6
Continuous
 62
     7
100
AcDbLine
 10
6903.5187272027
 20
4349.5014699234
 30
0.0
 11
6904.0187505677
 21
4350.0014932884
 31
0.0
  0
LINE
  5
3B1
330
1F
100
AcDbEntity
  8
0
  6
Continuous
 62
     7
100
AcDbLine
 10
5660.0187329248
 20
4349.5014699234
 30
0.0
 11
5660.0187329248
 21
4184.5014782681
 31
0.0
  0
LINE
  5
3B2
330
1F
100
AcDbEntity
  8
0
  6
Continuous
 62
     7
100
AcDbLine
 10
5688.0187300637
 20
4184.5014782681
 30
0.0
 11
5688.0187300637
 21
4349.5014699234
 31
0.0
  0
LINE
  5
3B3
330
1F
100
AcDbEntity
  8
0
  6
Continuous
 62
     7
100
AcDbLine
 10
5660.0187329248
 20
4184.5014782681
 30
0.0
 11
5661.0187796548
 21
4183.5014911427
 31
0.0
  0
LINE
  5
3B4
330
1F
100
AcDbEntity
  8
0
  6
Continuous
 62
     7
100
AcDbLine
 10
5687.0187429383
 20
4183.5014911427
 30
0.0
 11
5688.0187300637
 21
4184.5014782681
 31
0.0
  0
LINE
  5
3B5
330
1F
100
AcDbEntity
  8
0
  6
Continuous
 62
     7
100
AcDbLine
 10
6860.0187806085
 20
4349.5014699234
 30
0.0
 11
6860.0187806085
 21
4184.5014782681
 31
0.0
  0
LINE
  5
3B6
330
1F
100
AcDbEntity
  8
0
  6
Continuous
 62
     7
100
AcDbLine
 10
6888.0187777474
 20
4184.5014782681
 30
0.0
 11
6888.0187777474
 21
4349.5014699234
 31
0.0
  0
LINE
  5
3B7
330
1F
100
AcDbEntity
  8
0
  6
Continuous
 62
     7
100
AcDbLine
 10
6860.0187806085
 20
4184.5014782681
 30
0.0
 11
6861.0187677339
 21
4183.5014911427
 31
0.0
  0
LINE
  5
3B8
330
1F
100
AcDbEntity
  8
0
  6
Continuous
 62
     7
100
AcDbLine
 10
6887.0187310174
 20
4183.5014911427
 30
0.0
 11
6888.0187777474
 21
4184.5014782681
 31
0.0
  0
LINE
  5
3B9
330
1F
100
AcDbEntity
  8
0
  6
Continuous
 62
     7
100
AcDbLine
 10
6260.018754904
 20
4349.5014699234
 30
0.0
 11
6260.018754904
 21
4184.5014782681
 31
0.0
  0
LINE
  5
3BA
330
1F
100
AcDbEntity
  8
0
  6
Continuous
 62
     7
100
AcDbLine
 10
6288.0187557682
 20
4184.5014782681
 30
0.0
 11
6288.0187557682
 21
4349.5014699234
 31
0.0
  0
LINE
  5
3BB
330
1F
100
AcDbEntity
  8
0
  6
Continuous
 62
     7
100
AcDbLine
 10
6260.018754904
 20
4184.5014782681
 30
0.0
 11
6261.0187550679
 21
4183.5014911427
 31
0.0
  0
LINE
  5
3BC
330
1F
100
AcDbEntity
  8
0
  6
Continuous
 62
     7
100
AcDbLine
 10
6287.0187556043
 20
4183.5014911427
 30
0.0
 11
6288.0187557682
 21
4184.5014782681
 31
0.0
  0
LINE
  5
3BD
330
1F
100
AcDbEntity
  8
0
  6
Continuous
 62
     7
100
AcDbLine
 10
7177.3687509492
 20
3922.4014837542
 30
0.0
 11
5370.668759723
 21
3922.4014837542
 31
0.0
  0
LINE
  5
3BE
330
1F
100
AcDbEntity
  8
0
  6
Continuous
 62
     7
100
AcDbLine
 10
5370.668759723
 20
3922.4014837542
 30
0.0
 11
5370.668759723
 21
3922.5014837517
 31
0.0
  0
LINE
  5
3BF
330
1F
100
AcDbEntity
  8
0
  6
Continuous
 62
     7
100
AcDbLine
 10
7177.3687509492
 20
3922.4014837542
 30
0.0
 11
7177.3687509492
 21
3922.5014837517
 31
0.0
  0
LINE
  5
3C0
330
1F
100
AcDbEntity
  8
0
  6
Continuous
 62
     7
100
AcDbLine
 10
5370.1030520394
 20
3922.5014837517
 30
0.0
 11
5370.3468350366
 21
3922.433188041
 31
0.0
  0
LINE
  5
3C1
330
1F
100
AcDbEntity
  8
0
  6
Continuous
 62
     7
100
AcDbLine
 10
5370.3468350366
 20
3922.433188041
 30
0.0
 11
5370.668759723
 21
3922.4014837542
 31
0.0
  0
LINE
  5
3C2
330
1F
100
AcDbEntity
  8
0
  6
Continuous
 62
     7
100
AcDbLine
 10
7177.3687509492
 20
3922.4014837542
 30
0.0
 11
7177.6906756356
 21
3922.433188041
 31
0.0
  0
LINE
  5
3C3
330
1F
100
AcDbEntity
  8
0
  6
Continuous
 62
     7
100
AcDbLine
 10
7177.6906756356
 20
3922.433188041
 30
0.0
 11
7177.9344586328
 21
3922.5014837517
 31
0.0
  0
LINE
  5
3C4
330
1F
100
AcDbEntity
  8
0
  6
Continuous
 62
     7
100
AcDbLine
 10
7224.0187434152
 20
4402.5014730228
 30
0.0
 11
7222.0187691644
 21
4402.5014730228
 31
0.0
  0
LINE
  5
3C5
330
1F
100
AcDbEntity
  8
0
  6
Continuous
 62
     7
100
AcDbLine
 10
7224.0187434152
 20
4399.8440893425
 30
0.0
 11
7222.0187691644
 21
4399.8440893425
 31
0.0
  0
LINE
  5
3C6
330
1F
100
AcDbEntity
  8
0
  6
Continuous
 62
     7
100
AcDbLine
 10
7222.0187691644
 20
4402.5014730228
 30
0.0
 11
7222.0187691644
 21
4399.8440893425
 31
0.0
  0
LINE
  5
3C7
330
1F
100
AcDbEntity
  8
0
  6
Continuous
 62
     7
100
AcDbLine
 10
7224.0187434152
 20
4402.5014730228
 30
0.0
 11
7224.0187434152
 21
4399.8440893425
 31
0.0
  0
LINE
  5
3C8
330
1F
100
AcDbEntity
  8
0
  6
Continuous
 62
     7
100
AcDbLine
 10
7224.0187434152
 20
4354.2440922989
 30
0.0
 11
7222.0187691644
 21
4354.2440922989
 31
0.0
  0
LINE
  5
3C9
330
1F
100
AcDbEntity
  8
0
  6
Continuous
 62
     7
100
AcDbLine
 10
7222.0187691644
 20
4399.8440893425
 30
0.0
 11
7222.0187691644
 21
4354.2440922989
 31
0.0
  0
LINE
  5
3CA
330
1F
100
AcDbEntity
  8
0
  6
Continuous
 62
     7
100
AcDbLine
 10
7224.0187434152
 20
4399.8440893425
 30
0.0
 11
7224.0187434152
 21
4354.2440922989
 31
0.0
  0
LINE
  5
3CB
330
1F
100
AcDbEntity
  8
0
  6
Continuous
 62
     7
100
AcDbLine
 10
7224.0187434152
 20
4352.5014909042
 30
0.0
 11
7222.0187691644
 21
4352.5014909042
 31
0.0
  0
LINE
  5
3CC
330
1F
100
AcDbEntity
  8
0
  6
Continuous
 62
     7
100
AcDbLine
 10
7222.0187691644
 20
4354.2440922989
 30
0.0
 11
7222.0187691644
 21
4352.5014909042
 31
0.0
  0
LINE
  5
3CD
330
1F
100
AcDbEntity
  8
0
  6
Continuous
 62
     7
100
AcDbLine
 10
7224.0187434152
 20
4354.2440922989
 30
0.0
 11
7224.0187434152
 21
4352.5014909042
 31
0.0
  0
LINE
  5
3CE
330
1F
100
AcDbEntity
  8
0
  6
Continuous
 62
     7
100
AcDbLine
 10
7224.0187434152
 20
3924.7014837398
 30
0.0
 11
7222.0187691644
 21
3924.7014837398
 31
0.0
  0
LINE
  5
3CF
330
1F
100
AcDbEntity
  8
0
  6
Continuous
 62
     7
100
AcDbLine
 10
7222.0187691644
 20
4352.5014909042
 30
0.0
 11
7222.0187691644
 21
3924.7014837398
 31
0.0
  0
LINE
  5
3D0
330
1F
100
AcDbEntity
  8
0
  6
Continuous
 62
     7
100
AcDbLine
 10
7224.0187434152
 20
4352.5014909042
 30
0.0
 11
7224.0187434152
 21
3924.7014837398
 31
0.0
  0
LINE
  5
3D1
330
1F
100
AcDbEntity
  8
0
  6
Continuous
 62
     7
100
AcDbLine
 10
7224.0187434152
 20
3922.5014837517
 30
0.0
 11
7222.0187691644
 21
3922.5014837517
 31
0.0
  0
LINE
  5
3D2
330
1F
100
AcDbEntity
  8
0
  6
Continuous
 62
     7
100
AcDbLine
 10
7222.0187691644
 20
3924.7014837398
 30
0.0
 11
7222.0187691644
 21
3922.5014837517
 31
0.0
  0
LINE
  5
3D3
330
1F
100
AcDbEntity
  8
0
  6
Continuous
 62
     7
100
AcDbLine
 10
7224.0187434152
 20
3924.7014837398
 30
0.0
 11
7224.0187434152
 21
3922.5014837517
 31
0.0
  0
LINE
  5
3D4
330
1F
100
AcDbEntity
  8
0
  6
Continuous
 62
     7
100
AcDbLine
 10
7221.6997651055
 20
3922.5014837517
 30
0.0
 11
7221.5235141709
 21
3922.4610493817
 31
0.0
  0
LINE
  5
3D5
330
1F
100
AcDbEntity
  8
0
  6
Continuous
 62
     7
100
AcDbLine
 10
7221.5235141709
 20
3922.4610493817
 30
0.0
 11
7220.918765445
 21
3922.4014837542
 31
0.0
  0
LINE
  5
3D6
330
1F
100
AcDbEntity
  8
0
  6
Continuous
 62
     7
100
AcDbLine
 10
7220.918765445
 20
3922.4014837542
 30
0.0
 11
7182.1187643006
 21
3922.4014837542
 31
0.0
  0
LINE
  5
3D7
330
1F
100
AcDbEntity
  8
0
  6
Continuous
 62
     7
100
AcDbLine
 10
7181.3377050355
 20
3922.5014837517
 30
0.0
 11
7181.5139559701
 21
3922.4610493817
 31
0.0
  0
LINE
  5
3D8
330
1F
100
AcDbEntity
  8
0
  6
Continuous
 62
     7
100
AcDbLine
 10
7181.5139559701
 20
3922.4610493817
 30
0.0
 11
7182.1187643006
 21
3922.4014837542
 31
0.0
  0
LINE
  5
3D9
330
1F
100
AcDbEntity
  8
0
  6
Continuous
 62
     7
100
AcDbLine
 10
5324.018767257
 20
4399.8440893425
 30
0.0
 11
5326.0187415078
 21
4399.8440893425
 31
0.0
  0
LINE
  5
3DA
330
1F
100
AcDbEntity
  8
0
  6
Continuous
 62
     7
100
AcDbLine
 10
5324.018767257
 20
4402.5014730228
 30
0.0
 11
5324.018767257
 21
4399.8440893425
 31
0.0
  0
LINE
  5
3DB
330
1F
100
AcDbEntity
  8
0
  6
Continuous
 62
     7
100
AcDbLine
 10
5324.018767257
 20
4402.5014730228
 30
0.0
 11
5326.0187415078
 21
4402.5014730228
 31
0.0
  0
LINE
  5
3DC
330
1F
100
AcDbEntity
  8
0
  6
Continuous
 62
     7
100
AcDbLine
 10
5326.0187415078
 20
4402.5014730228
 30
0.0
 11
5326.0187415078
 21
4399.8440893425
 31
0.0
  0
LINE
  5
3DD
330
1F
100
AcDbEntity
  8
0
  6
Continuous
 62
     7
100
AcDbLine
 10
5324.018767257
 20
4354.2440922989
 30
0.0
 11
5326.0187415078
 21
4354.2440922989
 31
0.0
  0
LINE
  5
3DE
330
1F
100
AcDbEntity
  8
0
  6
Continuous
 62
     7
100
AcDbLine
 10
5326.0187415078
 20
4399.8440893425
 30
0.0
 11
5326.0187415078
 21
4354.2440922989
 31
0.0
  0
LINE
  5
3DF
330
1F
100
AcDbEntity
  8
0
  6
Continuous
 62
     7
100
AcDbLine
 10
5324.018767257
 20
4399.8440893425
 30
0.0
 11
5324.018767257
 21
4354.2440922989
 31
0.0
  0
LINE
  5
3E0
330
1F
100
AcDbEntity
  8
0
  6
Continuous
 62
     7
100
AcDbLine
 10
5324.018767257
 20
4352.5014909042
 30
0.0
 11
5326.0187415078
 21
4352.5014909042
 31
0.0
  0
LINE
  5
3E1
330
1F
100
AcDbEntity
  8
0
  6
Continuous
 62
     7
100
AcDbLine
 10
5326.0187415078
 20
4354.2440922989
 30
0.0
 11
5326.0187415078
 21
4352.5014909042
 31
0.0
  0
LINE
  5
3E2
330
1F
100
AcDbEntity
  8
0
  6
Continuous
 62
     7
100
AcDbLine
 10
5324.018767257
 20
4354.2440922989
 30
0.0
 11
5324.018767257
 21
4352.5014909042
 31
0.0
  0
LINE
  5
3E3
330
1F
100
AcDbEntity
  8
0
  6
Continuous
 62
     7
100
AcDbLine
 10
5324.018767257
 20
3924.7014837398
 30
0.0
 11
5326.0187415078
 21
3924.7014837398
 31
0.0
  0
LINE
  5
3E4
330
1F
100
AcDbEntity
  8
0
  6
Continuous
 62
     7
100
AcDbLine
 10
5326.0187415078
 20
4352.5014909042
 30
0.0
 11
5326.0187415078
 21
3924.7014837398
 31
0.0
  0
LINE
  5
3E5
330
1F
100
AcDbEntity
  8
0
  6
Continuous
 62
     7
100
AcDbLine
 10
5324.018767257
 20
4352.5014909042
 30
0.0
 11
5324.018767257
 21
3924.7014837398
 31
0.0
  0
LINE
  5
3E6
330
1F
100
AcDbEntity
  8
0
  6
Continuous
 62
     7
100
AcDbLine
 10
5324.018767257
 20
3922.5014837517
 30
0.0
 11
5326.0187415078
 21
3922.5014837517
 31
0.0
  0
LINE
  5
3E7
330
1F
100
AcDbEntity
  8
0
  6
Continuous
 62
     7
100
AcDbLine
 10
5326.0187415078
 20
3924.7014837398
 30
0.0
 11
5326.0187415078
 21
3922.5014837517
 31
0.0
  0
LINE
  5
3E8
330
1F
100
AcDbEntity
  8
0
  6
Continuous
 62
     7
100
AcDbLine
 10
5324.018767257
 20
3924.7014837398
 30
0.0
 11
5324.018767257
 21
3922.5014837517
 31
0.0
  0
LINE
  5
3E9
330
1F
100
AcDbEntity
  8
0
  6
Continuous
 62
     7
100
AcDbLine
 10
5326.3377455667
 20
3922.5014837517
 30
0.0
 11
5326.5139965013
 21
3922.4610493817
 31
0.0
  0
LINE
  5
3EA
330
1F
100
AcDbEntity
  8
0
  6
Continuous
 62
     7
100
AcDbLine
 10
5326.5139965013
 20
3922.4610493817
 30
0.0
 11
5327.1187452272
 21
3922.4014837542
 31
0.0
  0
LINE
  5
3EB
330
1F
100
AcDbEntity
  8
0
  6
Continuous
 62
     7
100
AcDbLine
 10
5327.1187452272
 20
3922.4014837542
 30
0.0
 11
5365.9187463716
 21
3922.4014837542
 31
0.0
  0
LINE
  5
3EC
330
1F
100
AcDbEntity
  8
0
  6
Continuous
 62
     7
100
AcDbLine
 10
5366.6998056367
 20
3922.5014837517
 30
0.0
 11
5366.5235547021
 21
3922.4610493817
 31
0.0
  0
LINE
  5
3ED
330
1F
100
AcDbEntity
  8
0
  6
Continuous
 62
     7
100
AcDbLine
 10
5366.5235547021
 20
3922.4610493817
 30
0.0
 11
5365.9187463716
 21
3922.4014837542
 31
0.0
  0
LINE
  5
3EE
330
1F
100
AcDbEntity
  8
0
  6
Continuous
 62
     7
100
AcDbLine
 10
7222.0187691644
 20
4402.5014730228
 30
0.0
 11
5326.0187415078
 21
4402.5014730228
 31
0.0
  0
LINE
  5
3EF
330
1F
100
AcDbEntity
  8
0
  6
Continuous
 62
     7
100
AcDbLine
 10
5326.0187415078
 20
4399.8440893425
 30
0.0
 11
7222.0187691644
 21
4399.8440893425
 31
0.0
  0
LINE
  5
3F0
330
1F
100
AcDbEntity
  8
0
  6
Continuous
 62
     7
100
AcDbLine
 10
7222.0187691644
 20
4354.2440922989
 30
0.0
 11
5326.0187415078
 21
4354.2440922989
 31
0.0
  0
LINE
  5
3F1
330
1F
100
AcDbEntity
  8
0
  6
Continuous
 62
     7
100
AcDbLine
 10
5326.0187415078
 20
4352.5014909042
 30
0.0
 11
7222.0187691644
 21
4352.5014909042
 31
0.0
  0
LINE
  5
3F2
330
1F
100
AcDbEntity
  8
0
  6
Continuous
 62
     7
100
AcDbLine
 10
7222.0187691644
 20
3967.5014855398
 30
0.0
 11
5326.0187415078
 21
3967.5014855398
 31
0.0
  0
LINE
  5
3F3
330
1F
100
AcDbEntity
  8
0
  6
Continuous
 62
     7
100
AcDbLine
 10
5326.0187415078
 20
3965.3014855517
 30
0.0
 11
7222.0187691644
 21
3965.3014855517
 31
0.0
  0
LINE
  5
3F4
330
1F
100
AcDbEntity
  8
0
  6
Continuous
 62
     7
100
AcDbLine
 10
7222.0187691644
 20
3924.7014837398
 30
0.0
 11
5326.0187415078
 21
3924.7014837398
 31
0.0
  0
LINE
  5
3F5
330
1F
100
AcDbEntity
  8
0
  6
Continuous
 62
     7
100
AcDbLine
 10
5326.0187415078
 20
3924.7014837398
 30
0.0
 11
5326.0187415078
 21
3965.3014855517
 31
0.0
  0
LINE
  5
3F6
330
1F
100
AcDbEntity
  8
0
  6
Continuous
 62
     7
100
AcDbLine
 10
7222.0187691644
 20
3924.7014837398
 30
0.0
 11
7222.0187691644
 21
3965.3014855517
 31
0.0
  0
LINE
  5
3F7
330
1F
100
AcDbEntity
  8
0
  6
Continuous
 62
     7
100
AcDbLine
 10
5326.0187415078
 20
3922.5014837517
 30
0.0
 11
7222.0187691644
 21
3922.5014837517
 31
0.0
  0
LINE
  5
3F8
330
1F
100
AcDbEntity
  8
0
  6
Continuous
 62
     7
100
AcDbLine
 10
7222.0187691644
 20
3967.8438732459
 30
0.0
 11
5326.0187415078
 21
3967.8438732459
 31
0.0
  0
LINE
  5
3F9
330
1F
100
AcDbEntity
  8
0
  6
Continuous
 62
     7
100
AcDbLine
 10
5326.0187415078
 20
4093.2189317478
 30
0.0
 11
7222.0187691644
 21
4093.2189317478
 31
0.0
  0
LINE
  5
3FA
330
1F
100
AcDbEntity
  8
0
  6
Continuous
 62
     7
100
AcDbLine
 10
7222.0187691644
 20
4093.8765348925
 30
0.0
 11
5326.0187415078
 21
4093.8765348925
 31
0.0
  0
LINE
  5
3FB
330
1F
100
AcDbEntity
  8
0
  6
Continuous
 62
     7
100
AcDbLine
 10
5337.7246169046
 20
4402.8814824356
 30
0.0
 11
5341.3187769845
 21
4402.8814824356
 31
0.0
  0
LINE
  5
3FC
330
1F
100
AcDbEntity
  8
0
  6
Continuous
 62
     7
100
AcDbLine
 10
5333.7187675431
 20
4402.8814824356
 30
0.0
 11
5337.7246169046
 21
4402.8814824356
 31
0.0
  0
LINE
  5
3FD
330
1F
100
AcDbEntity
  8
0
  6
Continuous
 62
     7
100
AcDbLine
 10
5337.621679683
 20
4404.7014804615
 30
0.0
 11
5339.418759723
 21
4404.7014804615
 31
0.0
  0
LINE
  5
3FE
330
1F
100
AcDbEntity
  8
0
  6
Continuous
 62
     7
100
AcDbLine
 10
5335.6187848046
 20
4404.7014804615
 30
0.0
 11
5337.621679683
 21
4404.7014804615
 31
0.0
  0
LINE
  5
3FF
330
1F
100
AcDbEntity
  8
0
  6
Continuous
 62
     7
100
AcDbLine
 10
5475.3656891778
 20
4402.8814824356
 30
0.0
 11
5481.3187626794
 21
4402.8814824356
 31
0.0
  0
LINE
  5
400
330
1F
100
AcDbEntity
  8
0
  6
Continuous
 62
     7
100
AcDbLine
 10
5473.718753238
 20
4402.8814824356
 30
0.0
 11
5475.3656891778
 21
4402.8814824356
 31
0.0
  0
LINE
  5
401
330
1F
100
AcDbEntity
  8
0
  6
Continuous
 62
     7
100
AcDbLine
 10
5476.4422086671
 20
4404.7014804615
 30
0.0
 11
5479.4187454179
 21
4404.7014804615
 31
0.0
  0
LINE
  5
402
330
1F
100
AcDbEntity
  8
0
  6
Continuous
 62
     7
100
AcDbLine
 10
5475.6187704995
 20
4404.7014804615
 30
0.0
 11
5476.4422086671
 21
4404.7014804615
 31
0.0
  0
LINE
  5
403
330
1F
100
AcDbEntity
  8
0
  6
Continuous
 62
     7
100
AcDbLine
 10
5475.7687553361
 20
4165.1976361744
 30
0.0
 11
5475.7687553361
 21
4154.805331329
 31
0.0
  0
LINE
  5
404
330
1F
100
AcDbEntity
  8
0
  6
Continuous
 62
     7
100
AcDbLine
 10
5477.2687553361
 20
4154.805331329
 30
0.0
 11
5477.2687553361
 21
4165.1976361744
 31
0.0
  0
LINE
  5
405
330
1F
100
AcDbEntity
  8
0
  6
Continuous
 62
     7
100
AcDbLine
 10
5513.4678987458
 20
4402.6698859467
 30
0.0
 11
5481.3187626794
 21
4402.6698859467
 31
0.0
  0
LINE
  5
406
330
1F
100
AcDbEntity
  8
0
  6
Continuous
 62
     7
100
AcDbLine
 10
5473.718753238
 20
4402.6698859467
 30
0.0
 11
5436.518779178
 21
4402.6698859467
 31
0.0
  0
LINE
  5
407
330
1F
100
AcDbEntity
  8
0
  6
Continuous
 62
     7
100
AcDbLine
 10
5516.5187624887
 20
4402.6698859467
 30
0.0
 11
5513.4678987458
 21
4402.6698859467
 31
0.0
  0
LINE
  5
408
330
1F
100
AcDbEntity
  8
0
  6
Continuous
 62
     7
100
AcDbLine
 10
5494.9933198884
 20
4412.6698764099
 30
0.0
 11
5456.5187601045
 21
4412.6698764099
 31
0.0
  0
LINE
  5
409
330
1F
100
AcDbEntity
  8
0
  6
Continuous
 62
     7
100
AcDbLine
 10
5496.5187815621
 20
4412.6698764099
 30
0.0
 11
5494.9933198884
 21
4412.6698764099
 31
0.0
  0
LINE
  5
40A
330
1F
100
AcDbEntity
  8
0
  6
Continuous
 62
     7
100
AcDbLine
 10
5464.4717482522
 20
4151.9318463339
 30
0.0
 11
5465.9452346757
 21
4150.0792445673
 31
0.0
  0
LINE
  5
40B
330
1F
100
AcDbEntity
  8
0
  6
Continuous
 62
     7
100
AcDbLine
 10
5465.9452346757
 20
4150.0792445673
 30
0.0
 11
5467.2195223764
 21
4148.8761099114
 31
0.0
  0
LINE
  5
40C
330
1F
100
AcDbEntity
  8
0
  6
Continuous
 62
     7
100
AcDbLine
 10
5485.8180192903
 20
4148.8761099114
 30
0.0
 11
5487.0922473863
 21
4150.0792445673
 31
0.0
  0
LINE
  5
40D
330
1F
100
AcDbEntity
  8
0
  6
Continuous
 62
     7
100
AcDbLine
 10
5487.0922473863
 20
4150.0792445673
 30
0.0
 11
5488.5657934144
 21
4151.9318463339
 31
0.0
  0
LINE
  5
40E
330
1F
100
AcDbEntity
  8
0
  6
Continuous
 62
     7
100
AcDbLine
 10
5489.5307926133
 20
4153.6032648815
 30
0.0
 11
5490.3983978227
 21
4155.8056714071
 31
0.0
  0
LINE
  5
40F
330
1F
100
AcDbEntity
  8
0
  6
Continuous
 62
     7
100
AcDbLine
 10
5490.3983978227
 20
4155.8056714071
 30
0.0
 11
5490.80323257
 21
4157.5107963814
 31
0.0
  0
LINE
  5
410
330
1F
100
AcDbEntity
  8
0
  6
Continuous
 62
     7
100
AcDbLine
 10
5481.5040139154
 20
4173.6175509228
 30
0.0
 11
5479.8248914674
 21
4174.1195412411
 31
0.0
  0
LINE
  5
411
330
1F
100
AcDbEntity
  8
0
  6
Continuous
 62
     7
100
AcDbLine
 10
5479.8248914674
 20
4174.1195412411
 30
0.0
 11
5477.4837402299
 21
4174.4693310989
 31
0.0
  0
LINE
  5
412
330
1F
100
AcDbEntity
  8
0
  6
Continuous
 62
     7
100
AcDbLine
 10
5475.5537418321
 20
4174.4693310989
 30
0.0
 11
5473.2125905946
 21
4174.1195412411
 31
0.0
  0
LINE
  5
413
330
1F
100
AcDbEntity
  8
0
  6
Continuous
 62
     7
100
AcDbLine
 10
5473.2125905946
 20
4174.1195412411
 30
0.0
 11
5471.5335277513
 21
4173.6175509228
 31
0.0
  0
LINE
  5
414
330
1F
100
AcDbEntity
  8
0
  6
Continuous
 62
     7
100
AcDbLine
 10
5462.234249492
 20
4157.5107963814
 30
0.0
 11
5462.6390842393
 21
4155.8056714071
 31
0.0
  0
LINE
  5
415
330
1F
100
AcDbEntity
  8
0
  6
Continuous
 62
     7
100
AcDbLine
 10
5462.6390842393
 20
4155.8056714071
 30
0.0
 11
5463.5067490533
 21
4153.6032648815
 31
0.0
  0
LINE
  5
416
330
1F
100
AcDbEntity
  8
0
  6
Continuous
 62
     7
100
AcDbLine
 10
5491.1222366288
 20
4152.6844443811
 30
0.0
 11
5484.8769215539
 21
4156.2901975645
 31
0.0
  0
LINE
  5
417
330
1F
100
AcDbEntity
  8
0
  6
Continuous
 62
     7
100
AcDbLine
 10
5483.911922355
 20
4154.6187641157
 30
0.0
 11
5490.1572374299
 21
4151.0130258335
 31
0.0
  0
LINE
  5
418
330
1F
100
AcDbEntity
  8
0
  6
Continuous
 62
     7
100
AcDbLine
 10
5462.8803042367
 20
4151.0130258335
 30
0.0
 11
5469.1256193116
 21
4154.6187641157
 31
0.0
  0
LINE
  5
419
330
1F
100
AcDbEntity
  8
0
  6
Continuous
 62
     7
100
AcDbLine
 10
5468.1606201127
 20
4156.2901975645
 30
0.0
 11
5461.9153050378
 21
4152.6844443811
 31
0.0
  0
LINE
  5
41A
330
1F
100
AcDbEntity
  8
0
  6
Continuous
 62
     7
100
AcDbLine
 10
5477.4837402299
 20
4169.0954955353
 30
0.0
 11
5477.4837402299
 21
4176.3069838595
 31
0.0
  0
LINE
  5
41B
330
1F
100
AcDbEntity
  8
0
  6
Continuous
 62
     7
100
AcDbLine
 10
5475.5537418321
 20
4176.3069838595
 30
0.0
 11
5475.5537418321
 21
4169.0954955353
 31
0.0
  0
LINE
  5
41C
330
1F
100
AcDbEntity
  8
0
  6
Continuous
 62
     7
100
AcDbLine
 10
5646.3404206231
 20
4350.0014932884
 30
0.0
 11
5704.0187624887
 21
4350.0014932884
 31
0.0
  0
LINE
  5
41D
330
1F
100
AcDbEntity
  8
0
  6
Continuous
 62
     7
100
AcDbLine
 10
5644.0187601045
 20
4350.0014932884
 30
0.0
 11
5646.3404206231
 21
4350.0014932884
 31
0.0
  0
LINE
  5
41E
330
1F
100
AcDbEntity
  8
0
  6
Continuous
 62
     7
100
AcDbLine
 10
5646.8017605737
 20
4349.5014699234
 30
0.0
 11
5644.5187834695
 21
4349.5014699234
 31
0.0
  0
LINE
  5
41F
330
1F
100
AcDbEntity
  8
0
  6
Continuous
 62
     7
100
AcDbLine
 10
5703.5187391237
 20
4349.5014699233
 30
0.0
 11
5646.8017605737
 21
4349.5014699234
 31
0.0
  0
LINE
  5
420
330
1F
100
AcDbEntity
  8
0
  6
Continuous
 62
     7
100
AcDbLine
 10
6246.3404277012
 20
4350.0014932884
 30
0.0
 11
6304.0187546655
 21
4350.0014932884
 31
0.0
  0
LINE
  5
421
330
1F
100
AcDbEntity
  8
0
  6
Continuous
 62
     7
100
AcDbLine
 10
6244.0187560067
 20
4350.0014932884
 30
0.0
 11
6246.3404277012
 21
4350.0014932884
 31
0.0
  0
LINE
  5
422
330
1F
100
AcDbEntity
  8
0
  6
Continuous
 62
     7
100
AcDbLine
 10
6246.8017322615
 20
4349.5014699234
 30
0.0
 11
6244.5187551573
 21
4349.5014699234
 31
0.0
  0
LINE
  5
423
330
1F
100
AcDbEntity
  8
0
  6
Continuous
 62
     7
100
AcDbLine
 10
6303.5187555149
 20
4349.5014699234
 30
0.0
 11
6246.8017322615
 21
4349.5014699234
 31
0.0
  0
LINE
  5
424
330
1F
100
AcDbEntity
  8
0
  6
Continuous
 62
     7
100
AcDbLine
 10
6846.3404087022
 20
4350.0014932884
 30
0.0
 11
6904.0187505677
 21
4350.0014932884
 31
0.0
  0
LINE
  5
425
330
1F
100
AcDbEntity
  8
0
  6
Continuous
 62
     7
100
AcDbLine
 10
6844.0187481835
 20
4350.0014932884
 30
0.0
 11
6846.3404087022
 21
4350.0014932884
 31
0.0
  0
LINE
  5
426
330
1F
100
AcDbEntity
  8
0
  6
Continuous
 62
     7
100
AcDbLine
 10
6846.8017486528
 20
4349.5014699234
 30
0.0
 11
6844.5187715486
 21
4349.5014699234
 31
0.0
  0
LINE
  5
427
330
1F
100
AcDbEntity
  8
0
  6
Continuous
 62
     7
100
AcDbLine
 10
6903.5187272027
 20
4349.5014699234
 30
0.0
 11
6846.8017486528
 21
4349.5014699234
 31
0.0
  0
LINE
  5
428
330
1F
100
AcDbEntity
  8
0
  6
Continuous
 62
     7
100
AcDbLine
 10
5660.0187329248
 20
4184.5014782681
 30
0.0
 11
5688.0187300637
 21
4184.5014782681
 31
0.0
  0
LINE
  5
429
330
1F
100
AcDbEntity
  8
0
  6
Continuous
 62
     7
100
AcDbLine
 10
5687.0187429383
 20
4183.5014911427
 30
0.0
 11
5661.0187796548
 21
4183.5014911427
 31
0.0
  0
LINE
  5
42A
330
1F
100
AcDbEntity
  8
0
  6
Continuous
 62
     7
100
AcDbLine
 10
6860.0187806085
 20
4184.5014782681
 30
0.0
 11
6888.0187777474
 21
4184.5014782681
 31
0.0
  0
LINE
  5
42B
330
1F
100
AcDbEntity
  8
0
  6
Continuous
 62
     7
100
AcDbLine
 10
6887.0187310174
 20
4183.5014911427
 30
0.0
 11
6861.0187677339
 21
4183.5014911427
 31
0.0
  0
LINE
  5
42C
330
1F
100
AcDbEntity
  8
0
  6
Continuous
 62
     7
100
AcDbLine
 10
6260.018754904
 20
4184.5014782681
 30
0.0
 11
6288.0187557682
 21
4184.5014782681
 31
0.0
  0
LINE
  5
42D
330
1F
100
AcDbEntity
  8
0
  6
Continuous
 62
     7
100
AcDbLine
 10
6287.0187556043
 20
4183.5014911427
 30
0.0
 11
6261.0187550679
 21
4183.5014911427
 31
0.0
  0
LINE
  5
42E
330
1F
100
AcDbEntity
  8
0
  6
Continuous
 62
     7
100
AcDbLine
 10
7220.918765445
 20
3922.5014837517
 30
0.0
 11
7220.918765445
 21
3922.4014837542
 31
0.0
  0
LINE
  5
42F
330
1F
100
AcDbEntity
  8
0
  6
Continuous
 62
     7
100
AcDbLine
 10
7182.1187643006
 20
3922.5014837517
 30
0.0
 11
7182.1187643006
 21
3922.4014837542
 31
0.0
  0
LINE
  5
430
330
1F
100
AcDbEntity
  8
0
  6
Continuous
 62
     7
100
AcDbLine
 10
5327.1187452272
 20
3922.5014837517
 30
0.0
 11
5327.1187452272
 21
3922.4014837542
 31
0.0
  0
LINE
  5
431
330
1F
100
AcDbEntity
  8
0
  6
Continuous
 62
     7
100
AcDbLine
 10
5365.9187463716
 20
3922.5014837517
 30
0.0
 11
5365.9187463716
 21
3922.4014837542
 31
0.0
  0
LINE
  5
432
330
1F
100
AcDbEntity
  8
0
  6
Continuous
 62
     7
100
AcDbLine
 10
5326.0187415078
 20
4352.1590920223
 30
0.0
 11
5644.0187601045
 21
4352.1590920223
 31
0.0
  0
LINE
  5
433
330
1F
100
AcDbEntity
  8
0
  6
Continuous
 62
     7
100
AcDbLine
 10
5704.0187624887
 20
4352.1590920223
 30
0.0
 11
6244.0187560067
 21
4352.1590920223
 31
0.0
  0
LINE
  5
434
330
1F
100
AcDbEntity
  8
0
  6
Continuous
 62
     7
100
AcDbLine
 10
6304.0187546655
 20
4352.1590920223
 30
0.0
 11
6844.0187481835
 21
4352.1590920223
 31
0.0
  0
LINE
  5
435
330
1F
100
AcDbEntity
  8
0
  6
Continuous
 62
     7
100
AcDbLine
 10
6904.0187505677
 20
4352.1590920223
 30
0.0
 11
7222.0187691644
 21
4352.1590920223
 31
0.0
  0
LINE
  5
436
330
1F
100
AcDbEntity
  8
0
  6
Continuous
 62
     7
100
AcDbLine
 10
7222.0187691644
 20
4226.7840297951
 30
0.0
 11
6888.0187777474
 21
4226.7840297951
 31
0.0
  0
LINE
  5
437
330
1F
100
AcDbEntity
  8
0
  6
Continuous
 62
     7
100
AcDbLine
 10
6860.0187806085
 20
4226.7840297951
 30
0.0
 11
6288.0187557682
 21
4226.7840297951
 31
0.0
  0
LINE
  5
438
330
1F
100
AcDbEntity
  8
0
  6
Continuous
 62
     7
100
AcDbLine
 10
6260.018754904
 20
4226.7840297951
 30
0.0
 11
5688.0187300637
 21
4226.7840297951
 31
0.0
  0
LINE
  5
439
330
1F
100
AcDbEntity
  8
0
  6
Continuous
 62
     7
100
AcDbLine
 10
5660.0187329248
 20
4226.7840297951
 30
0.0
 11
5326.0187415078
 21
4226.7840297951
 31
0.0
  0
LINE
  5
43A
330
1F
100
AcDbEntity
  8
0
  6
Continuous
 62
     7
100
AcDbLine
 10
5326.0187415078
 20
4226.1264117493
 30
0.0
 11
5660.0187329248
 21
4226.1264117493
 31
0.0
  0
LINE
  5
43B
330
1F
100
AcDbEntity
  8
0
  6
Continuous
 62
     7
100
AcDbLine
 10
5688.0187300637
 20
4226.1264117493
 30
0.0
 11
6260.018754904
 21
4226.1264117493
 31
0.0
  0
LINE
  5
43C
330
1F
100
AcDbEntity
  8
0
  6
Continuous
 62
     7
100
AcDbLine
 10
6288.0187557682
 20
4226.1264117493
 30
0.0
 11
6860.0187806085
 21
4226.1264117493
 31
0.0
  0
LINE
  5
43D
330
1F
100
AcDbEntity
  8
0
  6
Continuous
 62
     7
100
AcDbLine
 10
6888.0187777474
 20
4226.1264117493
 30
0.0
 11
7222.0187691644
 21
4226.1264117493
 31
0.0
  0
LWPOLYLINE
  5
43E
330
1F
100
AcDbEntity
  8
0
  6
Continuous
 62
     7
100
AcDbPolyline
 90
        5
 70
   128
 43
0.0
 10
5666.4657592773
 20
5306.3657962046
 10
5662.7717510061
 20
5307.8701802067
 10
5661.169194358
 20
5311.6713818229
 10
5662.7743183186
 20
5315.4657325067
 10
5666.4687303498
 20
5316.9657968244
  0
LWPOLYLINE
  5
43F
330
1F
100
AcDbEntity
  8
0
  6
Continuous
 62
     7
100
AcDbPolyline
 90
        5
 70
   128
 43
0.0
 10
5681.568145752
 20
5316.9657968244
 10
5685.2638780133
 20
5315.4652916136
 10
5686.8685696966
 20
5311.6628103612
 10
5685.264448992
 20
5307.8668709916
 10
5681.5687326387
 20
5306.3657962046
  0
LWPOLYLINE
  5
440
330
1F
100
AcDbEntity
  8
0
  6
Continuous
 62
     7
100
AcDbPolyline
 90
        5
 70
   128
 43
0.0
 10
6866.4665222168
 20
5306.3657962046
 10
6862.7717584515
 20
5307.8701613767
 10
6861.1691824574
 20
5311.6713807575
 10
6862.7743239917
 20
5315.4657501043
 10
6866.4687780335
 20
5316.9657968244
  0
LWPOLYLINE
  5
441
330
1F
100
AcDbEntity
  8
0
  6
Continuous
 62
     7
100
AcDbPolyline
 90
        5
 70
   128
 43
0.0
 10
6881.5650939941
 20
5316.9657968244
 10
6885.2638887334
 20
5315.4652693862
 10
6886.868552603
 20
5311.6628166425
 10
6885.2644583511
 20
5307.8668915899
 10
6881.5687803224
 20
5306.3657962046
  0
LWPOLYLINE
  5
442
330
1F
100
AcDbEntity
  8
0
  6
Continuous
 62
     7
100
AcDbPolyline
 90
        5
 70
   128
 43
0.0
 10
6266.4680480957
 20
5306.3657962046
 10
6262.771760764
 20
5307.870179298
 10
6261.1692033323
 20
5311.6713857914
 10
6262.7743171888
 20
5315.4657483853
 10
6266.468755123
 20
5316.9657968244
  0
LWPOLYLINE
  5
443
330
1F
100
AcDbEntity
  8
0
  6
Continuous
 62
     7
100
AcDbPolyline
 90
        5
 70
   128
 43
0.0
 10
6281.566619873
 20
5316.9657968244
 10
6285.2638757671
 20
5315.4652752091
 10
6286.8685468888
 20
5311.6628026933
 10
6285.2644614137
 20
5307.8668734134
 10
6281.5687555492
 20
5306.3657962046
  0
LWPOLYLINE
  5
444
330
1F
100
AcDbEntity
  8
0
  6
Continuous
 62
     7
100
AcDbPolyline
 90
        3
 70
   128
 43
0.0
 10
5692.1844482422
 20
5321.3300042114
 10
5671.6066891463
 20
5320.4123195592
 10
5655.8517722085
 20
5321.3300042114
  0
LWPOLYLINE
  5
445
330
1F
100
AcDbEntity
  8
0
  6
Continuous
 62
     7
100
AcDbPolyline
 90
        3
 70
   128
 43
0.0
 10
5692.1844482422
 20
5304.6015881262
 10
5693.9900942813
 20
5314.0353700642
 10
5692.1857503846
 20
5321.3300042114
  0
LWPOLYLINE
  5
446
330
1F
100
AcDbEntity
  8
0
  6
Continuous
 62
     7
100
AcDbPolyline
 90
        3
 70
   128
 43
0.0
 10
5655.8494567871
 20
5304.6015881262
 10
5676.4308297569
 20
5305.5192729196
 10
5692.1857503846
 20
5304.6015881262
  0
LWPOLYLINE
  5
447
330
1F
100
AcDbEntity
  8
0
  6
Continuous
 62
     7
100
AcDbPolyline
 90
        3
 70
   128
 43
0.0
 10
5655.8494567871
 20
5321.3300042114
 10
5654.0473739625
 20
5311.8962177885
 10
5655.8517722085
 20
5304.6015881262
  0
LWPOLYLINE
  5
448
330
1F
100
AcDbEntity
  8
0
  6
Continuous
 62
     7
100
AcDbPolyline
 90
        5
 70
   128
 43
0.0
 10
5666.5153503418
 20
5317.2657944522
 10
5662.6818883767
 20
5315.7042576712
 10
5661.0192425996
 20
5311.7599551963
 10
5662.6844865424
 20
5307.822869535
 10
5666.5187386468
 20
5306.2657945118
  0
LWPOLYLINE
  5
449
330
1F
100
AcDbEntity
  8
0
  6
Continuous
 62
     7
100
AcDbPolyline
 90
        5
 70
   128
 43
0.0
 10
5681.5185546875
 20
5306.2657945118
 10
5685.3556271297
 20
5307.8273421683
 10
5687.0182854903
 20
5311.7716503242
 10
5685.35303233
 20
5315.708730774
 10
5681.5187839463
 20
5317.2657944522
  0
LWPOLYLINE
  5
44A
330
1F
100
AcDbEntity
  8
0
  6
Continuous
 62
     7
100
AcDbPolyline
 90
        3
 70
   128
 43
0.0
 10
6292.1829223633
 20
5321.3300042114
 10
6271.6066819654
 20
5320.4123195802
 10
6255.8517532095
 20
5321.3300042114
  0
LWPOLYLINE
  5
44B
330
1F
100
AcDbEntity
  8
0
  6
Continuous
 62
     7
100
AcDbPolyline
 90
        3
 70
   128
 43
0.0
 10
6292.1829223633
 20
5304.6015881262
 10
6293.9901126797
 20
5314.0353685189
 10
6292.1857574627
 20
5321.3300042114
  0
LWPOLYLINE
  5
44C
330
1F
100
AcDbEntity
  8
0
  6
Continuous
 62
     7
100
AcDbPolyline
 90
        3
 70
   128
 43
0.0
 10
6255.8517456055
 20
5304.6015881262
 10
6276.4308287068
 20
5305.5192727574
 10
6292.1857574627
 20
5304.6015881262
  0
LWPOLYLINE
  5
44D
330
1F
100
AcDbEntity
  8
0
  6
Continuous
 62
     7
100
AcDbPolyline
 90
        3
 70
   128
 43
0.0
 10
6255.8517456055
 20
5321.3300042114
 10
6254.0473979925
 20
5311.8962238187
 10
6255.8517532095
 20
5304.6015881262
  0
LWPOLYLINE
  5
44E
330
1F
100
AcDbEntity
  8
0
  6
Continuous
 62
     7
100
AcDbPolyline
 90
        5
 70
   128
 43
0.0
 10
6266.5176391602
 20
5317.2657944522
 10
6262.6818829852
 20
5315.7042719582
 10
6261.0192321698
 20
5311.7599487121
 10
6262.6844938929
 20
5307.8228643427
 10
6266.5187555037
 20
5306.2657945118
  0
LWPOLYLINE
  5
44F
330
1F
100
AcDbEntity
  8
0
  6
Continuous
 62
     7
100
AcDbPolyline
 90
        5
 70
   128
 43
0.0
 10
6281.5170288086
 20
5306.2657945118
 10
6285.3556268191
 20
5307.8273234552
 10
6287.0182788923
 20
5311.7716464806
 10
6285.3530172998
 20
5315.7087318922
 10
6281.5187551685
 20
5317.2657944522
  0
LWPOLYLINE
  5
450
330
1F
100
AcDbEntity
  8
0
  6
Continuous
 62
     7
100
AcDbPolyline
 90
        3
 70
   128
 43
0.0
 10
6892.1852111816
 20
5321.3300042114
 10
6871.6066809153
 20
5320.412319418
 10
6855.8517602876
 20
5321.3300042114
  0
LWPOLYLINE
  5
451
330
1F
100
AcDbEntity
  8
0
  6
Continuous
 62
     7
100
AcDbPolyline
 90
        3
 70
   128
 43
0.0
 10
6892.1852111816
 20
5304.6015881262
 10
6893.9901367097
 20
5314.0353745491
 10
6892.1857384637
 20
5321.3300042114
  0
LWPOLYLINE
  5
452
330
1F
100
AcDbEntity
  8
0
  6
Continuous
 62
     7
100
AcDbPolyline
 90
        3
 70
   128
 43
0.0
 10
6855.8502197266
 20
5304.6015881262
 10
6876.4308215259
 20
5305.5192727784
 10
6892.1857384637
 20
5304.6015881262
  0
LWPOLYLINE
  5
453
330
1F
100
AcDbEntity
  8
0
  6
Continuous
 62
     7
100
AcDbPolyline
 90
        3
 70
   128
 43
0.0
 10
6855.8502197266
 20
5321.3300042114
 10
6854.0474163909
 20
5311.8962222734
 10
6855.8517602876
 20
5304.6015881262
  0
LWPOLYLINE
  5
454
330
1F
100
AcDbEntity
  8
0
  6
Continuous
 62
     7
100
AcDbPolyline
 90
        5
 70
   128
 43
0.0
 10
6866.5161132812
 20
5317.2657944522
 10
6862.6818826746
 20
5315.7042532451
 10
6861.0192255718
 20
5311.7599448685
 10
6862.6844788627
 20
5307.8228654609
 10
6866.5187267259
 20
5306.2657945118
  0
LWPOLYLINE
  5
455
330
1F
100
AcDbEntity
  8
0
  6
Continuous
 62
     7
100
AcDbPolyline
 90
        5
 70
   128
 43
0.0
 10
6881.5155029297
 20
5306.2657945118
 10
6885.3556214276
 20
5307.8273377422
 10
6887.0182684625
 20
5311.7716399964
 10
6885.3530246503
 20
5315.7087266999
 10
6881.5187720254
 20
5317.2657944522
  0
LWPOLYLINE
  5
456
330
1F
100
AcDbEntity
  8
0
  6
Continuous
 62
     7
100
AcDbPolyline
 90
       12
 70
   128
 43
0.0
 10
7847.3320007324
 20
4932.2975285611
 10
7850.9750261245
 20
4907.0778480755
 10
7841.4530564938
 20
4892.2509971475
 10
7840.4656900498
 20
4891.0061454243
 10
7840.4269174149
 20
4890.9577397153
 10
7840.4243538242
 20
4890.9545499964
 10
7840.4242035774
 20
4890.9543654109
 10
7840.4241981256
 20
4890.9543596186
 10
7840.42429372
 20
4890.9544817007
 10
7840.4245509388
 20
4890.9548055989
 10
7840.4295567149
 20
4890.9610716394
 10
7840.4488068604
 20
4890.9851320348
  0
LWPOLYLINE
  5
457
330
1F
100
AcDbEntity
  8
0
  6
Continuous
 62
     7
100
AcDbPolyline
 90
        3
 70
   128
 43
0.0
 10
7845.5505371094
 20
4934.949875649
 10
7846.1471451159
 20
4934.0907129667
 10
7847.3321896576
 20
4932.2975285611
  0
LINE
  5
458
330
1F
100
AcDbEntity
  8
0
  6
Continuous
 62
     7
100
AcDbLine
 10
7845.5505371094
 20
4934.949875649
 30
0.0
 11
7850.0841659092
 21
4934.949875649
 31
0.0
  0
LWPOLYLINE
  5
459
330
1F
100
AcDbEntity
  8
0
  6
Continuous
 62
     7
100
AcDbPolyline
 90
        5
 70
   128
 43
0.0
 10
7688.4803771973
 20
5306.3657962046
 10
7687.0449296823
 20
5307.8701802067
 10
7686.2069133543
 20
5311.6713818229
 10
7687.0466119159
 20
5315.4657325067
 10
7688.4836059593
 20
5316.9657968244
  0
LWPOLYLINE
  5
45A
330
1F
100
AcDbEntity
  8
0
  6
Continuous
 62
     7
100
AcDbPolyline
 90
        3
 70
   128
 43
0.0
 10
7682.0526123047
 20
5321.3300042114
 10
7680.1018804022
 20
5311.8962177885
 10
7682.0539337181
 20
5304.6015881262
  0
LWPOLYLINE
  5
45B
330
1F
100
AcDbEntity
  8
0
  6
Continuous
 62
     7
100
AcDbPolyline
 90
       10
 70
   128
 43
0.0
 10
7689.3692016602
 20
5320.4081662259
 10
7689.4028794893
 20
5320.4036796981
 10
7689.4030370836
 20
5320.4036590481
 10
7689.4030452499
 20
5320.4036580422
 10
7689.4030465235
 20
5320.4036579602
 10
7689.4030281631
 20
5320.4036605984
 10
7689.4023084855
 20
5320.4037581232
 10
7689.3783900742
 20
5320.4069686169
 10
7688.9836766667
 20
5320.4596127494
 10
7682.0539337181
 20
5321.3300042114
  0
LWPOLYLINE
  5
45C
330
1F
100
AcDbEntity
  8
0
  6
Continuous
 62
     7
100
AcDbPolyline
 90
       11
 70
   128
 43
0.0
 10
7682.0526123047
 20
5304.6015881262
 10
7688.9877110129
 20
5305.4725166329
 10
7689.3470785377
 20
5305.5204460756
 10
7689.3726391955
 20
5305.5238660712
 10
7689.374361398
 20
5305.5240969873
 10
7689.3744190895
 20
5305.5241048166
 10
7689.3744217443
 20
5305.5241051931
 10
7689.3744218988
 20
5305.5241052352
 10
7689.3744148338
 20
5305.5241043333
 10
7689.3741792612
 20
5305.5240730881
 10
7689.3693309807
 20
5305.5234261117
  0
LWPOLYLINE
  5
45D
330
1F
100
AcDbEntity
  8
0
  6
Continuous
 62
     7
100
AcDbPolyline
 90
        5
 70
   128
 43
0.0
 10
7688.346862793
 20
5317.2657944522
 10
7686.8515403987
 20
5315.7042576712
 10
7685.9710169357
 20
5311.7599551963
 10
7686.8532950401
 20
5307.822869535
 10
7688.3487206482
 20
5306.2657945118
  0
LWPOLYLINE
  5
45E
330
1F
100
AcDbEntity
  8
0
  6
Continuous
 62
     7
100
AcDbPolyline
 90
        3
 70
   128
 43
0.0
 10
5690.9713745117
 20
4349.5014699234
 10
5689.4007476474
 20
4348.132523102
 10
5688.0187300637
 20
4347.2676070465
  0
LWPOLYLINE
  5
45F
330
1F
100
AcDbEntity
  8
0
  6
Continuous
 62
     7
100
AcDbPolyline
 90
        3
 70
   128
 43
0.0
 10
5660.0151062012
 20
4347.1935184731
 10
5658.3236150011
 20
4348.3857946338
 10
5657.1105627015
 20
4349.5014699234
  0
LWPOLYLINE
  5
460
330
1F
100
AcDbEntity
  8
0
  6
Continuous
 62
     7
100
AcDbPolyline
 90
        3
 70
   128
 43
0.0
 10
6290.9698486328
 20
4349.5014699234
 10
6289.400757663
 20
4348.1325470794
 10
6288.0187557682
 20
4347.2676070465
  0
LWPOLYLINE
  5
461
330
1F
100
AcDbEntity
  8
0
  6
Continuous
 62
     7
100
AcDbPolyline
 90
        3
 70
   128
 43
0.0
 10
6260.0173950195
 20
4347.1935184731
 10
6258.322883056
 20
4348.3843945512
 10
6257.110588406
 20
4349.5014699234
  0
LWPOLYLINE
  5
462
330
1F
100
AcDbEntity
  8
0
  6
Continuous
 62
     7
100
AcDbPolyline
 90
        3
 70
   128
 43
0.0
 10
6890.9683227539
 20
4349.5014699234
 10
6889.4007730177
 20
4348.1325572034
 10
6888.0187777474
 20
4347.2676070465
  0
LWPOLYLINE
  5
463
330
1F
100
AcDbEntity
  8
0
  6
Continuous
 62
     7
100
AcDbPolyline
 90
        3
 70
   128
 43
0.0
 10
6860.0158691406
 20
4347.1935184731
 10
6858.322733897
 20
4348.3840732722
 10
6857.1106103852
 20
4349.5014699234
  0
ENDSEC
  0
SECTION
  2
OBJECTS
  0
DICTIONARY
  5
C
330
0
100
AcDbDictionary
281
     1
  3
ACAD_GROUP
350
D
  3
ACAD_LAYOUT
350
1A
  3
ACAD_MLINESTYLE
350
17
  3
ACAD_PLOTSETTINGS
350
19
  3
ACAD_PLOTSTYLENAME
350
E
  3
ACAD_SCALELIST
350
47
  3
DWGPROPS
350
464
  0
DICTIONARY
  5
D
102
{ACAD_REACTORS
330
C
102
}
330
C
100
AcDbDictionary
281
     1
  0
DICTIONARY
  5
1A
102
{ACAD_REACTORS
330
C
102
}
330
C
100
AcDbDictionary
281
     1
  3
Layout1
350
1E
  3
Layout2
350
26
  3
Model
350
22
  0
DICTIONARY
  5
17
102
{ACAD_REACTORS
330
C
102
}
330
C
100
AcDbDictionary
281
     1
  3
Standard
350
18
  0
DICTIONARY
  5
19
102
{ACAD_REACTORS
330
C
102
}
330
C
100
AcDbDictionary
281
     1
  0
ACDBDICTIONARYWDFLT
  5
E
102
{ACAD_REACTORS
330
C
102
}
330
C
100
AcDbDictionary
281
     1
  3
Normal
350
F
100
AcDbDictionaryWithDefault
340
F
  0
DICTIONARY
  5
47
102
{ACAD_REACTORS
330
C
102
}
330
C
100
AcDbDictionary
281
     1
  3
A0
350
48
  3
A1
350
49
  3
A2
350
4A
  3
A3
350
4B
  3
A4
350
4C
  3
A5
350
4D
  3
A6
350
4E
  3
A7
350
4F
  3
A8
350
50
  3
A9
350
51
  3
B0
350
52
  3
B1
350
53
  3
B2
350
54
  3
B3
350
55
  3
B4
350
56
  3
B5
350
57
  3
B6
350
58
  3
B7
350
59
  3
B8
350
5A
  3
B9
350
5B
  3
C0
350
5C
  3
C1
350
5D
  3
C2
350
5E
  3
C3
350
5F
  3
C4
350
60
  3
C5
350
61
  3
C6
350
62
  3
C7
350
63
  3
C8
350
64
  3
C9
350
65
  3
D0
350
66
  3
D1
350
67
  3
D2
350
68
  0
XRECORD
  5
464
102
{ACAD_REACTORS
330
C
102
}
330
C
100
AcDbXrecord
280
     1
  1
DWGPROPS COOKIE
  2

  3

  4

  6

  7

  8
radek.stransky
  9

300
=
301
=
302
=
303
=
304
=
305
=
306
=
307
=
308
=
309
=
 40
0.0
 41
2459097.232702813
 42
2459097.232733021
  1

 90
        0
  0
LAYOUT
  5
1E
102
{ACAD_REACTORS
330
1A
102
}
330
1A
100
AcDbPlotSettings
  1

  2
none_device
  4

  6

 40
0.0
 41
0.0
 42
0.0
 43
0.0
 44
0.0
 45
0.0
 46
0.0
 47
0.0
 48
0.0
 49
0.0
140
0.0
141
0.0
142
1.0
143
1.0
 70
   688
 72
     1
 73
     0
 74
     5
  7

 75
    16
147
1.0
148
0.0
149
0.0
100
AcDbLayout
  1
Layout1
 70
     1
 71
     1
 10
0.0
 20
0.0
 11
420.0
 21
297.0
 12
0.0
 22
0.0
 32
0.0
 14
1.0000000000E+20
 24
1.0000000000E+20
 34
1.0000000000E+20
 15
-1.0000000000E+20
 25
-1.0000000000E+20
 35
-1.0000000000E+20
146
0.0
 13
0.0
 23
0.0
 33
0.0
 16
1.0
 26
0.0
 36
0.0
 17
0.0
 27
1.0
 37
0.0
 76
     0
330
1B
  0
LAYOUT
  5
26
102
{ACAD_REACTORS
330
1A
102
}
330
1A
100
AcDbPlotSettings
  1

  2
none_device
  4

  6

 40
0.0
 41
0.0
 42
0.0
 43
0.0
 44
0.0
 45
0.0
 46
0.0
 47
0.0
 48
0.0
 49
0.0
140
0.0
141
0.0
142
1.0
143
1.0
 70
   688
 72
     1
 73
     0
 74
     5
  7

 75
    16
147
1.0
148
0.0
149
0.0
100
AcDbLayout
  1
Layout2
 70
     1
 71
     2
 10
0.0
 20
0.0
 11
0.0
 21
0.0
 12
0.0
 22
0.0
 32
0.0
 14
0.0
 24
0.0
 34
0.0
 15
0.0
 25
0.0
 35
0.0
146
0.0
 13
0.0
 23
0.0
 33
0.0
 16
1.0
 26
0.0
 36
0.0
 17
0.0
 27
1.0
 37
0.0
 76
     0
330
23
  0
LAYOUT
  5
22
102
{ACAD_REACTORS
330
1A
102
}
330
1A
100
AcDbPlotSettings
  1

  2
none_device
  4
ANSI_A_(11.00_x_8.50_Inches)
  6

 40
6.35
 41
19.05
 42
6.35000508
 43
19.05000254
 44
279.4
 45
215.9
 46
-533.5187201069
 47
-384.9038110967
 48
0.0
 49
0.0
140
0.0
141
0.0
142
0.0039086402
143
1.0
 70
  1696
 72
     0
 73
     0
 74
     0
  7

 75
     0
147
0.0179189148
148
-1300.4909072572
149
0.0
100
AcDbLayout
  1
Model
 70
     1
 71
     0
 10
0.0
 20
0.0
 11
420.0
 21
297.0
 12
0.0
 22
0.0
 32
0.0
 14
5324.018767257
 24
3922.4014837542
 34
0.0
 15
8110.153936815
 25
5622.4490113816
 35
0.0
146
0.0
 13
0.0
 23
0.0
 33
0.0
 16
1.0
 26
0.0
 36
0.0
 17
0.0
 27
1.0
 37
0.0
 76
     0
330
1F
331
29
  0
MLINESTYLE
  5
18
102
{ACAD_REACTORS
330
17
102
}
330
17
100
AcDbMlineStyle
  2
Standard
 70
     0
  3

 62
   256
 51
90.0
 52
90.0
 71
     2
 49
0.5
 62
   256
  6
BYLAYER
 49
-0.5
 62
   256
  6
BYLAYER
  0
ACDBPLACEHOLDER
  5
F
102
{ACAD_REACTORS
330
E
102
}
330
E
  0
SCALE
  5
48
102
{ACAD_REACTORS
330
47
102
}
330
47
100
AcDbScale
 70
     0
300
1:1
140
1.0
141
1.0
290
     1
  0
SCALE
  5
49
102
{ACAD_REACTORS
330
47
102
}
330
47
100
AcDbScale
 70
     0
300
1:2
140
1.0
141
2.0
290
     0
  0
SCALE
  5
4A
102
{ACAD_REACTORS
330
47
102
}
330
47
100
AcDbScale
 70
     0
300
1:4
140
1.0
141
4.0
290
     0
  0
SCALE
  5
4B
102
{ACAD_REACTORS
330
47
102
}
330
47
100
AcDbScale
 70
     0
300
1:5
140
1.0
141
5.0
290
     0
  0
SCALE
  5
4C
102
{ACAD_REACTORS
330
47
102
}
330
47
100
AcDbScale
 70
     0
300
1:8
140
1.0
141
8.0
290
     0
  0
SCALE
  5
4D
102
{ACAD_REACTORS
330
47
102
}
330
47
100
AcDbScale
 70
     0
300
1:10
140
1.0
141
10.0
290
     0
  0
SCALE
  5
4E
102
{ACAD_REACTORS
330
47
102
}
330
47
100
AcDbScale
 70
     0
300
1:16
140
1.0
141
16.0
290
     0
  0
SCALE
  5
4F
102
{ACAD_REACTORS
330
47
102
}
330
47
100
AcDbScale
 70
     0
300
1:20
140
1.0
141
20.0
290
     0
  0
SCALE
  5
50
102
{ACAD_REACTORS
330
47
102
}
330
47
100
AcDbScale
 70
     0
300
1:30
140
1.0
141
30.0
290
     0
  0
SCALE
  5
51
102
{ACAD_REACTORS
330
47
102
}
330
47
100
AcDbScale
 70
     0
300
1:40
140
1.0
141
40.0
290
     0
  0
SCALE
  5
52
102
{ACAD_REACTORS
330
47
102
}
330
47
100
AcDbScale
 70
     0
300
1:50
140
1.0
141
50.0
290
     0
  0
SCALE
  5
53
102
{ACAD_REACTORS
330
47
102
}
330
47
100
AcDbScale
 70
     0
300
1:100
140
1.0
141
100.0
290
     0
  0
SCALE
  5
54
102
{ACAD_REACTORS
330
47
102
}
330
47
100
AcDbScale
 70
     0
300
2:1
140
2.0
141
1.0
290
     0
  0
SCALE
  5
55
102
{ACAD_REACTORS
330
47
102
}
330
47
100
AcDbScale
 70
     0
300
4:1
140
4.0
141
1.0
290
     0
  0
SCALE
  5
56
102
{ACAD_REACTORS
330
47
102
}
330
47
100
AcDbScale
 70
     0
300
8:1
140
8.0
141
1.0
290
     0
  0
SCALE
  5
57
102
{ACAD_REACTORS
330
47
102
}
330
47
100
AcDbScale
 70
     0
300
10:1
140
10.0
141
1.0
290
     0
  0
SCALE
  5
58
102
{ACAD_REACTORS
330
47
102
}
330
47
100
AcDbScale
 70
     0
300
100:1
140
100.0
141
1.0
290
     0
  0
SCALE
  5
59
102
{ACAD_REACTORS
330
47
102
}
330
47
100
AcDbScale
 70
     0
300
1/128" = 1'-0"
140
0.0078125
141
12.0
290
     0
  0
SCALE
  5
5A
102
{ACAD_REACTORS
330
47
102
}
330
47
100
AcDbScale
 70
     0
300
1/64" = 1'-0"
140
0.015625
141
12.0
290
     0
  0
SCALE
  5
5B
102
{ACAD_REACTORS
330
47
102
}
330
47
100
AcDbScale
 70
     0
300
1/32" = 1'-0"
140
0.03125
141
12.0
290
     0
  0
SCALE
  5
5C
102
{ACAD_REACTORS
330
47
102
}
330
47
100
AcDbScale
 70
     0
300
1/16" = 1'-0"
140
0.0625
141
12.0
290
     0
  0
SCALE
  5
5D
102
{ACAD_REACTORS
330
47
102
}
330
47
100
AcDbScale
 70
     0
300
3/32" = 1'-0"
140
0.09375
141
12.0
290
     0
  0
SCALE
  5
5E
102
{ACAD_REACTORS
330
47
102
}
330
47
100
AcDbScale
 70
     0
300
1/8" = 1'-0"
140
0.125
141
12.0
290
     0
  0
SCALE
  5
5F
102
{ACAD_REACTORS
330
47
102
}
330
47
100
AcDbScale
 70
     0
300
3/16" = 1'-0"
140
0.1875
141
12.0
290
     0
  0
SCALE
  5
60
102
{ACAD_REACTORS
330
47
102
}
330
47
100
AcDbScale
 70
     0
300
1/4" = 1'-0"
140
0.25
141
12.0
290
     0
  0
SCALE
  5
61
102
{ACAD_REACTORS
330
47
102
}
330
47
100
AcDbScale
 70
     0
300
3/8" = 1'-0"
140
0.375
141
12.0
290
     0
  0
SCALE
  5
62
102
{ACAD_REACTORS
330
47
102
}
330
47
100
AcDbScale
 70
     0
300
1/2" = 1'-0"
140
0.5
141
12.0
290
     0
  0
SCALE
  5
63
102
{ACAD_REACTORS
330
47
102
}
330
47
100
AcDbScale
 70
     0
300
3/4" = 1'-0"
140
0.75
141
12.0
290
     0
  0
SCALE
  5
64
102
{ACAD_REACTORS
330
47
102
}
330
47
100
AcDbScale
 70
     0
300
1" = 1'-0"
140
1.0
141
12.0
290
     0
  0
SCALE
  5
65
102
{ACAD_REACTORS
330
47
102
}
330
47
100
AcDbScale
 70
     0
300
1-1/2" = 1'-0"
140
1.5
141
12.0
290
     0
  0
SCALE
  5
66
102
{ACAD_REACTORS
330
47
102
}
330
47
100
AcDbScale
 70
     0
300
3" = 1'-0"
140
3.0
141
12.0
290
     0
  0
SCALE
  5
67
102
{ACAD_REACTORS
330
47
102
}
330
47
100
AcDbScale
 70
     0
300
6" = 1'-0"
140
6.0
141
12.0
290
     0
  0
SCALE
  5
68
102
{ACAD_REACTORS
330
47
102
}
330
47
100
AcDbScale
 70
     0
300
1'-0" = 1'-0"
140
12.0
141
12.0
290
     0
  0
ENDSEC
  0
EOF
