  0
SECTION
  2
HEADER
  9
$ACADVER
  1
AC1015
  9
$ACADMAINTVER
 70
     6
  9
$DWGCODEPAGE
  3
ANSI_1250
  9
$INSBASE
 10
0.0
 20
0.0
 30
0.0
  9
$EXTMIN
 10
0.0
 20
0.0
 30
0.0
  9
$EXTMAX
 10
20000.0
 20
10000.0
 30
0.0
  9
$LIMMIN
 10
0.0
 20
0.0
  9
$LIMMAX
 10
20000.0
 20
10000.0
  9
$ORTHOMODE
 70
     0
  9
$REGENMODE
 70
     1
  9
$FILLMODE
 70
     1
  9
$QTEXTMODE
 70
     0
  9
$MIRRTEXT
 70
     1
  9
$LTSCALE
 40
1.0
  9
$ATTMODE
 70
     1
  9
$TEXTSIZE
 40
2.0
  9
$TRACEWID
 40
1.0
  9
$TEXTSTYLE
  7
Standard
  9
$CLAYER
  8
0
  9
$CELTYPE
  6
ByLayer
  9
$CECOLOR
 62
   256
  9
$CELTSCALE
 40
1.0
  9
$DISPSILH
 70
     0
  9
$DIMSCALE
 40
1.0
  9
$DIMASZ
 40
2.0
  9
$DIMEXO
 40
1.0
  9
$DIMDLI
 40
3.75
  9
$DIMRND
 40
0.0
  9
$DIMDLE
 40
0.0
  9
$DIMEXE
 40
1.0
  9
$DIMTP
 40
0.0
  9
$DIMTM
 40
0.0
  9
$DIMTXT
 40
2.0
  9
$DIMCEN
 40
2.5
  9
$DIMTSZ
 40
0.0
  9
$DIMTOL
 70
     0
  9
$DIMLIM
 70
     0
  9
$DIMTIH
 70
     1
  9
$DIMTOH
 70
     1
  9
$DIMSE1
 70
     0
  9
$DIMSE2
 70
     0
  9
$DIMTAD
 70
     1
  9
$DIMZIN
 70
     0
  9
$DIMBLK
  1

  9
$DIMASO
 70
     1
  9
$DIMSHO
 70
     1
  9
$DIMPOST
  1

  9
$DIMAPOST
  1

  9
$DIMALT
 70
     0
  9
$DIMALTD
 70
     3
  9
$DIMALTF
 40
0.0393700787
  9
$DIMLFAC
 40
1.0
  9
$DIMTOFL
 70
     1
  9
$DIMTVP
 40
0.0
  9
$DIMTIX
 70
     0
  9
$DIMSOXD
 70
     0
  9
$DIMSAH
 70
     0
  9
$DIMBLK1
  1

  9
$DIMBLK2
  1

  9
$DIMSTYLE
  2
ISO-25
  9
$DIMCLRD
 70
     0
  9
$DIMCLRE
 70
     0
  9
$DIMCLRT
 70
     0
  9
$DIMTFAC
 40
1.0
  9
$DIMGAP
 40
1.524
  9
$DIMJUST
 70
     0
  9
$DIMSD1
 70
     0
  9
$DIMSD2
 70
     0
  9
$DIMTOLJ
 70
     0
  9
$DIMTZIN
 70
     0
  9
$DIMALTZ
 70
     0
  9
$DIMALTTZ
 70
     0
  9
$DIMUPT
 70
     0
  9
$DIMDEC
 70
     2
  9
$DIMTDEC
 70
     0
  9
$DIMALTU
 70
     2
  9
$DIMALTTD
 70
     3
  9
$DIMTXSTY
  7
Standard
  9
$DIMAUNIT
 70
     0
  9
$DIMADEC
 70
     2
  9
$DIMALTRND
 40
0.0
  9
$DIMAZIN
 70
     0
  9
$DIMDSEP
 70
    44
  9
$DIMATFIT
 70
     3
  9
$DIMFRAC
 70
     0
  9
$DIMLDRBLK
  1

  9
$DIMLUNIT
 70
     2
  9
$DIMLWD
 70
    -2
  9
$DIMLWE
 70
    -2
  9
$DIMTMOVE
 70
     0
  9
$LUNITS
 70
     2
  9
$LUPREC
 70
     3
  9
$SKETCHINC
 40
1.0
  9
$FILLETRAD
 40
10.0
  9
$AUNITS
 70
     0
  9
$AUPREC
 70
     2
  9
$MENU
  1
.
  9
$ELEVATION
 40
0.0
  9
$PELEVATION
 40
0.0
  9
$THICKNESS
 40
0.0
  9
$LIMCHECK
 70
     0
  9
$CHAMFERA
 40
0.0
  9
$CHAMFERB
 40
0.0
  9
$CHAMFERC
 40
0.0
  9
$CHAMFERD
 40
0.0
  9
$SKPOLY
 70
     0
  9
$TDCREATE
 40
2459095.445912812
  9
$TDUCREATE
 40
2459095.362579479
  9
$TDUPDATE
 40
2459095.445913391
  9
$TDUUPDATE
 40
2459095.362580058
  9
$TDINDWG
 40
0.0000000116
  9
$TDUSRTIMER
 40
0.0000000116
  9
$USRTIMER
 70
     1
  9
$ANGBASE
 50
0.0
  9
$ANGDIR
 70
     0
  9
$PDMODE
 70
     0
  9
$PDSIZE
 40
-1.0
  9
$PLINEWID
 40
0.0
  9
$SPLFRAME
 70
     0
  9
$SPLINETYPE
 70
     6
  9
$SPLINESEGS
 70
     8
  9
$HANDSEED
  5
4AF
  9
$SURFTAB1
 70
     6
  9
$SURFTAB2
 70
     6
  9
$SURFTYPE
 70
     6
  9
$SURFU
 70
     6
  9
$SURFV
 70
     6
  9
$UCSBASE
  2

  9
$UCSNAME
  2

  9
$UCSORG
 10
0.0
 20
0.0
 30
0.0
  9
$UCSXDIR
 10
1.0
 20
0.0
 30
0.0
  9
$UCSYDIR
 10
0.0
 20
1.0
 30
0.0
  9
$UCSORTHOREF
  2

  9
$UCSORTHOVIEW
 70
     0
  9
$UCSORGTOP
 10
0.0
 20
0.0
 30
0.0
  9
$UCSORGBOTTOM
 10
0.0
 20
0.0
 30
0.0
  9
$UCSORGLEFT
 10
0.0
 20
0.0
 30
0.0
  9
$UCSORGRIGHT
 10
0.0
 20
0.0
 30
0.0
  9
$UCSORGFRONT
 10
0.0
 20
0.0
 30
0.0
  9
$UCSORGBACK
 10
0.0
 20
0.0
 30
0.0
  9
$PUCSBASE
  2

  9
$PUCSNAME
  2

  9
$PUCSORG
 10
0.0
 20
0.0
 30
0.0
  9
$PUCSXDIR
 10
1.0
 20
0.0
 30
0.0
  9
$PUCSYDIR
 10
0.0
 20
1.0
 30
0.0
  9
$PUCSORTHOREF
  2

  9
$PUCSORTHOVIEW
 70
     0
  9
$PUCSORGTOP
 10
0.0
 20
0.0
 30
0.0
  9
$PUCSORGBOTTOM
 10
0.0
 20
0.0
 30
0.0
  9
$PUCSORGLEFT
 10
0.0
 20
0.0
 30
0.0
  9
$PUCSORGRIGHT
 10
0.0
 20
0.0
 30
0.0
  9
$PUCSORGFRONT
 10
0.0
 20
0.0
 30
0.0
  9
$PUCSORGBACK
 10
0.0
 20
0.0
 30
0.0
  9
$USERI1
 70
     0
  9
$USERI2
 70
     0
  9
$USERI3
 70
     0
  9
$USERI4
 70
     0
  9
$USERI5
 70
     0
  9
$USERR1
 40
0.0
  9
$USERR2
 40
0.0
  9
$USERR3
 40
0.0
  9
$USERR4
 40
0.0
  9
$USERR5
 40
0.0
  9
$WORLDVIEW
 70
     1
  9
$SHADEDGE
 70
     3
  9
$SHADEDIF
 70
    70
  9
$TILEMODE
 70
     1
  9
$MAXACTVP
 70
    64
  9
$PINSBASE
 10
0.0
 20
0.0
 30
0.0
  9
$PLIMCHECK
 70
     0
  9
$PEXTMIN
 10
1.0000000000E+20
 20
1.0000000000E+20
 30
1.0000000000E+20
  9
$PEXTMAX
 10
-1.0000000000E+20
 20
-1.0000000000E+20
 30
-1.0000000000E+20
  9
$PLIMMIN
 10
0.0
 20
0.0
  9
$PLIMMAX
 10
420.0
 20
297.0
  9
$UNITMODE
 70
     0
  9
$VISRETAIN
 70
     1
  9
$PLINEGEN
 70
     0
  9
$PSLTSCALE
 70
     1
  9
$TREEDEPTH
 70
  3020
  9
$CMLSTYLE
  2
Standard
  9
$CMLJUST
 70
     0
  9
$CMLSCALE
 40
20.0
  9
$PROXYGRAPHICS
 70
     1
  9
$MEASUREMENT
 70
     1
  9
$CELWEIGHT
370
    -1
  9
$ENDCAPS
280
     0
  9
$JOINSTYLE
280
     0
  9
$LWDISPLAY
290
     1
  9
$INSUNITS
 70
     4
  9
$HYPERLINKBASE
  1

  9
$STYLESHEET
  1

  9
$XEDIT
290
     1
  9
$CEPSNTYPE
380
     0
  9
$PSTYLEMODE
290
     1
  9
$FINGERPRINTGUID
  2
{4156e9a5-deed-4ea3-bea2-2dea75b73efa}
  9
$VERSIONGUID
  2
{FAEB1C32-E019-11D5-929B-00C0DF256EC4}
  9
$EXTNAMES
290
     1
  9
$PSVPSCALE
 40
0.0
  9
$OLESTARTUP
290
     0
  0
ENDSEC
  0
SECTION
  2
CLASSES
  0
CLASS
  1
ACDBDICTIONARYWDFLT
  2
AcDbDictionaryWithDefault
  3
ObjectDBX Classes
 90
        0
280
     0
281
     0
  0
CLASS
  1
VISUALSTYLE
  2
AcDbVisualStyle
  3
ObjectDBX Classes
 90
     4095
280
     0
281
     0
  0
CLASS
  1
MATERIAL
  2
AcDbMaterial
  3
ObjectDBX Classes
 90
     1153
280
     0
281
     0
  0
CLASS
  1
SCALE
  2
AcDbScale
  3
ObjectDBX Classes
 90
     1153
280
     0
281
     0
  0
CLASS
  1
TABLESTYLE
  2
AcDbTableStyle
  3
ObjectDBX Classes
 90
     4095
280
     0
281
     0
  0
CLASS
  1
MLEADERSTYLE
  2
AcDbMLeaderStyle
  3
ACDB_MLEADERSTYLE_CLASS
 90
     4095
280
     0
281
     0
  0
CLASS
  1
SUN
  2
AcDbSun
  3
SCENEOE
 90
     1153
280
     0
281
     0
  0
CLASS
  1
ACDBPLACEHOLDER
  2
AcDbPlaceHolder
  3
ObjectDBX Classes
 90
        0
280
     0
281
     0
  0
CLASS
  1
LAYOUT
  2
AcDbLayout
  3
ObjectDBX Classes
 90
        0
280
     0
281
     0
  0
ENDSEC
  0
SECTION
  2
TABLES
  0
TABLE
  2
VPORT
  5
8
330
0
100
AcDbSymbolTable
 70
     1
  0
VPORT
  5
29
330
8
100
AcDbSymbolTableRecord
100
AcDbViewportTableRecord
  2
*Active
 70
     0
 10
0.0
 20
0.0
 11
1.0
 21
1.0
 12
10000.0
 22
5000.0
 13
0.0
 23
0.0
 14
10.0
 24
10.0
 15
10.0
 25
10.0
 16
0.0
 26
0.0
 36
1.0
 17
0.0
 27
0.0
 37
0.0
 40
10000.0
 41
2.0
 42
50.0
 43
0.0
 44
0.0
 50
0.0
 51
0.0
 71
     0
 72
  2000
 73
     1
 74
     3
 75
     0
 76
     0
 77
     0
 78
     0
281
     0
 65
     1
110
0.0
120
0.0
130
0.0
111
1.0
121
0.0
131
0.0
112
0.0
122
1.0
132
0.0
 79
     0
146
0.0
  0
ENDTAB
  0
TABLE
  2
LTYPE
  5
5
330
0
100
AcDbSymbolTable
 70
     6
  0
LTYPE
  5
14
330
5
100
AcDbSymbolTableRecord
100
AcDbLinetypeTableRecord
  2
ByBlock
 70
     0
  3

 72
    65
 73
     0
 40
0.0
  0
LTYPE
  5
15
330
5
100
AcDbSymbolTableRecord
100
AcDbLinetypeTableRecord
  2
ByLayer
 70
     0
  3

 72
    65
 73
     0
 40
0.0
  0
LTYPE
  5
16
330
5
100
AcDbSymbolTableRecord
100
AcDbLinetypeTableRecord
  2
Continuous
 70
     0
  3
Solid line
 72
    65
 73
     0
 40
0.0
  0
LTYPE
  5
6E
330
5
100
AcDbSymbolTableRecord
100
AcDbLinetypeTableRecord
  2
HIDDEN
 70
     0
  3
Hidden __ __ __ __ __ __ __ __ __ __ __ __ __ __
 72
    65
 73
     2
 40
1.905
 49
1.27
 74
     0
 49
-0.635
 74
     0
  0
LTYPE
  5
6F
330
5
100
AcDbSymbolTableRecord
100
AcDbLinetypeTableRecord
  2
PHANTOM
 70
     0
  3
Phantom ______  __  __  ______  __  __  ______
 72
    65
 73
     6
 40
12.7
 49
6.35
 74
     0
 49
-1.27
 74
     0
 49
1.27
 74
     0
 49
-1.27
 74
     0
 49
1.27
 74
     0
 49
-1.27
 74
     0
  0
LTYPE
  5
70
330
5
100
AcDbSymbolTableRecord
100
AcDbLinetypeTableRecord
  2
CENTER
 70
     0
  3
Center ____ _ ____ _ ____ _ ____ _ ____ _ ____
 72
    65
 73
     4
 40
10.16
 49
6.35
 74
     0
 49
-1.27
 74
     0
 49
1.27
 74
     0
 49
-1.27
 74
     0
  0
LTYPE
  5
71
330
5
100
AcDbSymbolTableRecord
100
AcDbLinetypeTableRecord
  2
CENTERX2
 70
     0
  3
Center (2x) ________  __  ________  __  _____
 72
    65
 73
     4
 40
20.32
 49
12.7
 74
     0
 49
-2.54
 74
     0
 49
2.54
 74
     0
 49
-2.54
 74
     0
  0
LTYPE
  5
72
330
5
100
AcDbSymbolTableRecord
100
AcDbLinetypeTableRecord
  2
DOT2
 70
     0
  3
Dot (.5x) ........................................
 72
    65
 73
     2
 40
0.635
 49
0.0
 74
     0
 49
-0.635
 74
     0
  0
ENDTAB
  0
TABLE
  2
LAYER
  5
2
330
0
100
AcDbSymbolTable
 70
    13
  0
LAYER
  5
10
330
2
100
AcDbSymbolTableRecord
100
AcDbLayerTableRecord
  2
0
 70
     0
 62
     7
  6
Continuous
370
    -3
390
F
  0
LAYER
  5
73
330
2
100
AcDbSymbolTableRecord
100
AcDbLayerTableRecord
  2
FORMAT
 70
     0
 62
     7
  6
Continuous
370
    -3
390
F
  0
LAYER
  5
74
330
2
100
AcDbSymbolTableRecord
100
AcDbLayerTableRecord
  2
OSA
 70
     0
 62
     7
  6
CENTER
370
    -3
390
F
  0
LAYER
  5
75
330
2
100
AcDbSymbolTableRecord
100
AcDbLayerTableRecord
  2
0_35
 70
     0
 62
     7
  6
Continuous
370
    35
390
F
  0
LAYER
  5
76
330
2
100
AcDbSymbolTableRecord
100
AcDbLayerTableRecord
  2
0_5
 70
     0
 62
     7
  6
Continuous
370
    50
390
F
  0
LAYER
  5
77
330
2
100
AcDbSymbolTableRecord
100
AcDbLayerTableRecord
  2
0_25
 70
     0
 62
     7
  6
Continuous
370
    25
390
F
  0
LAYER
  5
78
330
2
100
AcDbSymbolTableRecord
100
AcDbLayerTableRecord
  2
0_18
 70
     0
 62
     7
  6
Continuous
370
    -3
390
F
  0
LAYER
  5
79
330
2
100
AcDbSymbolTableRecord
100
AcDbLayerTableRecord
  2
SLD-0
 70
     0
 62
   179
  6
Continuous
370
    -3
390
F
  0
LAYER
  5
7A
330
2
100
AcDbSymbolTableRecord
100
AcDbLayerTableRecord
  2
KOTY
 70
     0
 62
     7
  6
Continuous
370
    -3
390
F
  0
LAYER
  5
7B
330
2
100
AcDbSymbolTableRecord
100
AcDbLayerTableRecord
  2
SILNA
 70
     0
 62
   179
  6
Continuous
370
    -3
390
F
  0
LAYER
  5
7C
330
2
100
AcDbSymbolTableRecord
100
AcDbLayerTableRecord
  2
0_18_1
 70
     0
 62
   179
  6
Continuous
370
    -3
390
F
  0
LAYER
  5
7D
330
2
100
AcDbSymbolTableRecord
100
AcDbLayerTableRecord
  2
0_35_1
 70
     0
 62
   179
  6
Continuous
370
    35
390
F
  0
LAYER
  5
7E
330
2
100
AcDbSymbolTableRecord
100
AcDbLayerTableRecord
  2
0_5_1
 70
     0
 62
   179
  6
Continuous
370
    50
390
F
  0
ENDTAB
  0
TABLE
  2
STYLE
  5
3
330
0
100
AcDbSymbolTable
 70
     1
  0
STYLE
  5
11
330
3
100
AcDbSymbolTableRecord
100
AcDbTextStyleTableRecord
  2
Standard
 70
     0
 40
0.0
 41
1.0
 50
0.0
 71
     0
 42
2.0
  3
txt
  4

  0
ENDTAB
  0
TABLE
  2
VIEW
  5
6
330
0
100
AcDbSymbolTable
 70
     0
  0
ENDTAB
  0
TABLE
  2
UCS
  5
7
330
0
100
AcDbSymbolTable
 70
     0
  0
ENDTAB
  0
TABLE
  2
APPID
  5
9
330
0
100
AcDbSymbolTable
 70
     1
  0
APPID
  5
12
330
9
100
AcDbSymbolTableRecord
100
AcDbRegAppTableRecord
  2
ACAD
 70
     0
  0
ENDTAB
  0
TABLE
  2
DIMSTYLE
  5
A
330
0
100
AcDbSymbolTable
 70
     1
100
AcDbDimStyleTable
  0
DIMSTYLE
105
27
330
A
100
AcDbSymbolTableRecord
100
AcDbDimStyleTableRecord
  2
ISO-25
 70
     0
 41
2.5
 42
0.625
 43
3.75
 44
1.25
 73
     0
 74
     0
 77
     1
 78
     8
140
2.5
141
2.5
143
0.0393700787
147
0.625
171
     3
172
     1
178
     0
271
     2
272
     2
274
     3
278
    44
283
     0
284
     8
340
11
  0
ENDTAB
  0
TABLE
  2
BLOCK_RECORD
  5
1
330
0
100
AcDbSymbolTable
 70
     1
  0
BLOCK_RECORD
  5
1F
330
1
100
AcDbSymbolTableRecord
100
AcDbBlockTableRecord
  2
*Model_Space
340
22
  0
BLOCK_RECORD
  5
1B
330
1
100
AcDbSymbolTableRecord
100
AcDbBlockTableRecord
  2
*Paper_Space
340
1E
  0
BLOCK_RECORD
  5
23
330
1
100
AcDbSymbolTableRecord
100
AcDbBlockTableRecord
  2
*Paper_Space0
340
26
  0
ENDTAB
  0
ENDSEC
  0
SECTION
  2
BLOCKS
  0
BLOCK
  5
20
330
1F
100
AcDbEntity
  8
0
100
AcDbBlockBegin
  2
*Model_Space
 70
     0
 10
0.0
 20
0.0
 30
0.0
  3
*Model_Space
  1

  0
ENDBLK
  5
21
330
1F
100
AcDbEntity
  8
0
100
AcDbBlockEnd
  0
BLOCK
  5
1C
330
1B
100
AcDbEntity
 67
     1
  8
0
100
AcDbBlockBegin
  2
*Paper_Space
 70
     0
 10
0.0
 20
0.0
 30
0.0
  3
*Paper_Space
  1

  0
ENDBLK
  5
1D
330
1B
100
AcDbEntity
 67
     1
  8
0
100
AcDbBlockEnd
  0
BLOCK
  5
24
330
23
100
AcDbEntity
  8
0
100
AcDbBlockBegin
  2
*Paper_Space0
 70
     0
 10
0.0
 20
0.0
 30
0.0
  3
*Paper_Space0
  1

  0
ENDBLK
  5
25
330
23
100
AcDbEntity
  8
0
100
AcDbBlockEnd
  0
ENDSEC
  0
SECTION
  2
ENTITIES
  0
LINE
  5
7F
330
1F
100
AcDbEntity
  8
0
  6
Continuous
 62
     7
100
AcDbLine
 10
955.2160632523
 20
8264.403102816
 30
0.0
 11
1815.2160632523
 21
8264.403102816
 31
0.0
  0
LINE
  5
80
330
1F
100
AcDbEntity
  8
0
  6
Continuous
 62
     7
370
    25
100
AcDbLine
 10
1451.2160632523
 20
8624.403102816
 30
0.0
 11
1451.2160632523
 21
8626.403102816
 31
0.0
  0
LINE
  5
81
330
1F
100
AcDbEntity
  8
0
  6
Continuous
 62
     7
370
    25
100
AcDbLine
 10
1419.2160632523
 20
8626.403102816
 30
0.0
 11
1419.2160632523
 21
8624.403102816
 31
0.0
  0
LINE
  5
82
330
1F
100
AcDbEntity
  8
0
  6
Continuous
 62
     7
370
    25
100
AcDbLine
 10
1351.2160632523
 20
8624.403102816
 30
0.0
 11
1351.2160632523
 21
8626.403102816
 31
0.0
  0
LINE
  5
83
330
1F
100
AcDbEntity
  8
0
  6
Continuous
 62
     7
370
    25
100
AcDbLine
 10
1319.2160632523
 20
8626.403102816
 30
0.0
 11
1319.2160632523
 21
8624.403102816
 31
0.0
  0
LINE
  5
84
330
1F
100
AcDbEntity
  8
0
  6
Continuous
 62
     7
370
    25
100
AcDbLine
 10
1319.2160632523
 20
8824.403102816
 30
0.0
 11
1319.2160632523
 21
8822.403102816
 31
0.0
  0
LINE
  5
85
330
1F
100
AcDbEntity
  8
0
  6
Continuous
 62
     7
370
    25
100
AcDbLine
 10
1351.2160632523
 20
8822.403102816
 30
0.0
 11
1351.2160632523
 21
8824.403102816
 31
0.0
  0
LINE
  5
86
330
1F
100
AcDbEntity
  8
0
  6
Continuous
 62
     7
370
    25
100
AcDbLine
 10
1419.2160632523
 20
8824.403102816
 30
0.0
 11
1419.2160632523
 21
8822.403102816
 31
0.0
  0
LINE
  5
87
330
1F
100
AcDbEntity
  8
0
  6
Continuous
 62
     7
370
    25
100
AcDbLine
 10
1451.2160632523
 20
8822.403102816
 30
0.0
 11
1451.2160632523
 21
8824.403102816
 31
0.0
  0
LINE
  5
88
330
1F
100
AcDbEntity
  8
0
  6
Continuous
 62
     7
370
    25
100
AcDbLine
 10
1435.2160632523
 20
7817.4825898002
 30
0.0
 11
1435.2160632523
 21
7833.8699835014
 31
0.0
  0
LINE
  5
89
330
1F
100
AcDbEntity
  8
0
  6
Continuous
 62
     7
370
    25
100
AcDbLine
 10
1335.2160632523
 20
7833.8699835014
 30
0.0
 11
1335.2160632523
 21
7817.4825898002
 31
0.0
  0
LINE
  5
8A
330
1F
100
AcDbEntity
  8
0
  6
Continuous
 62
     7
370
    25
100
AcDbLine
 10
1435.2160632523
 20
7715.6223772553
 30
0.0
 11
1435.2160632523
 21
7817.4825898002
 31
0.0
  0
LINE
  5
8B
330
1F
100
AcDbEntity
  8
0
  6
Continuous
 62
     7
370
    25
100
AcDbLine
 10
1335.2160632523
 20
7817.4825898002
 30
0.0
 11
1335.2160632523
 21
7715.6223772553
 31
0.0
  0
ARC
  5
8C
330
1F
100
AcDbEntity
  8
0
  6
Continuous
 62
     7
370
    25
100
AcDbCircle
 10
1760.2160632523
 20
7855.403102816
 30
0.0
 40
4.0
100
AcDbArc
 50
180.0
 51
270.0
  0
ARC
  5
8D
330
1F
100
AcDbEntity
  8
0
  6
Continuous
 62
     7
370
    25
100
AcDbCircle
 10
1772.2160632523
 20
7855.403102816
 30
0.0
 40
4.0
100
AcDbArc
 50
270.0
 51
0.0
  0
ARC
  5
8E
330
1F
100
AcDbEntity
  8
0
  6
Continuous
 62
     7
370
    25
100
AcDbCircle
 10
1598.2160632523
 20
7855.403102816
 30
0.0
 40
4.0
100
AcDbArc
 50
180.0
 51
270.0
  0
ARC
  5
8F
330
1F
100
AcDbEntity
  8
0
  6
Continuous
 62
     7
370
    25
100
AcDbCircle
 10
1610.2160632523
 20
7855.403102816
 30
0.0
 40
4.0
100
AcDbArc
 50
270.0
 51
0.0
  0
LINE
  5
90
330
1F
100
AcDbEntity
  8
0
  6
Continuous
 62
     7
370
    25
100
AcDbLine
 10
1776.2160632523
 20
7855.403102816
 30
0.0
 11
1776.2160632523
 21
7859.403102816
 31
0.0
  0
LINE
  5
91
330
1F
100
AcDbEntity
  8
0
  6
Continuous
 62
     7
370
    25
100
AcDbLine
 10
1756.2160632523
 20
7859.403102816
 30
0.0
 11
1756.2160632523
 21
7855.403102816
 31
0.0
  0
LINE
  5
92
330
1F
100
AcDbEntity
  8
0
  6
Continuous
 62
     7
370
    25
100
AcDbLine
 10
1614.2160632523
 20
7855.403102816
 30
0.0
 11
1614.2160632523
 21
7859.403102816
 31
0.0
  0
LINE
  5
93
330
1F
100
AcDbEntity
  8
0
  6
Continuous
 62
     7
370
    25
100
AcDbLine
 10
1594.2160632523
 20
7859.403102816
 30
0.0
 11
1594.2160632523
 21
7855.403102816
 31
0.0
  0
LINE
  5
94
330
1F
100
AcDbEntity
  8
0
  6
Continuous
 62
     7
370
    25
100
AcDbLine
 10
1774.2160632523
 20
7891.403102816
 30
0.0
 11
1774.2160632523
 21
7894.403102816
 31
0.0
  0
LINE
  5
95
330
1F
100
AcDbEntity
  8
0
  6
Continuous
 62
     7
370
    25
100
AcDbLine
 10
1758.2160632523
 20
7894.403102816
 30
0.0
 11
1758.2160632523
 21
7891.403102816
 31
0.0
  0
LINE
  5
96
330
1F
100
AcDbEntity
  8
0
  6
Continuous
 62
     7
370
    25
100
AcDbLine
 10
1612.2160632523
 20
7891.403102816
 30
0.0
 11
1612.2160632523
 21
7894.403102816
 31
0.0
  0
LINE
  5
97
330
1F
100
AcDbEntity
  8
0
  6
Continuous
 62
     7
370
    25
100
AcDbLine
 10
1596.2160632523
 20
7894.403102816
 30
0.0
 11
1596.2160632523
 21
7891.403102816
 31
0.0
  0
LINE
  5
98
330
1F
100
AcDbEntity
  8
0
  6
Continuous
 62
     7
370
    25
100
AcDbLine
 10
1677.2160632523
 20
7979.403102816
 30
0.0
 11
1677.2160632523
 21
7956.403102816
 31
0.0
  0
LINE
  5
99
330
1F
100
AcDbEntity
  8
0
  6
Continuous
 62
     7
370
    25
100
AcDbLine
 10
1693.2160632523
 20
7956.403102816
 30
0.0
 11
1693.2160632523
 21
7979.403102816
 31
0.0
  0
LINE
  5
9A
330
1F
100
AcDbEntity
  8
0
  6
Continuous
 62
     7
370
    25
100
AcDbLine
 10
1760.2160632523
 20
7887.403102816
 30
0.0
 11
1760.2160632523
 21
7863.403102816
 31
0.0
  0
LINE
  5
9B
330
1F
100
AcDbEntity
  8
0
  6
Continuous
 62
     7
370
    25
100
AcDbLine
 10
1772.2160632523
 20
7863.403102816
 30
0.0
 11
1772.2160632523
 21
7887.403102816
 31
0.0
  0
LINE
  5
9C
330
1F
100
AcDbEntity
  8
0
  6
Continuous
 62
     7
370
    25
100
AcDbLine
 10
1598.2160632523
 20
7903.403102816
 30
0.0
 11
1598.2160632523
 21
7894.403102816
 31
0.0
  0
LINE
  5
9D
330
1F
100
AcDbEntity
  8
0
  6
Continuous
 62
     7
370
    25
100
AcDbLine
 10
1610.2160632523
 20
7894.403102816
 30
0.0
 11
1610.2160632523
 21
7903.403102816
 31
0.0
  0
LINE
  5
9E
330
1F
100
AcDbEntity
  8
0
  6
Continuous
 62
     7
370
    25
100
AcDbLine
 10
1760.2160632523
 20
7903.403102816
 30
0.0
 11
1760.2160632523
 21
7894.403102816
 31
0.0
  0
LINE
  5
9F
330
1F
100
AcDbEntity
  8
0
  6
Continuous
 62
     7
370
    25
100
AcDbLine
 10
1772.2160632523
 20
7894.403102816
 30
0.0
 11
1772.2160632523
 21
7903.403102816
 31
0.0
  0
LINE
  5
A0
330
1F
100
AcDbEntity
  8
0
  6
Continuous
 62
     7
370
    25
100
AcDbLine
 10
1598.2160632523
 20
7887.403102816
 30
0.0
 11
1598.2160632523
 21
7863.403102816
 31
0.0
  0
LINE
  5
A1
330
1F
100
AcDbEntity
  8
0
  6
Continuous
 62
     7
370
    25
100
AcDbLine
 10
1610.2160632523
 20
7863.403102816
 30
0.0
 11
1610.2160632523
 21
7887.403102816
 31
0.0
  0
ARC
  5
A2
330
1F
100
AcDbEntity
  8
0
  6
Continuous
 62
     7
370
    25
100
AcDbCircle
 10
1298.2160632523
 20
7855.403102816
 30
0.0
 40
4.0
100
AcDbArc
 50
180.0
 51
270.0
  0
ARC
  5
A3
330
1F
100
AcDbEntity
  8
0
  6
Continuous
 62
     7
370
    25
100
AcDbCircle
 10
1310.2160632523
 20
7855.403102816
 30
0.0
 40
4.0
100
AcDbArc
 50
270.0
 51
0.0
  0
ARC
  5
A4
330
1F
100
AcDbEntity
  8
0
  6
Continuous
 62
     7
370
    25
100
AcDbCircle
 10
1460.2160632523
 20
7855.403102816
 30
0.0
 40
4.0
100
AcDbArc
 50
180.0
 51
270.0
  0
ARC
  5
A5
330
1F
100
AcDbEntity
  8
0
  6
Continuous
 62
     7
370
    25
100
AcDbCircle
 10
1472.2160632523
 20
7855.403102816
 30
0.0
 40
4.0
100
AcDbArc
 50
270.0
 51
0.0
  0
LINE
  5
A6
330
1F
100
AcDbEntity
  8
0
  6
Continuous
 62
     7
370
    25
100
AcDbLine
 10
1314.2160632523
 20
7855.403102816
 30
0.0
 11
1314.2160632523
 21
7859.403102816
 31
0.0
  0
LINE
  5
A7
330
1F
100
AcDbEntity
  8
0
  6
Continuous
 62
     7
370
    25
100
AcDbLine
 10
1294.2160632523
 20
7859.403102816
 30
0.0
 11
1294.2160632523
 21
7855.403102816
 31
0.0
  0
LINE
  5
A8
330
1F
100
AcDbEntity
  8
0
  6
Continuous
 62
     7
370
    25
100
AcDbLine
 10
1476.2160632523
 20
7855.403102816
 30
0.0
 11
1476.2160632523
 21
7859.403102816
 31
0.0
  0
LINE
  5
A9
330
1F
100
AcDbEntity
  8
0
  6
Continuous
 62
     7
370
    25
100
AcDbLine
 10
1456.2160632523
 20
7859.403102816
 30
0.0
 11
1456.2160632523
 21
7855.403102816
 31
0.0
  0
LINE
  5
AA
330
1F
100
AcDbEntity
  8
0
  6
Continuous
 62
     7
370
    25
100
AcDbLine
 10
1312.2160632523
 20
7891.403102816
 30
0.0
 11
1312.2160632523
 21
7894.403102816
 31
0.0
  0
LINE
  5
AB
330
1F
100
AcDbEntity
  8
0
  6
Continuous
 62
     7
370
    25
100
AcDbLine
 10
1296.2160632523
 20
7894.403102816
 30
0.0
 11
1296.2160632523
 21
7891.403102816
 31
0.0
  0
LINE
  5
AC
330
1F
100
AcDbEntity
  8
0
  6
Continuous
 62
     7
370
    25
100
AcDbLine
 10
1474.2160632523
 20
7891.403102816
 30
0.0
 11
1474.2160632523
 21
7894.403102816
 31
0.0
  0
LINE
  5
AD
330
1F
100
AcDbEntity
  8
0
  6
Continuous
 62
     7
370
    25
100
AcDbLine
 10
1458.2160632523
 20
7894.403102816
 30
0.0
 11
1458.2160632523
 21
7891.403102816
 31
0.0
  0
LINE
  5
AE
330
1F
100
AcDbEntity
  8
0
  6
Continuous
 62
     7
370
    25
100
AcDbLine
 10
1377.2160632523
 20
7979.403102816
 30
0.0
 11
1377.2160632523
 21
7956.403102816
 31
0.0
  0
LINE
  5
AF
330
1F
100
AcDbEntity
  8
0
  6
Continuous
 62
     7
370
    25
100
AcDbLine
 10
1393.2160632523
 20
7956.403102816
 30
0.0
 11
1393.2160632523
 21
7979.403102816
 31
0.0
  0
LINE
  5
B0
330
1F
100
AcDbEntity
  8
0
  6
Continuous
 62
     7
370
    25
100
AcDbLine
 10
1460.2160632523
 20
7903.403102816
 30
0.0
 11
1460.2160632523
 21
7894.403102816
 31
0.0
  0
LINE
  5
B1
330
1F
100
AcDbEntity
  8
0
  6
Continuous
 62
     7
370
    25
100
AcDbLine
 10
1472.2160632523
 20
7894.403102816
 30
0.0
 11
1472.2160632523
 21
7903.403102816
 31
0.0
  0
LINE
  5
B2
330
1F
100
AcDbEntity
  8
0
  6
Continuous
 62
     7
370
    25
100
AcDbLine
 10
1298.2160632523
 20
7903.403102816
 30
0.0
 11
1298.2160632523
 21
7894.403102816
 31
0.0
  0
LINE
  5
B3
330
1F
100
AcDbEntity
  8
0
  6
Continuous
 62
     7
370
    25
100
AcDbLine
 10
1310.2160632523
 20
7894.403102816
 30
0.0
 11
1310.2160632523
 21
7903.403102816
 31
0.0
  0
LINE
  5
B4
330
1F
100
AcDbEntity
  8
0
  6
Continuous
 62
     7
370
    25
100
AcDbLine
 10
1298.2160632523
 20
7887.403102816
 30
0.0
 11
1298.2160632523
 21
7863.403102816
 31
0.0
  0
LINE
  5
B5
330
1F
100
AcDbEntity
  8
0
  6
Continuous
 62
     7
370
    25
100
AcDbLine
 10
1310.2160632523
 20
7863.403102816
 30
0.0
 11
1310.2160632523
 21
7887.403102816
 31
0.0
  0
LINE
  5
B6
330
1F
100
AcDbEntity
  8
0
  6
Continuous
 62
     7
370
    25
100
AcDbLine
 10
1460.2160632523
 20
7887.403102816
 30
0.0
 11
1460.2160632523
 21
7863.403102816
 31
0.0
  0
LINE
  5
B7
330
1F
100
AcDbEntity
  8
0
  6
Continuous
 62
     7
370
    25
100
AcDbLine
 10
1472.2160632523
 20
7863.403102816
 30
0.0
 11
1472.2160632523
 21
7887.403102816
 31
0.0
  0
LINE
  5
B8
330
1F
100
AcDbEntity
  8
0
  6
Continuous
 62
     7
370
    25
100
AcDbLine
 10
1230.1713450673
 20
8824.403102816
 30
0.0
 11
1230.1713450673
 21
8822.403102816
 31
0.0
  0
LINE
  5
B9
330
1F
100
AcDbEntity
  8
0
  6
Continuous
 62
     7
370
    25
100
AcDbLine
 10
1262.1713450673
 20
8822.403102816
 30
0.0
 11
1262.1713450673
 21
8824.403102816
 31
0.0
  0
LINE
  5
BA
330
1F
100
AcDbEntity
  8
0
  6
Continuous
 62
     7
370
    25
100
AcDbLine
 10
1262.1713450673
 20
8624.403102816
 30
0.0
 11
1262.1713450673
 21
8626.403102816
 31
0.0
  0
LINE
  5
BB
330
1F
100
AcDbEntity
  8
0
  6
Continuous
 62
     7
370
    25
100
AcDbLine
 10
1230.1713450673
 20
8626.403102816
 30
0.0
 11
1230.1713450673
 21
8624.403102816
 31
0.0
  0
LINE
  5
BC
330
1F
100
AcDbEntity
  8
0
  6
Continuous
 62
     7
370
    25
100
AcDbLine
 10
1825.2160632523
 20
6876.403102816
 30
0.0
 11
1823.2160632523
 21
6876.403102816
 31
0.0
  0
LINE
  5
BD
330
1F
100
AcDbEntity
  8
0
  6
Continuous
 62
     7
370
    25
100
AcDbLine
 10
1823.2160632523
 20
6844.403102816
 30
0.0
 11
1825.2160632523
 21
6844.403102816
 31
0.0
  0
LINE
  5
BE
330
1F
100
AcDbEntity
  8
0
  6
Continuous
 62
     7
370
    25
100
AcDbLine
 10
1101.1713450673
 20
8624.403102816
 30
0.0
 11
1101.1713450673
 21
8626.403102816
 31
0.0
  0
LINE
  5
BF
330
1F
100
AcDbEntity
  8
0
  6
Continuous
 62
     7
370
    25
100
AcDbLine
 10
1069.1713450673
 20
8626.403102816
 30
0.0
 11
1069.1713450673
 21
8624.403102816
 31
0.0
  0
LINE
  5
C0
330
1F
100
AcDbEntity
  8
0
  6
Continuous
 62
     7
370
    25
100
AcDbLine
 10
1070.1713450673
 20
8824.403102816
 30
0.0
 11
1070.1713450673
 21
8822.403102816
 31
0.0
  0
LINE
  5
C1
330
1F
100
AcDbEntity
  8
0
  6
Continuous
 62
     7
370
    25
100
AcDbLine
 10
1102.1713450673
 20
8822.403102816
 30
0.0
 11
1102.1713450673
 21
8824.403102816
 31
0.0
  0
LINE
  5
C2
330
1F
100
AcDbEntity
  8
0
  6
Continuous
 62
     7
370
    25
100
AcDbLine
 10
945.2160632523
 20
6844.403102816
 30
0.0
 11
947.2160632523
 21
6844.403102816
 31
0.0
  0
LINE
  5
C3
330
1F
100
AcDbEntity
  8
0
  6
Continuous
 62
     7
370
    25
100
AcDbLine
 10
947.2160632523
 20
6876.403102816
 30
0.0
 11
945.2160632523
 21
6876.403102816
 31
0.0
  0
LINE
  5
C4
330
1F
100
AcDbEntity
  8
0
  6
Continuous
 62
     7
370
    25
100
AcDbLine
 10
950.9474823978
 20
8957.5598525246
 30
0.0
 11
952.2160632523
 21
8959.69022388
 31
0.0
  0
LINE
  5
C5
330
1F
100
AcDbEntity
  8
0
  6
Continuous
 62
     7
370
    25
100
AcDbLine
 10
1818.2160632523
 20
8959.69022388
 30
0.0
 11
1819.475448923
 21
8957.5752943121
 31
0.0
  0
LINE
  5
C6
330
1F
100
AcDbEntity
  8
0
  6
Continuous
 62
     7
370
    25
100
AcDbLine
 10
1067.6713450673
 20
8624.403102816
 30
0.0
 11
1263.6713450673
 21
8624.403102816
 31
0.0
  0
LINE
  5
C7
330
1F
100
AcDbEntity
  8
0
  6
Continuous
 62
     7
370
    25
100
AcDbLine
 10
1263.6713450673
 20
8618.403102816
 30
0.0
 11
1263.6713450673
 21
8624.403102816
 31
0.0
  0
LINE
  5
C8
330
1F
100
AcDbEntity
  8
0
  6
Continuous
 62
     7
370
    25
100
AcDbLine
 10
1067.6713450673
 20
8618.403102816
 30
0.0
 11
1263.6713450673
 21
8618.403102816
 31
0.0
  0
LINE
  5
C9
330
1F
100
AcDbEntity
  8
0
  6
Continuous
 62
     7
370
    25
100
AcDbLine
 10
1067.6713450673
 20
8618.403102816
 30
0.0
 11
1067.6713450673
 21
8624.403102816
 31
0.0
  0
LINE
  5
CA
330
1F
100
AcDbEntity
  8
0
  6
Continuous
 62
     7
370
    25
100
AcDbLine
 10
1265.6713450673
 20
8618.403102816
 30
0.0
 11
1265.6713450673
 21
8624.403102816
 31
0.0
  0
LINE
  5
CB
330
1F
100
AcDbEntity
  8
0
  6
Continuous
 62
     7
370
    25
100
AcDbLine
 10
1263.6713450673
 20
8624.403102816
 30
0.0
 11
1265.6713450673
 21
8624.403102816
 31
0.0
  0
LINE
  5
CC
330
1F
100
AcDbEntity
  8
0
  6
Continuous
 62
     7
370
    25
100
AcDbLine
 10
1263.6713450673
 20
8618.403102816
 30
0.0
 11
1265.6713450673
 21
8618.403102816
 31
0.0
  0
LINE
  5
CD
330
1F
100
AcDbEntity
  8
0
  6
Continuous
 62
     7
370
    25
100
AcDbLine
 10
1065.6713450673
 20
8618.403102816
 30
0.0
 11
1065.6713450673
 21
8624.403102816
 31
0.0
  0
LINE
  5
CE
330
1F
100
AcDbEntity
  8
0
  6
Continuous
 62
     7
370
    25
100
AcDbLine
 10
1065.6713450673
 20
8624.403102816
 30
0.0
 11
1067.6713450673
 21
8624.403102816
 31
0.0
  0
LINE
  5
CF
330
1F
100
AcDbEntity
  8
0
  6
Continuous
 62
     7
370
    25
100
AcDbLine
 10
1065.6713450673
 20
8618.403102816
 30
0.0
 11
1067.6713450673
 21
8618.403102816
 31
0.0
  0
LINE
  5
D0
330
1F
100
AcDbEntity
  8
0
  6
Continuous
 62
     7
370
    25
100
AcDbLine
 10
1265.6713450673
 20
8824.403102816
 30
0.0
 11
1263.6713450673
 21
8824.403102816
 31
0.0
  0
LINE
  5
D1
330
1F
100
AcDbEntity
  8
0
  6
Continuous
 62
     7
370
    25
100
AcDbLine
 10
1263.6713450673
 20
8830.403102816
 30
0.0
 11
1263.6713450673
 21
8824.403102816
 31
0.0
  0
LINE
  5
D2
330
1F
100
AcDbEntity
  8
0
  6
Continuous
 62
     7
370
    25
100
AcDbLine
 10
1265.6713450673
 20
8830.403102816
 30
0.0
 11
1263.6713450673
 21
8830.403102816
 31
0.0
  0
LINE
  5
D3
330
1F
100
AcDbEntity
  8
0
  6
Continuous
 62
     7
370
    25
100
AcDbLine
 10
1265.6713450673
 20
8830.403102816
 30
0.0
 11
1265.6713450673
 21
8824.403102816
 31
0.0
  0
LINE
  5
D4
330
1F
100
AcDbEntity
  8
0
  6
Continuous
 62
     7
370
    25
100
AcDbLine
 10
1067.6713450673
 20
8824.403102816
 30
0.0
 11
1263.6713450673
 21
8824.403102816
 31
0.0
  0
LINE
  5
D5
330
1F
100
AcDbEntity
  8
0
  6
Continuous
 62
     7
370
    25
100
AcDbLine
 10
1067.6713450673
 20
8830.403102816
 30
0.0
 11
1067.6713450673
 21
8824.403102816
 31
0.0
  0
LINE
  5
D6
330
1F
100
AcDbEntity
  8
0
  6
Continuous
 62
     7
370
    25
100
AcDbLine
 10
1067.6713450673
 20
8830.403102816
 30
0.0
 11
1263.6713450673
 21
8830.403102816
 31
0.0
  0
LINE
  5
D7
330
1F
100
AcDbEntity
  8
0
  6
Continuous
 62
     7
370
    25
100
AcDbLine
 10
1065.6713450673
 20
8830.403102816
 30
0.0
 11
1065.6713450673
 21
8824.403102816
 31
0.0
  0
LINE
  5
D8
330
1F
100
AcDbEntity
  8
0
  6
Continuous
 62
     7
370
    25
100
AcDbLine
 10
1067.6713450673
 20
8830.403102816
 30
0.0
 11
1065.6713450673
 21
8830.403102816
 31
0.0
  0
LINE
  5
D9
330
1F
100
AcDbEntity
  8
0
  6
Continuous
 62
     7
370
    25
100
AcDbLine
 10
1067.6713450673
 20
8824.403102816
 30
0.0
 11
1065.6713450673
 21
8824.403102816
 31
0.0
  0
LINE
  5
DA
330
1F
100
AcDbEntity
  8
0
  6
Continuous
 62
     7
370
    25
100
AcDbLine
 10
1265.6713450673
 20
8631.403102816
 30
0.0
 11
1265.6713450673
 21
8624.403102816
 31
0.0
  0
LINE
  5
DB
330
1F
100
AcDbEntity
  8
0
  6
Continuous
 62
     7
370
    25
100
AcDbLine
 10
1065.6713450673
 20
8624.403102816
 30
0.0
 11
1065.6713450673
 21
8631.403102816
 31
0.0
  0
LINE
  5
DC
330
1F
100
AcDbEntity
  8
0
  6
Continuous
 62
     7
370
    25
100
AcDbLine
 10
1265.6713450673
 20
8824.403102816
 30
0.0
 11
1265.6713450673
 21
8817.403102816
 31
0.0
  0
LINE
  5
DD
330
1F
100
AcDbEntity
  8
0
  6
Continuous
 62
     7
370
    25
100
AcDbLine
 10
1065.6713450673
 20
8817.403102816
 30
0.0
 11
1065.6713450673
 21
8824.403102816
 31
0.0
  0
CIRCLE
  5
DE
330
1F
100
AcDbEntity
  8
0
  6
Continuous
 62
     7
370
    25
100
AcDbCircle
 10
1241.1713450673
 20
8666.403102816
 30
0.0
 40
6.399999999999864
  0
CIRCLE
  5
DF
330
1F
100
AcDbEntity
  8
0
  6
Continuous
 62
     7
370
    25
100
AcDbCircle
 10
1090.1713450673
 20
8666.403102816
 30
0.0
 40
6.399999999999864
  0
CIRCLE
  5
E0
330
1F
100
AcDbEntity
  8
0
  6
Continuous
 62
     7
370
    25
100
AcDbCircle
 10
1090.1713450673
 20
8782.403102816
 30
0.0
 40
6.399999999999864
  0
CIRCLE
  5
E1
330
1F
100
AcDbEntity
  8
0
  6
Continuous
 62
     7
370
    25
100
AcDbCircle
 10
1241.1713450673
 20
8782.403102816
 30
0.0
 40
6.399999999999864
  0
CIRCLE
  5
E2
330
1F
100
AcDbEntity
  8
0
  6
Continuous
 62
     7
370
    25
100
AcDbCircle
 10
1165.6713450673
 20
8770.403102816
 30
0.0
 40
20.0
  0
LINE
  5
E3
330
1F
100
AcDbEntity
  8
0
  6
Continuous
 62
     7
370
    25
100
AcDbLine
 10
1265.6713450673
 20
8675.4133079603
 30
0.0
 11
1265.6713450673
 21
8631.403102816
 31
0.0
  0
LINE
  5
E4
330
1F
100
AcDbEntity
  8
0
  6
Continuous
 62
     7
370
    25
100
AcDbLine
 10
1065.6713450673
 20
8675.4133079603
 30
0.0
 11
1065.6713450673
 21
8631.403102816
 31
0.0
  0
ARC
  5
E5
330
1F
100
AcDbEntity
  8
0
  6
Continuous
 62
     7
370
    25
100
AcDbCircle
 10
1055.6713450673
 20
8724.403102816
 30
0.0
 40
50.00000000000098
100
AcDbArc
 50
281.5369590328
 51
78.4630409672
  0
LINE
  5
E6
330
1F
100
AcDbEntity
  8
0
  6
Continuous
 62
     7
370
    25
100
AcDbLine
 10
1065.6713450673
 20
8817.403102816
 30
0.0
 11
1065.6713450673
 21
8773.3928976717
 31
0.0
  0
LINE
  5
E7
330
1F
100
AcDbEntity
  8
0
  6
Continuous
 62
     7
370
    25
100
AcDbLine
 10
1265.6713450673
 20
8817.403102816
 30
0.0
 11
1265.6713450673
 21
8773.3928976717
 31
0.0
  0
ARC
  5
E8
330
1F
100
AcDbEntity
  8
0
  6
Continuous
 62
     7
370
    25
100
AcDbCircle
 10
1275.6713450673
 20
8724.403102816
 30
0.0
 40
49.99999999999915
100
AcDbArc
 50
101.5369590328
 51
258.4630409672
  0
LINE
  5
E9
330
1F
100
AcDbEntity
  8
0
  6
Continuous
 62
     7
370
    25
100
AcDbLine
 10
1335.2160632523
 20
8812.403102816
 30
0.0
 11
1335.2160632523
 21
8822.403102816
 31
0.0
  0
LINE
  5
EA
330
1F
100
AcDbEntity
  8
0
  6
Continuous
 62
     7
370
    25
100
AcDbLine
 10
1335.2160632523
 20
8812.403102816
 30
0.0
 11
1322.2160632523
 21
8812.403102816
 31
0.0
  0
LINE
  5
EB
330
1F
100
AcDbEntity
  8
0
  6
Continuous
 62
     7
370
    25
100
AcDbLine
 10
1322.2160632523
 20
8812.403102816
 30
0.0
 11
1322.2160632523
 21
8822.403102816
 31
0.0
  0
LINE
  5
EC
330
1F
100
AcDbEntity
  8
0
  6
Continuous
 62
     7
370
    25
100
AcDbLine
 10
1348.2160632523
 20
8812.403102816
 30
0.0
 11
1348.2160632523
 21
8822.403102816
 31
0.0
  0
LINE
  5
ED
330
1F
100
AcDbEntity
  8
0
  6
Continuous
 62
     7
370
    25
100
AcDbLine
 10
1348.2160632523
 20
8812.403102816
 30
0.0
 11
1335.2160632523
 21
8812.403102816
 31
0.0
  0
LINE
  5
EE
330
1F
100
AcDbEntity
  8
0
  6
Continuous
 62
     7
370
    25
100
AcDbLine
 10
1435.2160632523
 20
8812.403102816
 30
0.0
 11
1435.2160632523
 21
8822.403102816
 31
0.0
  0
LINE
  5
EF
330
1F
100
AcDbEntity
  8
0
  6
Continuous
 62
     7
370
    25
100
AcDbLine
 10
1435.2160632523
 20
8812.403102816
 30
0.0
 11
1422.2160632523
 21
8812.403102816
 31
0.0
  0
LINE
  5
F0
330
1F
100
AcDbEntity
  8
0
  6
Continuous
 62
     7
370
    25
100
AcDbLine
 10
1422.2160632523
 20
8812.403102816
 30
0.0
 11
1422.2160632523
 21
8822.403102816
 31
0.0
  0
LINE
  5
F1
330
1F
100
AcDbEntity
  8
0
  6
Continuous
 62
     7
370
    25
100
AcDbLine
 10
1448.2160632523
 20
8812.403102816
 30
0.0
 11
1448.2160632523
 21
8822.403102816
 31
0.0
  0
LINE
  5
F2
330
1F
100
AcDbEntity
  8
0
  6
Continuous
 62
     7
370
    25
100
AcDbLine
 10
1448.2160632523
 20
8812.403102816
 30
0.0
 11
1435.2160632523
 21
8812.403102816
 31
0.0
  0
LINE
  5
F3
330
1F
100
AcDbEntity
  8
0
  6
Continuous
 62
     7
370
    25
100
AcDbLine
 10
1322.2160632523
 20
8636.403102816
 30
0.0
 11
1322.2160632523
 21
8626.403102816
 31
0.0
  0
LINE
  5
F4
330
1F
100
AcDbEntity
  8
0
  6
Continuous
 62
     7
370
    25
100
AcDbLine
 10
1335.2160632523
 20
8636.403102816
 30
0.0
 11
1335.2160632523
 21
8626.403102816
 31
0.0
  0
LINE
  5
F5
330
1F
100
AcDbEntity
  8
0
  6
Continuous
 62
     7
370
    25
100
AcDbLine
 10
1322.2160632523
 20
8636.403102816
 30
0.0
 11
1335.2160632523
 21
8636.403102816
 31
0.0
  0
LINE
  5
F6
330
1F
100
AcDbEntity
  8
0
  6
Continuous
 62
     7
370
    25
100
AcDbLine
 10
1348.2160632523
 20
8636.403102816
 30
0.0
 11
1348.2160632523
 21
8626.403102816
 31
0.0
  0
LINE
  5
F7
330
1F
100
AcDbEntity
  8
0
  6
Continuous
 62
     7
370
    25
100
AcDbLine
 10
1335.2160632523
 20
8636.403102816
 30
0.0
 11
1348.2160632523
 21
8636.403102816
 31
0.0
  0
LINE
  5
F8
330
1F
100
AcDbEntity
  8
0
  6
Continuous
 62
     7
370
    25
100
AcDbLine
 10
1435.2160632523
 20
8636.403102816
 30
0.0
 11
1435.2160632523
 21
8626.403102816
 31
0.0
  0
LINE
  5
F9
330
1F
100
AcDbEntity
  8
0
  6
Continuous
 62
     7
370
    25
100
AcDbLine
 10
1448.2160632523
 20
8636.403102816
 30
0.0
 11
1448.2160632523
 21
8626.403102816
 31
0.0
  0
LINE
  5
FA
330
1F
100
AcDbEntity
  8
0
  6
Continuous
 62
     7
370
    25
100
AcDbLine
 10
1435.2160632523
 20
8636.403102816
 30
0.0
 11
1448.2160632523
 21
8636.403102816
 31
0.0
  0
LINE
  5
FB
330
1F
100
AcDbEntity
  8
0
  6
Continuous
 62
     7
370
    25
100
AcDbLine
 10
1422.2160632523
 20
8636.403102816
 30
0.0
 11
1422.2160632523
 21
8626.403102816
 31
0.0
  0
LINE
  5
FC
330
1F
100
AcDbEntity
  8
0
  6
Continuous
 62
     7
370
    25
100
AcDbLine
 10
1422.2160632523
 20
8636.403102816
 30
0.0
 11
1435.2160632523
 21
8636.403102816
 31
0.0
  0
LINE
  5
FD
330
1F
100
AcDbEntity
  8
0
  6
Continuous
 62
     7
370
    25
100
AcDbLine
 10
1419.2160632523
 20
8626.403102816
 30
0.0
 11
1451.2160632523
 21
8626.403102816
 31
0.0
  0
LINE
  5
FE
330
1F
100
AcDbEntity
  8
0
  6
Continuous
 62
     7
370
    25
100
AcDbLine
 10
1319.2160632523
 20
8626.403102816
 30
0.0
 11
1351.2160632523
 21
8626.403102816
 31
0.0
  0
LINE
  5
FF
330
1F
100
AcDbEntity
  8
0
  6
Continuous
 62
     7
370
    25
100
AcDbLine
 10
1351.2160632523
 20
8822.403102816
 30
0.0
 11
1319.2160632523
 21
8822.403102816
 31
0.0
  0
LINE
  5
100
330
1F
100
AcDbEntity
  8
0
  6
Continuous
 62
     7
370
    25
100
AcDbLine
 10
1451.2160632523
 20
8822.403102816
 30
0.0
 11
1419.2160632523
 21
8822.403102816
 31
0.0
  0
CIRCLE
  5
101
330
1F
100
AcDbEntity
  8
0
  6
Continuous
 62
     7
370
    25
100
AcDbCircle
 10
1085.2160632523
 20
8234.403102816
 30
0.0
 40
8.0
  0
CIRCLE
  5
102
330
1F
100
AcDbEntity
  8
0
  6
Continuous
 62
     7
370
    25
100
AcDbCircle
 10
1085.2160632523
 20
8234.403102816
 30
0.0
 40
10.0
  0
LINE
  5
103
330
1F
100
AcDbEntity
  8
0
  6
Continuous
 62
     7
370
    25
100
AcDbLine
 10
1053.7160632523
 20
8246.903102816
 30
0.0
 11
1053.7160632523
 21
8221.903102816
 31
0.0
  0
LINE
  5
104
330
1F
100
AcDbEntity
  8
0
  6
Continuous
 62
     7
370
    25
100
AcDbLine
 10
1116.7160632523
 20
8221.903102816
 30
0.0
 11
1116.7160632523
 21
8246.903102816
 31
0.0
  0
CIRCLE
  5
105
330
1F
100
AcDbEntity
  8
0
  6
Continuous
 62
     7
370
    25
100
AcDbCircle
 10
1685.2160632523
 20
8234.403102816
 30
0.0
 40
7.999999999999773
  0
CIRCLE
  5
106
330
1F
100
AcDbEntity
  8
0
  6
Continuous
 62
     7
370
    25
100
AcDbCircle
 10
1685.2160632523
 20
8234.403102816
 30
0.0
 40
10.0
  0
LINE
  5
107
330
1F
100
AcDbEntity
  8
0
  6
Continuous
 62
     7
370
    25
100
AcDbLine
 10
1716.7160632523
 20
8221.903102816
 30
0.0
 11
1716.7160632523
 21
8246.903102816
 31
0.0
  0
LINE
  5
108
330
1F
100
AcDbEntity
  8
0
  6
Continuous
 62
     7
370
    25
100
AcDbLine
 10
1653.7160632523
 20
8246.903102816
 30
0.0
 11
1653.7160632523
 21
8221.903102816
 31
0.0
  0
LINE
  5
109
330
1F
100
AcDbEntity
  8
0
  6
Continuous
 62
     7
370
    25
100
AcDbLine
 10
1615.2160632523
 20
8817.403102816
 30
0.0
 11
1755.2160632523
 21
8817.403102816
 31
0.0
  0
LINE
  5
10A
330
1F
100
AcDbEntity
  8
0
  6
Continuous
 62
     7
370
    25
100
AcDbLine
 10
1755.2160632523
 20
8817.403102816
 30
0.0
 11
1755.2160632523
 21
8631.403102816
 31
0.0
  0
LINE
  5
10B
330
1F
100
AcDbEntity
  8
0
  6
Continuous
 62
     7
370
    25
100
AcDbLine
 10
1755.2160632523
 20
8631.403102816
 30
0.0
 11
1615.2160632523
 21
8631.403102816
 31
0.0
  0
ARC
  5
10C
330
1F
100
AcDbEntity
  8
0
  6
Continuous
 62
     7
370
    25
100
AcDbCircle
 10
1685.2160632523
 20
8724.403102816
 30
0.0
 40
44.99999999999999
100
AcDbArc
 50
17.4576031237
 51
162.5423968763
  0
LINE
  5
10D
330
1F
100
AcDbEntity
  8
0
  6
Continuous
 62
     7
370
    25
100
AcDbLine
 10
1642.2887991885
 20
8737.903102816
 30
0.0
 11
1654.2160632523
 21
8737.903102816
 31
0.0
  0
LINE
  5
10E
330
1F
100
AcDbEntity
  8
0
  6
Continuous
 62
     7
370
    25
100
AcDbLine
 10
1658.2160632523
 20
8733.903102816
 30
0.0
 11
1654.2160632523
 21
8737.903102816
 31
0.0
  0
LINE
  5
10F
330
1F
100
AcDbEntity
  8
0
  6
Continuous
 62
     7
370
    25
100
AcDbLine
 10
1658.2160632523
 20
8733.903102816
 30
0.0
 11
1658.2160632523
 21
8714.903102816
 31
0.0
  0
LINE
  5
110
330
1F
100
AcDbEntity
  8
0
  6
Continuous
 62
     7
370
    25
100
AcDbLine
 10
1654.2160632523
 20
8710.903102816
 30
0.0
 11
1658.2160632523
 21
8714.903102816
 31
0.0
  0
LINE
  5
111
330
1F
100
AcDbEntity
  8
0
  6
Continuous
 62
     7
370
    25
100
AcDbLine
 10
1654.2160632523
 20
8710.903102816
 30
0.0
 11
1642.2887991885
 21
8710.903102816
 31
0.0
  0
ARC
  5
112
330
1F
100
AcDbEntity
  8
0
  6
Continuous
 62
     7
370
    25
100
AcDbCircle
 10
1685.2160632523
 20
8724.403102816
 30
0.0
 40
45.00000000000054
100
AcDbArc
 50
197.4576031237
 51
342.5423968763
  0
LINE
  5
113
330
1F
100
AcDbEntity
  8
0
  6
Continuous
 62
     7
370
    25
100
AcDbLine
 10
1728.143327316
 20
8710.903102816
 30
0.0
 11
1716.2160632523
 21
8710.903102816
 31
0.0
  0
LINE
  5
114
330
1F
100
AcDbEntity
  8
0
  6
Continuous
 62
     7
370
    25
100
AcDbLine
 10
1712.2160632523
 20
8714.903102816
 30
0.0
 11
1716.2160632523
 21
8710.903102816
 31
0.0
  0
LINE
  5
115
330
1F
100
AcDbEntity
  8
0
  6
Continuous
 62
     7
370
    25
100
AcDbLine
 10
1712.2160632523
 20
8714.903102816
 30
0.0
 11
1712.2160632523
 21
8733.903102816
 31
0.0
  0
LINE
  5
116
330
1F
100
AcDbEntity
  8
0
  6
Continuous
 62
     7
370
    25
100
AcDbLine
 10
1716.2160632523
 20
8737.903102816
 30
0.0
 11
1712.2160632523
 21
8733.903102816
 31
0.0
  0
LINE
  5
117
330
1F
100
AcDbEntity
  8
0
  6
Continuous
 62
     7
370
    25
100
AcDbLine
 10
1716.2160632523
 20
8737.903102816
 30
0.0
 11
1728.143327316
 21
8737.903102816
 31
0.0
  0
CIRCLE
  5
118
330
1F
100
AcDbEntity
  8
0
  6
Continuous
 62
     7
370
    25
100
AcDbCircle
 10
1722.2160632523
 20
8724.403102816
 30
0.0
 40
6.399999999999864
  0
CIRCLE
  5
119
330
1F
100
AcDbEntity
  8
0
  6
Continuous
 62
     7
370
    25
100
AcDbCircle
 10
1648.2160632523
 20
8724.403102816
 30
0.0
 40
6.400000000000091
  0
LINE
  5
11A
330
1F
100
AcDbEntity
  8
0
  6
Continuous
 62
     7
370
    25
100
AcDbLine
 10
1615.2160632523
 20
8817.403102816
 30
0.0
 11
1615.2160632523
 21
8631.403102816
 31
0.0
  0
LINE
  5
11B
330
1F
100
AcDbEntity
  8
0
  6
Continuous
 62
     7
370
    25
100
AcDbLine
 10
1615.2160632523
 20
8830.403102816
 30
0.0
 11
1615.2160632523
 21
8817.403102816
 31
0.0
  0
LINE
  5
11C
330
1F
100
AcDbEntity
  8
0
  6
Continuous
 62
     7
370
    25
100
AcDbLine
 10
1755.2160632523
 20
8817.403102816
 30
0.0
 11
1755.2160632523
 21
8830.403102816
 31
0.0
  0
LINE
  5
11D
330
1F
100
AcDbEntity
  8
0
  6
Continuous
 62
     7
370
    25
100
AcDbLine
 10
1615.2160632523
 20
8631.403102816
 30
0.0
 11
1615.2160632523
 21
8618.403102816
 31
0.0
  0
LINE
  5
11E
330
1F
100
AcDbEntity
  8
0
  6
Continuous
 62
     7
370
    25
100
AcDbLine
 10
1755.2160632523
 20
8618.403102816
 30
0.0
 11
1755.2160632523
 21
8631.403102816
 31
0.0
  0
LINE
  5
11F
330
1F
100
AcDbEntity
  8
0
  6
Continuous
 62
     7
370
    25
100
AcDbLine
 10
949.2160632523
 20
8264.403102816
 30
0.0
 11
1821.2160632523
 21
8264.403102816
 31
0.0
  0
LINE
  5
120
330
1F
100
AcDbEntity
  8
0
  6
Continuous
 62
     7
370
    25
100
AcDbLine
 10
1821.2160632523
 20
8264.403102816
 30
0.0
 11
1821.2160632523
 21
8260.403102816
 31
0.0
  0
LINE
  5
121
330
1F
100
AcDbEntity
  8
0
  6
Continuous
 62
     7
370
    25
100
AcDbLine
 10
1821.2160632523
 20
8260.403102816
 30
0.0
 11
949.2160632523
 21
8260.403102816
 31
0.0
  0
LINE
  5
122
330
1F
100
AcDbEntity
  8
0
  6
Continuous
 62
     7
370
    25
100
AcDbLine
 10
949.2160632523
 20
8260.403102816
 30
0.0
 11
949.2160632523
 21
8264.403102816
 31
0.0
  0
LINE
  5
123
330
1F
100
AcDbEntity
  8
0
  6
Continuous
 62
     7
370
    25
100
AcDbLine
 10
1821.2160632523
 20
8204.403102816
 30
0.0
 11
949.2160632523
 21
8204.403102816
 31
0.0
  0
LINE
  5
124
330
1F
100
AcDbEntity
  8
0
  6
Continuous
 62
     7
370
    25
100
AcDbLine
 10
949.2160632523
 20
8208.403102816
 30
0.0
 11
1821.2160632523
 21
8208.403102816
 31
0.0
  0
LINE
  5
125
330
1F
100
AcDbEntity
  8
0
  6
Continuous
 62
     7
370
    25
100
AcDbLine
 10
1821.2160632523
 20
8208.403102816
 30
0.0
 11
1821.2160632523
 21
8204.403102816
 31
0.0
  0
LINE
  5
126
330
1F
100
AcDbEntity
  8
0
  6
Continuous
 62
     7
370
    25
100
AcDbLine
 10
949.2160632523
 20
8204.403102816
 30
0.0
 11
949.2160632523
 21
8208.403102816
 31
0.0
  0
LINE
  5
127
330
1F
100
AcDbEntity
  8
0
  6
Continuous
 62
     7
370
    25
100
AcDbLine
 10
1821.2160632523
 20
8260.403102816
 30
0.0
 11
1821.2160632523
 21
8208.403102816
 31
0.0
  0
LINE
  5
128
330
1F
100
AcDbEntity
  8
0
  6
Continuous
 62
     7
370
    25
100
AcDbLine
 10
1815.2160632523
 20
8246.903102816
 30
0.0
 11
1815.2160632523
 21
8221.903102816
 31
0.0
  0
LINE
  5
129
330
1F
100
AcDbEntity
  8
0
  6
Continuous
 62
     7
370
    25
100
AcDbLine
 10
955.2160632523
 20
8221.903102816
 30
0.0
 11
1815.2160632523
 21
8221.903102816
 31
0.0
  0
LINE
  5
12A
330
1F
100
AcDbEntity
  8
0
  6
Continuous
 62
     7
370
    25
100
AcDbLine
 10
955.2160632523
 20
8246.903102816
 30
0.0
 11
955.2160632523
 21
8221.903102816
 31
0.0
  0
LINE
  5
12B
330
1F
100
AcDbEntity
  8
0
  6
Continuous
 62
     7
370
    25
100
AcDbLine
 10
949.2160632523
 20
8260.403102816
 30
0.0
 11
949.2160632523
 21
8208.403102816
 31
0.0
  0
LINE
  5
12C
330
1F
100
AcDbEntity
  8
0
  6
Continuous
 62
     7
370
    25
100
AcDbLine
 10
1815.2160632523
 20
8246.903102816
 30
0.0
 11
955.2160632523
 21
8246.903102816
 31
0.0
  0
LINE
  5
12D
330
1F
100
AcDbEntity
  8
0
  6
Continuous
 62
     7
370
    25
100
AcDbLine
 10
949.2160632523
 20
8204.403102816
 30
0.0
 11
945.2160632523
 21
8204.403102816
 31
0.0
  0
LINE
  5
12E
330
1F
100
AcDbEntity
  8
0
  6
Continuous
 62
     7
370
    25
100
AcDbLine
 10
945.2160632523
 20
8264.403102816
 30
0.0
 11
949.2160632523
 21
8264.403102816
 31
0.0
  0
LINE
  5
12F
330
1F
100
AcDbEntity
  8
0
  6
Continuous
 62
     7
370
    25
100
AcDbLine
 10
1825.2160632523
 20
8204.403102816
 30
0.0
 11
1821.2160632523
 21
8204.403102816
 31
0.0
  0
LINE
  5
130
330
1F
100
AcDbEntity
  8
0
  6
Continuous
 62
     7
370
    25
100
AcDbLine
 10
1821.2160632523
 20
8264.403102816
 30
0.0
 11
1825.2160632523
 21
8264.403102816
 31
0.0
  0
CIRCLE
  5
131
330
1F
100
AcDbEntity
  8
0
  6
Continuous
 62
     7
370
    25
100
AcDbCircle
 10
1385.2160632523
 20
7875.403102816
 30
0.0
 40
55.0
  0
CIRCLE
  5
132
330
1F
100
AcDbEntity
  8
0
  6
Continuous
 62
     7
370
    25
100
AcDbCircle
 10
1385.2160632523
 20
7875.403102816
 30
0.0
 40
51.0
  0
CIRCLE
  5
133
330
1F
100
AcDbEntity
  8
0
  6
Continuous
 62
     7
370
    25
100
AcDbCircle
 10
1385.2160632523
 20
7875.403102816
 30
0.0
 40
65.0
  0
LWPOLYLINE
  5
134
330
1F
100
AcDbEntity
  8
0
  6
Continuous
 62
     7
370
    25
100
AcDbPolyline
 90
       28
 70
   128
 43
0.0
 10
1435.2160632523
 20
7715.6223772553
 10
1435.018555383
 20
7715.3900163506
 10
1434.1438878672
 20
7715.0833728564
 10
1432.582380945
 20
7714.7842958024
 10
1430.3559547505
 20
7714.4969835749
 10
1427.4958634274
 20
7714.2254694077
 10
1424.0422563882
 20
7713.9735647647
 10
1420.0436147054
 20
7713.7448058348
 10
1415.5560705432
 20
7713.542403892
 10
1410.6426191847
 20
7713.3692002158
 10
1405.3722347167
 20
7713.2276262063
 10
1399.8189017841
 20
7713.1196692521
 10
1394.0605770084
 20
7713.0468448322
 10
1388.1780946469
 20
7713.010175242
 10
1382.2540318576
 20
7713.010175242
 10
1376.3715494961
 20
7713.0468448322
 10
1370.6132247204
 20
7713.1196692521
 10
1365.0598917879
 20
7713.2276262063
 10
1359.7895073198
 20
7713.3692002158
 10
1354.8760559613
 20
7713.542403892
 10
1350.3885117991
 20
7713.7448058348
 10
1346.3898701164
 20
7713.9735647647
 10
1342.9362630772
 20
7714.2254694077
 10
1340.076171754
 20
7714.4969835749
 10
1337.8497455596
 20
7714.7842958024
 10
1336.2882386373
 20
7715.0833728564
 10
1335.4135711215
 20
7715.3900163506
 10
1335.2160632523
 20
7715.6223772553
  0
LINE
  5
135
330
1F
100
AcDbEntity
  8
0
  6
Continuous
 62
     7
370
    25
100
AcDbLine
 10
1781.2160632523
 20
7891.403102816
 30
0.0
 11
1748.2160632523
 21
7891.403102816
 31
0.0
  0
LINE
  5
136
330
1F
100
AcDbEntity
  8
0
  6
Continuous
 62
     7
370
    25
100
AcDbLine
 10
1781.2160632523
 20
7887.403102816
 30
0.0
 11
1781.2160632523
 21
7891.403102816
 31
0.0
  0
LINE
  5
137
330
1F
100
AcDbEntity
  8
0
  6
Continuous
 62
     7
370
    25
100
AcDbLine
 10
1738.8910108535
 20
7887.403102816
 30
0.0
 11
1781.2160632523
 21
7887.403102816
 31
0.0
  0
ARC
  5
138
330
1F
100
AcDbEntity
  8
0
  6
Continuous
 62
     7
370
    25
100
AcDbCircle
 10
1685.2160632523
 20
7875.403102816
 30
0.0
 40
54.99999999999995
100
AcDbArc
 50
12.6022648415
 51
167.3977351585
  0
LINE
  5
139
330
1F
100
AcDbEntity
  8
0
  6
Continuous
 62
     7
370
    25
100
AcDbLine
 10
1589.2160632523
 20
7887.403102816
 30
0.0
 11
1631.541115651
 21
7887.403102816
 31
0.0
  0
LINE
  5
13A
330
1F
100
AcDbEntity
  8
0
  6
Continuous
 62
     7
370
    25
100
AcDbLine
 10
1589.2160632523
 20
7891.403102816
 30
0.0
 11
1589.2160632523
 21
7887.403102816
 31
0.0
  0
LINE
  5
13B
330
1F
100
AcDbEntity
  8
0
  6
Continuous
 62
     7
370
    25
100
AcDbLine
 10
1622.2160632523
 20
7891.403102816
 30
0.0
 11
1589.2160632523
 21
7891.403102816
 31
0.0
  0
ARC
  5
13C
330
1F
100
AcDbEntity
  8
0
  6
Continuous
 62
     7
370
    25
100
AcDbCircle
 10
1685.2160632523
 20
7875.403102816
 30
0.0
 40
65.0
100
AcDbArc
 50
14.2500326978
 51
165.7499673022
  0
ARC
  5
13D
330
1F
100
AcDbEntity
  8
0
  6
Continuous
 62
     7
370
    25
100
AcDbCircle
 10
1685.2160632523
 20
7875.403102816
 30
0.0
 40
65.0
100
AcDbArc
 50
194.2500326978
 51
345.7499673022
  0
LINE
  5
13E
330
1F
100
AcDbEntity
  8
0
  6
Continuous
 62
     7
370
    25
100
AcDbLine
 10
1631.541115651
 20
7863.403102816
 30
0.0
 11
1589.2160632523
 21
7863.403102816
 31
0.0
  0
LINE
  5
13F
330
1F
100
AcDbEntity
  8
0
  6
Continuous
 62
     7
370
    25
100
AcDbLine
 10
1781.2160632523
 20
7863.403102816
 30
0.0
 11
1738.8910108535
 21
7863.403102816
 31
0.0
  0
ARC
  5
140
330
1F
100
AcDbEntity
  8
0
  6
Continuous
 62
     7
370
    25
100
AcDbCircle
 10
1685.2160632523
 20
7875.403102816
 30
0.0
 40
54.99999999999995
100
AcDbArc
 50
192.6022648415
 51
347.3977351585
  0
LINE
  5
141
330
1F
100
AcDbEntity
  8
0
  6
Continuous
 62
     7
370
    25
100
AcDbLine
 10
1589.2160632523
 20
7863.403102816
 30
0.0
 11
1589.2160632523
 21
7859.403102816
 31
0.0
  0
LINE
  5
142
330
1F
100
AcDbEntity
  8
0
  6
Continuous
 62
     7
370
    25
100
AcDbLine
 10
1781.2160632523
 20
7859.403102816
 30
0.0
 11
1781.2160632523
 21
7863.403102816
 31
0.0
  0
LINE
  5
143
330
1F
100
AcDbEntity
  8
0
  6
Continuous
 62
     7
370
    25
100
AcDbLine
 10
1748.2160632523
 20
7859.403102816
 30
0.0
 11
1781.2160632523
 21
7859.403102816
 31
0.0
  0
LINE
  5
144
330
1F
100
AcDbEntity
  8
0
  6
Continuous
 62
     7
370
    25
100
AcDbLine
 10
1589.2160632523
 20
7859.403102816
 30
0.0
 11
1622.2160632523
 21
7859.403102816
 31
0.0
  0
LINE
  5
145
330
1F
100
AcDbEntity
  8
0
  6
Continuous
 62
     7
370
    25
100
AcDbLine
 10
1677.7105097528
 20
7939.9683153276
 30
0.0
 11
1677.7105097528
 21
7956.403102816
 31
0.0
  0
LINE
  5
146
330
1F
100
AcDbEntity
  8
0
  6
Continuous
 62
     7
370
    25
100
AcDbLine
 10
1677.7105097528
 20
7956.403102816
 30
0.0
 11
1692.7216167517
 21
7956.403102816
 31
0.0
  0
LINE
  5
147
330
1F
100
AcDbEntity
  8
0
  6
Continuous
 62
     7
370
    25
100
AcDbLine
 10
1692.7216167517
 20
7939.9683153276
 30
0.0
 11
1692.7216167517
 21
7956.403102816
 31
0.0
  0
LINE
  5
148
330
1F
100
AcDbEntity
  8
0
  6
Continuous
 62
     7
370
    25
100
AcDbLine
 10
1670.2049562533
 20
7938.6460207331
 30
0.0
 11
1670.2049562533
 21
7956.403102816
 31
0.0
  0
LINE
  5
149
330
1F
100
AcDbEntity
  8
0
  6
Continuous
 62
     7
370
    25
100
AcDbLine
 10
1670.2049562533
 20
7956.403102816
 30
0.0
 11
1677.7105097528
 21
7956.403102816
 31
0.0
  0
LINE
  5
14A
330
1F
100
AcDbEntity
  8
0
  6
Continuous
 62
     7
370
    25
100
AcDbLine
 10
1700.2271702512
 20
7938.6460207331
 30
0.0
 11
1700.2271702512
 21
7956.403102816
 31
0.0
  0
LINE
  5
14B
330
1F
100
AcDbEntity
  8
0
  6
Continuous
 62
     7
370
    25
100
AcDbLine
 10
1692.7216167517
 20
7956.403102816
 30
0.0
 11
1700.2271702512
 21
7956.403102816
 31
0.0
  0
LINE
  5
14C
330
1F
100
AcDbEntity
  8
0
  6
Continuous
 62
     7
370
    25
100
AcDbLine
 10
1772.2160632523
 20
7851.403102816
 30
0.0
 11
1767.7160632523
 21
7851.403102816
 31
0.0
  0
LINE
  5
14D
330
1F
100
AcDbEntity
  8
0
  6
Continuous
 62
     7
370
    25
100
AcDbLine
 10
1767.7160632523
 20
7854.403102816
 30
0.0
 11
1764.7160632523
 21
7854.403102816
 31
0.0
  0
SPLINE
  5
14E
330
1F
100
AcDbEntity
  8
0
  6
Continuous
 62
     7
370
    25
100
AcDbSpline
210
0.0
220
0.0
230
1.0
 70
    24
 71
     3
 72
    12
 73
     8
 74
     0
 42
0.00000001
 43
0.00000001
 40
0.0
 40
0.0
 40
0.0
 40
0.0
 40
0.0193846634676387
 40
0.2693276308745773
 40
0.5202342974107277
 40
0.7735218441625017
 40
1.0
 40
1.0
 40
1.0
 40
1.0
 10
1764.716063252262
 20
7854.403102815987
 30
0.0
 10
1764.716063252262
 20
7854.369956302833
 30
0.0
 10
1764.716063252262
 20
7853.909423579409
 30
0.0
 10
1764.716063252262
 20
7853.060315707928
 30
0.0
 10
1764.716063252262
 20
7852.105086010609
 30
0.0
 10
1764.716063252262
 20
7851.507099560859
 30
0.0
 10
1764.716063252262
 20
7851.436452473773
 30
0.0
 10
1764.716063252262
 20
7851.403102815987
 30
0.0
  0
LINE
  5
14F
330
1F
100
AcDbEntity
  8
0
  6
Continuous
 62
     7
370
    25
100
AcDbLine
 10
1764.7160632523
 20
7851.403102816
 30
0.0
 11
1760.2160632523
 21
7851.403102816
 31
0.0
  0
SPLINE
  5
150
330
1F
100
AcDbEntity
  8
0
  6
Continuous
 62
     7
370
    25
100
AcDbSpline
210
0.0
220
0.0
230
1.0
 70
    24
 71
     3
 72
    12
 73
     8
 74
     0
 42
0.00000001
 43
0.00000001
 40
0.0
 40
0.0
 40
0.0
 40
0.0
 40
0.1252589097461046
 40
0.3963794982280557
 40
0.6567784500644072
 40
0.911388829638908
 40
1.0
 40
1.0
 40
1.0
 40
1.0
 10
1767.716063252262
 20
7851.403102815987
 30
0.0
 10
1767.716063252262
 20
7851.413594433142
 30
0.0
 10
1767.716063252262
 20
7851.446794961164
 30
0.0
 10
1767.716063252262
 20
7851.847458594151
 30
0.0
 10
1767.716063252262
 20
7852.737359040231
 30
0.0
 10
1767.716063252262
 20
7853.669921681087
 30
0.0
 10
1767.716063252262
 20
7854.252655581684
 30
0.0
 10
1767.716063252262
 20
7854.403102815987
 30
0.0
  0
LINE
  5
151
330
1F
100
AcDbEntity
  8
0
  6
Continuous
 62
     7
370
    25
100
AcDbLine
 10
1610.2160632523
 20
7851.403102816
 30
0.0
 11
1605.7160632523
 21
7851.403102816
 31
0.0
  0
SPLINE
  5
152
330
1F
100
AcDbEntity
  8
0
  6
Continuous
 62
     7
370
    25
100
AcDbSpline
210
0.0
220
0.0
230
1.0
 70
    24
 71
     3
 72
    12
 73
     8
 74
     0
 42
0.00000001
 43
0.00000001
 40
0.0
 40
0.0
 40
0.0
 40
0.0
 40
0.1252589097461046
 40
0.3963794982280557
 40
0.6567784500644072
 40
0.911388829638908
 40
1.0
 40
1.0
 40
1.0
 40
1.0
 10
1605.716063252262
 20
7851.403102815987
 30
0.0
 10
1605.716063252262
 20
7851.413594433141
 30
0.0
 10
1605.716063252262
 20
7851.446794961164
 30
0.0
 10
1605.716063252262
 20
7851.847458594151
 30
0.0
 10
1605.716063252262
 20
7852.737359040231
 30
0.0
 10
1605.716063252262
 20
7853.669921681087
 30
0.0
 10
1605.716063252262
 20
7854.252655581684
 30
0.0
 10
1605.716063252262
 20
7854.403102815987
 30
0.0
  0
LINE
  5
153
330
1F
100
AcDbEntity
  8
0
  6
Continuous
 62
     7
370
    25
100
AcDbLine
 10
1605.7160632523
 20
7854.403102816
 30
0.0
 11
1602.7160632523
 21
7854.403102816
 31
0.0
  0
SPLINE
  5
154
330
1F
100
AcDbEntity
  8
0
  6
Continuous
 62
     7
370
    25
100
AcDbSpline
210
0.0
220
0.0
230
1.0
 70
    24
 71
     3
 72
    12
 73
     8
 74
     0
 42
0.00000001
 43
0.00000001
 40
0.0
 40
0.0
 40
0.0
 40
0.0
 40
0.0193846634676362
 40
0.2693276308745757
 40
0.5202342974107249
 40
0.7735218441625008
 40
1.0
 40
1.0
 40
1.0
 40
1.0
 10
1602.716063252262
 20
7854.403102815987
 30
0.0
 10
1602.716063252262
 20
7854.369956302833
 30
0.0
 10
1602.716063252262
 20
7853.909423579409
 30
0.0
 10
1602.716063252262
 20
7853.060315707928
 30
0.0
 10
1602.716063252262
 20
7852.105086010609
 30
0.0
 10
1602.716063252262
 20
7851.507099560859
 30
0.0
 10
1602.716063252262
 20
7851.436452473773
 30
0.0
 10
1602.716063252262
 20
7851.403102815987
 30
0.0
  0
LINE
  5
155
330
1F
100
AcDbEntity
  8
0
  6
Continuous
 62
     7
370
    25
100
AcDbLine
 10
1602.7160632523
 20
7851.403102816
 30
0.0
 11
1598.2160632523
 21
7851.403102816
 31
0.0
  0
LINE
  5
156
330
1F
100
AcDbEntity
  8
0
  6
Continuous
 62
     7
370
    25
100
AcDbLine
 10
1758.2160632523
 20
7894.403102816
 30
0.0
 11
1774.2160632523
 21
7894.403102816
 31
0.0
  0
LINE
  5
157
330
1F
100
AcDbEntity
  8
0
  6
Continuous
 62
     7
370
    25
100
AcDbLine
 10
1596.2160632523
 20
7894.403102816
 30
0.0
 11
1612.2160632523
 21
7894.403102816
 31
0.0
  0
LINE
  5
158
330
1F
100
AcDbEntity
  8
0
  6
Continuous
 62
     7
370
    25
100
AcDbLine
 10
1598.2160632523
 20
7903.403102816
 30
0.0
 11
1610.2160632523
 21
7903.403102816
 31
0.0
  0
LINE
  5
159
330
1F
100
AcDbEntity
  8
0
  6
Continuous
 62
     7
370
    25
100
AcDbLine
 10
1760.2160632523
 20
7903.403102816
 30
0.0
 11
1772.2160632523
 21
7903.403102816
 31
0.0
  0
LINE
  5
15A
330
1F
100
AcDbEntity
  8
0
  6
Continuous
 62
     7
370
    25
100
AcDbLine
 10
1481.2160632523
 20
7891.403102816
 30
0.0
 11
1448.2160632523
 21
7891.403102816
 31
0.0
  0
LINE
  5
15B
330
1F
100
AcDbEntity
  8
0
  6
Continuous
 62
     7
370
    25
100
AcDbLine
 10
1481.2160632523
 20
7887.403102816
 30
0.0
 11
1481.2160632523
 21
7891.403102816
 31
0.0
  0
LINE
  5
15C
330
1F
100
AcDbEntity
  8
0
  6
Continuous
 62
     7
370
    25
100
AcDbLine
 10
1449.098768267
 20
7887.403102816
 30
0.0
 11
1481.2160632523
 21
7887.403102816
 31
0.0
  0
LINE
  5
15D
330
1F
100
AcDbEntity
  8
0
  6
Continuous
 62
     7
370
    25
100
AcDbLine
 10
1289.2160632523
 20
7887.403102816
 30
0.0
 11
1321.3333582375
 21
7887.403102816
 31
0.0
  0
LINE
  5
15E
330
1F
100
AcDbEntity
  8
0
  6
Continuous
 62
     7
370
    25
100
AcDbLine
 10
1289.2160632523
 20
7891.403102816
 30
0.0
 11
1289.2160632523
 21
7887.403102816
 31
0.0
  0
LINE
  5
15F
330
1F
100
AcDbEntity
  8
0
  6
Continuous
 62
     7
370
    25
100
AcDbLine
 10
1322.2160632523
 20
7891.403102816
 30
0.0
 11
1289.2160632523
 21
7891.403102816
 31
0.0
  0
LINE
  5
160
330
1F
100
AcDbEntity
  8
0
  6
Continuous
 62
     7
370
    25
100
AcDbLine
 10
1289.2160632523
 20
7859.403102816
 30
0.0
 11
1322.2160632523
 21
7859.403102816
 31
0.0
  0
LINE
  5
161
330
1F
100
AcDbEntity
  8
0
  6
Continuous
 62
     7
370
    25
100
AcDbLine
 10
1448.2160632523
 20
7859.403102816
 30
0.0
 11
1481.2160632523
 21
7859.403102816
 31
0.0
  0
LINE
  5
162
330
1F
100
AcDbEntity
  8
0
  6
Continuous
 62
     7
370
    25
100
AcDbLine
 10
1481.2160632523
 20
7863.403102816
 30
0.0
 11
1449.098768267
 21
7863.403102816
 31
0.0
  0
LINE
  5
163
330
1F
100
AcDbEntity
  8
0
  6
Continuous
 62
     7
370
    25
100
AcDbLine
 10
1321.3333582375
 20
7863.403102816
 30
0.0
 11
1289.2160632523
 21
7863.403102816
 31
0.0
  0
LINE
  5
164
330
1F
100
AcDbEntity
  8
0
  6
Continuous
 62
     7
370
    25
100
AcDbLine
 10
1481.2160632523
 20
7859.403102816
 30
0.0
 11
1481.2160632523
 21
7863.403102816
 31
0.0
  0
LINE
  5
165
330
1F
100
AcDbEntity
  8
0
  6
Continuous
 62
     7
370
    25
100
AcDbLine
 10
1289.2160632523
 20
7863.403102816
 30
0.0
 11
1289.2160632523
 21
7859.403102816
 31
0.0
  0
LINE
  5
166
330
1F
100
AcDbEntity
  8
0
  6
Continuous
 62
     7
370
    25
100
AcDbLine
 10
1392.7216167517
 20
7939.9683153276
 30
0.0
 11
1392.7216167517
 21
7956.403102816
 31
0.0
  0
LINE
  5
167
330
1F
100
AcDbEntity
  8
0
  6
Continuous
 62
     7
370
    25
100
AcDbLine
 10
1392.7216167517
 20
7956.403102816
 30
0.0
 11
1400.2271702512
 21
7956.403102816
 31
0.0
  0
LINE
  5
168
330
1F
100
AcDbEntity
  8
0
  6
Continuous
 62
     7
370
    25
100
AcDbLine
 10
1400.2271702512
 20
7938.6460207331
 30
0.0
 11
1400.2271702512
 21
7956.403102816
 31
0.0
  0
LINE
  5
169
330
1F
100
AcDbEntity
  8
0
  6
Continuous
 62
     7
370
    25
100
AcDbLine
 10
1370.2049562533
 20
7938.6460207331
 30
0.0
 11
1370.2049562533
 21
7956.403102816
 31
0.0
  0
LINE
  5
16A
330
1F
100
AcDbEntity
  8
0
  6
Continuous
 62
     7
370
    25
100
AcDbLine
 10
1370.2049562533
 20
7956.403102816
 30
0.0
 11
1377.7105097528
 21
7956.403102816
 31
0.0
  0
LINE
  5
16B
330
1F
100
AcDbEntity
  8
0
  6
Continuous
 62
     7
370
    25
100
AcDbLine
 10
1377.7105097528
 20
7939.9683153276
 30
0.0
 11
1377.7105097528
 21
7956.403102816
 31
0.0
  0
LINE
  5
16C
330
1F
100
AcDbEntity
  8
0
  6
Continuous
 62
     7
370
    25
100
AcDbLine
 10
1377.7105097528
 20
7956.403102816
 30
0.0
 11
1392.7216167517
 21
7956.403102816
 31
0.0
  0
LINE
  5
16D
330
1F
100
AcDbEntity
  8
0
  6
Continuous
 62
     7
370
    25
100
AcDbLine
 10
1310.2160632523
 20
7851.403102816
 30
0.0
 11
1305.7160632523
 21
7851.403102816
 31
0.0
  0
LINE
  5
16E
330
1F
100
AcDbEntity
  8
0
  6
Continuous
 62
     7
370
    25
100
AcDbLine
 10
1305.7160632523
 20
7854.403102816
 30
0.0
 11
1302.7160632523
 21
7854.403102816
 31
0.0
  0
SPLINE
  5
16F
330
1F
100
AcDbEntity
  8
0
  6
Continuous
 62
     7
370
    25
100
AcDbSpline
210
0.0
220
0.0
230
1.0
 70
    24
 71
     3
 72
    12
 73
     8
 74
     0
 42
0.00000001
 43
0.00000001
 40
0.0
 40
0.0
 40
0.0
 40
0.0
 40
0.0193846634676363
 40
0.2693276308745784
 40
0.5202342974107245
 40
0.773521844162503
 40
1.0
 40
1.0
 40
1.0
 40
1.0
 10
1302.716063252262
 20
7854.403102815987
 30
0.0
 10
1302.716063252262
 20
7854.369956302833
 30
0.0
 10
1302.716063252262
 20
7853.909423579409
 30
0.0
 10
1302.716063252262
 20
7853.060315707929
 30
0.0
 10
1302.716063252262
 20
7852.105086010609
 30
0.0
 10
1302.716063252262
 20
7851.507099560859
 30
0.0
 10
1302.716063252262
 20
7851.436452473773
 30
0.0
 10
1302.716063252262
 20
7851.403102815987
 30
0.0
  0
LINE
  5
170
330
1F
100
AcDbEntity
  8
0
  6
Continuous
 62
     7
370
    25
100
AcDbLine
 10
1302.7160632523
 20
7851.403102816
 30
0.0
 11
1298.2160632523
 21
7851.403102816
 31
0.0
  0
SPLINE
  5
171
330
1F
100
AcDbEntity
  8
0
  6
Continuous
 62
     7
370
    25
100
AcDbSpline
210
0.0
220
0.0
230
1.0
 70
    24
 71
     3
 72
    12
 73
     8
 74
     0
 42
0.00000001
 43
0.00000001
 40
0.0
 40
0.0
 40
0.0
 40
0.0
 40
0.1252589097461023
 40
0.3963794982280515
 40
0.6567784500644075
 40
0.9113888296389062
 40
1.0
 40
1.0
 40
1.0
 40
1.0
 10
1305.716063252262
 20
7851.403102815987
 30
0.0
 10
1305.716063252262
 20
7851.413594433141
 30
0.0
 10
1305.716063252262
 20
7851.446794961164
 30
0.0
 10
1305.716063252262
 20
7851.847458594151
 30
0.0
 10
1305.716063252262
 20
7852.737359040231
 30
0.0
 10
1305.716063252262
 20
7853.669921681087
 30
0.0
 10
1305.716063252262
 20
7854.252655581684
 30
0.0
 10
1305.716063252262
 20
7854.403102815987
 30
0.0
  0
LINE
  5
172
330
1F
100
AcDbEntity
  8
0
  6
Continuous
 62
     7
370
    25
100
AcDbLine
 10
1472.2160632523
 20
7851.403102816
 30
0.0
 11
1467.7160632523
 21
7851.403102816
 31
0.0
  0
SPLINE
  5
173
330
1F
100
AcDbEntity
  8
0
  6
Continuous
 62
     7
370
    25
100
AcDbSpline
210
0.0
220
0.0
230
1.0
 70
    24
 71
     3
 72
    12
 73
     8
 74
     0
 42
0.00000001
 43
0.00000001
 40
0.0
 40
0.0
 40
0.0
 40
0.0
 40
0.1252589097461023
 40
0.3963794982280515
 40
0.6567784500644075
 40
0.9113888296389062
 40
1.0
 40
1.0
 40
1.0
 40
1.0
 10
1467.716063252262
 20
7851.403102815987
 30
0.0
 10
1467.716063252262
 20
7851.413594433141
 30
0.0
 10
1467.716063252262
 20
7851.446794961164
 30
0.0
 10
1467.716063252262
 20
7851.847458594151
 30
0.0
 10
1467.716063252262
 20
7852.737359040231
 30
0.0
 10
1467.716063252262
 20
7853.669921681087
 30
0.0
 10
1467.716063252262
 20
7854.252655581684
 30
0.0
 10
1467.716063252262
 20
7854.403102815987
 30
0.0
  0
LINE
  5
174
330
1F
100
AcDbEntity
  8
0
  6
Continuous
 62
     7
370
    25
100
AcDbLine
 10
1467.7160632523
 20
7854.403102816
 30
0.0
 11
1464.7160632523
 21
7854.403102816
 31
0.0
  0
SPLINE
  5
175
330
1F
100
AcDbEntity
  8
0
  6
Continuous
 62
     7
370
    25
100
AcDbSpline
210
0.0
220
0.0
230
1.0
 70
    24
 71
     3
 72
    12
 73
     8
 74
     0
 42
0.00000001
 43
0.00000001
 40
0.0
 40
0.0
 40
0.0
 40
0.0
 40
0.0193846634676387
 40
0.2693276308745801
 40
0.520234297410727
 40
0.7735218441625038
 40
0.9999999999999999
 40
0.9999999999999999
 40
0.9999999999999999
 40
0.9999999999999999
 10
1464.716063252262
 20
7854.403102815987
 30
0.0
 10
1464.716063252262
 20
7854.369956302833
 30
0.0
 10
1464.716063252262
 20
7853.909423579409
 30
0.0
 10
1464.716063252262
 20
7853.060315707929
 30
0.0
 10
1464.716063252262
 20
7852.105086010609
 30
0.0
 10
1464.716063252262
 20
7851.507099560859
 30
0.0
 10
1464.716063252262
 20
7851.436452473773
 30
0.0
 10
1464.716063252262
 20
7851.403102815987
 30
0.0
  0
LINE
  5
176
330
1F
100
AcDbEntity
  8
0
  6
Continuous
 62
     7
370
    25
100
AcDbLine
 10
1464.7160632523
 20
7851.403102816
 30
0.0
 11
1460.2160632523
 21
7851.403102816
 31
0.0
  0
LINE
  5
177
330
1F
100
AcDbEntity
  8
0
  6
Continuous
 62
     7
370
    25
100
AcDbLine
 10
1296.2160632523
 20
7894.403102816
 30
0.0
 11
1312.2160632523
 21
7894.403102816
 31
0.0
  0
LINE
  5
178
330
1F
100
AcDbEntity
  8
0
  6
Continuous
 62
     7
370
    25
100
AcDbLine
 10
1458.2160632523
 20
7894.403102816
 30
0.0
 11
1474.2160632523
 21
7894.403102816
 31
0.0
  0
LINE
  5
179
330
1F
100
AcDbEntity
  8
0
  6
Continuous
 62
     7
370
    25
100
AcDbLine
 10
1460.2160632523
 20
7903.403102816
 30
0.0
 11
1472.2160632523
 21
7903.403102816
 31
0.0
  0
LINE
  5
17A
330
1F
100
AcDbEntity
  8
0
  6
Continuous
 62
     7
370
    25
100
AcDbLine
 10
1298.2160632523
 20
7903.403102816
 30
0.0
 11
1310.2160632523
 21
7903.403102816
 31
0.0
  0
LINE
  5
17B
330
1F
100
AcDbEntity
  8
0
  6
Continuous
 62
     7
370
    25
100
AcDbLine
 10
1815.2160632523
 20
8860.403102816
 30
0.0
 11
955.2160632523
 21
8860.403102816
 31
0.0
  0
LINE
  5
17C
330
1F
100
AcDbEntity
  8
0
  6
Continuous
 62
     7
370
    25
100
AcDbLine
 10
1815.2160632523
 20
8857.403102816
 30
0.0
 11
955.2160632523
 21
8857.403102816
 31
0.0
  0
LINE
  5
17D
330
1F
100
AcDbEntity
  8
0
  6
Continuous
 62
     7
370
    25
100
AcDbLine
 10
1815.2160632523
 20
8833.403102816
 30
0.0
 11
955.2160632523
 21
8833.403102816
 31
0.0
  0
LINE
  5
17E
330
1F
100
AcDbEntity
  8
0
  6
Continuous
 62
     7
370
    25
100
AcDbLine
 10
1815.2160632523
 20
8830.403102816
 30
0.0
 11
1455.2160632523
 21
8830.403102816
 31
0.0
  0
LINE
  5
17F
330
1F
100
AcDbEntity
  8
0
  6
Continuous
 62
     7
370
    25
100
AcDbLine
 10
1315.2160632523
 20
8830.403102816
 30
0.0
 11
1265.6713450673
 21
8830.403102816
 31
0.0
  0
LINE
  5
180
330
1F
100
AcDbEntity
  8
0
  6
Continuous
 62
     7
370
    25
100
AcDbLine
 10
1065.6713450673
 20
8830.403102816
 30
0.0
 11
955.2160632523
 21
8830.403102816
 31
0.0
  0
LINE
  5
181
330
1F
100
AcDbEntity
  8
0
  6
Continuous
 62
     7
370
    25
100
AcDbLine
 10
1815.2160632523
 20
8857.403102816
 30
0.0
 11
1815.2160632523
 21
8875.403102816
 31
0.0
  0
LINE
  5
182
330
1F
100
AcDbEntity
  8
0
  6
Continuous
 62
     7
370
    25
100
AcDbLine
 10
1821.2160632523
 20
8875.403102816
 30
0.0
 11
1815.2160632523
 21
8875.403102816
 31
0.0
  0
LINE
  5
183
330
1F
100
AcDbEntity
  8
0
  6
Continuous
 62
     7
370
    25
100
AcDbLine
 10
1821.2160632523
 20
8815.403102816
 30
0.0
 11
1821.2160632523
 21
8875.403102816
 31
0.0
  0
LINE
  5
184
330
1F
100
AcDbEntity
  8
0
  6
Continuous
 62
     7
370
    25
100
AcDbLine
 10
1821.2160632523
 20
8815.403102816
 30
0.0
 11
1815.2160632523
 21
8815.403102816
 31
0.0
  0
LINE
  5
185
330
1F
100
AcDbEntity
  8
0
  6
Continuous
 62
     7
370
    25
100
AcDbLine
 10
1815.2160632523
 20
8815.403102816
 30
0.0
 11
1815.2160632523
 21
8833.403102816
 31
0.0
  0
LINE
  5
186
330
1F
100
AcDbEntity
  8
0
  6
Continuous
 62
     7
370
    25
100
AcDbLine
 10
955.2160632523
 20
8815.403102816
 30
0.0
 11
955.2160632523
 21
8833.403102816
 31
0.0
  0
LINE
  5
187
330
1F
100
AcDbEntity
  8
0
  6
Continuous
 62
     7
370
    25
100
AcDbLine
 10
955.2160632523
 20
8857.403102816
 30
0.0
 11
955.2160632523
 21
8875.403102816
 31
0.0
  0
LINE
  5
188
330
1F
100
AcDbEntity
  8
0
  6
Continuous
 62
     7
370
    25
100
AcDbLine
 10
949.2160632523
 20
8815.403102816
 30
0.0
 11
949.2160632523
 21
8875.403102816
 31
0.0
  0
LINE
  5
189
330
1F
100
AcDbEntity
  8
0
  6
Continuous
 62
     7
370
    25
100
AcDbLine
 10
949.2160632523
 20
8875.403102816
 30
0.0
 11
955.2160632523
 21
8875.403102816
 31
0.0
  0
LINE
  5
18A
330
1F
100
AcDbEntity
  8
0
  6
Continuous
 62
     7
370
    25
100
AcDbLine
 10
949.2160632523
 20
8815.403102816
 30
0.0
 11
955.2160632523
 21
8815.403102816
 31
0.0
  0
LINE
  5
18B
330
1F
100
AcDbEntity
  8
0
  6
Continuous
 62
     7
370
    25
100
AcDbLine
 10
947.2160632523
 20
8815.403102816
 30
0.0
 11
947.2160632523
 21
8875.403102816
 31
0.0
  0
LINE
  5
18C
330
1F
100
AcDbEntity
  8
0
  6
Continuous
 62
     7
370
    25
100
AcDbLine
 10
947.2160632523
 20
8875.403102816
 30
0.0
 11
949.2160632523
 21
8875.403102816
 31
0.0
  0
LINE
  5
18D
330
1F
100
AcDbEntity
  8
0
  6
Continuous
 62
     7
370
    25
100
AcDbLine
 10
949.2160632523
 20
8815.403102816
 30
0.0
 11
947.2160632523
 21
8815.403102816
 31
0.0
  0
LINE
  5
18E
330
1F
100
AcDbEntity
  8
0
  6
Continuous
 62
     7
370
    25
100
AcDbLine
 10
1823.2160632523
 20
8875.403102816
 30
0.0
 11
1823.2160632523
 21
8815.403102816
 31
0.0
  0
LINE
  5
18F
330
1F
100
AcDbEntity
  8
0
  6
Continuous
 62
     7
370
    25
100
AcDbLine
 10
1821.2160632523
 20
8875.403102816
 30
0.0
 11
1823.2160632523
 21
8875.403102816
 31
0.0
  0
LINE
  5
190
330
1F
100
AcDbEntity
  8
0
  6
Continuous
 62
     7
370
    25
100
AcDbLine
 10
1823.2160632523
 20
8815.403102816
 30
0.0
 11
1821.2160632523
 21
8815.403102816
 31
0.0
  0
LINE
  5
191
330
1F
100
AcDbEntity
  8
0
  6
Continuous
 62
     7
370
    25
100
AcDbLine
 10
945.2160632523
 20
8875.403102816
 30
0.0
 11
947.2160632523
 21
8875.403102816
 31
0.0
  0
LINE
  5
192
330
1F
100
AcDbEntity
  8
0
  6
Continuous
 62
     7
370
    25
100
AcDbLine
 10
945.2160632523
 20
8815.403102816
 30
0.0
 11
947.2160632523
 21
8815.403102816
 31
0.0
  0
LINE
  5
193
330
1F
100
AcDbEntity
  8
0
  6
Continuous
 62
     7
370
    25
100
AcDbLine
 10
1825.2160632523
 20
8875.403102816
 30
0.0
 11
1823.2160632523
 21
8875.403102816
 31
0.0
  0
LINE
  5
194
330
1F
100
AcDbEntity
  8
0
  6
Continuous
 62
     7
370
    25
100
AcDbLine
 10
1825.2160632523
 20
8815.403102816
 30
0.0
 11
1823.2160632523
 21
8815.403102816
 31
0.0
  0
LINE
  5
195
330
1F
100
AcDbEntity
  8
0
  6
Continuous
 62
     7
370
    25
100
AcDbLine
 10
949.2160632523
 20
8573.403102816
 30
0.0
 11
955.2160632523
 21
8573.403102816
 31
0.0
  0
LINE
  5
196
330
1F
100
AcDbEntity
  8
0
  6
Continuous
 62
     7
370
    25
100
AcDbLine
 10
955.2160632523
 20
8615.403102816
 30
0.0
 11
1815.2160632523
 21
8615.403102816
 31
0.0
  0
LINE
  5
197
330
1F
100
AcDbEntity
  8
0
  6
Continuous
 62
     7
370
    25
100
AcDbLine
 10
1815.2160632523
 20
8633.403102816
 30
0.0
 11
1815.2160632523
 21
8615.403102816
 31
0.0
  0
LINE
  5
198
330
1F
100
AcDbEntity
  8
0
  6
Continuous
 62
     7
370
    25
100
AcDbLine
 10
1821.2160632523
 20
8633.403102816
 30
0.0
 11
1815.2160632523
 21
8633.403102816
 31
0.0
  0
LINE
  5
199
330
1F
100
AcDbEntity
  8
0
  6
Continuous
 62
     7
370
    25
100
AcDbLine
 10
1821.2160632523
 20
8633.403102816
 30
0.0
 11
1821.2160632523
 21
8573.403102816
 31
0.0
  0
LINE
  5
19A
330
1F
100
AcDbEntity
  8
0
  6
Continuous
 62
     7
370
    25
100
AcDbLine
 10
1821.2160632523
 20
8573.403102816
 30
0.0
 11
1815.2160632523
 21
8573.403102816
 31
0.0
  0
LINE
  5
19B
330
1F
100
AcDbEntity
  8
0
  6
Continuous
 62
     7
370
    25
100
AcDbLine
 10
1815.2160632523
 20
8591.403102816
 30
0.0
 11
1815.2160632523
 21
8573.403102816
 31
0.0
  0
LINE
  5
19C
330
1F
100
AcDbEntity
  8
0
  6
Continuous
 62
     7
370
    25
100
AcDbLine
 10
955.2160632523
 20
8591.403102816
 30
0.0
 11
1815.2160632523
 21
8591.403102816
 31
0.0
  0
LINE
  5
19D
330
1F
100
AcDbEntity
  8
0
  6
Continuous
 62
     7
370
    25
100
AcDbLine
 10
949.2160632523
 20
8633.403102816
 30
0.0
 11
949.2160632523
 21
8573.403102816
 31
0.0
  0
LINE
  5
19E
330
1F
100
AcDbEntity
  8
0
  6
Continuous
 62
     7
370
    25
100
AcDbLine
 10
955.2160632523
 20
8591.403102816
 30
0.0
 11
955.2160632523
 21
8573.403102816
 31
0.0
  0
LINE
  5
19F
330
1F
100
AcDbEntity
  8
0
  6
Continuous
 62
     7
370
    25
100
AcDbLine
 10
955.2160632523
 20
8633.403102816
 30
0.0
 11
955.2160632523
 21
8615.403102816
 31
0.0
  0
LINE
  5
1A0
330
1F
100
AcDbEntity
  8
0
  6
Continuous
 62
     7
370
    25
100
AcDbLine
 10
949.2160632523
 20
8633.403102816
 30
0.0
 11
955.2160632523
 21
8633.403102816
 31
0.0
  0
LINE
  5
1A1
330
1F
100
AcDbEntity
  8
0
  6
Continuous
 62
     7
370
    25
100
AcDbLine
 10
955.2160632523
 20
8588.403102816
 30
0.0
 11
1815.2160632523
 21
8588.403102816
 31
0.0
  0
LINE
  5
1A2
330
1F
100
AcDbEntity
  8
0
  6
Continuous
 62
     7
370
    25
100
AcDbLine
 10
955.2160632523
 20
8618.403102816
 30
0.0
 11
1065.6713450673
 21
8618.403102816
 31
0.0
  0
LINE
  5
1A3
330
1F
100
AcDbEntity
  8
0
  6
Continuous
 62
     7
370
    25
100
AcDbLine
 10
1265.6713450673
 20
8618.403102816
 30
0.0
 11
1315.2160632523
 21
8618.403102816
 31
0.0
  0
LINE
  5
1A4
330
1F
100
AcDbEntity
  8
0
  6
Continuous
 62
     7
370
    25
100
AcDbLine
 10
1455.2160632523
 20
8618.403102816
 30
0.0
 11
1815.2160632523
 21
8618.403102816
 31
0.0
  0
LINE
  5
1A5
330
1F
100
AcDbEntity
  8
0
  6
Continuous
 62
     7
370
    25
100
AcDbLine
 10
947.2160632523
 20
8573.403102816
 30
0.0
 11
947.2160632523
 21
8633.403102816
 31
0.0
  0
LINE
  5
1A6
330
1F
100
AcDbEntity
  8
0
  6
Continuous
 62
     7
370
    25
100
AcDbLine
 10
949.2160632523
 20
8573.403102816
 30
0.0
 11
947.2160632523
 21
8573.403102816
 31
0.0
  0
LINE
  5
1A7
330
1F
100
AcDbEntity
  8
0
  6
Continuous
 62
     7
370
    25
100
AcDbLine
 10
947.2160632523
 20
8633.403102816
 30
0.0
 11
949.2160632523
 21
8633.403102816
 31
0.0
  0
LINE
  5
1A8
330
1F
100
AcDbEntity
  8
0
  6
Continuous
 62
     7
370
    25
100
AcDbLine
 10
1823.2160632523
 20
8633.403102816
 30
0.0
 11
1823.2160632523
 21
8573.403102816
 31
0.0
  0
LINE
  5
1A9
330
1F
100
AcDbEntity
  8
0
  6
Continuous
 62
     7
370
    25
100
AcDbLine
 10
1823.2160632523
 20
8573.403102816
 30
0.0
 11
1821.2160632523
 21
8573.403102816
 31
0.0
  0
LINE
  5
1AA
330
1F
100
AcDbEntity
  8
0
  6
Continuous
 62
     7
370
    25
100
AcDbLine
 10
1821.2160632523
 20
8633.403102816
 30
0.0
 11
1823.2160632523
 21
8633.403102816
 31
0.0
  0
LINE
  5
1AB
330
1F
100
AcDbEntity
  8
0
  6
Continuous
 62
     7
370
    25
100
AcDbLine
 10
945.2160632523
 20
8573.403102816
 30
0.0
 11
947.2160632523
 21
8573.403102816
 31
0.0
  0
LINE
  5
1AC
330
1F
100
AcDbEntity
  8
0
  6
Continuous
 62
     7
370
    25
100
AcDbLine
 10
945.2160632523
 20
8633.403102816
 30
0.0
 11
947.2160632523
 21
8633.403102816
 31
0.0
  0
LINE
  5
1AD
330
1F
100
AcDbEntity
  8
0
  6
Continuous
 62
     7
370
    25
100
AcDbLine
 10
1825.2160632523
 20
8573.403102816
 30
0.0
 11
1823.2160632523
 21
8573.403102816
 31
0.0
  0
LINE
  5
1AE
330
1F
100
AcDbEntity
  8
0
  6
Continuous
 62
     7
370
    25
100
AcDbLine
 10
1825.2160632523
 20
8633.403102816
 30
0.0
 11
1823.2160632523
 21
8633.403102816
 31
0.0
  0
LINE
  5
1AF
330
1F
100
AcDbEntity
  8
0
  6
Continuous
 62
     7
370
    25
100
AcDbLine
 10
1815.2160632523
 20
8009.403102816
 30
0.0
 11
955.2160632523
 21
8009.403102816
 31
0.0
  0
LINE
  5
1B0
330
1F
100
AcDbEntity
  8
0
  6
Continuous
 62
     7
370
    25
100
AcDbLine
 10
1815.2160632523
 20
8006.403102816
 30
0.0
 11
955.2160632523
 21
8006.403102816
 31
0.0
  0
LINE
  5
1B1
330
1F
100
AcDbEntity
  8
0
  6
Continuous
 62
     7
370
    25
100
AcDbLine
 10
1815.2160632523
 20
7982.403102816
 30
0.0
 11
955.2160632523
 21
7982.403102816
 31
0.0
  0
LINE
  5
1B2
330
1F
100
AcDbEntity
  8
0
  6
Continuous
 62
     7
370
    25
100
AcDbLine
 10
1815.2160632523
 20
7979.403102816
 30
0.0
 11
955.2160632523
 21
7979.403102816
 31
0.0
  0
LINE
  5
1B3
330
1F
100
AcDbEntity
  8
0
  6
Continuous
 62
     7
370
    25
100
AcDbLine
 10
1821.2160632523
 20
7964.403102816
 30
0.0
 11
1815.2160632523
 21
7964.403102816
 31
0.0
  0
LINE
  5
1B4
330
1F
100
AcDbEntity
  8
0
  6
Continuous
 62
     7
370
    25
100
AcDbLine
 10
955.2160632523
 20
7964.403102816
 30
0.0
 11
955.2160632523
 21
7982.403102816
 31
0.0
  0
LINE
  5
1B5
330
1F
100
AcDbEntity
  8
0
  6
Continuous
 62
     7
370
    25
100
AcDbLine
 10
949.2160632523
 20
7964.403102816
 30
0.0
 11
955.2160632523
 21
7964.403102816
 31
0.0
  0
LINE
  5
1B6
330
1F
100
AcDbEntity
  8
0
  6
Continuous
 62
     7
370
    25
100
AcDbLine
 10
949.2160632523
 20
7964.403102816
 30
0.0
 11
949.2160632523
 21
8024.403102816
 31
0.0
  0
LINE
  5
1B7
330
1F
100
AcDbEntity
  8
0
  6
Continuous
 62
     7
370
    25
100
AcDbLine
 10
949.2160632523
 20
8024.403102816
 30
0.0
 11
955.2160632523
 21
8024.403102816
 31
0.0
  0
LINE
  5
1B8
330
1F
100
AcDbEntity
  8
0
  6
Continuous
 62
     7
370
    25
100
AcDbLine
 10
955.2160632523
 20
8006.403102816
 30
0.0
 11
955.2160632523
 21
8024.403102816
 31
0.0
  0
LINE
  5
1B9
330
1F
100
AcDbEntity
  8
0
  6
Continuous
 62
     7
370
    25
100
AcDbLine
 10
1821.2160632523
 20
7964.403102816
 30
0.0
 11
1821.2160632523
 21
8024.403102816
 31
0.0
  0
LINE
  5
1BA
330
1F
100
AcDbEntity
  8
0
  6
Continuous
 62
     7
370
    25
100
AcDbLine
 10
1815.2160632523
 20
8006.403102816
 30
0.0
 11
1815.2160632523
 21
8024.403102816
 31
0.0
  0
LINE
  5
1BB
330
1F
100
AcDbEntity
  8
0
  6
Continuous
 62
     7
370
    25
100
AcDbLine
 10
1815.2160632523
 20
7964.403102816
 30
0.0
 11
1815.2160632523
 21
7982.403102816
 31
0.0
  0
LINE
  5
1BC
330
1F
100
AcDbEntity
  8
0
  6
Continuous
 62
     7
370
    25
100
AcDbLine
 10
1821.2160632523
 20
8024.403102816
 30
0.0
 11
1815.2160632523
 21
8024.403102816
 31
0.0
  0
LINE
  5
1BD
330
1F
100
AcDbEntity
  8
0
  6
Continuous
 62
     7
370
    25
100
AcDbLine
 10
1823.2160632523
 20
8024.403102816
 30
0.0
 11
1823.2160632523
 21
7964.403102816
 31
0.0
  0
LINE
  5
1BE
330
1F
100
AcDbEntity
  8
0
  6
Continuous
 62
     7
370
    25
100
AcDbLine
 10
1823.2160632523
 20
7964.403102816
 30
0.0
 11
1821.2160632523
 21
7964.403102816
 31
0.0
  0
LINE
  5
1BF
330
1F
100
AcDbEntity
  8
0
  6
Continuous
 62
     7
370
    25
100
AcDbLine
 10
1821.2160632523
 20
8024.403102816
 30
0.0
 11
1823.2160632523
 21
8024.403102816
 31
0.0
  0
LINE
  5
1C0
330
1F
100
AcDbEntity
  8
0
  6
Continuous
 62
     7
370
    25
100
AcDbLine
 10
947.2160632523
 20
7964.403102816
 30
0.0
 11
947.2160632523
 21
8024.403102816
 31
0.0
  0
LINE
  5
1C1
330
1F
100
AcDbEntity
  8
0
  6
Continuous
 62
     7
370
    25
100
AcDbLine
 10
949.2160632523
 20
7964.403102816
 30
0.0
 11
947.2160632523
 21
7964.403102816
 31
0.0
  0
LINE
  5
1C2
330
1F
100
AcDbEntity
  8
0
  6
Continuous
 62
     7
370
    25
100
AcDbLine
 10
947.2160632523
 20
8024.403102816
 30
0.0
 11
949.2160632523
 21
8024.403102816
 31
0.0
  0
LINE
  5
1C3
330
1F
100
AcDbEntity
  8
0
  6
Continuous
 62
     7
370
    25
100
AcDbLine
 10
1825.2160632523
 20
7964.403102816
 30
0.0
 11
1823.2160632523
 21
7964.403102816
 31
0.0
  0
LINE
  5
1C4
330
1F
100
AcDbEntity
  8
0
  6
Continuous
 62
     7
370
    25
100
AcDbLine
 10
1825.2160632523
 20
8024.403102816
 30
0.0
 11
1823.2160632523
 21
8024.403102816
 31
0.0
  0
LINE
  5
1C5
330
1F
100
AcDbEntity
  8
0
  6
Continuous
 62
     7
370
    25
100
AcDbLine
 10
945.2160632523
 20
7964.403102816
 30
0.0
 11
947.2160632523
 21
7964.403102816
 31
0.0
  0
LINE
  5
1C6
330
1F
100
AcDbEntity
  8
0
  6
Continuous
 62
     7
370
    25
100
AcDbLine
 10
945.2160632523
 20
8024.403102816
 30
0.0
 11
947.2160632523
 21
8024.403102816
 31
0.0
  0
LINE
  5
1C7
330
1F
100
AcDbEntity
  8
0
  6
Continuous
 62
     7
370
    25
100
AcDbLine
 10
1237.4202388497
 20
8822.403102816
 30
0.0
 11
1230.1713450673
 21
8822.403102816
 31
0.0
  0
LINE
  5
1C8
330
1F
100
AcDbEntity
  8
0
  6
Continuous
 62
     7
370
    25
100
AcDbLine
 10
1262.1713450673
 20
8822.403102816
 30
0.0
 11
1237.4202388497
 21
8822.403102816
 31
0.0
  0
LINE
  5
1C9
330
1F
100
AcDbEntity
  8
0
  6
Continuous
 62
     7
370
    25
100
AcDbLine
 10
1230.1713450673
 20
8626.403102816
 30
0.0
 11
1262.1713450673
 21
8626.403102816
 31
0.0
  0
LINE
  5
1CA
330
1F
100
AcDbEntity
  8
0
  6
Continuous
 62
     7
370
    25
100
AcDbLine
 10
1823.2160632523
 20
6844.403102816
 30
0.0
 11
1823.2160632523
 21
6876.403102816
 31
0.0
  0
LINE
  5
1CB
330
1F
100
AcDbEntity
  8
0
  6
Continuous
 62
     7
370
    25
100
AcDbLine
 10
1069.1713450673
 20
8626.403102816
 30
0.0
 11
1101.1713450673
 21
8626.403102816
 31
0.0
  0
LINE
  5
1CC
330
1F
100
AcDbEntity
  8
0
  6
Continuous
 62
     7
370
    25
100
AcDbLine
 10
1086.1713450673
 20
8822.403102816
 30
0.0
 11
1070.1713450673
 21
8822.403102816
 31
0.0
  0
LINE
  5
1CD
330
1F
100
AcDbEntity
  8
0
  6
Continuous
 62
     7
370
    25
100
AcDbLine
 10
1102.1713450673
 20
8822.403102816
 30
0.0
 11
1086.1713450673
 21
8822.403102816
 31
0.0
  0
LINE
  5
1CE
330
1F
100
AcDbEntity
  8
0
  6
Continuous
 62
     7
370
    25
100
AcDbLine
 10
947.2160632523
 20
6876.403102816
 30
0.0
 11
947.2160632523
 21
6844.403102816
 31
0.0
  0
LINE
  5
1CF
330
1F
100
AcDbEntity
  8
0
  6
Continuous
 62
     7
370
    25
100
AcDbLine
 10
1813.2160632523
 20
6846.8929757832
 30
0.0
 11
1823.2160632523
 21
6846.8929757832
 31
0.0
  0
LINE
  5
1D0
330
1F
100
AcDbEntity
  8
0
  6
Continuous
 62
     7
370
    25
100
AcDbLine
 10
1813.2160632523
 20
6859.3143741527
 30
0.0
 11
1823.2160632523
 21
6859.3143741527
 31
0.0
  0
LINE
  5
1D1
330
1F
100
AcDbEntity
  8
0
  6
Continuous
 62
     7
370
    25
100
AcDbLine
 10
1813.2160632523
 20
6846.8929757832
 30
0.0
 11
1813.2160632523
 21
6859.3143741527
 31
0.0
  0
LINE
  5
1D2
330
1F
100
AcDbEntity
  8
0
  6
Continuous
 62
     7
370
    25
100
AcDbLine
 10
1813.2160632523
 20
6872.8245011855
 30
0.0
 11
1823.2160632523
 21
6872.8245011855
 31
0.0
  0
LINE
  5
1D3
330
1F
100
AcDbEntity
  8
0
  6
Continuous
 62
     7
370
    25
100
AcDbLine
 10
1813.2160632523
 20
6859.3143741527
 30
0.0
 11
1813.2160632523
 21
6872.8245011855
 31
0.0
  0
LINE
  5
1D4
330
1F
100
AcDbEntity
  8
0
  6
Continuous
 62
     7
370
    25
100
AcDbLine
 10
1813.2160632523
 20
6873.9132298488
 30
0.0
 11
1823.2160632523
 21
6873.9132298488
 31
0.0
  0
LINE
  5
1D5
330
1F
100
AcDbEntity
  8
0
  6
Continuous
 62
     7
370
    25
100
AcDbLine
 10
1813.2160632523
 20
6872.8245011855
 30
0.0
 11
1813.2160632523
 21
6873.9132298488
 31
0.0
  0
LINE
  5
1D6
330
1F
100
AcDbEntity
  8
0
  6
Continuous
 62
     7
370
    25
100
AcDbLine
 10
1082.8408142981
 20
8812.403102816
 30
0.0
 11
1082.8408142981
 21
8822.403102816
 31
0.0
  0
LINE
  5
1D7
330
1F
100
AcDbEntity
  8
0
  6
Continuous
 62
     7
370
    25
100
AcDbLine
 10
1071.8300916109
 20
8812.403102816
 30
0.0
 11
1071.8300916109
 21
8822.403102816
 31
0.0
  0
LINE
  5
1D8
330
1F
100
AcDbEntity
  8
0
  6
Continuous
 62
     7
370
    25
100
AcDbLine
 10
1082.8408142981
 20
8812.403102816
 30
0.0
 11
1071.8300916109
 21
8812.403102816
 31
0.0
  0
LINE
  5
1D9
330
1F
100
AcDbEntity
  8
0
  6
Continuous
 62
     7
370
    25
100
AcDbLine
 10
1097.1820677545
 20
8812.403102816
 30
0.0
 11
1097.1820677545
 21
8822.403102816
 31
0.0
  0
LINE
  5
1DA
330
1F
100
AcDbEntity
  8
0
  6
Continuous
 62
     7
370
    25
100
AcDbLine
 10
1097.1820677545
 20
8812.403102816
 30
0.0
 11
1082.8408142981
 21
8812.403102816
 31
0.0
  0
LINE
  5
1DB
330
1F
100
AcDbEntity
  8
0
  6
Continuous
 62
     7
370
    25
100
AcDbLine
 10
1100.5125985237
 20
8812.403102816
 30
0.0
 11
1100.5125985237
 21
8822.403102816
 31
0.0
  0
LINE
  5
1DC
330
1F
100
AcDbEntity
  8
0
  6
Continuous
 62
     7
370
    25
100
AcDbLine
 10
1100.5125985237
 20
8812.403102816
 30
0.0
 11
1097.1820677545
 21
8812.403102816
 31
0.0
  0
LINE
  5
1DD
330
1F
100
AcDbEntity
  8
0
  6
Continuous
 62
     7
370
    25
100
AcDbLine
 10
1080.6946871628
 20
8636.403102816
 30
0.0
 11
1080.6946871628
 21
8626.403102816
 31
0.0
  0
LINE
  5
1DE
330
1F
100
AcDbEntity
  8
0
  6
Continuous
 62
     7
370
    25
100
AcDbLine
 10
1080.6946871628
 20
8636.403102816
 30
0.0
 11
1095.3414668848
 21
8636.403102816
 31
0.0
  0
LINE
  5
1DF
330
1F
100
AcDbEntity
  8
0
  6
Continuous
 62
     7
370
    25
100
AcDbLine
 10
1095.3414668848
 20
8636.403102816
 30
0.0
 11
1095.3414668848
 21
8626.403102816
 31
0.0
  0
LINE
  5
1E0
330
1F
100
AcDbEntity
  8
0
  6
Continuous
 62
     7
370
    25
100
AcDbLine
 10
1070.5245653453
 20
8636.403102816
 30
0.0
 11
1070.5245653453
 21
8626.403102816
 31
0.0
  0
LINE
  5
1E1
330
1F
100
AcDbEntity
  8
0
  6
Continuous
 62
     7
370
    25
100
AcDbLine
 10
1070.5245653453
 20
8636.403102816
 30
0.0
 11
1080.6946871628
 21
8636.403102816
 31
0.0
  0
LINE
  5
1E2
330
1F
100
AcDbEntity
  8
0
  6
Continuous
 62
     7
370
    25
100
AcDbLine
 10
1099.8181247893
 20
8636.403102816
 30
0.0
 11
1099.8181247893
 21
8626.403102816
 31
0.0
  0
LINE
  5
1E3
330
1F
100
AcDbEntity
  8
0
  6
Continuous
 62
     7
370
    25
100
AcDbLine
 10
1095.3414668848
 20
8636.403102816
 30
0.0
 11
1099.8181247893
 21
8636.403102816
 31
0.0
  0
LINE
  5
1E4
330
1F
100
AcDbEntity
  8
0
  6
Continuous
 62
     7
370
    25
100
AcDbLine
 10
957.2160632523
 20
6870.3857267427
 30
0.0
 11
947.2160632523
 21
6870.3857267427
 31
0.0
  0
LINE
  5
1E5
330
1F
100
AcDbEntity
  8
0
  6
Continuous
 62
     7
370
    25
100
AcDbLine
 10
957.2160632523
 20
6855.6856344927
 30
0.0
 11
947.2160632523
 21
6855.6856344927
 31
0.0
  0
LINE
  5
1E6
330
1F
100
AcDbEntity
  8
0
  6
Continuous
 62
     7
370
    25
100
AcDbLine
 10
957.2160632523
 20
6870.3857267427
 30
0.0
 11
957.2160632523
 21
6855.6856344927
 31
0.0
  0
LINE
  5
1E7
330
1F
100
AcDbEntity
  8
0
  6
Continuous
 62
     7
370
    25
100
AcDbLine
 10
957.2160632523
 20
6845.703010566
 30
0.0
 11
947.2160632523
 21
6845.703010566
 31
0.0
  0
LINE
  5
1E8
330
1F
100
AcDbEntity
  8
0
  6
Continuous
 62
     7
370
    25
100
AcDbLine
 10
957.2160632523
 20
6855.6856344927
 30
0.0
 11
957.2160632523
 21
6845.703010566
 31
0.0
  0
LINE
  5
1E9
330
1F
100
AcDbEntity
  8
0
  6
Continuous
 62
     7
370
    25
100
AcDbLine
 10
957.2160632523
 20
6875.1031950659
 30
0.0
 11
947.2160632523
 21
6875.1031950659
 31
0.0
  0
LINE
  5
1EA
330
1F
100
AcDbEntity
  8
0
  6
Continuous
 62
     7
370
    25
100
AcDbLine
 10
957.2160632523
 20
6875.1031950659
 30
0.0
 11
957.2160632523
 21
6870.3857267427
 31
0.0
  0
LINE
  5
1EB
330
1F
100
AcDbEntity
  8
0
  6
Continuous
 62
     7
370
    25
100
AcDbLine
 10
1254.3892790562
 20
8812.403102816
 30
0.0
 11
1254.3892790562
 21
8822.403102816
 31
0.0
  0
LINE
  5
1EC
330
1F
100
AcDbEntity
  8
0
  6
Continuous
 62
     7
370
    25
100
AcDbLine
 10
1254.3892790562
 20
8812.403102816
 30
0.0
 11
1239.4014715576
 21
8812.403102816
 31
0.0
  0
LINE
  5
1ED
330
1F
100
AcDbEntity
  8
0
  6
Continuous
 62
     7
370
    25
100
AcDbLine
 10
1239.4014715576
 20
8812.403102816
 30
0.0
 11
1239.4014715576
 21
8822.403102816
 31
0.0
  0
LINE
  5
1EE
330
1F
100
AcDbEntity
  8
0
  6
Continuous
 62
     7
370
    25
100
AcDbLine
 10
1231.1835375687
 20
8812.403102816
 30
0.0
 11
1231.1835375687
 21
8822.403102816
 31
0.0
  0
LINE
  5
1EF
330
1F
100
AcDbEntity
  8
0
  6
Continuous
 62
     7
370
    25
100
AcDbLine
 10
1239.4014715576
 20
8812.403102816
 30
0.0
 11
1231.1835375687
 21
8812.403102816
 31
0.0
  0
LINE
  5
1F0
330
1F
100
AcDbEntity
  8
0
  6
Continuous
 62
     7
370
    25
100
AcDbLine
 10
1261.159152566
 20
8812.403102816
 30
0.0
 11
1261.159152566
 21
8822.403102816
 31
0.0
  0
LINE
  5
1F1
330
1F
100
AcDbEntity
  8
0
  6
Continuous
 62
     7
370
    25
100
AcDbLine
 10
1261.159152566
 20
8812.403102816
 30
0.0
 11
1254.3892790562
 21
8812.403102816
 31
0.0
  0
LINE
  5
1F2
330
1F
100
AcDbEntity
  8
0
  6
Continuous
 62
     7
370
    25
100
AcDbLine
 10
1244.5691481005
 20
8636.403102816
 30
0.0
 11
1244.5691481005
 21
8626.403102816
 31
0.0
  0
LINE
  5
1F3
330
1F
100
AcDbEntity
  8
0
  6
Continuous
 62
     7
370
    25
100
AcDbLine
 10
1244.5691481005
 20
8636.403102816
 30
0.0
 11
1258.2959853891
 21
8636.403102816
 31
0.0
  0
LINE
  5
1F4
330
1F
100
AcDbEntity
  8
0
  6
Continuous
 62
     7
370
    25
100
AcDbLine
 10
1258.2959853891
 20
8636.403102816
 30
0.0
 11
1258.2959853891
 21
8626.403102816
 31
0.0
  0
LINE
  5
1F5
330
1F
100
AcDbEntity
  8
0
  6
Continuous
 62
     7
370
    25
100
AcDbLine
 10
1232.4445077787
 20
8636.403102816
 30
0.0
 11
1232.4445077787
 21
8626.403102816
 31
0.0
  0
LINE
  5
1F6
330
1F
100
AcDbEntity
  8
0
  6
Continuous
 62
     7
370
    25
100
AcDbLine
 10
1232.4445077787
 20
8636.403102816
 30
0.0
 11
1244.5691481005
 21
8636.403102816
 31
0.0
  0
LINE
  5
1F7
330
1F
100
AcDbEntity
  8
0
  6
Continuous
 62
     7
370
    25
100
AcDbLine
 10
1259.8981823559
 20
8636.403102816
 30
0.0
 11
1259.8981823559
 21
8626.403102816
 31
0.0
  0
LINE
  5
1F8
330
1F
100
AcDbEntity
  8
0
  6
Continuous
 62
     7
370
    25
100
AcDbLine
 10
1258.2959853891
 20
8636.403102816
 30
0.0
 11
1259.8981823559
 21
8636.403102816
 31
0.0
  0
CIRCLE
  5
1F9
330
1F
100
AcDbEntity
  8
0
  6
Continuous
 62
     7
370
    25
100
AcDbCircle
 10
1385.2160632523
 20
8724.403102816
 30
0.0
 40
26.0
  0
LINE
  5
1FA
330
1F
100
AcDbEntity
  8
0
  6
Continuous
 62
     7
370
    25
100
AcDbLine
 10
1415.2160632523
 20
8707.0825947403
 30
0.0
 11
1415.2160632523
 21
8741.7236108917
 31
0.0
  0
LINE
  5
1FB
330
1F
100
AcDbEntity
  8
0
  6
Continuous
 62
     7
370
    25
100
AcDbLine
 10
1385.2160632523
 20
8689.7620866646
 30
0.0
 11
1415.2160632523
 21
8707.0825947403
 31
0.0
  0
LINE
  5
1FC
330
1F
100
AcDbEntity
  8
0
  6
Continuous
 62
     7
370
    25
100
AcDbLine
 10
1355.2160632523
 20
8707.0825947403
 30
0.0
 11
1385.2160632523
 21
8689.7620866646
 31
0.0
  0
LINE
  5
1FD
330
1F
100
AcDbEntity
  8
0
  6
Continuous
 62
     7
370
    25
100
AcDbLine
 10
1355.2160632523
 20
8741.7236108917
 30
0.0
 11
1355.2160632523
 21
8707.0825947403
 31
0.0
  0
LINE
  5
1FE
330
1F
100
AcDbEntity
  8
0
  6
Continuous
 62
     7
370
    25
100
AcDbLine
 10
1385.2160632523
 20
8759.0441189674
 30
0.0
 11
1355.2160632523
 21
8741.7236108917
 31
0.0
  0
LINE
  5
1FF
330
1F
100
AcDbEntity
  8
0
  6
Continuous
 62
     7
370
    25
100
AcDbLine
 10
1415.2160632523
 20
8741.7236108917
 30
0.0
 11
1385.2160632523
 21
8759.0441189674
 31
0.0
  0
CIRCLE
  5
200
330
1F
100
AcDbEntity
  8
0
  6
Continuous
 62
     7
370
    25
100
AcDbCircle
 10
1385.2160632523
 20
8724.403102816
 30
0.0
 40
34.70000000000005
  0
ARC
  5
201
330
1F
100
AcDbEntity
  8
0
  6
Continuous
 62
     7
370
    25
100
AcDbCircle
 10
1423.3998294363
 20
8686.2193366319
 30
0.0
 40
12.00000000000042
100
AcDbArc
 50
67.3757424617
 51
115.5287793655
  0
LINE
  5
202
330
1F
100
AcDbEntity
  8
0
  6
Continuous
 62
     7
370
    25
100
AcDbLine
 10
1428.0160632523
 20
8697.2959058371
 30
0.0
 11
1428.0160632523
 21
8751.5102997949
 31
0.0
  0
ARC
  5
203
330
1F
100
AcDbEntity
  8
0
  6
Continuous
 62
     7
370
    25
100
AcDbCircle
 10
1423.3998294363
 20
8762.5868690001
 30
0.0
 40
12.00000000000042
100
AcDbArc
 50
244.4712206345
 51
292.6242575383
  0
LINE
  5
204
330
1F
100
AcDbEntity
  8
0
  6
Continuous
 62
     7
370
    25
100
AcDbLine
 10
1418.2282565611
 20
8751.7584418753
 30
0.0
 11
1412.4175287596
 21
8745.9477140738
 31
0.0
  0
LINE
  5
205
330
1F
100
AcDbEntity
  8
0
  6
Continuous
 62
     7
370
    25
100
AcDbLine
 10
1412.5714023116
 20
8757.4152961248
 30
0.0
 11
1406.7606745101
 21
8751.6045683233
 31
0.0
  0
ARC
  5
206
330
1F
100
AcDbEntity
  8
0
  6
Continuous
 62
     7
370
    25
100
AcDbCircle
 10
1423.3998294363
 20
8762.5868690001
 30
0.0
 40
12.0000000000006
100
AcDbArc
 50
157.3757424617
 51
205.5287793655
  0
LINE
  5
207
330
1F
100
AcDbEntity
  8
0
  6
Continuous
 62
     7
370
    25
100
AcDbLine
 10
1412.3232602312
 20
8767.203102816
 30
0.0
 11
1358.1088662733
 21
8767.203102816
 31
0.0
  0
ARC
  5
208
330
1F
100
AcDbEntity
  8
0
  6
Continuous
 62
     7
370
    25
100
AcDbCircle
 10
1347.0322970682
 20
8762.5868690001
 30
0.0
 40
12.0000000000008
100
AcDbArc
 50
334.4712206345
 51
22.6242575383
  0
LINE
  5
209
330
1F
100
AcDbEntity
  8
0
  6
Continuous
 62
     7
370
    25
100
AcDbLine
 10
1363.6714519944
 20
8751.6045683233
 30
0.0
 11
1357.8607241929
 21
8757.4152961248
 31
0.0
  0
LINE
  5
20A
330
1F
100
AcDbEntity
  8
0
  6
Continuous
 62
     7
370
    25
100
AcDbLine
 10
1358.0145977449
 20
8745.9477140738
 30
0.0
 11
1352.2038699434
 21
8751.7584418753
 31
0.0
  0
ARC
  5
20B
330
1F
100
AcDbEntity
  8
0
  6
Continuous
 62
     7
370
    25
100
AcDbCircle
 10
1347.0322970682
 20
8762.5868690001
 30
0.0
 40
12.00000000000042
100
AcDbArc
 50
247.3757424617
 51
295.5287793655
  0
LINE
  5
20C
330
1F
100
AcDbEntity
  8
0
  6
Continuous
 62
     7
370
    25
100
AcDbLine
 10
1342.4160632523
 20
8751.5102997949
 30
0.0
 11
1342.4160632523
 21
8697.2959058371
 31
0.0
  0
ARC
  5
20D
330
1F
100
AcDbEntity
  8
0
  6
Continuous
 62
     7
370
    25
100
AcDbCircle
 10
1347.0322970682
 20
8686.2193366319
 30
0.0
 40
12.00000000000042
100
AcDbArc
 50
64.4712206345
 51
112.6242575383
  0
LINE
  5
20E
330
1F
100
AcDbEntity
  8
0
  6
Continuous
 62
     7
370
    25
100
AcDbLine
 10
1358.0145977449
 20
8702.8584915581
 30
0.0
 11
1352.2038699434
 21
8697.0477637567
 31
0.0
  0
LINE
  5
20F
330
1F
100
AcDbEntity
  8
0
  6
Continuous
 62
     7
370
    25
100
AcDbLine
 10
1363.6714519944
 20
8697.2016373086
 30
0.0
 11
1357.8607241929
 21
8691.3909095072
 31
0.0
  0
ARC
  5
210
330
1F
100
AcDbEntity
  8
0
  6
Continuous
 62
     7
370
    25
100
AcDbCircle
 10
1347.0322970682
 20
8686.2193366319
 30
0.0
 40
12.00000000000012
100
AcDbArc
 50
337.3757424617
 51
25.5287793655
  0
LINE
  5
211
330
1F
100
AcDbEntity
  8
0
  6
Continuous
 62
     7
370
    25
100
AcDbLine
 10
1358.1088662733
 20
8681.603102816
 30
0.0
 11
1412.3232602312
 21
8681.603102816
 31
0.0
  0
ARC
  5
212
330
1F
100
AcDbEntity
  8
0
  6
Continuous
 62
     7
370
    25
100
AcDbCircle
 10
1423.3998294363
 20
8686.2193366319
 30
0.0
 40
12.00000000000012
100
AcDbArc
 50
154.4712206345
 51
202.6242575383
  0
LINE
  5
213
330
1F
100
AcDbEntity
  8
0
  6
Continuous
 62
     7
370
    25
100
AcDbLine
 10
1412.5714023116
 20
8691.3909095072
 30
0.0
 11
1406.7606745101
 21
8697.2016373086
 31
0.0
  0
LINE
  5
214
330
1F
100
AcDbEntity
  8
0
  6
Continuous
 62
     7
370
    25
100
AcDbLine
 10
1418.2282565611
 20
8697.0477637567
 30
0.0
 11
1412.4175287596
 21
8702.8584915581
 31
0.0
  0
CIRCLE
  5
215
330
1F
100
AcDbEntity
  8
0
  6
Continuous
 62
     7
370
    25
100
AcDbCircle
 10
1423.3998294363
 20
8762.5868690001
 30
0.0
 40
3.400000000000091
  0
LINE
  5
216
330
1F
100
AcDbEntity
  8
0
  6
Continuous
 62
     7
370
    25
100
AcDbLine
 10
1424.2160632523
 20
8674.403102816
 30
0.0
 11
1346.2160632523
 21
8674.403102816
 31
0.0
  0
ARC
  5
217
330
1F
100
AcDbEntity
  8
0
  6
Continuous
 62
     7
370
    25
100
AcDbCircle
 10
1346.2160632523
 20
8685.403102816
 30
0.0
 40
11.00000000000182
100
AcDbArc
 50
180.0
 51
270.0
  0
LINE
  5
218
330
1F
100
AcDbEntity
  8
0
  6
Continuous
 62
     7
370
    25
100
AcDbLine
 10
1335.2160632523
 20
8685.403102816
 30
0.0
 11
1335.2160632523
 21
8763.403102816
 31
0.0
  0
ARC
  5
219
330
1F
100
AcDbEntity
  8
0
  6
Continuous
 62
     7
370
    25
100
AcDbCircle
 10
1346.2160632523
 20
8763.403102816
 30
0.0
 40
11.0
100
AcDbArc
 50
90.0
 51
180.0
  0
LINE
  5
21A
330
1F
100
AcDbEntity
  8
0
  6
Continuous
 62
     7
370
    25
100
AcDbLine
 10
1346.2160632523
 20
8774.403102816
 30
0.0
 11
1424.2160632523
 21
8774.403102816
 31
0.0
  0
ARC
  5
21B
330
1F
100
AcDbEntity
  8
0
  6
Continuous
 62
     7
370
    25
100
AcDbCircle
 10
1424.2160632523
 20
8763.403102816
 30
0.0
 40
11.0
100
AcDbArc
 50
0.0
 51
90.0
  0
LINE
  5
21C
330
1F
100
AcDbEntity
  8
0
  6
Continuous
 62
     7
370
    25
100
AcDbLine
 10
1435.2160632523
 20
8763.403102816
 30
0.0
 11
1435.2160632523
 21
8685.403102816
 31
0.0
  0
ARC
  5
21D
330
1F
100
AcDbEntity
  8
0
  6
Continuous
 62
     7
370
    25
100
AcDbCircle
 10
1424.2160632523
 20
8685.403102816
 30
0.0
 40
11.00000000000182
100
AcDbArc
 50
270.0
 51
0.0
  0
CIRCLE
  5
21E
330
1F
100
AcDbEntity
  8
0
  6
Continuous
 62
     7
370
    25
100
AcDbCircle
 10
1347.0322970682
 20
8686.2193366319
 30
0.0
 40
3.400000000000091
  0
SPLINE
  5
21F
330
1F
100
AcDbEntity
  8
0
  6
Continuous
 62
     7
370
    25
100
AcDbSpline
210
0.0
220
0.0
230
1.0
 70
     8
 71
     3
 72
    12
 73
     8
 74
     0
 42
0.00000001
 43
0.00000001
 40
0.0
 40
0.0
 40
0.0
 40
0.0
 40
0.1396612902367417
 40
0.3708153620492912
 40
0.6019547653056511
 40
0.8349646603277876
 40
1.0
 40
1.0
 40
1.0
 40
1.0
 10
1365.783050564561
 20
8724.403102815988
 30
0.0
 10
1365.810229816038
 20
8725.741421883482
 30
0.0
 10
1365.882393577088
 20
8729.294799263205
 30
0.0
 10
1367.872312691305
 20
8734.858838441127
 30
0.0
 10
1372.055833862257
 20
8740.132767027175
 30
0.0
 10
1377.201634983634
 20
8743.538340380866
 30
0.0
 10
1380.908854811656
 20
8744.458501857875
 30
0.0
 10
1382.445922034749
 20
8744.84001418028
 30
0.0
  0
SPLINE
  5
220
330
1F
100
AcDbEntity
  8
0
  6
Continuous
 62
     7
370
    25
100
AcDbSpline
210
0.0
220
0.0
230
1.0
 70
     8
 71
     3
 72
    26
 73
    22
 74
     0
 42
0.00000001
 43
0.00000001
 40
0.0
 40
0.0
 40
0.0
 40
0.0
 40
0.0592300193014278
 40
0.1184606014105631
 40
0.1776917554070068
 40
0.2369234903700975
 40
0.2961558153789066
 40
0.355388739512235
 40
0.4146207853285037
 40
0.4738501404053439
 40
0.5330798714995433
 40
0.5923099876885545
 40
0.6515404980496539
 40
0.7107714116599353
 40
0.7700027375963083
 40
0.7962988263618507
 40
0.8150135604327217
 40
0.8565838587690492
 40
0.9037050752517615
 40
0.9563714771445793
 40
1.0
 40
1.0
 40
1.0
 40
1.0
 10
1366.216063252262
 20
8724.403102815988
 30
0.0
 10
1366.31766365469
 20
8725.892635073094
 30
0.0
 10
1366.52086542496
 20
8728.87171374095
 30
0.0
 10
1368.135367884644
 20
8733.09425233824
 30
0.0
 10
1370.615240515948
 20
8736.838249038236
 30
0.0
 10
1373.919178761073
 20
8739.897551046359
 30
0.0
 10
1377.839742606132
 20
8742.10371078106
 30
0.0
 10
1382.167868604713
 20
8743.335243307598
 30
0.0
 10
1386.66330151921
 20
8743.524367727965
 30
0.0
 10
1391.079114784525
 20
8742.660761835506
 30
0.0
 10
1395.172106408389
 20
8740.791944886258
 30
0.0
 10
1398.717025327005
 20
8738.020864275566
 30
0.0
 10
1401.518634153168
 20
8734.499605167286
 30
0.0
 10
1403.422717255653
 20
8730.423666266497
 30
0.0
 10
1404.157021991434
 20
8726.829123209225
 30
0.0
 10
1404.24053806725
 20
8724.210813420434
 30
0.0
 10
1404.116103163591
 20
8722.040668036125
 30
0.0
 10
1403.643130730122
 20
8719.371828476516
 30
0.0
 10
1402.397562477344
 20
8716.038529335765
 30
0.0
 10
1400.556132113373
 20
8712.892113015761
 30
0.0
 10
1398.793647857474
 20
8711.226175383581
 30
0.0
 10
1397.995115797328
 20
8710.471385884019
 30
0.0
  0
LINE
  5
221
330
1F
100
AcDbEntity
  8
0
  6
Continuous
 62
     7
370
    25
100
AcDbLine
 10
1396.8111503335
 20
8709.4222684799
 30
0.0
 11
1393.6326241546
 21
8707.4383261906
 31
0.0
  0
SPLINE
  5
222
330
1F
100
AcDbEntity
  8
0
  6
Continuous
 62
     7
370
    25
100
AcDbSpline
210
0.0
220
0.0
230
1.0
 70
     8
 71
     3
 72
     9
 73
     5
 74
     0
 42
0.00000001
 43
0.00000001
 40
0.0
 40
0.0
 40
0.0
 40
0.0
 40
0.4933025139571564
 40
1.0
 40
1.0
 40
1.0
 40
1.0
 10
1367.526117856949
 20
8717.672534733767
 30
0.0
 10
1367.107535340267
 20
8718.847945462785
 30
0.0
 10
1366.259004256725
 20
8721.230683632086
 30
0.0
 10
1366.280641618965
 20
8723.760613114935
 30
0.0
 10
1366.291605216016
 20
8725.042522023761
 30
0.0
  0
LINE
  5
223
330
1F
100
AcDbEntity
  8
0
  6
Continuous
 62
     7
370
    25
100
AcDbLine
 10
1401.9617520608
 20
8715.5228244595
 30
0.0
 11
1401.6988776363
 21
8714.9523446464
 31
0.0
  0
LINE
  5
224
330
1F
100
AcDbEntity
  8
0
  6
Continuous
 62
     7
370
    25
100
AcDbLine
 10
1365.7830505646
 20
8724.403102816
 30
0.0
 11
1366.2160632523
 21
8724.403102816
 31
0.0
  0
SPLINE
  5
225
330
1F
100
AcDbEntity
  8
0
  6
Continuous
 62
     7
370
    25
100
AcDbSpline
210
0.0
220
0.0
230
1.0
 70
     8
 71
     3
 72
    11
 73
     7
 74
     0
 42
0.00000001
 43
0.00000001
 40
0.0
 40
0.0
 40
0.0
 40
0.0
 40
0.0464528982462586
 40
0.2327297472431872
 40
0.6083757702745255
 40
1.0
 40
1.0
 40
1.0
 40
1.0
 10
1382.445922034749
 20
8744.84001418028
 30
0.0
 10
1382.694123998719
 20
8744.870803831414
 30
0.0
 10
1383.93761972279
 20
8745.025060465476
 30
0.0
 10
1387.216450537867
 20
8745.090470862913
 30
0.0
 10
1392.388798191442
 20
8744.164572448208
 30
0.0
 10
1395.910722489503
 20
8741.945572231938
 30
0.0
 10
1397.708356224715
 20
8740.812967067935
 30
0.0
  0
ARC
  5
226
330
1F
100
AcDbEntity
  8
0
  6
Continuous
 62
     7
370
    25
100
AcDbCircle
 10
1385.2160632523
 20
8724.403102816
 30
0.0
 40
18.99999999999993
100
AcDbArc
 50
180.0
 51
299.82868281
  0
SPLINE
  5
227
330
1F
100
AcDbEntity
  8
0
  6
Continuous
 62
     7
370
    25
100
AcDbSpline
210
0.0
220
0.0
230
1.0
 70
     8
 71
     3
 72
    14
 73
    10
 74
     0
 42
0.00000001
 43
0.00000001
 40
0.0
 40
0.0
 40
0.0
 40
0.0
 40
0.1028926818471365
 40
0.2770496610267048
 40
0.4511955669608967
 40
0.6254557804566051
 40
0.7948695565421312
 40
0.9634376023508701
 40
1.0
 40
1.0
 40
1.0
 40
1.0
 10
1397.708356224715
 20
8740.812967067935
 30
0.0
 10
1398.689834463218
 20
8739.903727821085
 30
0.0
 10
1401.332570646209
 20
8737.455502926861
 30
0.0
 10
1404.235810162751
 20
8732.204861659327
 30
0.0
 10
1405.489672024232
 20
8725.433918519602
 30
0.0
 10
1404.394968184027
 20
8718.660599186727
 30
0.0
 10
1401.111964797376
 20
8712.754560052123
 30
0.0
 10
1397.41763643984
 20
8709.42276577215
 30
0.0
 10
1395.082954295578
 20
8708.147577505108
 30
0.0
 10
1394.666821148767
 20
8707.920288275332
 30
0.0
  0
CIRCLE
  5
228
330
1F
100
AcDbEntity
  8
0
  6
Continuous
 62
     7
370
    25
100
AcDbCircle
 10
1385.2160632523
 20
8724.403102816
 30
0.0
 40
18.70000000000005
  0
LINE
  5
229
330
1F
100
AcDbEntity
  8
0
  6
Continuous
 62
     7
370
    25
100
AcDbLine
 10
1453.2160632523
 20
8618.403102816
 30
0.0
 11
1453.2160632523
 21
8624.403102816
 31
0.0
  0
LINE
  5
22A
330
1F
100
AcDbEntity
  8
0
  6
Continuous
 62
     7
370
    25
100
AcDbLine
 10
1317.2160632523
 20
8618.403102816
 30
0.0
 11
1317.2160632523
 21
8624.403102816
 31
0.0
  0
LINE
  5
22B
330
1F
100
AcDbEntity
  8
0
  6
Continuous
 62
     7
370
    25
100
AcDbLine
 10
1317.2160632523
 20
8618.403102816
 30
0.0
 11
1453.2160632523
 21
8618.403102816
 31
0.0
  0
LINE
  5
22C
330
1F
100
AcDbEntity
  8
0
  6
Continuous
 62
     7
370
    25
100
AcDbLine
 10
1317.2160632523
 20
8624.403102816
 30
0.0
 11
1453.2160632523
 21
8624.403102816
 31
0.0
  0
LINE
  5
22D
330
1F
100
AcDbEntity
  8
0
  6
Continuous
 62
     7
370
    25
100
AcDbLine
 10
1455.2160632523
 20
8618.403102816
 30
0.0
 11
1455.2160632523
 21
8624.403102816
 31
0.0
  0
LINE
  5
22E
330
1F
100
AcDbEntity
  8
0
  6
Continuous
 62
     7
370
    25
100
AcDbLine
 10
1453.2160632523
 20
8618.403102816
 30
0.0
 11
1455.2160632523
 21
8618.403102816
 31
0.0
  0
LINE
  5
22F
330
1F
100
AcDbEntity
  8
0
  6
Continuous
 62
     7
370
    25
100
AcDbLine
 10
1453.2160632523
 20
8624.403102816
 30
0.0
 11
1455.2160632523
 21
8624.403102816
 31
0.0
  0
LINE
  5
230
330
1F
100
AcDbEntity
  8
0
  6
Continuous
 62
     7
370
    25
100
AcDbLine
 10
1315.2160632523
 20
8618.403102816
 30
0.0
 11
1315.2160632523
 21
8624.403102816
 31
0.0
  0
LINE
  5
231
330
1F
100
AcDbEntity
  8
0
  6
Continuous
 62
     7
370
    25
100
AcDbLine
 10
1315.2160632523
 20
8618.403102816
 30
0.0
 11
1317.2160632523
 21
8618.403102816
 31
0.0
  0
LINE
  5
232
330
1F
100
AcDbEntity
  8
0
  6
Continuous
 62
     7
370
    25
100
AcDbLine
 10
1315.2160632523
 20
8624.403102816
 30
0.0
 11
1317.2160632523
 21
8624.403102816
 31
0.0
  0
LINE
  5
233
330
1F
100
AcDbEntity
  8
0
  6
Continuous
 62
     7
370
    25
100
AcDbLine
 10
1317.2160632523
 20
8824.403102816
 30
0.0
 11
1453.2160632523
 21
8824.403102816
 31
0.0
  0
LINE
  5
234
330
1F
100
AcDbEntity
  8
0
  6
Continuous
 62
     7
370
    25
100
AcDbLine
 10
1317.2160632523
 20
8830.403102816
 30
0.0
 11
1317.2160632523
 21
8824.403102816
 31
0.0
  0
LINE
  5
235
330
1F
100
AcDbEntity
  8
0
  6
Continuous
 62
     7
370
    25
100
AcDbLine
 10
1453.2160632523
 20
8830.403102816
 30
0.0
 11
1453.2160632523
 21
8824.403102816
 31
0.0
  0
LINE
  5
236
330
1F
100
AcDbEntity
  8
0
  6
Continuous
 62
     7
370
    25
100
AcDbLine
 10
1317.2160632523
 20
8830.403102816
 30
0.0
 11
1453.2160632523
 21
8830.403102816
 31
0.0
  0
LINE
  5
237
330
1F
100
AcDbEntity
  8
0
  6
Continuous
 62
     7
370
    25
100
AcDbLine
 10
1317.2160632523
 20
8824.403102816
 30
0.0
 11
1315.2160632523
 21
8824.403102816
 31
0.0
  0
LINE
  5
238
330
1F
100
AcDbEntity
  8
0
  6
Continuous
 62
     7
370
    25
100
AcDbLine
 10
1315.2160632523
 20
8830.403102816
 30
0.0
 11
1315.2160632523
 21
8824.403102816
 31
0.0
  0
LINE
  5
239
330
1F
100
AcDbEntity
  8
0
  6
Continuous
 62
     7
370
    25
100
AcDbLine
 10
1317.2160632523
 20
8830.403102816
 30
0.0
 11
1315.2160632523
 21
8830.403102816
 31
0.0
  0
LINE
  5
23A
330
1F
100
AcDbEntity
  8
0
  6
Continuous
 62
     7
370
    25
100
AcDbLine
 10
1455.2160632523
 20
8824.403102816
 30
0.0
 11
1453.2160632523
 21
8824.403102816
 31
0.0
  0
LINE
  5
23B
330
1F
100
AcDbEntity
  8
0
  6
Continuous
 62
     7
370
    25
100
AcDbLine
 10
1455.2160632523
 20
8830.403102816
 30
0.0
 11
1455.2160632523
 21
8824.403102816
 31
0.0
  0
LINE
  5
23C
330
1F
100
AcDbEntity
  8
0
  6
Continuous
 62
     7
370
    25
100
AcDbLine
 10
1455.2160632523
 20
8830.403102816
 30
0.0
 11
1453.2160632523
 21
8830.403102816
 31
0.0
  0
LINE
  5
23D
330
1F
100
AcDbEntity
  8
0
  6
Continuous
 62
     7
370
    25
100
AcDbLine
 10
1315.2160632523
 20
8624.403102816
 30
0.0
 11
1315.2160632523
 21
8631.403102816
 31
0.0
  0
LINE
  5
23E
330
1F
100
AcDbEntity
  8
0
  6
Continuous
 62
     7
370
    25
100
AcDbLine
 10
1455.2160632523
 20
8631.403102816
 30
0.0
 11
1455.2160632523
 21
8624.403102816
 31
0.0
  0
LINE
  5
23F
330
1F
100
AcDbEntity
  8
0
  6
Continuous
 62
     7
370
    25
100
AcDbLine
 10
1315.2160632523
 20
8817.403102816
 30
0.0
 11
1315.2160632523
 21
8824.403102816
 31
0.0
  0
LINE
  5
240
330
1F
100
AcDbEntity
  8
0
  6
Continuous
 62
     7
370
    25
100
AcDbLine
 10
1455.2160632523
 20
8824.403102816
 30
0.0
 11
1455.2160632523
 21
8817.403102816
 31
0.0
  0
LINE
  5
241
330
1F
100
AcDbEntity
  8
0
  6
Continuous
 62
     7
370
    25
100
AcDbLine
 10
1315.2160632523
 20
8817.403102816
 30
0.0
 11
1315.2160632523
 21
8631.403102816
 31
0.0
  0
LINE
  5
242
330
1F
100
AcDbEntity
  8
0
  6
Continuous
 62
     7
370
    25
100
AcDbLine
 10
1455.2160632523
 20
8817.403102816
 30
0.0
 11
1455.2160632523
 21
8631.403102816
 31
0.0
  0
LINE
  5
243
330
1F
100
AcDbEntity
  8
0
  6
Continuous
 62
     7
370
    25
100
AcDbLine
 10
949.7940988297
 20
8957.9193958235
 30
0.0
 11
950.4427628143
 21
8960.403102816
 31
0.0
  0
LINE
  5
244
330
1F
100
AcDbEntity
  8
0
  6
Continuous
 62
     7
370
    25
100
AcDbLine
 10
949.7940988297
 20
8957.9193958235
 30
0.0
 11
945.2160632523
 21
8957.9193958235
 31
0.0
  0
SPLINE
  5
245
330
1F
100
AcDbEntity
  8
0
  6
Continuous
 62
     7
370
    25
100
AcDbSpline
210
0.0
220
0.0
230
1.0
 70
     8
 71
     3
 72
    10
 73
     6
 74
     0
 42
0.00000001
 43
0.00000001
 40
0.0
 40
0.0
 40
0.0
 40
0.0
 40
0.2656373379603296
 40
0.5374358411634148
 40
1.0
 40
1.0
 40
1.0
 40
1.0
 10
949.7940988296549
 20
8957.308673541684
 30
0.0
 10
950.1327068975266
 20
8957.361746719476
 30
0.0
 10
950.8177766741575
 20
8957.469124048917
 30
0.0
 10
951.1929472853906
 20
8957.677275130129
 30
0.0
 10
950.3346975930726
 20
8957.82582589681
 30
0.0
 10
949.7940988296549
 20
8957.91939582348
 30
0.0
  0
LINE
  5
246
330
1F
100
AcDbEntity
  8
0
  6
Continuous
 62
     7
370
    25
100
AcDbLine
 10
952.2160632523
 20
8959.69022388
 30
0.0
 11
952.2160632523
 21
8960.403102816
 31
0.0
  0
LINE
  5
247
330
1F
100
AcDbEntity
  8
0
  6
Continuous
 62
     7
370
    25
100
AcDbLine
 10
949.7940988297
 20
8957.3086735417
 30
0.0
 11
945.2160632523
 21
8957.3086735417
 31
0.0
  0
LINE
  5
248
330
1F
100
AcDbEntity
  8
0
  6
Continuous
 62
     7
370
    25
100
AcDbLine
 10
1820.2010809392
 20
8960.403102816
 30
0.0
 11
1820.6380276749
 21
8958.1171926385
 31
0.0
  0
SPLINE
  5
249
330
1F
100
AcDbEntity
  8
0
  6
Continuous
 62
     7
370
    25
100
AcDbSpline
210
0.0
220
0.0
230
1.0
 70
     8
 71
     3
 72
    11
 73
     7
 74
     0
 42
0.00000001
 43
0.00000001
 40
0.0
 40
0.0
 40
0.0
 40
0.0
 40
0.3707801040744184
 40
0.621878442466956
 40
0.8802594157766741
 40
0.9999999999999999
 40
0.9999999999999999
 40
0.9999999999999999
 40
0.9999999999999999
 10
1820.638027674869
 20
8958.117192638476
 30
0.0
 10
1820.181363094794
 20
8957.998355627371
 30
0.0
 10
1819.415437807363
 20
8957.799040252676
 30
0.0
 10
1819.436325497087
 20
8957.50719321355
 30
0.0
 10
1819.961530620806
 20
8957.302225630283
 30
0.0
 10
1820.475323693817
 20
8957.182441679835
 30
0.0
 10
1820.638027674869
 20
8957.144509433123
 30
0.0
  0
LINE
  5
24A
330
1F
100
AcDbEntity
  8
0
  6
Continuous
 62
     7
370
    25
100
AcDbLine
 10
1818.2160632523
 20
8960.403102816
 30
0.0
 11
1818.2160632523
 21
8959.69022388
 31
0.0
  0
LINE
  5
24B
330
1F
100
AcDbEntity
  8
0
  6
Continuous
 62
     7
370
    25
100
AcDbLine
 10
1820.6380276749
 20
8958.1171926385
 30
0.0
 11
1825.2160632523
 21
8958.1171926385
 31
0.0
  0
LINE
  5
24C
330
1F
100
AcDbEntity
  8
0
  6
Continuous
 62
     7
370
    25
100
AcDbLine
 10
1820.6380276749
 20
8957.1445094331
 30
0.0
 11
1825.2160632523
 21
8957.1445094331
 31
0.0
  0
LINE
  5
24D
330
1F
100
AcDbEntity
  8
0
  6
Continuous
 62
     7
370
    25
100
AcDbLine
 10
1740.2160632523
 20
8947.403102816
 30
0.0
 11
1740.2160632523
 21
8960.403102816
 31
0.0
  0
LINE
  5
24E
330
1F
100
AcDbEntity
  8
0
  6
Continuous
 62
     7
370
    25
100
AcDbLine
 10
1740.2160632523
 20
8947.403102816
 30
0.0
 11
1825.2160632523
 21
8947.403102816
 31
0.0
  0
LINE
  5
24F
330
1F
100
AcDbEntity
  8
0
  6
Continuous
 62
     7
370
    25
100
AcDbLine
 10
1030.2160632523
 20
8960.403102816
 30
0.0
 11
1030.2160632523
 21
8947.403102816
 31
0.0
  0
LINE
  5
250
330
1F
100
AcDbEntity
  8
0
  6
Continuous
 62
     7
370
    25
100
AcDbLine
 10
1030.2160632523
 20
8947.403102816
 30
0.0
 11
945.2160632523
 21
8947.403102816
 31
0.0
  0
LINE
  5
251
330
1F
100
AcDbEntity
  8
0
  6
Continuous
 62
     7
370
    25
100
AcDbLine
 10
1830.2160632523
 20
6800.403102816
 30
0.0
 11
1830.2160632523
 21
6630.403102816
 31
0.0
  0
LINE
  5
252
330
1F
100
AcDbEntity
  8
0
  6
Continuous
 62
     7
370
    25
100
AcDbLine
 10
1834.2160632523
 20
6630.403102816
 30
0.0
 11
1886.2160632523
 21
6630.403102816
 31
0.0
  0
LINE
  5
253
330
1F
100
AcDbEntity
  8
0
  6
Continuous
 62
     7
370
    25
100
AcDbLine
 10
1890.2160632523
 20
6800.403102816
 30
0.0
 11
1890.2160632523
 21
6630.403102816
 31
0.0
  0
LINE
  5
254
330
1F
100
AcDbEntity
  8
0
  6
Continuous
 62
     7
370
    25
100
AcDbLine
 10
1890.2160632523
 20
6624.403102816
 30
0.0
 11
1890.2160632523
 21
6630.403102816
 31
0.0
  0
LINE
  5
255
330
1F
100
AcDbEntity
  8
0
  6
Continuous
 62
     7
370
    25
100
AcDbLine
 10
1890.2160632523
 20
6630.403102816
 30
0.0
 11
1750.2160632523
 21
6630.403102816
 31
0.0
  0
LINE
  5
256
330
1F
100
AcDbEntity
  8
0
  6
Continuous
 62
     7
370
    25
100
AcDbLine
 10
1750.2160632523
 20
6624.403102816
 30
0.0
 11
1750.2160632523
 21
6630.403102816
 31
0.0
  0
LINE
  5
257
330
1F
100
AcDbEntity
  8
0
  6
Continuous
 62
     7
370
    25
100
AcDbLine
 10
1890.2160632523
 20
6624.403102816
 30
0.0
 11
1750.2160632523
 21
6624.403102816
 31
0.0
  0
LINE
  5
258
330
1F
100
AcDbEntity
  8
0
  6
Continuous
 62
     7
370
    25
100
AcDbLine
 10
880.2160632523
 20
6800.403102816
 30
0.0
 11
880.2160632523
 21
6630.403102816
 31
0.0
  0
LINE
  5
259
330
1F
100
AcDbEntity
  8
0
  6
Continuous
 62
     7
370
    25
100
AcDbLine
 10
884.2160632523
 20
6630.403102816
 30
0.0
 11
936.2160632523
 21
6630.403102816
 31
0.0
  0
LINE
  5
25A
330
1F
100
AcDbEntity
  8
0
  6
Continuous
 62
     7
370
    25
100
AcDbLine
 10
940.2160632523
 20
6800.403102816
 30
0.0
 11
940.2160632523
 21
6630.403102816
 31
0.0
  0
LINE
  5
25B
330
1F
100
AcDbEntity
  8
0
  6
Continuous
 62
     7
370
    25
100
AcDbLine
 10
1020.2160632523
 20
6624.403102816
 30
0.0
 11
1020.2160632523
 21
6630.403102816
 31
0.0
  0
LINE
  5
25C
330
1F
100
AcDbEntity
  8
0
  6
Continuous
 62
     7
370
    25
100
AcDbLine
 10
1020.2160632523
 20
6624.403102816
 30
0.0
 11
880.2160632523
 21
6624.403102816
 31
0.0
  0
LINE
  5
25D
330
1F
100
AcDbEntity
  8
0
  6
Continuous
 62
     7
370
    25
100
AcDbLine
 10
880.2160632523
 20
6624.403102816
 30
0.0
 11
880.2160632523
 21
6630.403102816
 31
0.0
  0
LINE
  5
25E
330
1F
100
AcDbEntity
  8
0
  6
Continuous
 62
     7
370
    25
100
AcDbLine
 10
1020.2160632523
 20
6630.403102816
 30
0.0
 11
880.2160632523
 21
6630.403102816
 31
0.0
  0
LINE
  5
25F
330
1F
100
AcDbEntity
  8
0
  6
Continuous
 62
     7
370
    25
100
AcDbLine
 10
1895.2160632523
 20
6800.403102816
 30
0.0
 11
1895.2160632523
 21
9000.403102816
 31
0.0
  0
LINE
  5
260
330
1F
100
AcDbEntity
  8
0
  6
Continuous
 62
     7
370
    25
100
AcDbLine
 10
1895.2160632523
 20
6800.403102816
 30
0.0
 11
1890.2160632523
 21
6800.403102816
 31
0.0
  0
LINE
  5
261
330
1F
100
AcDbEntity
  8
0
  6
Continuous
 62
     7
370
    25
100
AcDbLine
 10
1890.2160632523
 20
6800.403102816
 30
0.0
 11
1890.2160632523
 21
9000.403102816
 31
0.0
  0
LINE
  5
262
330
1F
100
AcDbEntity
  8
0
  6
Continuous
 62
     7
370
    25
100
AcDbLine
 10
1895.2160632523
 20
9000.403102816
 30
0.0
 11
1890.2160632523
 21
9000.403102816
 31
0.0
  0
LINE
  5
263
330
1F
100
AcDbEntity
  8
0
  6
Continuous
 62
     7
370
    25
100
AcDbLine
 10
1830.2160632523
 20
6800.403102816
 30
0.0
 11
1830.2160632523
 21
9000.403102816
 31
0.0
  0
LINE
  5
264
330
1F
100
AcDbEntity
  8
0
  6
Continuous
 62
     7
370
    25
100
AcDbLine
 10
1890.2160632523
 20
9000.403102816
 30
0.0
 11
1830.2160632523
 21
9000.403102816
 31
0.0
  0
LINE
  5
265
330
1F
100
AcDbEntity
  8
0
  6
Continuous
 62
     7
370
    25
100
AcDbLine
 10
1890.2160632523
 20
6800.403102816
 30
0.0
 11
1830.2160632523
 21
6800.403102816
 31
0.0
  0
LINE
  5
266
330
1F
100
AcDbEntity
  8
0
  6
Continuous
 62
     7
370
    25
100
AcDbLine
 10
1825.2160632523
 20
6800.403102816
 30
0.0
 11
1825.2160632523
 21
6965.403102816
 31
0.0
  0
LINE
  5
267
330
1F
100
AcDbEntity
  8
0
  6
Continuous
 62
     7
370
    25
100
AcDbLine
 10
1825.2160632523
 20
7035.403102816
 30
0.0
 11
1825.2160632523
 21
8960.403102816
 31
0.0
  0
LINE
  5
268
330
1F
100
AcDbEntity
  8
0
  6
Continuous
 62
     7
370
    25
100
AcDbLine
 10
1830.2160632523
 20
9000.403102816
 30
0.0
 11
1825.2160632523
 21
9000.403102816
 31
0.0
  0
LINE
  5
269
330
1F
100
AcDbEntity
  8
0
  6
Continuous
 62
     7
370
    25
100
AcDbLine
 10
1830.2160632523
 20
6800.403102816
 30
0.0
 11
1825.2160632523
 21
6800.403102816
 31
0.0
  0
LINE
  5
26A
330
1F
100
AcDbEntity
  8
0
  6
Continuous
 62
     7
370
    25
100
AcDbLine
 10
945.2160632523
 20
6800.403102816
 30
0.0
 11
945.2160632523
 21
6965.403102816
 31
0.0
  0
LINE
  5
26B
330
1F
100
AcDbEntity
  8
0
  6
Continuous
 62
     7
370
    25
100
AcDbLine
 10
945.2160632523
 20
7035.403102816
 30
0.0
 11
945.2160632523
 21
8960.403102816
 31
0.0
  0
LINE
  5
26C
330
1F
100
AcDbEntity
  8
0
  6
Continuous
 62
     7
370
    25
100
AcDbLine
 10
945.2160632523
 20
6800.403102816
 30
0.0
 11
940.2160632523
 21
6800.403102816
 31
0.0
  0
LINE
  5
26D
330
1F
100
AcDbEntity
  8
0
  6
Continuous
 62
     7
370
    25
100
AcDbLine
 10
940.2160632523
 20
6800.403102816
 30
0.0
 11
940.2160632523
 21
9000.403102816
 31
0.0
  0
LINE
  5
26E
330
1F
100
AcDbEntity
  8
0
  6
Continuous
 62
     7
370
    25
100
AcDbLine
 10
945.2160632523
 20
9000.403102816
 30
0.0
 11
940.2160632523
 21
9000.403102816
 31
0.0
  0
LINE
  5
26F
330
1F
100
AcDbEntity
  8
0
  6
Continuous
 62
     7
370
    25
100
AcDbLine
 10
880.2160632523
 20
6800.403102816
 30
0.0
 11
880.2160632523
 21
9000.403102816
 31
0.0
  0
LINE
  5
270
330
1F
100
AcDbEntity
  8
0
  6
Continuous
 62
     7
370
    25
100
AcDbLine
 10
940.2160632523
 20
6800.403102816
 30
0.0
 11
880.2160632523
 21
6800.403102816
 31
0.0
  0
LINE
  5
271
330
1F
100
AcDbEntity
  8
0
  6
Continuous
 62
     7
370
    25
100
AcDbLine
 10
940.2160632523
 20
9000.403102816
 30
0.0
 11
880.2160632523
 21
9000.403102816
 31
0.0
  0
LINE
  5
272
330
1F
100
AcDbEntity
  8
0
  6
Continuous
 62
     7
370
    25
100
AcDbLine
 10
875.2160632523
 20
6800.403102816
 30
0.0
 11
875.2160632523
 21
9000.403102816
 31
0.0
  0
LINE
  5
273
330
1F
100
AcDbEntity
  8
0
  6
Continuous
 62
     7
370
    25
100
AcDbLine
 10
880.2160632523
 20
6800.403102816
 30
0.0
 11
875.2160632523
 21
6800.403102816
 31
0.0
  0
LINE
  5
274
330
1F
100
AcDbEntity
  8
0
  6
Continuous
 62
     7
370
    25
100
AcDbLine
 10
880.2160632523
 20
9000.403102816
 30
0.0
 11
875.2160632523
 21
9000.403102816
 31
0.0
  0
LINE
  5
275
330
1F
100
AcDbEntity
  8
0
  6
Continuous
 62
     7
370
    25
100
AcDbLine
 10
1825.2160632523
 20
7035.403102816
 30
0.0
 11
945.2160632523
 21
7035.403102816
 31
0.0
  0
LINE
  5
276
330
1F
100
AcDbEntity
  8
0
  6
Continuous
 62
     7
370
    25
100
AcDbLine
 10
1825.2160632523
 20
7030.403102816
 30
0.0
 11
945.2160632523
 21
7030.403102816
 31
0.0
  0
LINE
  5
277
330
1F
100
AcDbEntity
  8
0
  6
Continuous
 62
     7
370
    25
100
AcDbLine
 10
1825.2160632523
 20
7035.403102816
 30
0.0
 11
1825.2160632523
 21
7030.403102816
 31
0.0
  0
LINE
  5
278
330
1F
100
AcDbEntity
  8
0
  6
Continuous
 62
     7
370
    25
100
AcDbLine
 10
945.2160632523
 20
7030.403102816
 30
0.0
 11
945.2160632523
 21
7035.403102816
 31
0.0
  0
LINE
  5
279
330
1F
100
AcDbEntity
  8
0
  6
Continuous
 62
     7
370
    25
100
AcDbLine
 10
1825.2160632523
 20
6970.403102816
 30
0.0
 11
945.2160632523
 21
6970.403102816
 31
0.0
  0
LINE
  5
27A
330
1F
100
AcDbEntity
  8
0
  6
Continuous
 62
     7
370
    25
100
AcDbLine
 10
1825.2160632523
 20
6965.403102816
 30
0.0
 11
945.2160632523
 21
6965.403102816
 31
0.0
  0
LINE
  5
27B
330
1F
100
AcDbEntity
  8
0
  6
Continuous
 62
     7
370
    25
100
AcDbLine
 10
1825.2160632523
 20
6970.403102816
 30
0.0
 11
1825.2160632523
 21
6965.403102816
 31
0.0
  0
LINE
  5
27C
330
1F
100
AcDbEntity
  8
0
  6
Continuous
 62
     7
370
    25
100
AcDbLine
 10
945.2160632523
 20
6965.403102816
 30
0.0
 11
945.2160632523
 21
6970.403102816
 31
0.0
  0
LINE
  5
27D
330
1F
100
AcDbEntity
  8
0
  6
Continuous
 62
     7
370
    25
100
AcDbLine
 10
1825.2160632523
 20
6970.403102816
 30
0.0
 11
1825.2160632523
 21
7030.403102816
 31
0.0
  0
LINE
  5
27E
330
1F
100
AcDbEntity
  8
0
  6
Continuous
 62
     7
370
    25
100
AcDbLine
 10
945.2160632523
 20
6970.403102816
 30
0.0
 11
945.2160632523
 21
7030.403102816
 31
0.0
  0
LINE
  5
27F
330
1F
100
AcDbEntity
  8
0
  6
Continuous
 62
     7
370
    25
100
AcDbLine
 10
1825.2160632523
 20
8960.403102816
 30
0.0
 11
1825.2160632523
 21
8963.403102816
 31
0.0
  0
LINE
  5
280
330
1F
100
AcDbEntity
  8
0
  6
Continuous
 62
     7
370
    25
100
AcDbLine
 10
1825.2160632523
 20
8960.403102816
 30
0.0
 11
945.2160632523
 21
8960.403102816
 31
0.0
  0
LINE
  5
281
330
1F
100
AcDbEntity
  8
0
  6
Continuous
 62
     7
370
    25
100
AcDbLine
 10
1825.2160632523
 20
8963.403102816
 30
0.0
 11
945.2160632523
 21
8963.403102816
 31
0.0
  0
LINE
  5
282
330
1F
100
AcDbEntity
  8
0
  6
Continuous
 62
     7
370
    25
100
AcDbLine
 10
945.2160632523
 20
8963.403102816
 30
0.0
 11
945.2160632523
 21
8960.403102816
 31
0.0
  0
LINE
  5
283
330
1F
100
AcDbEntity
  8
0
  6
Continuous
 62
     7
370
    25
100
AcDbLine
 10
1825.2160632523
 20
8997.403102816
 30
0.0
 11
1825.2160632523
 21
9000.403102816
 31
0.0
  0
LINE
  5
284
330
1F
100
AcDbEntity
  8
0
  6
Continuous
 62
     7
370
    25
100
AcDbLine
 10
1825.2160632523
 20
8997.403102816
 30
0.0
 11
945.2160632523
 21
8997.403102816
 31
0.0
  0
LINE
  5
285
330
1F
100
AcDbEntity
  8
0
  6
Continuous
 62
     7
370
    25
100
AcDbLine
 10
1825.2160632523
 20
9000.403102816
 30
0.0
 11
945.2160632523
 21
9000.403102816
 31
0.0
  0
LINE
  5
286
330
1F
100
AcDbEntity
  8
0
  6
Continuous
 62
     7
370
    25
100
AcDbLine
 10
945.2160632523
 20
9000.403102816
 30
0.0
 11
945.2160632523
 21
8997.403102816
 31
0.0
  0
LINE
  5
287
330
1F
100
AcDbEntity
  8
0
  6
Continuous
 62
     7
370
    25
100
AcDbLine
 10
1825.2160632523
 20
8963.403102816
 30
0.0
 11
1825.2160632523
 21
8997.403102816
 31
0.0
  0
LINE
  5
288
330
1F
100
AcDbEntity
  8
0
  6
Continuous
 62
     7
370
    25
100
AcDbLine
 10
945.2160632523
 20
8997.403102816
 30
0.0
 11
945.2160632523
 21
8963.403102816
 31
0.0
  0
CIRCLE
  5
289
330
1F
100
AcDbEntity
  8
0
  6
Continuous
 62
     7
370
    25
100
AcDbCircle
 10
1423.3998294363
 20
8686.2193366319
 30
0.0
 40
10.0
  0
CIRCLE
  5
28A
330
1F
100
AcDbEntity
  8
0
  6
Continuous
 62
     7
370
    25
100
AcDbCircle
 10
1347.0322970682
 20
8762.5868690001
 30
0.0
 40
10.00000000000182
  0
SPLINE
  5
28B
330
1F
100
AcDbEntity
  8
0
  6
Continuous
 62
     7
370
    25
100
AcDbSpline
210
0.0
220
0.0
230
1.0
 70
     8
 71
     3
 72
    12
 73
     8
 74
     0
 42
0.00000001
 43
0.00000001
 40
0.0
 40
0.0
 40
0.0
 40
0.0
 40
0.2193033926535038
 40
0.4386068279975542
 40
0.6582719652374238
 40
0.9013159173385331
 40
1.0
 40
1.0
 40
1.0
 40
1.0
 10
1344.536610300137
 20
8765.8825166677
 30
0.0
 10
1344.909351274371
 20
8766.192403405754
 30
0.0
 10
1345.654833295398
 20
8766.812176942183
 30
0.0
 10
1347.090550538326
 20
8767.195206519746
 30
0.0
 10
1348.599872752113
 20
8767.13115444221
 30
0.0
 10
1349.785233478517
 20
8766.692948068163
 30
0.0
 10
1350.392472733459
 20
8766.250246127942
 30
0.0
 10
1350.567831038117
 20
8766.122402841997
 30
0.0
  0
ARC
  5
28C
330
1F
100
AcDbEntity
  8
0
  6
Continuous
 62
     7
370
    25
100
AcDbCircle
 10
1347.0322970682
 20
8762.5868690001
 30
0.0
 40
5.0
100
AcDbArc
 50
44.9999989629
 51
90.0
  0
CIRCLE
  5
28D
330
1F
100
AcDbEntity
  8
0
  6
Continuous
 62
     7
370
    25
100
AcDbCircle
 10
1347.0322970682
 20
8762.5868690001
 30
0.0
 40
4.0
  0
SPLINE
  5
28E
330
1F
100
AcDbEntity
  8
0
  6
Continuous
 62
     7
370
    25
100
AcDbSpline
210
0.0
220
0.0
230
1.0
 70
     8
 71
     3
 72
    14
 73
    10
 74
     0
 42
0.00000001
 43
0.00000001
 40
0.0
 40
0.0
 40
0.0
 40
0.0
 40
0.1241335320487547
 40
0.2301595834565421
 40
0.3361856348643332
 40
0.4422116862721151
 40
0.6565739966969364
 40
0.8709363071217529
 40
1.0
 40
1.0
 40
1.0
 40
1.0
 10
1350.327944735828
 20
8765.082555768113
 30
0.0
 10
1350.153976240146
 20
8765.28747339201
 30
0.0
 10
1349.831416204676
 20
8765.667417104085
 30
0.0
 10
1349.242990930187
 20
8766.101061604939
 30
0.0
 10
1348.632117667131
 20
8766.419673242293
 30
0.0
 10
1347.752110148663
 20
8766.703942535623
 30
0.0
 10
1346.579620005037
 20
8766.772362433105
 30
0.0
 10
1345.387892676654
 20
8766.449668419653
 30
0.0
 10
1344.769143724852
 20
8766.037437928673
 30
0.0
 10
1344.536610300137
 20
8765.8825166677
 30
0.0
  0
SPLINE
  5
28F
330
1F
100
AcDbEntity
  8
0
  6
Continuous
 62
     7
370
    25
100
AcDbSpline
210
0.0
220
0.0
230
1.0
 70
     8
 71
     3
 72
    23
 73
    19
 74
     0
 42
0.00000001
 43
0.00000001
 40
0.0
 40
0.0
 40
0.0
 40
0.0
 40
0.0679783466616405
 40
0.1359566939183159
 40
0.2039592239248679
 40
0.270788878262707
 40
0.337030468081759
 40
0.4026615477884047
 40
0.4671521494389677
 40
0.5315778601254705
 40
0.594324327754367
 40
0.6571025909784017
 40
0.7185258835978079
 40
0.7795402151673971
 40
0.8397615384597853
 40
0.8990218998955671
 40
0.9580371582265075
 40
1.0
 40
1.0
 40
1.0
 40
1.0
 10
1347.032297068188
 20
8767.58686900006
 30
0.0
 10
1346.47907911346
 20
8767.515277890932
 30
0.0
 10
1345.372643199162
 20
8767.372095672052
 30
0.0
 10
1343.921952786611
 20
8766.476175903634
 30
0.0
 10
1342.843677786706
 20
8765.194290346526
 30
0.0
 10
1342.27161373993
 20
8763.627345357812
 30
0.0
 10
1342.24982986613
 20
8761.981343815254
 30
0.0
 10
1342.780724636784
 20
8760.442500310399
 30
0.0
 10
1343.783258474479
 20
8759.1806792736
 30
0.0
 10
1345.133063538245
 20
8758.341580062539
 30
0.0
 10
1346.670478065454
 20
8758.008303347662
 30
0.0
 10
1348.2083230941
 20
8758.202242348469
 30
0.0
 10
1349.575511279062
 20
8758.898833901896
 30
0.0
 10
1350.620680211443
 20
8759.99339253326
 30
0.0
 10
1351.226194807738
 20
8761.362993182618
 30
0.0
 10
1351.335739493876
 20
8762.832903034554
 30
0.0
 10
1351.000665168672
 20
8764.128948484493
 30
0.0
 10
1350.525433717714
 20
8764.802607482961
 30
0.0
 10
1350.327944735828
 20
8765.082555768113
 30
0.0
  0
ARC
  5
290
330
1F
100
AcDbEntity
  8
0
  6
Continuous
 62
     7
370
    25
100
AcDbCircle
 10
1347.0322970682
 20
8762.5868690001
 30
0.0
 40
5.00000000000181
100
AcDbArc
 50
90.0
 51
44.9999989629
  0
SPLINE
  5
291
330
1F
100
AcDbEntity
  8
0
  6
Continuous
 62
     7
370
    25
100
AcDbSpline
210
0.0
220
0.0
230
1.0
 70
     8
 71
     3
 72
    12
 73
     8
 74
     0
 42
0.00000001
 43
0.00000001
 40
0.0
 40
0.0
 40
0.0
 40
0.0
 40
0.219303392653505
 40
0.4386068279975558
 40
0.6582719652374228
 40
0.9013159173385317
 40
0.9999999999999999
 40
0.9999999999999999
 40
0.9999999999999999
 40
0.9999999999999999
 10
1420.904142668285
 20
8689.514984299554
 30
0.0
 10
1421.276883642518
 20
8689.824871037606
 30
0.0
 10
1422.022365663545
 20
8690.444644574036
 30
0.0
 10
1423.458082906473
 20
8690.8276741516
 30
0.0
 10
1424.96740512026
 20
8690.763622074062
 30
0.0
 10
1426.152765846664
 20
8690.325415700017
 30
0.0
 10
1426.760005101606
 20
8689.882713759795
 30
0.0
 10
1426.935363406264
 20
8689.75487047385
 30
0.0
  0
ARC
  5
292
330
1F
100
AcDbEntity
  8
0
  6
Continuous
 62
     7
370
    25
100
AcDbCircle
 10
1423.3998294363
 20
8686.2193366319
 30
0.0
 40
5.0
100
AcDbArc
 50
44.9999989629
 51
90.0
  0
CIRCLE
  5
293
330
1F
100
AcDbEntity
  8
0
  6
Continuous
 62
     7
370
    25
100
AcDbCircle
 10
1423.3998294363
 20
8686.2193366319
 30
0.0
 40
4.0
  0
SPLINE
  5
294
330
1F
100
AcDbEntity
  8
0
  6
Continuous
 62
     7
370
    25
100
AcDbSpline
210
0.0
220
0.0
230
1.0
 70
     8
 71
     3
 72
    14
 73
    10
 74
     0
 42
0.00000001
 43
0.00000001
 40
0.0
 40
0.0
 40
0.0
 40
0.0
 40
0.1241335320487532
 40
0.2301595834565421
 40
0.3361856348643331
 40
0.4422116862721149
 40
0.6565739966969348
 40
0.8709363071217522
 40
1.0
 40
1.0
 40
1.0
 40
1.0
 10
1426.695477103975
 20
8688.715023399966
 30
0.0
 10
1426.521508608294
 20
8688.919941023863
 30
0.0
 10
1426.198948572823
 20
8689.299884735938
 30
0.0
 10
1425.610523298334
 20
8689.733529236792
 30
0.0
 10
1424.999650035278
 20
8690.052140874144
 30
0.0
 10
1424.11964251681
 20
8690.336410167476
 30
0.0
 10
1422.947152373184
 20
8690.404830064957
 30
0.0
 10
1421.755425044801
 20
8690.082136051506
 30
0.0
 10
1421.136676092999
 20
8689.669905560526
 30
0.0
 10
1420.904142668285
 20
8689.514984299552
 30
0.0
  0
SPLINE
  5
295
330
1F
100
AcDbEntity
  8
0
  6
Continuous
 62
     7
370
    25
100
AcDbSpline
210
0.0
220
0.0
230
1.0
 70
     8
 71
     3
 72
    23
 73
    19
 74
     0
 42
0.00000001
 43
0.00000001
 40
0.0
 40
0.0
 40
0.0
 40
0.0
 40
0.0679783466616408
 40
0.1359566939183157
 40
0.2039592239248677
 40
0.2707888782627068
 40
0.3370304680817588
 40
0.4026615477884045
 40
0.4671521494389679
 40
0.5315778601254708
 40
0.594324327754367
 40
0.6571025909784023
 40
0.7185258835978084
 40
0.7795402151673972
 40
0.8397615384597854
 40
0.8990218998955674
 40
0.9580371582265075
 40
1.0
 40
1.0
 40
1.0
 40
1.0
 10
1423.399829436335
 20
8691.219336631913
 30
0.0
 10
1422.846611481607
 20
8691.147745522785
 30
0.0
 10
1421.740175567309
 20
8691.004563303906
 30
0.0
 10
1420.289485154759
 20
8690.108643535486
 30
0.0
 10
1419.211210154853
 20
8688.826757978379
 30
0.0
 10
1418.639146108077
 20
8687.259812989665
 30
0.0
 10
1418.617362234277
 20
8685.613811447107
 30
0.0
 10
1419.148257004931
 20
8684.074967942252
 30
0.0
 10
1420.150790842626
 20
8682.813146905453
 30
0.0
 10
1421.500595906392
 20
8681.974047694392
 30
0.0
 10
1423.038010433602
 20
8681.640770979515
 30
0.0
 10
1424.575855462247
 20
8681.834709980321
 30
0.0
 10
1425.943043647209
 20
8682.531301533749
 30
0.0
 10
1426.98821257959
 20
8683.625860165113
 30
0.0
 10
1427.593727175886
 20
8684.99546081447
 30
0.0
 10
1427.703271862023
 20
8686.465370666407
 30
0.0
 10
1427.368197536819
 20
8687.761416116346
 30
0.0
 10
1426.892966085861
 20
8688.435075114814
 30
0.0
 10
1426.695477103975
 20
8688.715023399966
 30
0.0
  0
ARC
  5
296
330
1F
100
AcDbEntity
  8
0
  6
Continuous
 62
     7
370
    25
100
AcDbCircle
 10
1423.3998294363
 20
8686.2193366319
 30
0.0
 40
5.0
100
AcDbArc
 50
90.0
 51
44.9999989629
  0
SPLINE
  5
297
330
1F
100
AcDbEntity
  8
0
  6
Continuous
 62
     7
370
    25
100
AcDbSpline
210
0.0
220
0.0
230
1.0
 70
    24
 71
     3
 72
     9
 73
     5
 74
     0
 42
0.00000001
 43
0.00000001
 40
0.0
 40
0.0
 40
0.0
 40
0.0
 40
0.8659604718975985
 40
1.0
 40
1.0
 40
1.0
 40
1.0
 10
1347.423083267001
 20
8770.577318683703
 30
0.0
 10
1346.029737812942
 20
8770.645462554849
 30
0.0
 10
1344.420720427881
 20
8770.7241542196
 30
0.0
 10
1343.00020077512
 20
8770.793627090017
 30
0.0
 10
1342.809794991203
 20
8770.802939200783
 30
0.0
  0
ARC
  5
298
330
1F
100
AcDbEntity
  8
0
  6
Continuous
 62
     7
370
    25
100
AcDbCircle
 10
1347.0322970682
 20
8762.5868690001
 30
0.0
 40
8.000000000000675
100
AcDbArc
 50
87.2000857564
 51
147.2000857564
  0
SPLINE
  5
299
330
1F
100
AcDbEntity
  8
0
  6
Continuous
 62
     7
370
    25
100
AcDbSpline
210
0.0
220
0.0
230
1.0
 70
    24
 71
     3
 72
     9
 73
     5
 74
     0
 42
0.00000001
 43
0.00000001
 40
0.0
 40
0.0
 40
0.0
 40
0.0
 40
0.5843443298746295
 40
1.0
 40
1.0
 40
1.0
 40
1.0
 10
1342.809794991203
 20
8770.802939200783
 30
0.0
 10
1342.338248772803
 20
8770.071240292504
 30
0.0
 10
1341.531282410177
 20
8768.81906949034
 30
0.0
 10
1340.667001157258
 20
8767.477963094978
 30
0.0
 10
1340.307757753899
 20
8766.920524617502
 30
0.0
  0
ARC
  5
29A
330
1F
100
AcDbEntity
  8
0
  6
Continuous
 62
     7
370
    25
100
AcDbCircle
 10
1347.0322970682
 20
8762.5868690001
 30
0.0
 40
7.999999999999117
100
AcDbArc
 50
267.2000857564
 51
327.2000857564
  0
SPLINE
  5
29B
330
1F
100
AcDbEntity
  8
0
  6
Continuous
 62
     7
370
    25
100
AcDbSpline
210
0.0
220
0.0
230
1.0
 70
    24
 71
     3
 72
     9
 73
     5
 74
     0
 42
0.00000001
 43
0.00000001
 40
0.0
 40
0.0
 40
0.0
 40
0.0
 40
0.584344329874649
 40
1.0
 40
1.0
 40
1.0
 40
1.0
 10
1351.254799145172
 20
8754.370798799338
 30
0.0
 10
1351.726345363573
 20
8755.102497707618
 30
0.0
 10
1352.5333117262
 20
8756.354668509779
 30
0.0
 10
1353.397592979118
 20
8757.695774905145
 30
0.0
 10
1353.756836382477
 20
8758.25321338262
 30
0.0
  0
SPLINE
  5
29C
330
1F
100
AcDbEntity
  8
0
  6
Continuous
 62
     7
370
    25
100
AcDbSpline
210
0.0
220
0.0
230
1.0
 70
    24
 71
     3
 72
     9
 73
     5
 74
     0
 42
0.00000001
 43
0.00000001
 40
0.0
 40
0.0
 40
0.0
 40
0.0
 40
0.8659604718977066
 40
1.0
 40
1.0
 40
1.0
 40
1.0
 10
1346.641510869376
 20
8754.59641931642
 30
0.0
 10
1348.034856323435
 20
8754.528275445275
 30
0.0
 10
1349.643873708496
 20
8754.449583780523
 30
0.0
 10
1351.064393361256
 20
8754.380110910106
 30
0.0
 10
1351.254799145172
 20
8754.370798799338
 30
0.0
  0
SPLINE
  5
29D
330
1F
100
AcDbEntity
  8
0
  6
Continuous
 62
     7
370
    25
100
AcDbSpline
210
0.0
220
0.0
230
1.0
 70
    24
 71
     3
 72
     9
 73
     5
 74
     0
 42
0.00000001
 43
0.00000001
 40
0.0
 40
0.0
 40
0.0
 40
0.0
 40
0.4726592242541511
 40
1.0
 40
1.0
 40
1.0
 40
1.0
 10
1354.14762258129
 20
8766.243663066263
 30
0.0
 10
1353.802387993178
 20
8766.915414449666
 30
0.0
 10
1353.071978915355
 20
8768.336631573831
 30
0.0
 10
1352.393932870227
 20
8769.655961630875
 30
0.0
 10
1352.036371542797
 20
8770.351698166623
 30
0.0
  0
ARC
  5
29E
330
1F
100
AcDbEntity
  8
0
  6
Continuous
 62
     7
370
    25
100
AcDbCircle
 10
1347.0322970682
 20
8762.5868690001
 30
0.0
 40
8.000000000000801
100
AcDbArc
 50
27.2000857564
 51
87.2000857564
  0
SPLINE
  5
29F
330
1F
100
AcDbEntity
  8
0
  6
Continuous
 62
     7
370
    25
100
AcDbSpline
210
0.0
220
0.0
230
1.0
 70
    24
 71
     3
 72
     9
 73
     5
 74
     0
 42
0.00000001
 43
0.00000001
 40
0.0
 40
0.0
 40
0.0
 40
0.0
 40
0.3219001480454403
 40
0.9999999999999999
 40
0.9999999999999999
 40
0.9999999999999999
 40
0.9999999999999999
 10
1352.036371542797
 20
8770.351698166623
 30
0.0
 10
1351.56836832816
 20
8770.374586640302
 30
0.0
 10
1350.114491349603
 20
8770.445690906081
 30
0.0
 10
1348.51064871803
 20
8770.52412949093
 30
0.0
 10
1347.423083267001
 20
8770.577318683703
 30
0.0
  0
ARC
  5
2A0
330
1F
100
AcDbEntity
  8
0
  6
Continuous
 62
     7
370
    25
100
AcDbCircle
 10
1347.0322970682
 20
8762.5868690001
 30
0.0
 40
8.000000000000576
100
AcDbArc
 50
207.2000857564
 51
267.2000857564
  0
SPLINE
  5
2A1
330
1F
100
AcDbEntity
  8
0
  6
Continuous
 62
     7
370
    25
100
AcDbSpline
210
0.0
220
0.0
230
1.0
 70
    24
 71
     3
 72
     9
 73
     5
 74
     0
 42
0.00000001
 43
0.00000001
 40
0.0
 40
0.0
 40
0.0
 40
0.0
 40
0.4726592242541075
 40
1.0
 40
1.0
 40
1.0
 40
1.0
 10
1339.916971555086
 20
8758.93007493386
 30
0.0
 10
1340.262206143197
 20
8758.258323550455
 30
0.0
 10
1340.992615221019
 20
8756.83710642629
 30
0.0
 10
1341.670661266149
 20
8755.517776369246
 30
0.0
 10
1342.028222593579
 20
8754.8220398335
 30
0.0
  0
SPLINE
  5
2A2
330
1F
100
AcDbEntity
  8
0
  6
Continuous
 62
     7
370
    25
100
AcDbSpline
210
0.0
220
0.0
230
1.0
 70
    24
 71
     3
 72
     9
 73
     5
 74
     0
 42
0.00000001
 43
0.00000001
 40
0.0
 40
0.0
 40
0.0
 40
0.0
 40
0.321900148045597
 40
1.0
 40
1.0
 40
1.0
 40
1.0
 10
1342.028222593579
 20
8754.8220398335
 30
0.0
 10
1342.496225808216
 20
8754.799151359817
 30
0.0
 10
1343.950102786773
 20
8754.72804709404
 30
0.0
 10
1345.553945418347
 20
8754.649608509191
 30
0.0
 10
1346.641510869376
 20
8754.59641931642
 30
0.0
  0
ARC
  5
2A3
330
1F
100
AcDbEntity
  8
0
  6
Continuous
 62
     7
370
    25
100
AcDbCircle
 10
1347.0322970682
 20
8762.5868690001
 30
0.0
 40
8.000000000000675
100
AcDbArc
 50
147.2000857564
 51
207.2000857564
  0
SPLINE
  5
2A4
330
1F
100
AcDbEntity
  8
0
  6
Continuous
 62
     7
370
    25
100
AcDbSpline
210
0.0
220
0.0
230
1.0
 70
    24
 71
     3
 72
     9
 73
     5
 74
     0
 42
0.00000001
 43
0.00000001
 40
0.0
 40
0.0
 40
0.0
 40
0.0
 40
0.5843443298746624
 40
1.0
 40
1.0
 40
1.0
 40
1.0
 10
1337.805720516594
 20
8763.038110034222
 30
0.0
 10
1338.203617249884
 20
8762.26388957589
 30
0.0
 10
1338.884545793122
 20
8760.938950804773
 30
0.0
 10
1339.613837374225
 20
8759.519908086048
 30
0.0
 10
1339.916971555086
 20
8758.93007493386
 30
0.0
  0
SPLINE
  5
2A5
330
1F
100
AcDbEntity
  8
0
  6
Continuous
 62
     7
370
    25
100
AcDbSpline
210
0.0
220
0.0
230
1.0
 70
    24
 71
     3
 72
     9
 73
     5
 74
     0
 42
0.00000001
 43
0.00000001
 40
0.0
 40
0.0
 40
0.0
 40
0.0
 40
0.4726592242540529
 40
1.0
 40
1.0
 40
1.0
 40
1.0
 10
1340.307757753899
 20
8766.920524617502
 30
0.0
 10
1339.898621284899
 20
8766.285667002232
 30
0.0
 10
1339.033015689992
 20
8764.9425056236
 30
0.0
 10
1338.229465367178
 20
8763.69563549506
 30
0.0
 10
1337.805720516594
 20
8763.038110034222
 30
0.0
  0
ARC
  5
2A6
330
1F
100
AcDbEntity
  8
0
  6
Continuous
 62
     7
370
    25
100
AcDbCircle
 10
1347.0322970682
 20
8762.5868690001
 30
0.0
 40
8.000000000000801
100
AcDbArc
 50
327.2000857564
 51
27.2000857564
  0
SPLINE
  5
2A7
330
1F
100
AcDbEntity
  8
0
  6
Continuous
 62
     7
370
    25
100
AcDbSpline
210
0.0
220
0.0
230
1.0
 70
    24
 71
     3
 72
     9
 73
     5
 74
     0
 42
0.00000001
 43
0.00000001
 40
0.0
 40
0.0
 40
0.0
 40
0.0
 40
0.58434432987459
 40
1.0
 40
1.0
 40
1.0
 40
1.0
 10
1356.258873619782
 20
8762.135627965901
 30
0.0
 10
1355.860976886492
 20
8762.909848424233
 30
0.0
 10
1355.180048343255
 20
8764.23478719535
 30
0.0
 10
1354.450756762151
 20
8765.653829914074
 30
0.0
 10
1354.14762258129
 20
8766.243663066263
 30
0.0
  0
SPLINE
  5
2A8
330
1F
100
AcDbEntity
  8
0
  6
Continuous
 62
     7
370
    25
100
AcDbSpline
210
0.0
220
0.0
230
1.0
 70
    24
 71
     3
 72
     9
 73
     5
 74
     0
 42
0.00000001
 43
0.00000001
 40
0.0
 40
0.0
 40
0.0
 40
0.0
 40
0.4726592242540077
 40
1.0
 40
1.0
 40
1.0
 40
1.0
 10
1353.756836382477
 20
8758.25321338262
 30
0.0
 10
1354.165972851476
 20
8758.888070997891
 30
0.0
 10
1355.031578446385
 20
8760.231232376522
 30
0.0
 10
1355.835128769199
 20
8761.478102505063
 30
0.0
 10
1356.258873619782
 20
8762.135627965901
 30
0.0
  0
CIRCLE
  5
2A9
330
1F
100
AcDbEntity
  8
0
  6
Continuous
 62
     7
370
    25
100
AcDbCircle
 10
1347.0322970682
 20
8762.5868690001
 30
0.0
 40
5.199999999999662
  0
SPLINE
  5
2AA
330
1F
100
AcDbEntity
  8
0
  6
Continuous
 62
     7
370
    25
100
AcDbSpline
210
0.0
220
0.0
230
1.0
 70
    24
 71
     3
 72
     9
 73
     5
 74
     0
 42
0.00000001
 43
0.00000001
 40
0.0
 40
0.0
 40
0.0
 40
0.0
 40
0.8659604718975985
 40
1.0
 40
1.0
 40
1.0
 40
1.0
 10
1423.399829436336
 20
8694.219336631913
 30
0.0
 10
1422.004818632965
 20
8694.219336631913
 30
0.0
 10
1420.393878123967
 20
8694.219336631913
 30
0.0
 10
1418.971660642846
 20
8694.219336631913
 30
0.0
 10
1418.781027282818
 20
8694.219336631913
 30
0.0
  0
ARC
  5
2AB
330
1F
100
AcDbEntity
  8
0
  6
Continuous
 62
     7
370
    25
100
AcDbCircle
 10
1423.3998294363
 20
8686.2193366319
 30
0.0
 40
8.000000000000655
100
AcDbArc
 50
90.0
 51
150.0
  0
SPLINE
  5
2AC
330
1F
100
AcDbEntity
  8
0
  6
Continuous
 62
     7
370
    25
100
AcDbSpline
210
0.0
220
0.0
230
1.0
 70
    24
 71
     3
 72
     9
 73
     5
 74
     0
 42
0.00000001
 43
0.00000001
 40
0.0
 40
0.0
 40
0.0
 40
0.0
 40
0.5843443298746264
 40
1.0
 40
1.0
 40
1.0
 40
1.0
 10
1418.781027282818
 20
8694.219336631913
 30
0.0
 10
1418.345786220743
 20
8693.46547699886
 30
0.0
 10
1417.600949589629
 20
8692.17538211043
 30
0.0
 10
1416.803210840439
 20
8690.79365806567
 30
0.0
 10
1416.471626206059
 20
8690.219336631913
 30
0.0
  0
ARC
  5
2AD
330
1F
100
AcDbEntity
  8
0
  6
Continuous
 62
     7
370
    25
100
AcDbCircle
 10
1423.3998294363
 20
8686.2193366319
 30
0.0
 40
8.0
100
AcDbArc
 50
270.0
 51
330.0
  0
SPLINE
  5
2AE
330
1F
100
AcDbEntity
  8
0
  6
Continuous
 62
     7
370
    25
100
AcDbSpline
210
0.0
220
0.0
230
1.0
 70
    24
 71
     3
 72
     9
 73
     5
 74
     0
 42
0.00000001
 43
0.00000001
 40
0.0
 40
0.0
 40
0.0
 40
0.0
 40
0.5843443298746522
 40
1.0
 40
1.0
 40
1.0
 40
1.0
 10
1428.018631589852
 20
8678.219336631913
 30
0.0
 10
1428.453872651927
 20
8678.973196264968
 30
0.0
 10
1429.198709283042
 20
8680.263291153396
 30
0.0
 10
1429.996448032231
 20
8681.645015198159
 30
0.0
 10
1430.328032666611
 20
8682.219336631913
 30
0.0
  0
SPLINE
  5
2AF
330
1F
100
AcDbEntity
  8
0
  6
Continuous
 62
     7
370
    25
100
AcDbSpline
210
0.0
220
0.0
230
1.0
 70
    24
 71
     3
 72
     9
 73
     5
 74
     0
 42
0.00000001
 43
0.00000001
 40
0.0
 40
0.0
 40
0.0
 40
0.0
 40
0.865960471897706
 40
0.9999999999999999
 40
0.9999999999999999
 40
0.9999999999999999
 40
0.9999999999999999
 10
1423.399829436336
 20
8678.219336631913
 30
0.0
 10
1424.794840239706
 20
8678.219336631913
 30
0.0
 10
1426.405780748704
 20
8678.219336631913
 30
0.0
 10
1427.827998229824
 20
8678.219336631913
 30
0.0
 10
1428.018631589852
 20
8678.219336631913
 30
0.0
  0
SPLINE
  5
2B0
330
1F
100
AcDbEntity
  8
0
  6
Continuous
 62
     7
370
    25
100
AcDbSpline
210
0.0
220
0.0
230
1.0
 70
    24
 71
     3
 72
     9
 73
     5
 74
     0
 42
0.00000001
 43
0.00000001
 40
0.0
 40
0.0
 40
0.0
 40
0.0
 40
0.4726592242541577
 40
1.0
 40
1.0
 40
1.0
 40
1.0
 10
1430.328032666611
 20
8690.219336631913
 30
0.0
 10
1429.950396319732
 20
8690.873421971492
 30
0.0
 10
1429.151435191925
 20
8692.257263238123
 30
0.0
 10
1428.409751593829
 20
8693.541896913168
 30
0.0
 10
1428.018631589852
 20
8694.219336631913
 30
0.0
  0
ARC
  5
2B1
330
1F
100
AcDbEntity
  8
0
  6
Continuous
 62
     7
370
    25
100
AcDbCircle
 10
1423.3998294363
 20
8686.2193366319
 30
0.0
 40
8.000000000000066
100
AcDbArc
 50
30.0
 51
90.0
  0
SPLINE
  5
2B2
330
1F
100
AcDbEntity
  8
0
  6
Continuous
 62
     7
370
    25
100
AcDbSpline
210
0.0
220
0.0
230
1.0
 70
    24
 71
     3
 72
     9
 73
     5
 74
     0
 42
0.00000001
 43
0.00000001
 40
0.0
 40
0.0
 40
0.0
 40
0.0
 40
0.321900148045442
 40
1.0
 40
1.0
 40
1.0
 40
1.0
 10
1428.018631589852
 20
8694.219336631913
 30
0.0
 10
1427.550069010106
 20
8694.219336631913
 30
0.0
 10
1426.094454333968
 20
8694.219336631913
 30
0.0
 10
1424.488694763407
 20
8694.219336631913
 30
0.0
 10
1423.399829436336
 20
8694.219336631913
 30
0.0
  0
ARC
  5
2B3
330
1F
100
AcDbEntity
  8
0
  6
Continuous
 62
     7
370
    25
100
AcDbCircle
 10
1423.3998294363
 20
8686.2193366319
 30
0.0
 40
8.00000000000105
100
AcDbArc
 50
210.0
 51
270.0
  0
SPLINE
  5
2B4
330
1F
100
AcDbEntity
  8
0
  6
Continuous
 62
     7
370
    25
100
AcDbSpline
210
0.0
220
0.0
230
1.0
 70
    24
 71
     3
 72
     9
 73
     5
 74
     0
 42
0.00000001
 43
0.00000001
 40
0.0
 40
0.0
 40
0.0
 40
0.0
 40
0.472659224254123
 40
1.0
 40
1.0
 40
1.0
 40
1.0
 10
1416.471626206059
 20
8682.219336631913
 30
0.0
 10
1416.849262552937
 20
8681.565251292335
 30
0.0
 10
1417.648223680744
 20
8680.181410025702
 30
0.0
 10
1418.38990727884
 20
8678.89677635066
 30
0.0
 10
1418.781027282818
 20
8678.219336631913
 30
0.0
  0
SPLINE
  5
2B5
330
1F
100
AcDbEntity
  8
0
  6
Continuous
 62
     7
370
    25
100
AcDbSpline
210
0.0
220
0.0
230
1.0
 70
    24
 71
     3
 72
     9
 73
     5
 74
     0
 42
0.00000001
 43
0.00000001
 40
0.0
 40
0.0
 40
0.0
 40
0.0
 40
0.3219001480455979
 40
1.0
 40
1.0
 40
1.0
 40
1.0
 10
1418.781027282818
 20
8678.219336631913
 30
0.0
 10
1419.249589862565
 20
8678.219336631913
 30
0.0
 10
1420.705204538703
 20
8678.219336631913
 30
0.0
 10
1422.310964109264
 20
8678.219336631913
 30
0.0
 10
1423.399829436336
 20
8678.219336631913
 30
0.0
  0
ARC
  5
2B6
330
1F
100
AcDbEntity
  8
0
  6
Continuous
 62
     7
370
    25
100
AcDbCircle
 10
1423.3998294363
 20
8686.2193366319
 30
0.0
 40
8.00000000000105
100
AcDbArc
 50
150.0
 51
210.0
  0
SPLINE
  5
2B7
330
1F
100
AcDbEntity
  8
0
  6
Continuous
 62
     7
370
    25
100
AcDbSpline
210
0.0
220
0.0
230
1.0
 70
    24
 71
     3
 72
     9
 73
     5
 74
     0
 42
0.00000001
 43
0.00000001
 40
0.0
 40
0.0
 40
0.0
 40
0.0
 40
0.5843443298746619
 40
1.0
 40
1.0
 40
1.0
 40
1.0
 10
1414.162225129301
 20
8686.219336631915
 30
0.0
 10
1414.597466191376
 20
8685.465476998861
 30
0.0
 10
1415.34230282249
 20
8684.175382110432
 30
0.0
 10
1416.14004157168
 20
8682.793658065668
 30
0.0
 10
1416.471626206059
 20
8682.219336631913
 30
0.0
  0
SPLINE
  5
2B8
330
1F
100
AcDbEntity
  8
0
  6
Continuous
 62
     7
370
    25
100
AcDbSpline
210
0.0
220
0.0
230
1.0
 70
    24
 71
     3
 72
     9
 73
     5
 74
     0
 42
0.00000001
 43
0.00000001
 40
0.0
 40
0.0
 40
0.0
 40
0.0
 40
0.4726592242540477
 40
1.0
 40
1.0
 40
1.0
 40
1.0
 10
1416.471626206059
 20
8690.219336631913
 30
0.0
 10
1416.093989859182
 20
8689.565251292337
 30
0.0
 10
1415.295028731376
 20
8688.181410025702
 30
0.0
 10
1414.553345133279
 20
8686.896776350659
 30
0.0
 10
1414.162225129301
 20
8686.219336631915
 30
0.0
  0
ARC
  5
2B9
330
1F
100
AcDbEntity
  8
0
  6
Continuous
 62
     7
370
    25
100
AcDbCircle
 10
1423.3998294363
 20
8686.2193366319
 30
0.0
 40
8.000000000000066
100
AcDbArc
 50
330.0
 51
30.0
  0
SPLINE
  5
2BA
330
1F
100
AcDbEntity
  8
0
  6
Continuous
 62
     7
370
    25
100
AcDbSpline
210
0.0
220
0.0
230
1.0
 70
    24
 71
     3
 72
     9
 73
     5
 74
     0
 42
0.00000001
 43
0.00000001
 40
0.0
 40
0.0
 40
0.0
 40
0.0
 40
0.5843443298745877
 40
1.0
 40
1.0
 40
1.0
 40
1.0
 10
1432.637433743369
 20
8686.219336631915
 30
0.0
 10
1432.202192681295
 20
8686.973196264968
 30
0.0
 10
1431.45735605018
 20
8688.263291153396
 30
0.0
 10
1430.659617300991
 20
8689.645015198159
 30
0.0
 10
1430.328032666611
 20
8690.219336631913
 30
0.0
  0
SPLINE
  5
2BB
330
1F
100
AcDbEntity
  8
0
  6
Continuous
 62
     7
370
    25
100
AcDbSpline
210
0.0
220
0.0
230
1.0
 70
    24
 71
     3
 72
     9
 73
     5
 74
     0
 42
0.00000001
 43
0.00000001
 40
0.0
 40
0.0
 40
0.0
 40
0.0
 40
0.4726592242540095
 40
1.0
 40
1.0
 40
1.0
 40
1.0
 10
1430.328032666611
 20
8682.219336631913
 30
0.0
 10
1430.705669013489
 20
8682.873421971492
 30
0.0
 10
1431.504630141295
 20
8684.257263238125
 30
0.0
 10
1432.246313739391
 20
8685.541896913168
 30
0.0
 10
1432.637433743369
 20
8686.219336631915
 30
0.0
  0
CIRCLE
  5
2BC
330
1F
100
AcDbEntity
  8
0
  6
Continuous
 62
     7
370
    25
100
AcDbCircle
 10
1423.3998294363
 20
8686.2193366319
 30
0.0
 40
5.199999999998909
  0
LINE
  5
2BD
330
1F
100
AcDbEntity
  8
0
  6
Continuous
 62
     8
370
    25
100
AcDbLine
 10
1065.6713450673
 20
8631.403102816
 30
0.0
 11
1070.5245653453
 21
8631.403102816
 31
0.0
  0
LINE
  5
2BE
330
1F
100
AcDbEntity
  8
0
  6
Continuous
 62
     8
370
    25
100
AcDbLine
 10
1099.8181247893
 20
8631.403102816
 30
0.0
 11
1232.4445077787
 21
8631.403102816
 31
0.0
  0
LINE
  5
2BF
330
1F
100
AcDbEntity
  8
0
  6
Continuous
 62
     8
370
    25
100
AcDbLine
 10
1259.8981823559
 20
8631.403102816
 30
0.0
 11
1265.6713450673
 21
8631.403102816
 31
0.0
  0
LINE
  5
2C0
330
1F
100
AcDbEntity
  8
0
  6
Continuous
 62
     8
370
    25
100
AcDbLine
 10
1265.6713450673
 20
8817.403102816
 30
0.0
 11
1261.159152566
 21
8817.403102816
 31
0.0
  0
LINE
  5
2C1
330
1F
100
AcDbEntity
  8
0
  6
Continuous
 62
     8
370
    25
100
AcDbLine
 10
1231.1835375687
 20
8817.403102816
 30
0.0
 11
1100.5125985237
 21
8817.403102816
 31
0.0
  0
LINE
  5
2C2
330
1F
100
AcDbEntity
  8
0
  6
Continuous
 62
     8
370
    25
100
AcDbLine
 10
1071.8300916109
 20
8817.403102816
 30
0.0
 11
1065.6713450673
 21
8817.403102816
 31
0.0
  0
LWPOLYLINE
  5
2C3
330
1F
100
AcDbEntity
  8
0
  6
Continuous
 62
     8
370
    25
100
AcDbPolyline
 90
       11
 70
   128
 43
0.0
 10
1409.7273506909
 20
7815.2018006033
 10
1413.1484015424
 20
7815.3122028171
 10
1417.8571691618
 20
7815.5003360391
 10
1422.1077272043
 20
7815.7162957586
 10
1425.8404071525
 20
7815.9570503747
 10
1429.002810362
 20
7816.2192202204
 10
1431.5505436239
 20
7816.4991250056
 10
1433.4478423477
 20
7816.7928354807
 10
1434.6680726184
 20
7817.0962285946
 10
1435.1941050777
 20
7817.4050453728
 10
1435.2160632523
 20
7817.4825898002
  0
LWPOLYLINE
  5
2C4
330
1F
100
AcDbEntity
  8
0
  6
Continuous
 62
     8
370
    25
100
AcDbPolyline
 90
       11
 70
   128
 43
0.0
 10
1335.2160632523
 20
7817.4825898002
 10
1335.2380214268
 20
7817.4050453728
 10
1335.7640538862
 20
7817.0962285946
 10
1336.9842841568
 20
7816.7928354807
 10
1338.8815828807
 20
7816.4991250056
 10
1341.4293161425
 20
7816.2192202204
 10
1344.591719352
 20
7815.9570503747
 10
1348.3243993002
 20
7815.7162957586
 10
1352.5749573427
 20
7815.5003360391
 10
1357.2837249621
 20
7815.3122028171
 10
1360.7047758137
 20
7815.2018006033
  0
LINE
  5
2C5
330
1F
100
AcDbEntity
  8
0
  6
Continuous
 62
     8
370
    25
100
AcDbLine
 10
1756.2160632523
 20
7855.403102816
 30
0.0
 11
1776.2160632523
 21
7855.403102816
 31
0.0
  0
LINE
  5
2C6
330
1F
100
AcDbEntity
  8
0
  6
Continuous
 62
     8
370
    25
100
AcDbLine
 10
1594.2160632523
 20
7855.403102816
 30
0.0
 11
1614.2160632523
 21
7855.403102816
 31
0.0
  0
LINE
  5
2C7
330
1F
100
AcDbEntity
  8
0
  6
Continuous
 62
     8
370
    25
100
AcDbLine
 10
1294.2160632523
 20
7855.403102816
 30
0.0
 11
1314.2160632523
 21
7855.403102816
 31
0.0
  0
LINE
  5
2C8
330
1F
100
AcDbEntity
  8
0
  6
Continuous
 62
     8
370
    25
100
AcDbLine
 10
1456.2160632523
 20
7855.403102816
 30
0.0
 11
1476.2160632523
 21
7855.403102816
 31
0.0
  0
LINE
  5
2C9
330
1F
100
AcDbEntity
  8
0
  6
Continuous
 62
     8
370
    25
100
AcDbLine
 10
1315.2160632523
 20
8631.403102816
 30
0.0
 11
1322.2160632523
 21
8631.403102816
 31
0.0
  0
LINE
  5
2CA
330
1F
100
AcDbEntity
  8
0
  6
Continuous
 62
     8
370
    25
100
AcDbLine
 10
1348.2160632523
 20
8631.403102816
 30
0.0
 11
1422.2160632523
 21
8631.403102816
 31
0.0
  0
LINE
  5
2CB
330
1F
100
AcDbEntity
  8
0
  6
Continuous
 62
     8
370
    25
100
AcDbLine
 10
1448.2160632523
 20
8631.403102816
 30
0.0
 11
1455.2160632523
 21
8631.403102816
 31
0.0
  0
LINE
  5
2CC
330
1F
100
AcDbEntity
  8
0
  6
Continuous
 62
     8
370
    25
100
AcDbLine
 10
1455.2160632523
 20
8817.403102816
 30
0.0
 11
1448.2160632523
 21
8817.403102816
 31
0.0
  0
LINE
  5
2CD
330
1F
100
AcDbEntity
  8
0
  6
Continuous
 62
     8
370
    25
100
AcDbLine
 10
1422.2160632523
 20
8817.403102816
 30
0.0
 11
1348.2160632523
 21
8817.403102816
 31
0.0
  0
LINE
  5
2CE
330
1F
100
AcDbEntity
  8
0
  6
Continuous
 62
     8
370
    25
100
AcDbLine
 10
1322.2160632523
 20
8817.403102816
 30
0.0
 11
1315.2160632523
 21
8817.403102816
 31
0.0
  0
LINE
  5
2CF
330
1F
100
AcDbEntity
  8
0
  6
Continuous
 62
     8
370
    25
100
AcDbLine
 10
1834.2160632523
 20
6800.403102816
 30
0.0
 11
1834.2160632523
 21
6630.403102816
 31
0.0
  0
LINE
  5
2D0
330
1F
100
AcDbEntity
  8
0
  6
Continuous
 62
     8
370
    25
100
AcDbLine
 10
1886.2160632523
 20
6800.403102816
 30
0.0
 11
1886.2160632523
 21
6630.403102816
 31
0.0
  0
LINE
  5
2D1
330
1F
100
AcDbEntity
  8
0
  6
Continuous
 62
     8
370
    25
100
AcDbLine
 10
884.2160632523
 20
6800.403102816
 30
0.0
 11
884.2160632523
 21
6630.403102816
 31
0.0
  0
LINE
  5
2D2
330
1F
100
AcDbEntity
  8
0
  6
Continuous
 62
     8
370
    25
100
AcDbLine
 10
936.2160632523
 20
6800.403102816
 30
0.0
 11
936.2160632523
 21
6630.403102816
 31
0.0
  0
LINE
  5
2D3
330
1F
100
AcDbEntity
  8
0
  6
Continuous
 62
     7
370
    25
100
AcDbLine
 10
2677.4867496052
 20
8224.403102816
 30
0.0
 11
2862.4867496052
 21
8224.403102816
 31
0.0
  0
LINE
  5
2D4
330
1F
100
AcDbEntity
  8
0
  6
Continuous
 62
     7
370
    25
100
AcDbLine
 10
2862.4867496052
 20
8244.403102816
 30
0.0
 11
2677.4867496052
 21
8244.403102816
 31
0.0
  0
LINE
  5
2D5
330
1F
100
AcDbEntity
  8
0
  6
Continuous
 62
     7
370
    25
100
AcDbLine
 10
2862.4867496052
 20
8224.403102816
 30
0.0
 11
2864.4867496052
 21
8226.403102816
 31
0.0
  0
LINE
  5
2D6
330
1F
100
AcDbEntity
  8
0
  6
Continuous
 62
     7
370
    25
100
AcDbLine
 10
2864.4867496052
 20
8242.403102816
 30
0.0
 11
2862.4867496052
 21
8244.403102816
 31
0.0
  0
LINE
  5
2D7
330
1F
100
AcDbEntity
  8
0
  6
Continuous
 62
     7
370
    25
100
AcDbLine
 10
2693.4867496052
 20
7940.403102816
 30
0.0
 11
2677.4867496052
 21
7940.403102816
 31
0.0
  0
LINE
  5
2D8
330
1F
100
AcDbEntity
  8
0
  6
Continuous
 62
     7
370
    25
100
AcDbLine
 10
2677.4867496052
 20
7810.403102816
 30
0.0
 11
2693.4867496052
 21
7810.403102816
 31
0.0
  0
LINE
  5
2D9
330
1F
100
AcDbEntity
  8
0
  6
Continuous
 62
     7
370
    25
100
AcDbLine
 10
2704.6867496052
 20
7930.403102816
 30
0.0
 11
2693.4867496052
 21
7930.403102816
 31
0.0
  0
LINE
  5
2DA
330
1F
100
AcDbEntity
  8
0
  6
Continuous
 62
     7
370
    25
100
AcDbLine
 10
2693.4867496052
 20
7820.403102816
 30
0.0
 11
2704.6867496052
 21
7820.403102816
 31
0.0
  0
LINE
  5
2DB
330
1F
100
AcDbEntity
  8
0
  6
Continuous
 62
     7
370
    25
100
AcDbLine
 10
2566.2444733441
 20
7713.0055794431
 30
0.0
 11
2571.5827408809
 21
7814.8657919881
 31
0.0
  0
LINE
  5
2DC
330
1F
100
AcDbEntity
  8
0
  6
Continuous
 62
     7
370
    25
100
AcDbLine
 10
2471.7197874054
 20
7820.0993876124
 30
0.0
 11
2466.3815198686
 21
7718.2391750674
 31
0.0
  0
ARC
  5
2DD
330
1F
100
AcDbEntity
  8
0
  6
Continuous
 62
     7
370
    25
100
AcDbCircle
 10
2582.6867496052
 20
7814.2838555497
 30
0.0
 40
11.11924726629558
100
AcDbArc
 50
117.8823505433
 51
177.0
  0
ARC
  5
2DE
330
1F
100
AcDbEntity
  8
0
  6
Continuous
 62
     7
370
    25
100
AcDbCircle
 10
2582.6867496052
 20
7814.2838555497
 30
0.0
 40
111.1192472662962
100
AcDbArc
 50
92.6822257303
 51
177.0
  0
LINE
  5
2DF
330
1F
100
AcDbEntity
  8
0
  6
Continuous
 62
     7
370
    25
100
AcDbLine
 10
2571.4867496052
 20
8619.403102816
 30
0.0
 11
2569.4867496052
 21
8619.403102816
 31
0.0
  0
LINE
  5
2E0
330
1F
100
AcDbEntity
  8
0
  6
Continuous
 62
     7
370
    25
100
AcDbLine
 10
2569.4867496052
 20
8587.403102816
 30
0.0
 11
2571.4867496052
 21
8587.403102816
 31
0.0
  0
LINE
  5
2E1
330
1F
100
AcDbEntity
  8
0
  6
Continuous
 62
     7
370
    25
100
AcDbLine
 10
2571.4867496052
 20
8861.403102816
 30
0.0
 11
2569.4867496052
 21
8861.403102816
 31
0.0
  0
LINE
  5
2E2
330
1F
100
AcDbEntity
  8
0
  6
Continuous
 62
     7
370
    25
100
AcDbLine
 10
2569.4867496052
 20
8829.403102816
 30
0.0
 11
2571.4867496052
 21
8829.403102816
 31
0.0
  0
LINE
  5
2E3
330
1F
100
AcDbEntity
  8
0
  6
Continuous
 62
     7
370
    25
100
AcDbLine
 10
2571.4867496052
 20
8010.403102816
 30
0.0
 11
2569.4867496052
 21
8010.403102816
 31
0.0
  0
LINE
  5
2E4
330
1F
100
AcDbEntity
  8
0
  6
Continuous
 62
     7
370
    25
100
AcDbLine
 10
2569.4867496052
 20
7978.403102816
 30
0.0
 11
2571.4867496052
 21
7978.403102816
 31
0.0
  0
LINE
  5
2E5
330
1F
100
AcDbEntity
  8
0
  6
Continuous
 62
     7
370
    25
100
AcDbLine
 10
2571.4867496052
 20
8250.403102816
 30
0.0
 11
2569.4867496052
 21
8250.403102816
 31
0.0
  0
LINE
  5
2E6
330
1F
100
AcDbEntity
  8
0
  6
Continuous
 62
     7
370
    25
100
AcDbLine
 10
2569.4867496052
 20
8218.403102816
 30
0.0
 11
2571.4867496052
 21
8218.403102816
 31
0.0
  0
LINE
  5
2E7
330
1F
100
AcDbEntity
  8
0
  6
Continuous
 62
     7
370
    25
100
AcDbLine
 10
2684.4867496052
 20
8618.403102816
 30
0.0
 11
2684.4867496052
 21
8624.403102816
 31
0.0
  0
LINE
  5
2E8
330
1F
100
AcDbEntity
  8
0
  6
Continuous
 62
     7
370
    25
100
AcDbLine
 10
2677.4867496052
 20
8618.403102816
 30
0.0
 11
2684.4867496052
 21
8618.403102816
 31
0.0
  0
LINE
  5
2E9
330
1F
100
AcDbEntity
  8
0
  6
Continuous
 62
     7
370
    25
100
AcDbLine
 10
2677.4867496052
 20
8624.403102816
 30
0.0
 11
2684.4867496052
 21
8624.403102816
 31
0.0
  0
LINE
  5
2EA
330
1F
100
AcDbEntity
  8
0
  6
Continuous
 62
     7
370
    25
100
AcDbLine
 10
2684.4867496052
 20
8824.403102816
 30
0.0
 11
2677.4867496052
 21
8824.403102816
 31
0.0
  0
LINE
  5
2EB
330
1F
100
AcDbEntity
  8
0
  6
Continuous
 62
     7
370
    25
100
AcDbLine
 10
2684.4867496052
 20
8830.403102816
 30
0.0
 11
2677.4867496052
 21
8830.403102816
 31
0.0
  0
LINE
  5
2EC
330
1F
100
AcDbEntity
  8
0
  6
Continuous
 62
     7
370
    25
100
AcDbLine
 10
2684.4867496052
 20
8830.403102816
 30
0.0
 11
2684.4867496052
 21
8824.403102816
 31
0.0
  0
LINE
  5
2ED
330
1F
100
AcDbEntity
  8
0
  6
Continuous
 62
     7
370
    25
100
AcDbLine
 10
2686.4867496052
 20
8618.403102816
 30
0.0
 11
2686.4867496052
 21
8624.403102816
 31
0.0
  0
LINE
  5
2EE
330
1F
100
AcDbEntity
  8
0
  6
Continuous
 62
     7
370
    25
100
AcDbLine
 10
2684.4867496052
 20
8618.403102816
 30
0.0
 11
2686.4867496052
 21
8618.403102816
 31
0.0
  0
LINE
  5
2EF
330
1F
100
AcDbEntity
  8
0
  6
Continuous
 62
     7
370
    25
100
AcDbLine
 10
2684.4867496052
 20
8624.403102816
 30
0.0
 11
2686.4867496052
 21
8624.403102816
 31
0.0
  0
LINE
  5
2F0
330
1F
100
AcDbEntity
  8
0
  6
Continuous
 62
     7
370
    25
100
AcDbLine
 10
2686.4867496052
 20
8830.403102816
 30
0.0
 11
2686.4867496052
 21
8824.403102816
 31
0.0
  0
LINE
  5
2F1
330
1F
100
AcDbEntity
  8
0
  6
Continuous
 62
     7
370
    25
100
AcDbLine
 10
2686.4867496052
 20
8830.403102816
 30
0.0
 11
2684.4867496052
 21
8830.403102816
 31
0.0
  0
LINE
  5
2F2
330
1F
100
AcDbEntity
  8
0
  6
Continuous
 62
     7
370
    25
100
AcDbLine
 10
2686.4867496052
 20
8824.403102816
 30
0.0
 11
2684.4867496052
 21
8824.403102816
 31
0.0
  0
LINE
  5
2F3
330
1F
100
AcDbEntity
  8
0
  6
Continuous
 62
     7
370
    25
100
AcDbLine
 10
2862.4867496052
 20
8224.403102816
 30
0.0
 11
2862.4867496052
 21
8244.403102816
 31
0.0
  0
LINE
  5
2F4
330
1F
100
AcDbEntity
  8
0
  6
Continuous
 62
     7
370
    25
100
AcDbLine
 10
2864.4867496052
 20
8242.403102816
 30
0.0
 11
2864.4867496052
 21
8226.403102816
 31
0.0
  0
LINE
  5
2F5
330
1F
100
AcDbEntity
  8
0
  6
Continuous
 62
     7
370
    25
100
AcDbLine
 10
2682.4694885676
 20
8817.403102816
 30
0.0
 11
2682.4694885676
 21
8631.403102816
 31
0.0
  0
ARC
  5
2F6
330
1F
100
AcDbEntity
  8
0
  6
Continuous
 62
     7
370
    25
100
AcDbCircle
 10
2669.4694885676
 20
8631.403102816
 30
0.0
 40
13.00000000000045
100
AcDbArc
 50
327.4210296072
 51
0.0
  0
ARC
  5
2F7
330
1F
100
AcDbEntity
  8
0
  6
Continuous
 62
     7
370
    25
100
AcDbCircle
 10
2669.4694885676
 20
8817.403102816
 30
0.0
 40
13.00000000000045
100
AcDbArc
 50
0.0
 51
32.5789703928
  0
LINE
  5
2F8
330
1F
100
AcDbEntity
  8
0
  6
Continuous
 62
     7
370
    25
100
AcDbLine
 10
2577.4867496052
 20
8264.403102816
 30
0.0
 11
2577.4867496052
 21
8204.403102816
 31
0.0
  0
LINE
  5
2F9
330
1F
100
AcDbEntity
  8
0
  6
Continuous
 62
     7
370
    25
100
AcDbLine
 10
2571.4867496052
 20
8264.403102816
 30
0.0
 11
2571.4867496052
 21
8204.403102816
 31
0.0
  0
LINE
  5
2FA
330
1F
100
AcDbEntity
  8
0
  6
Continuous
 62
     7
370
    25
100
AcDbLine
 10
2571.4867496052
 20
8264.403102816
 30
0.0
 11
2577.4867496052
 21
8264.403102816
 31
0.0
  0
LINE
  5
2FB
330
1F
100
AcDbEntity
  8
0
  6
Continuous
 62
     7
370
    25
100
AcDbLine
 10
2577.4867496052
 20
8204.403102816
 30
0.0
 11
2571.4867496052
 21
8204.403102816
 31
0.0
  0
LINE
  5
2FC
330
1F
100
AcDbEntity
  8
0
  6
Continuous
 62
     7
370
    25
100
AcDbLine
 10
2693.4867496052
 20
7940.403102816
 30
0.0
 11
2693.4867496052
 21
7810.403102816
 31
0.0
  0
LINE
  5
2FD
330
1F
100
AcDbEntity
  8
0
  6
Continuous
 62
     7
370
    25
100
AcDbLine
 10
2704.6867496052
 20
7930.403102816
 30
0.0
 11
2704.6867496052
 21
7820.403102816
 31
0.0
  0
LINE
  5
2FE
330
1F
100
AcDbEntity
  8
0
  6
Continuous
 62
     7
370
    25
100
AcDbLine
 10
2566.2444733441
 20
7713.0055794431
 30
0.0
 11
2466.3815198686
 21
7718.2391750674
 31
0.0
  0
LINE
  5
2FF
330
1F
100
AcDbEntity
  8
0
  6
Continuous
 62
     7
370
    25
100
AcDbLine
 10
2577.4867496052
 20
8815.403102816
 30
0.0
 11
2577.4867496052
 21
8875.403102816
 31
0.0
  0
LINE
  5
300
330
1F
100
AcDbEntity
  8
0
  6
Continuous
 62
     7
370
    25
100
AcDbLine
 10
2571.4867496052
 20
8875.403102816
 30
0.0
 11
2571.4867496052
 21
8815.403102816
 31
0.0
  0
LINE
  5
301
330
1F
100
AcDbEntity
  8
0
  6
Continuous
 62
     7
370
    25
100
AcDbLine
 10
2577.4867496052
 20
8875.403102816
 30
0.0
 11
2571.4867496052
 21
8875.403102816
 31
0.0
  0
LINE
  5
302
330
1F
100
AcDbEntity
  8
0
  6
Continuous
 62
     7
370
    25
100
AcDbLine
 10
2571.4867496052
 20
8815.403102816
 30
0.0
 11
2577.4867496052
 21
8815.403102816
 31
0.0
  0
LINE
  5
303
330
1F
100
AcDbEntity
  8
0
  6
Continuous
 62
     7
370
    25
100
AcDbLine
 10
2577.4867496052
 20
8633.403102816
 30
0.0
 11
2577.4867496052
 21
8573.403102816
 31
0.0
  0
LINE
  5
304
330
1F
100
AcDbEntity
  8
0
  6
Continuous
 62
     7
370
    25
100
AcDbLine
 10
2577.4867496052
 20
8573.403102816
 30
0.0
 11
2571.4867496052
 21
8573.403102816
 31
0.0
  0
LINE
  5
305
330
1F
100
AcDbEntity
  8
0
  6
Continuous
 62
     7
370
    25
100
AcDbLine
 10
2571.4867496052
 20
8573.403102816
 30
0.0
 11
2571.4867496052
 21
8633.403102816
 31
0.0
  0
LINE
  5
306
330
1F
100
AcDbEntity
  8
0
  6
Continuous
 62
     7
370
    25
100
AcDbLine
 10
2571.4867496052
 20
8633.403102816
 30
0.0
 11
2577.4867496052
 21
8633.403102816
 31
0.0
  0
LINE
  5
307
330
1F
100
AcDbEntity
  8
0
  6
Continuous
 62
     7
370
    25
100
AcDbLine
 10
2571.4867496052
 20
8024.403102816
 30
0.0
 11
2571.4867496052
 21
7964.403102816
 31
0.0
  0
LINE
  5
308
330
1F
100
AcDbEntity
  8
0
  6
Continuous
 62
     7
370
    25
100
AcDbLine
 10
2571.4867496052
 20
7964.403102816
 30
0.0
 11
2577.4867496052
 21
7964.403102816
 31
0.0
  0
LINE
  5
309
330
1F
100
AcDbEntity
  8
0
  6
Continuous
 62
     7
370
    25
100
AcDbLine
 10
2577.4867496052
 20
8024.403102816
 30
0.0
 11
2571.4867496052
 21
8024.403102816
 31
0.0
  0
LINE
  5
30A
330
1F
100
AcDbEntity
  8
0
  6
Continuous
 62
     7
370
    25
100
AcDbLine
 10
2577.4867496052
 20
7964.403102816
 30
0.0
 11
2577.4867496052
 21
8024.403102816
 31
0.0
  0
LINE
  5
30B
330
1F
100
AcDbEntity
  8
0
  6
Continuous
 62
     7
370
    25
100
AcDbLine
 10
2569.4867496052
 20
8587.403102816
 30
0.0
 11
2569.4867496052
 21
8619.403102816
 31
0.0
  0
LINE
  5
30C
330
1F
100
AcDbEntity
  8
0
  6
Continuous
 62
     7
370
    25
100
AcDbLine
 10
2569.4867496052
 20
8829.403102816
 30
0.0
 11
2569.4867496052
 21
8861.403102816
 31
0.0
  0
LINE
  5
30D
330
1F
100
AcDbEntity
  8
0
  6
Continuous
 62
     7
370
    25
100
AcDbLine
 10
2569.4867496052
 20
7978.403102816
 30
0.0
 11
2569.4867496052
 21
8010.403102816
 31
0.0
  0
LINE
  5
30E
330
1F
100
AcDbEntity
  8
0
  6
Continuous
 62
     7
370
    25
100
AcDbLine
 10
2569.4867496052
 20
8218.403102816
 30
0.0
 11
2569.4867496052
 21
8250.403102816
 31
0.0
  0
LINE
  5
30F
330
1F
100
AcDbEntity
  8
0
  6
Continuous
 62
     7
370
    25
100
AcDbLine
 10
2559.4867496052
 20
8592.4099431564
 30
0.0
 11
2569.4867496052
 21
8592.4099431564
 31
0.0
  0
LINE
  5
310
330
1F
100
AcDbEntity
  8
0
  6
Continuous
 62
     7
370
    25
100
AcDbLine
 10
2559.4867496052
 20
8606.7588012537
 30
0.0
 11
2569.4867496052
 21
8606.7588012537
 31
0.0
  0
LINE
  5
311
330
1F
100
AcDbEntity
  8
0
  6
Continuous
 62
     7
370
    25
100
AcDbLine
 10
2559.4867496052
 20
8592.4099431564
 30
0.0
 11
2559.4867496052
 21
8606.7588012537
 31
0.0
  0
LINE
  5
312
330
1F
100
AcDbEntity
  8
0
  6
Continuous
 62
     7
370
    25
100
AcDbLine
 10
2559.4867496052
 20
8617.7519609132
 30
0.0
 11
2569.4867496052
 21
8617.7519609132
 31
0.0
  0
LINE
  5
313
330
1F
100
AcDbEntity
  8
0
  6
Continuous
 62
     7
370
    25
100
AcDbLine
 10
2559.4867496052
 20
8606.7588012537
 30
0.0
 11
2559.4867496052
 21
8617.7519609132
 31
0.0
  0
LINE
  5
314
330
1F
100
AcDbEntity
  8
0
  6
Continuous
 62
     7
370
    25
100
AcDbLine
 10
2559.4867496052
 20
8589.0542447187
 30
0.0
 11
2569.4867496052
 21
8589.0542447187
 31
0.0
  0
LINE
  5
315
330
1F
100
AcDbEntity
  8
0
  6
Continuous
 62
     7
370
    25
100
AcDbLine
 10
2559.4867496052
 20
8589.0542447187
 30
0.0
 11
2559.4867496052
 21
8592.4099431564
 31
0.0
  0
LINE
  5
316
330
1F
100
AcDbEntity
  8
0
  6
Continuous
 62
     7
370
    25
100
AcDbLine
 10
2559.4867496052
 20
8223.4099431564
 30
0.0
 11
2569.4867496052
 21
8223.4099431564
 31
0.0
  0
LINE
  5
317
330
1F
100
AcDbEntity
  8
0
  6
Continuous
 62
     7
370
    25
100
AcDbLine
 10
2559.4867496052
 20
8237.7588012537
 30
0.0
 11
2569.4867496052
 21
8237.7588012537
 31
0.0
  0
LINE
  5
318
330
1F
100
AcDbEntity
  8
0
  6
Continuous
 62
     7
370
    25
100
AcDbLine
 10
2559.4867496052
 20
8223.4099431564
 30
0.0
 11
2559.4867496052
 21
8237.7588012537
 31
0.0
  0
LINE
  5
319
330
1F
100
AcDbEntity
  8
0
  6
Continuous
 62
     7
370
    25
100
AcDbLine
 10
2559.4867496052
 20
8248.7519609132
 30
0.0
 11
2569.4867496052
 21
8248.7519609132
 31
0.0
  0
LINE
  5
31A
330
1F
100
AcDbEntity
  8
0
  6
Continuous
 62
     7
370
    25
100
AcDbLine
 10
2559.4867496052
 20
8237.7588012537
 30
0.0
 11
2559.4867496052
 21
8248.7519609132
 31
0.0
  0
LINE
  5
31B
330
1F
100
AcDbEntity
  8
0
  6
Continuous
 62
     7
370
    25
100
AcDbLine
 10
2559.4867496052
 20
8220.0542447187
 30
0.0
 11
2569.4867496052
 21
8220.0542447187
 31
0.0
  0
LINE
  5
31C
330
1F
100
AcDbEntity
  8
0
  6
Continuous
 62
     7
370
    25
100
AcDbLine
 10
2559.4867496052
 20
8220.0542447187
 30
0.0
 11
2559.4867496052
 21
8223.4099431564
 31
0.0
  0
LINE
  5
31D
330
1F
100
AcDbEntity
  8
0
  6
Continuous
 62
     7
370
    25
100
AcDbLine
 10
2559.4867496052
 20
7983.4099431564
 30
0.0
 11
2569.4867496052
 21
7983.4099431564
 31
0.0
  0
LINE
  5
31E
330
1F
100
AcDbEntity
  8
0
  6
Continuous
 62
     7
370
    25
100
AcDbLine
 10
2559.4867496052
 20
7997.7588012537
 30
0.0
 11
2569.4867496052
 21
7997.7588012537
 31
0.0
  0
LINE
  5
31F
330
1F
100
AcDbEntity
  8
0
  6
Continuous
 62
     7
370
    25
100
AcDbLine
 10
2559.4867496052
 20
7983.4099431564
 30
0.0
 11
2559.4867496052
 21
7997.7588012537
 31
0.0
  0
LINE
  5
320
330
1F
100
AcDbEntity
  8
0
  6
Continuous
 62
     7
370
    25
100
AcDbLine
 10
2559.4867496052
 20
8008.7519609132
 30
0.0
 11
2569.4867496052
 21
8008.7519609132
 31
0.0
  0
LINE
  5
321
330
1F
100
AcDbEntity
  8
0
  6
Continuous
 62
     7
370
    25
100
AcDbLine
 10
2559.4867496052
 20
7997.7588012537
 30
0.0
 11
2559.4867496052
 21
8008.7519609132
 31
0.0
  0
LINE
  5
322
330
1F
100
AcDbEntity
  8
0
  6
Continuous
 62
     7
370
    25
100
AcDbLine
 10
2559.4867496052
 20
7980.0542447187
 30
0.0
 11
2569.4867496052
 21
7980.0542447187
 31
0.0
  0
LINE
  5
323
330
1F
100
AcDbEntity
  8
0
  6
Continuous
 62
     7
370
    25
100
AcDbLine
 10
2559.4867496052
 20
7980.0542447187
 30
0.0
 11
2559.4867496052
 21
7983.4099431564
 31
0.0
  0
LINE
  5
324
330
1F
100
AcDbEntity
  8
0
  6
Continuous
 62
     7
370
    25
100
AcDbLine
 10
2559.4867496052
 20
8834.4099431564
 30
0.0
 11
2569.4867496052
 21
8834.4099431564
 31
0.0
  0
LINE
  5
325
330
1F
100
AcDbEntity
  8
0
  6
Continuous
 62
     7
370
    25
100
AcDbLine
 10
2559.4867496052
 20
8834.4099431564
 30
0.0
 11
2559.4867496052
 21
8848.7588012537
 31
0.0
  0
LINE
  5
326
330
1F
100
AcDbEntity
  8
0
  6
Continuous
 62
     7
370
    25
100
AcDbLine
 10
2559.4867496052
 20
8848.7588012537
 30
0.0
 11
2569.4867496052
 21
8848.7588012537
 31
0.0
  0
LINE
  5
327
330
1F
100
AcDbEntity
  8
0
  6
Continuous
 62
     7
370
    25
100
AcDbLine
 10
2559.4867496052
 20
8859.7519609132
 30
0.0
 11
2569.4867496052
 21
8859.7519609132
 31
0.0
  0
LINE
  5
328
330
1F
100
AcDbEntity
  8
0
  6
Continuous
 62
     7
370
    25
100
AcDbLine
 10
2559.4867496052
 20
8848.7588012537
 30
0.0
 11
2559.4867496052
 21
8859.7519609132
 31
0.0
  0
LINE
  5
329
330
1F
100
AcDbEntity
  8
0
  6
Continuous
 62
     7
370
    25
100
AcDbLine
 10
2559.4867496052
 20
8831.0542447187
 30
0.0
 11
2569.4867496052
 21
8831.0542447187
 31
0.0
  0
LINE
  5
32A
330
1F
100
AcDbEntity
  8
0
  6
Continuous
 62
     7
370
    25
100
AcDbLine
 10
2559.4867496052
 20
8831.0542447187
 30
0.0
 11
2559.4867496052
 21
8834.4099431564
 31
0.0
  0
LINE
  5
32B
330
1F
100
AcDbEntity
  8
0
  6
Continuous
 62
     7
370
    25
100
AcDbLine
 10
2356.4867496052
 20
8993.403102816
 30
0.0
 11
2356.4867496052
 21
8947.403102816
 31
0.0
  0
LINE
  5
32C
330
1F
100
AcDbEntity
  8
0
  6
Continuous
 62
     7
370
    25
100
AcDbLine
 10
2364.4867496052
 20
8993.403102816
 30
0.0
 11
2364.4867496052
 21
8947.403102816
 31
0.0
  0
LINE
  5
32D
330
1F
100
AcDbEntity
  8
0
  6
Continuous
 62
     7
370
    25
100
AcDbLine
 10
2356.4867496052
 20
8993.403102816
 30
0.0
 11
2364.4867496052
 21
8993.403102816
 31
0.0
  0
LINE
  5
32E
330
1F
100
AcDbEntity
  8
0
  6
Continuous
 62
     7
370
    25
100
AcDbLine
 10
2356.4867496052
 20
8947.403102816
 30
0.0
 11
2364.4867496052
 21
8947.403102816
 31
0.0
  0
LINE
  5
32F
330
1F
100
AcDbEntity
  8
0
  6
Continuous
 62
     7
370
    25
100
AcDbLine
 10
2364.4867496052
 20
8993.403102816
 30
0.0
 11
2382.4867496052
 21
8993.403102816
 31
0.0
  0
LINE
  5
330
330
1F
100
AcDbEntity
  8
0
  6
Continuous
 62
     7
370
    25
100
AcDbLine
 10
2364.4867496052
 20
8947.403102816
 30
0.0
 11
2382.4867496052
 21
8947.403102816
 31
0.0
  0
LINE
  5
331
330
1F
100
AcDbEntity
  8
0
  6
Continuous
 62
     7
370
    25
100
AcDbLine
 10
2616.4867496052
 20
6630.403102816
 30
0.0
 11
2668.4867496052
 21
6630.403102816
 31
0.0
  0
LINE
  5
332
330
1F
100
AcDbEntity
  8
0
  6
Continuous
 62
     7
370
    25
100
AcDbLine
 10
2612.4867496052
 20
6800.403102816
 30
0.0
 11
2612.4867496052
 21
6630.403102816
 31
0.0
  0
LINE
  5
333
330
1F
100
AcDbEntity
  8
0
  6
Continuous
 62
     7
370
    25
100
AcDbLine
 10
2672.4867496052
 20
6800.403102816
 30
0.0
 11
2672.4867496052
 21
6630.403102816
 31
0.0
  0
LINE
  5
334
330
1F
100
AcDbEntity
  8
0
  6
Continuous
 62
     7
370
    25
100
AcDbLine
 10
2672.4867496052
 20
6624.403102816
 30
0.0
 11
2672.4867496052
 21
6630.403102816
 31
0.0
  0
LINE
  5
335
330
1F
100
AcDbEntity
  8
0
  6
Continuous
 62
     7
370
    25
100
AcDbLine
 10
2672.4867496052
 20
6630.403102816
 30
0.0
 11
2572.4867496052
 21
6630.403102816
 31
0.0
  0
LINE
  5
336
330
1F
100
AcDbEntity
  8
0
  6
Continuous
 62
     7
370
    25
100
AcDbLine
 10
2572.4867496052
 20
6624.403102816
 30
0.0
 11
2572.4867496052
 21
6630.403102816
 31
0.0
  0
LINE
  5
337
330
1F
100
AcDbEntity
  8
0
  6
Continuous
 62
     7
370
    25
100
AcDbLine
 10
2672.4867496052
 20
6624.403102816
 30
0.0
 11
2572.4867496052
 21
6624.403102816
 31
0.0
  0
LINE
  5
338
330
1F
100
AcDbEntity
  8
0
  6
Continuous
 62
     7
370
    25
100
AcDbLine
 10
2672.4867496052
 20
6800.403102816
 30
0.0
 11
2672.4867496052
 21
9000.403102816
 31
0.0
  0
LINE
  5
339
330
1F
100
AcDbEntity
  8
0
  6
Continuous
 62
     7
370
    25
100
AcDbLine
 10
2612.4867496052
 20
6800.403102816
 30
0.0
 11
2612.4867496052
 21
9000.403102816
 31
0.0
  0
LINE
  5
33A
330
1F
100
AcDbEntity
  8
0
  6
Continuous
 62
     7
370
    25
100
AcDbLine
 10
2672.4867496052
 20
9000.403102816
 30
0.0
 11
2612.4867496052
 21
9000.403102816
 31
0.0
  0
LINE
  5
33B
330
1F
100
AcDbEntity
  8
0
  6
Continuous
 62
     7
370
    25
100
AcDbLine
 10
2672.4867496052
 20
6800.403102816
 30
0.0
 11
2612.4867496052
 21
6800.403102816
 31
0.0
  0
LINE
  5
33C
330
1F
100
AcDbEntity
  8
0
  6
Continuous
 62
     7
370
    25
100
AcDbLine
 10
2607.4867496052
 20
6800.403102816
 30
0.0
 11
2607.4867496052
 21
8940.403102816
 31
0.0
  0
LINE
  5
33D
330
1F
100
AcDbEntity
  8
0
  6
Continuous
 62
     7
370
    25
100
AcDbLine
 10
2612.4867496052
 20
9000.403102816
 30
0.0
 11
2607.4867496052
 21
9000.403102816
 31
0.0
  0
LINE
  5
33E
330
1F
100
AcDbEntity
  8
0
  6
Continuous
 62
     7
370
    25
100
AcDbLine
 10
2612.4867496052
 20
6800.403102816
 30
0.0
 11
2607.4867496052
 21
6800.403102816
 31
0.0
  0
LINE
  5
33F
330
1F
100
AcDbEntity
  8
0
  6
Continuous
 62
     7
370
    25
100
AcDbLine
 10
2677.4867496052
 20
6800.403102816
 30
0.0
 11
2677.4867496052
 21
9000.403102816
 31
0.0
  0
LINE
  5
340
330
1F
100
AcDbEntity
  8
0
  6
Continuous
 62
     7
370
    25
100
AcDbLine
 10
2677.4867496052
 20
9000.403102816
 30
0.0
 11
2672.4867496052
 21
9000.403102816
 31
0.0
  0
LINE
  5
341
330
1F
100
AcDbEntity
  8
0
  6
Continuous
 62
     7
370
    25
100
AcDbLine
 10
2677.4867496052
 20
6800.403102816
 30
0.0
 11
2672.4867496052
 21
6800.403102816
 31
0.0
  0
LINE
  5
342
330
1F
100
AcDbEntity
  8
0
  6
Continuous
 62
     7
370
    25
100
AcDbLine
 10
2602.4867496052
 20
7280.403102816
 30
0.0
 11
2602.4867496052
 21
8900.403102816
 31
0.0
  0
LINE
  5
343
330
1F
100
AcDbEntity
  8
0
  6
Continuous
 62
     7
370
    25
100
AcDbLine
 10
2582.4867496052
 20
7280.403102816
 30
0.0
 11
2582.4867496052
 21
8900.403102816
 31
0.0
  0
LINE
  5
344
330
1F
100
AcDbEntity
  8
0
  6
Continuous
 62
     7
370
    25
100
AcDbLine
 10
2602.4867496052
 20
8900.403102816
 30
0.0
 11
2582.4867496052
 21
8900.403102816
 31
0.0
  0
LINE
  5
345
330
1F
100
AcDbEntity
  8
0
  6
Continuous
 62
     7
370
    25
100
AcDbLine
 10
2602.4867496052
 20
7280.403102816
 30
0.0
 11
2582.4867496052
 21
7280.403102816
 31
0.0
  0
LINE
  5
346
330
1F
100
AcDbEntity
  8
0
  6
Continuous
 62
     7
370
    25
100
AcDbLine
 10
2577.4867496052
 20
7280.403102816
 30
0.0
 11
2577.4867496052
 21
7964.403102816
 31
0.0
  0
LINE
  5
347
330
1F
100
AcDbEntity
  8
0
  6
Continuous
 62
     7
370
    25
100
AcDbLine
 10
2577.4867496052
 20
8024.403102816
 30
0.0
 11
2577.4867496052
 21
8204.403102816
 31
0.0
  0
LINE
  5
348
330
1F
100
AcDbEntity
  8
0
  6
Continuous
 62
     7
370
    25
100
AcDbLine
 10
2577.4867496052
 20
8264.403102816
 30
0.0
 11
2577.4867496052
 21
8573.403102816
 31
0.0
  0
LINE
  5
349
330
1F
100
AcDbEntity
  8
0
  6
Continuous
 62
     7
370
    25
100
AcDbLine
 10
2577.4867496052
 20
8633.403102816
 30
0.0
 11
2577.4867496052
 21
8815.403102816
 31
0.0
  0
LINE
  5
34A
330
1F
100
AcDbEntity
  8
0
  6
Continuous
 62
     7
370
    25
100
AcDbLine
 10
2577.4867496052
 20
8875.403102816
 30
0.0
 11
2577.4867496052
 21
8900.403102816
 31
0.0
  0
LINE
  5
34B
330
1F
100
AcDbEntity
  8
0
  6
Continuous
 62
     7
370
    25
100
AcDbLine
 10
2582.4867496052
 20
8900.403102816
 30
0.0
 11
2577.4867496052
 21
8900.403102816
 31
0.0
  0
LINE
  5
34C
330
1F
100
AcDbEntity
  8
0
  6
Continuous
 62
     7
370
    25
100
AcDbLine
 10
2582.4867496052
 20
7280.403102816
 30
0.0
 11
2577.4867496052
 21
7280.403102816
 31
0.0
  0
LINE
  5
34D
330
1F
100
AcDbEntity
  8
0
  6
Continuous
 62
     7
370
    25
100
AcDbLine
 10
2607.4867496052
 20
8900.403102816
 30
0.0
 11
2602.4867496052
 21
8900.403102816
 31
0.0
  0
LINE
  5
34E
330
1F
100
AcDbEntity
  8
0
  6
Continuous
 62
     7
370
    25
100
AcDbLine
 10
2607.4867496052
 20
7280.403102816
 30
0.0
 11
2602.4867496052
 21
7280.403102816
 31
0.0
  0
LINE
  5
34F
330
1F
100
AcDbEntity
  8
0
  6
Continuous
 62
     7
370
    25
100
AcDbLine
 10
2607.4867496052
 20
8940.403102816
 30
0.0
 11
2607.4867496052
 21
8944.403102816
 31
0.0
  0
LINE
  5
350
330
1F
100
AcDbEntity
  8
0
  6
Continuous
 62
     7
370
    25
100
AcDbLine
 10
2382.4867496052
 20
8940.403102816
 30
0.0
 11
2607.4867496052
 21
8940.403102816
 31
0.0
  0
LINE
  5
351
330
1F
100
AcDbEntity
  8
0
  6
Continuous
 62
     7
370
    25
100
AcDbLine
 10
2382.4867496052
 20
8940.403102816
 30
0.0
 11
2382.4867496052
 21
8944.403102816
 31
0.0
  0
LINE
  5
352
330
1F
100
AcDbEntity
  8
0
  6
Continuous
 62
     7
370
    25
100
AcDbLine
 10
2382.4867496052
 20
8944.403102816
 30
0.0
 11
2607.4867496052
 21
8944.403102816
 31
0.0
  0
LINE
  5
353
330
1F
100
AcDbEntity
  8
0
  6
Continuous
 62
     7
370
    25
100
AcDbLine
 10
2607.4867496052
 20
8944.403102816
 30
0.0
 11
2607.4867496052
 21
8996.403102816
 31
0.0
  0
LINE
  5
354
330
1F
100
AcDbEntity
  8
0
  6
Continuous
 62
     7
370
    25
100
AcDbLine
 10
2382.4867496052
 20
8944.403102816
 30
0.0
 11
2382.4867496052
 21
8996.403102816
 31
0.0
  0
LINE
  5
355
330
1F
100
AcDbEntity
  8
0
  6
Continuous
 62
     7
370
    25
100
AcDbLine
 10
2382.4867496052
 20
8996.403102816
 30
0.0
 11
2607.4867496052
 21
8996.403102816
 31
0.0
  0
LINE
  5
356
330
1F
100
AcDbEntity
  8
0
  6
Continuous
 62
     7
370
    25
100
AcDbLine
 10
2607.4867496052
 20
8996.403102816
 30
0.0
 11
2607.4867496052
 21
9000.403102816
 31
0.0
  0
LINE
  5
357
330
1F
100
AcDbEntity
  8
0
  6
Continuous
 62
     7
370
    25
100
AcDbLine
 10
2382.4867496052
 20
9000.403102816
 30
0.0
 11
2607.4867496052
 21
9000.403102816
 31
0.0
  0
LINE
  5
358
330
1F
100
AcDbEntity
  8
0
  6
Continuous
 62
     7
370
    25
100
AcDbLine
 10
2382.4867496052
 20
8996.403102816
 30
0.0
 11
2382.4867496052
 21
9000.403102816
 31
0.0
  0
LINE
  5
359
330
1F
100
AcDbEntity
  8
0
  6
Continuous
 62
     8
370
    25
100
AcDbLine
 10
2682.4694885676
 20
8817.403102816
 30
0.0
 11
2677.4867496052
 21
8817.403102816
 31
0.0
  0
LINE
  5
35A
330
1F
100
AcDbEntity
  8
0
  6
Continuous
 62
     8
370
    25
100
AcDbLine
 10
2682.4694885676
 20
8631.403102816
 30
0.0
 11
2677.4867496052
 21
8631.403102816
 31
0.0
  0
LINE
  5
35B
330
1F
100
AcDbEntity
  8
0
  6
Continuous
 62
     8
370
    25
100
AcDbLine
 10
2471.7197874054
 20
7820.0993876124
 30
0.0
 11
2571.5827408809
 21
7814.8657919881
 31
0.0
  0
LINE
  5
35C
330
1F
100
AcDbEntity
  8
0
  6
Continuous
 62
     8
370
    25
100
AcDbLine
 10
2616.4867496052
 20
6800.403102816
 30
0.0
 11
2616.4867496052
 21
6630.403102816
 31
0.0
  0
LINE
  5
35D
330
1F
100
AcDbEntity
  8
0
  6
Continuous
 62
     8
370
    25
100
AcDbLine
 10
2668.4867496052
 20
6800.403102816
 30
0.0
 11
2668.4867496052
 21
6630.403102816
 31
0.0
  0
LINE
  5
35E
330
1F
100
AcDbEntity
  8
0
  6
Continuous
 62
     7
100
AcDbLine
 10
955.2160632523
 20
5744.0842914923
 30
0.0
 11
1815.2160632523
 21
5744.0842914923
 31
0.0
  0
LINE
  5
35F
330
1F
100
AcDbEntity
  8
0
  6
Continuous
 62
     7
100
AcDbLine
 10
955.2160632523
 20
5744.0842914923
 30
0.0
 11
1815.2160632523
 21
5744.0842914923
 31
0.0
  0
LINE
  5
360
330
1F
100
AcDbEntity
  8
0
  6
Continuous
 62
     7
100
AcDbLine
 10
1815.2160632523
 20
5744.0842914923
 30
0.0
 11
955.2160632523
 21
5744.0842914923
 31
0.0
  0
LINE
  5
361
330
1F
100
AcDbEntity
  8
0
  6
Continuous
 62
     7
370
    25
100
AcDbLine
 10
1075.2160632523
 20
5734.0842914923
 30
0.0
 11
1075.2160632523
 21
5558.0842914923
 31
0.0
  0
LINE
  5
362
330
1F
100
AcDbEntity
  8
0
  6
Continuous
 62
     7
370
    25
100
AcDbLine
 10
1095.2160632523
 20
5558.0842914923
 30
0.0
 11
1095.2160632523
 21
5734.0842914923
 31
0.0
  0
LINE
  5
363
330
1F
100
AcDbEntity
  8
0
  6
Continuous
 62
     7
370
    25
100
AcDbLine
 10
1075.2160632523
 20
5558.0842914923
 30
0.0
 11
1077.2160632523
 21
5556.0842914923
 31
0.0
  0
LINE
  5
364
330
1F
100
AcDbEntity
  8
0
  6
Continuous
 62
     7
370
    25
100
AcDbLine
 10
1093.2160632523
 20
5556.0842914923
 30
0.0
 11
1095.2160632523
 21
5558.0842914923
 31
0.0
  0
LINE
  5
365
330
1F
100
AcDbEntity
  8
0
  6
Continuous
 62
     7
370
    25
100
AcDbLine
 10
1675.2160632523
 20
5738.1015525299
 30
0.0
 11
1675.2160632523
 21
5558.0842914923
 31
0.0
  0
LINE
  5
366
330
1F
100
AcDbEntity
  8
0
  6
Continuous
 62
     7
370
    25
100
AcDbLine
 10
1695.2160632523
 20
5558.0842914923
 30
0.0
 11
1695.2160632523
 21
5738.1015525299
 31
0.0
  0
LINE
  5
367
330
1F
100
AcDbEntity
  8
0
  6
Continuous
 62
     7
370
    25
100
AcDbLine
 10
1675.2160632523
 20
5558.0842914923
 30
0.0
 11
1677.2160632523
 21
5556.0842914923
 31
0.0
  0
LINE
  5
368
330
1F
100
AcDbEntity
  8
0
  6
Continuous
 62
     7
370
    25
100
AcDbLine
 10
1693.2160632523
 20
5556.0842914923
 30
0.0
 11
1695.2160632523
 21
5558.0842914923
 31
0.0
  0
LINE
  5
369
330
1F
100
AcDbEntity
  8
0
  6
Continuous
 62
     7
370
    25
100
AcDbLine
 10
1450.2160632523
 20
5727.0842914923
 30
0.0
 11
1450.2160632523
 21
5734.0842914923
 31
0.0
  0
LINE
  5
36A
330
1F
100
AcDbEntity
  8
0
  6
Continuous
 62
     7
370
    25
100
AcDbLine
 10
1320.2160632523
 20
5734.0842914923
 30
0.0
 11
1320.2160632523
 21
5727.0842914923
 31
0.0
  0
LINE
  5
36B
330
1F
100
AcDbEntity
  8
0
  6
Continuous
 62
     7
370
    25
100
AcDbLine
 10
1440.2160632523
 20
5815.8842914923
 30
0.0
 11
1435.2160632523
 21
5835.8842914923
 31
0.0
  0
LINE
  5
36C
330
1F
100
AcDbEntity
  8
0
  6
Continuous
 62
     7
370
    25
100
AcDbLine
 10
1335.2160632523
 20
5835.8842914923
 30
0.0
 11
1330.2160632523
 21
5815.8842914923
 31
0.0
  0
LINE
  5
36D
330
1F
100
AcDbEntity
  8
0
  6
Continuous
 62
     7
370
    25
100
AcDbLine
 10
1440.2160632523
 20
5810.0842914923
 30
0.0
 11
1440.2160632523
 21
5815.8842914923
 31
0.0
  0
LINE
  5
36E
330
1F
100
AcDbEntity
  8
0
  6
Continuous
 62
     7
370
    25
100
AcDbLine
 10
1330.2160632523
 20
5815.8842914923
 30
0.0
 11
1330.2160632523
 21
5810.0842914923
 31
0.0
  0
LINE
  5
36F
330
1F
100
AcDbEntity
  8
0
  6
Continuous
 62
     7
370
    25
100
AcDbLine
 10
1440.2160632523
 20
5715.8842914923
 30
0.0
 11
1440.2160632523
 21
5727.0842914923
 31
0.0
  0
LINE
  5
370
330
1F
100
AcDbEntity
  8
0
  6
Continuous
 62
     7
370
    25
100
AcDbLine
 10
1330.2160632523
 20
5727.0842914923
 30
0.0
 11
1330.2160632523
 21
5715.8842914923
 31
0.0
  0
LINE
  5
371
330
1F
100
AcDbEntity
  8
0
  6
Continuous
 62
     7
370
    25
100
AcDbLine
 10
1435.2160632523
 20
5837.8842914923
 30
0.0
 11
1435.2160632523
 21
5898.9197769543
 31
0.0
  0
LINE
  5
372
330
1F
100
AcDbEntity
  8
0
  6
Continuous
 62
     7
370
    25
100
AcDbLine
 10
1335.2160632523
 20
5898.9197769543
 30
0.0
 11
1335.2160632523
 21
5837.8842914923
 31
0.0
  0
LINE
  5
373
330
1F
100
AcDbEntity
  8
0
  6
Continuous
 62
     7
370
    25
100
AcDbLine
 10
1335.2160632523
 20
5837.8842914923
 30
0.0
 11
1335.2160632523
 21
5835.8842914923
 31
0.0
  0
LINE
  5
374
330
1F
100
AcDbEntity
  8
0
  6
Continuous
 62
     7
370
    25
100
AcDbLine
 10
1435.2160632523
 20
5835.8842914923
 30
0.0
 11
1435.2160632523
 21
5837.8842914923
 31
0.0
  0
LINE
  5
375
330
1F
100
AcDbEntity
  8
0
  6
Continuous
 62
     7
370
    25
100
AcDbLine
 10
1335.2160632523
 20
5904.2580444911
 30
0.0
 11
1335.2160632523
 21
5898.9197769543
 31
0.0
  0
LINE
  5
376
330
1F
100
AcDbEntity
  8
0
  6
Continuous
 62
     7
370
    25
100
AcDbLine
 10
1435.2160632523
 20
5898.9197769543
 30
0.0
 11
1435.2160632523
 21
5904.2580444911
 31
0.0
  0
LINE
  5
377
330
1F
100
AcDbEntity
  8
0
  6
Continuous
 62
     7
370
    25
100
AcDbLine
 10
1846.2160632523
 20
5770.0842914923
 30
0.0
 11
1847.2160632523
 21
5771.0842914923
 31
0.0
  0
LINE
  5
378
330
1F
100
AcDbEntity
  8
0
  6
Continuous
 62
     7
370
    25
100
AcDbLine
 10
1847.2160632523
 20
5785.0842914923
 30
0.0
 11
1846.2160632523
 21
5786.0842914923
 31
0.0
  0
LINE
  5
379
330
1F
100
AcDbEntity
  8
0
  6
Continuous
 62
     7
370
    25
100
AcDbLine
 10
1828.2160632523
 20
5770.0842914923
 30
0.0
 11
1833.2160632523
 21
5770.0842914923
 31
0.0
  0
LINE
  5
37A
330
1F
100
AcDbEntity
  8
0
  6
Continuous
 62
     7
370
    25
100
AcDbLine
 10
1841.2160632523
 20
5770.0842914923
 30
0.0
 11
1846.2160632523
 21
5770.0842914923
 31
0.0
  0
LINE
  5
37B
330
1F
100
AcDbEntity
  8
0
  6
Continuous
 62
     7
370
    25
100
AcDbLine
 10
1846.2160632523
 20
5786.0842914923
 30
0.0
 11
1841.2160632523
 21
5786.0842914923
 31
0.0
  0
LINE
  5
37C
330
1F
100
AcDbEntity
  8
0
  6
Continuous
 62
     7
370
    25
100
AcDbLine
 10
1833.2160632523
 20
5786.0842914923
 30
0.0
 11
1828.2160632523
 21
5786.0842914923
 31
0.0
  0
LINE
  5
37D
330
1F
100
AcDbEntity
  8
0
  6
Continuous
 62
     7
370
    25
100
AcDbLine
 10
942.2160632523
 20
5786.0842914923
 30
0.0
 11
937.2160632523
 21
5786.0842914923
 31
0.0
  0
LINE
  5
37E
330
1F
100
AcDbEntity
  8
0
  6
Continuous
 62
     7
370
    25
100
AcDbLine
 10
929.2160632523
 20
5786.0842914923
 30
0.0
 11
924.2160632523
 21
5786.0842914923
 31
0.0
  0
LINE
  5
37F
330
1F
100
AcDbEntity
  8
0
  6
Continuous
 62
     7
370
    25
100
AcDbLine
 10
924.2160632523
 20
5770.0842914923
 30
0.0
 11
929.2160632523
 21
5770.0842914923
 31
0.0
  0
LINE
  5
380
330
1F
100
AcDbEntity
  8
0
  6
Continuous
 62
     7
370
    25
100
AcDbLine
 10
937.2160632523
 20
5770.0842914923
 30
0.0
 11
942.2160632523
 21
5770.0842914923
 31
0.0
  0
LINE
  5
381
330
1F
100
AcDbEntity
  8
0
  6
Continuous
 62
     7
370
    25
100
AcDbLine
 10
924.2160632523
 20
5786.0842914923
 30
0.0
 11
923.2160632523
 21
5785.0842914923
 31
0.0
  0
LINE
  5
382
330
1F
100
AcDbEntity
  8
0
  6
Continuous
 62
     7
370
    25
100
AcDbLine
 10
923.2160632523
 20
5771.0842914923
 30
0.0
 11
924.2160632523
 21
5770.0842914923
 31
0.0
  0
LINE
  5
383
330
1F
100
AcDbEntity
  8
0
  6
Continuous
 62
     7
370
    25
100
AcDbLine
 10
1411.2160632523
 20
5810.0842914923
 30
0.0
 11
1411.2160632523
 21
5832.4842914923
 31
0.0
  0
LINE
  5
384
330
1F
100
AcDbEntity
  8
0
  6
Continuous
 62
     7
370
    25
100
AcDbLine
 10
1359.2160632523
 20
5832.4842914923
 30
0.0
 11
1359.2160632523
 21
5810.0842914923
 31
0.0
  0
LINE
  5
385
330
1F
100
AcDbEntity
  8
0
  6
Continuous
 62
     7
370
    25
100
AcDbLine
 10
949.9692007886
 20
5854.5981793286
 30
0.0
 11
952.2160632523
 21
5858.3714125562
 31
0.0
  0
LINE
  5
386
330
1F
100
AcDbEntity
  8
0
  6
Continuous
 62
     7
370
    25
100
AcDbLine
 10
952.2160632523
 20
5879.7971704283
 30
0.0
 11
949.9692007886
 21
5883.5704036559
 31
0.0
  0
LINE
  5
387
330
1F
100
AcDbEntity
  8
0
  6
Continuous
 62
     7
370
    25
100
AcDbLine
 10
1820.3480182934
 20
5883.3774356786
 30
0.0
 11
1818.2160632523
 21
5879.7971704283
 31
0.0
  0
LINE
  5
388
330
1F
100
AcDbEntity
  8
0
  6
Continuous
 62
     7
370
    25
100
AcDbLine
 10
1818.2160632523
 20
5858.3714125562
 30
0.0
 11
1820.3480182934
 21
5854.7911473059
 31
0.0
  0
LINE
  5
389
330
1F
100
AcDbEntity
  8
0
  6
Continuous
 62
     7
370
    25
100
AcDbLine
 10
941.2160632523
 20
5893.0842914923
 30
0.0
 11
935.2160632523
 21
5893.0842914923
 31
0.0
  0
LINE
  5
38A
330
1F
100
AcDbEntity
  8
0
  6
Continuous
 62
     7
370
    25
100
AcDbLine
 10
935.2160632523
 20
5845.0842914923
 30
0.0
 11
941.2160632523
 21
5845.0842914923
 31
0.0
  0
LINE
  5
38B
330
1F
100
AcDbEntity
  8
0
  6
Continuous
 62
     7
370
    25
100
AcDbLine
 10
1835.2160632523
 20
5893.0842914923
 30
0.0
 11
1829.2160632523
 21
5893.0842914923
 31
0.0
  0
LINE
  5
38C
330
1F
100
AcDbEntity
  8
0
  6
Continuous
 62
     7
370
    25
100
AcDbLine
 10
1829.2160632523
 20
5845.0842914923
 30
0.0
 11
1835.2160632523
 21
5845.0842914923
 31
0.0
  0
LINE
  5
38D
330
1F
100
AcDbEntity
  8
0
  6
Continuous
 62
     7
370
    25
100
AcDbLine
 10
1357.0322970682
 20
5810.0842914923
 30
0.0
 11
1357.0322970682
 21
5812.0842914923
 31
0.0
  0
LINE
  5
38E
330
1F
100
AcDbEntity
  8
0
  6
Continuous
 62
     7
370
    25
100
AcDbLine
 10
1337.0322970682
 20
5812.0842914923
 30
0.0
 11
1337.0322970682
 21
5810.0842914923
 31
0.0
  0
LINE
  5
38F
330
1F
100
AcDbEntity
  8
0
  6
Continuous
 62
     7
370
    25
100
AcDbLine
 10
1433.3998294363
 20
5810.0842914923
 30
0.0
 11
1433.3998294363
 21
5812.0842914923
 31
0.0
  0
LINE
  5
390
330
1F
100
AcDbEntity
  8
0
  6
Continuous
 62
     7
370
    25
100
AcDbLine
 10
1413.3998294363
 20
5812.0842914923
 30
0.0
 11
1413.3998294363
 21
5810.0842914923
 31
0.0
  0
LINE
  5
391
330
1F
100
AcDbEntity
  8
0
  6
Continuous
 62
     7
370
    25
100
AcDbLine
 10
1355.0322970682
 20
5818.8122319608
 30
0.0
 11
1354.2848196487
 21
5819.0842914923
 31
0.0
  0
LINE
  5
392
330
1F
100
AcDbEntity
  8
0
  6
Continuous
 62
     7
370
    25
100
AcDbLine
 10
1339.7797744876
 20
5819.0842914923
 30
0.0
 11
1339.0322970682
 21
5818.8122319608
 31
0.0
  0
LINE
  5
393
330
1F
100
AcDbEntity
  8
0
  6
Continuous
 62
     7
370
    25
100
AcDbLine
 10
1431.3998294363
 20
5818.8122319608
 30
0.0
 11
1430.6523520169
 21
5819.0842914923
 31
0.0
  0
LINE
  5
394
330
1F
100
AcDbEntity
  8
0
  6
Continuous
 62
     7
370
    25
100
AcDbLine
 10
1416.1473068558
 20
5819.0842914923
 30
0.0
 11
1415.3998294363
 21
5818.8122319608
 31
0.0
  0
LINE
  5
395
330
1F
100
AcDbEntity
  8
0
  6
Continuous
 62
     7
370
    25
100
AcDbLine
 10
1067.6713450673
 20
5734.0842914923
 30
0.0
 11
1065.6713450673
 21
5736.0842914923
 31
0.0
  0
LINE
  5
396
330
1F
100
AcDbEntity
  8
0
  6
Continuous
 62
     7
370
    25
100
AcDbLine
 10
1265.6713450673
 20
5736.0842914923
 30
0.0
 11
1263.6713450673
 21
5734.0842914923
 31
0.0
  0
LINE
  5
397
330
1F
100
AcDbEntity
  8
0
  6
Continuous
 62
     7
370
    25
100
AcDbLine
 10
1067.6713450673
 20
5734.0842914923
 30
0.0
 11
1263.6713450673
 21
5734.0842914923
 31
0.0
  0
ARC
  5
398
330
1F
100
AcDbEntity
  8
0
  6
Continuous
 62
     7
370
    25
100
AcDbCircle
 10
1245.6713450673
 20
5750.0842914923
 30
0.0
 40
8.499999999999659
100
AcDbArc
 50
235.43967822
 51
304.56032178
  0
ARC
  5
399
330
1F
100
AcDbEntity
  8
0
  6
Continuous
 62
     7
370
    25
100
AcDbCircle
 10
1085.6713450673
 20
5750.0842914923
 30
0.0
 40
8.499999999999659
100
AcDbArc
 50
235.43967822
 51
304.56032178
  0
LINE
  5
39A
330
1F
100
AcDbEntity
  8
0
  6
Continuous
 62
     7
370
    25
100
AcDbLine
 10
1065.6713450673
 20
5736.0842914923
 30
0.0
 11
1065.6713450673
 21
5743.0842914923
 31
0.0
  0
LINE
  5
39B
330
1F
100
AcDbEntity
  8
0
  6
Continuous
 62
     7
370
    25
100
AcDbLine
 10
1265.6713450673
 20
5736.0842914923
 30
0.0
 11
1265.6713450673
 21
5743.0842914923
 31
0.0
  0
LINE
  5
39C
330
1F
100
AcDbEntity
  8
0
  6
Continuous
 62
     7
370
    25
100
AcDbLine
 10
1265.6713450673
 20
5810.0842914923
 30
0.0
 11
1065.6713450673
 21
5810.0842914923
 31
0.0
  0
LINE
  5
39D
330
1F
100
AcDbEntity
  8
0
  6
Continuous
 62
     7
370
    25
100
AcDbLine
 10
1065.6713450673
 20
5810.0842914923
 30
0.0
 11
1065.6713450673
 21
5804.0842914923
 31
0.0
  0
LINE
  5
39E
330
1F
100
AcDbEntity
  8
0
  6
Continuous
 62
     7
370
    25
100
AcDbLine
 10
1265.6713450673
 20
5804.0842914923
 30
0.0
 11
1265.6713450673
 21
5810.0842914923
 31
0.0
  0
LINE
  5
39F
330
1F
100
AcDbEntity
  8
0
  6
Continuous
 62
     7
370
    25
100
AcDbLine
 10
1075.2160632523
 20
5558.0842914923
 30
0.0
 11
1095.2160632523
 21
5558.0842914923
 31
0.0
  0
LINE
  5
3A0
330
1F
100
AcDbEntity
  8
0
  6
Continuous
 62
     7
370
    25
100
AcDbLine
 10
1093.2160632523
 20
5556.0842914923
 30
0.0
 11
1077.2160632523
 21
5556.0842914923
 31
0.0
  0
LINE
  5
3A1
330
1F
100
AcDbEntity
  8
0
  6
Continuous
 62
     7
370
    25
100
AcDbLine
 10
1675.2160632523
 20
5558.0842914923
 30
0.0
 11
1695.2160632523
 21
5558.0842914923
 31
0.0
  0
LINE
  5
3A2
330
1F
100
AcDbEntity
  8
0
  6
Continuous
 62
     7
370
    25
100
AcDbLine
 10
1693.2160632523
 20
5556.0842914923
 30
0.0
 11
1677.2160632523
 21
5556.0842914923
 31
0.0
  0
LINE
  5
3A3
330
1F
100
AcDbEntity
  8
0
  6
Continuous
 62
     7
370
    25
100
AcDbLine
 10
1755.2160632523
 20
5812.1015525299
 30
0.0
 11
1755.2160632523
 21
5804.0842914923
 31
0.0
  0
LINE
  5
3A4
330
1F
100
AcDbEntity
  8
0
  6
Continuous
 62
     7
370
    25
100
AcDbLine
 10
1615.2160632523
 20
5812.1015525299
 30
0.0
 11
1615.2160632523
 21
5804.0842914923
 31
0.0
  0
LINE
  5
3A5
330
1F
100
AcDbEntity
  8
0
  6
Continuous
 62
     7
370
    25
100
AcDbLine
 10
1615.2160632523
 20
5812.1015525299
 30
0.0
 11
1617.2160632523
 21
5814.1015525299
 31
0.0
  0
LINE
  5
3A6
330
1F
100
AcDbEntity
  8
0
  6
Continuous
 62
     7
370
    25
100
AcDbLine
 10
1753.2160632523
 20
5814.1015525299
 30
0.0
 11
1617.2160632523
 21
5814.1015525299
 31
0.0
  0
ARC
  5
3A7
330
1F
100
AcDbEntity
  8
0
  6
Continuous
 62
     7
370
    25
100
AcDbCircle
 10
1635.2160632523
 20
5798.1015525299
 30
0.0
 40
8.499999999999643
100
AcDbArc
 50
44.7368445094
 51
135.2631554906
  0
ARC
  5
3A8
330
1F
100
AcDbEntity
  8
0
  6
Continuous
 62
     7
370
    25
100
AcDbCircle
 10
1735.2160632523
 20
5798.1015525299
 30
0.0
 40
8.499999999999805
100
AcDbArc
 50
44.7368445094
 51
135.2631554906
  0
LINE
  5
3A9
330
1F
100
AcDbEntity
  8
0
  6
Continuous
 62
     7
370
    25
100
AcDbLine
 10
1753.2160632523
 20
5814.1015525299
 30
0.0
 11
1755.2160632523
 21
5812.1015525299
 31
0.0
  0
LINE
  5
3AA
330
1F
100
AcDbEntity
  8
0
  6
Continuous
 62
     7
370
    25
100
AcDbLine
 10
1615.2160632523
 20
5738.1015525299
 30
0.0
 11
1755.2160632523
 21
5738.1015525299
 31
0.0
  0
LINE
  5
3AB
330
1F
100
AcDbEntity
  8
0
  6
Continuous
 62
     7
370
    25
100
AcDbLine
 10
1755.2160632523
 20
5738.1015525299
 30
0.0
 11
1755.2160632523
 21
5743.0842914923
 31
0.0
  0
LINE
  5
3AC
330
1F
100
AcDbEntity
  8
0
  6
Continuous
 62
     7
370
    25
100
AcDbLine
 10
1615.2160632523
 20
5743.0842914923
 30
0.0
 11
1615.2160632523
 21
5738.1015525299
 31
0.0
  0
ARC
  5
3AD
330
1F
100
AcDbEntity
  8
0
  6
Continuous
 62
     7
370
    25
100
AcDbCircle
 10
1825.2160632523
 20
5839.0842914923
 30
0.0
 40
4.0
100
AcDbArc
 50
90.0
 51
180.0
  0
ARC
  5
3AE
330
1F
100
AcDbEntity
  8
0
  6
Continuous
 62
     7
370
    25
100
AcDbCircle
 10
945.2160632523
 20
5839.0842914923
 30
0.0
 40
4.0
100
AcDbArc
 50
0.0
 51
90.0
  0
LINE
  5
3AF
330
1F
100
AcDbEntity
  8
0
  6
Continuous
 62
     7
370
    25
100
AcDbLine
 10
1450.2160632523
 20
5727.0842914923
 30
0.0
 11
1320.2160632523
 21
5727.0842914923
 31
0.0
  0
LINE
  5
3B0
330
1F
100
AcDbEntity
  8
0
  6
Continuous
 62
     7
370
    25
100
AcDbLine
 10
1435.2160632523
 20
5835.8842914923
 30
0.0
 11
1335.2160632523
 21
5835.8842914923
 31
0.0
  0
LINE
  5
3B1
330
1F
100
AcDbEntity
  8
0
  6
Continuous
 62
     7
370
    25
100
AcDbLine
 10
1440.2160632523
 20
5815.8842914923
 30
0.0
 11
1431.3998294363
 21
5815.8842914923
 31
0.0
  0
LINE
  5
3B2
330
1F
100
AcDbEntity
  8
0
  6
Continuous
 62
     7
370
    25
100
AcDbLine
 10
1415.3998294363
 20
5815.8842914923
 30
0.0
 11
1411.2160632523
 21
5815.8842914923
 31
0.0
  0
LINE
  5
3B3
330
1F
100
AcDbEntity
  8
0
  6
Continuous
 62
     7
370
    25
100
AcDbLine
 10
1359.2160632523
 20
5815.8842914923
 30
0.0
 11
1355.0322970682
 21
5815.8842914923
 31
0.0
  0
LINE
  5
3B4
330
1F
100
AcDbEntity
  8
0
  6
Continuous
 62
     7
370
    25
100
AcDbLine
 10
1339.0322970682
 20
5815.8842914923
 30
0.0
 11
1330.2160632523
 21
5815.8842914923
 31
0.0
  0
LINE
  5
3B5
330
1F
100
AcDbEntity
  8
0
  6
Continuous
 62
     7
370
    25
100
AcDbLine
 10
1440.2160632523
 20
5715.8842914923
 30
0.0
 11
1330.2160632523
 21
5715.8842914923
 31
0.0
  0
ARC
  5
3B6
330
1F
100
AcDbEntity
  8
0
  6
Continuous
 62
     7
370
    25
100
AcDbCircle
 10
1385.2522949874
 20
5904.2257556677
 30
0.0
 40
49.96377869809557
100
AcDbArc
 50
0.0370270922
 51
90.0415486127
  0
ARC
  5
3B7
330
1F
100
AcDbEntity
  8
0
  6
Continuous
 62
     7
370
    25
100
AcDbCircle
 10
1385.1798315171
 20
5904.2257556677
 30
0.0
 40
49.96377869809602
100
AcDbArc
 50
89.9584513873
 51
179.9629729078
  0
LINE
  5
3B8
330
1F
100
AcDbEntity
  8
0
  6
Continuous
 62
     7
370
    25
100
AcDbLine
 10
1821.2160632523
 20
5803.0842914923
 30
0.0
 11
1821.2160632523
 21
5841.0842914923
 31
0.0
  0
LINE
  5
3B9
330
1F
100
AcDbEntity
  8
0
  6
Continuous
 62
     7
370
    25
100
AcDbLine
 10
1815.2160632523
 20
5803.0842914923
 30
0.0
 11
1815.2160632523
 21
5841.0842914923
 31
0.0
  0
LINE
  5
3BA
330
1F
100
AcDbEntity
  8
0
  6
Continuous
 62
     7
370
    25
100
AcDbLine
 10
1829.2160632523
 20
5849.0842914923
 30
0.0
 11
1823.2160632523
 21
5849.0842914923
 31
0.0
  0
ARC
  5
3BB
330
1F
100
AcDbEntity
  8
0
  6
Continuous
 62
     7
370
    25
100
AcDbCircle
 10
1823.2160632523
 20
5841.0842914923
 30
0.0
 40
8.0
100
AcDbArc
 50
90.0
 51
180.0
  0
LINE
  5
3BC
330
1F
100
AcDbEntity
  8
0
  6
Continuous
 62
     7
370
    25
100
AcDbLine
 10
1830.2160632523
 20
5843.0842914923
 30
0.0
 11
1823.2160632523
 21
5843.0842914923
 31
0.0
  0
ARC
  5
3BD
330
1F
100
AcDbEntity
  8
0
  6
Continuous
 62
     7
370
    25
100
AcDbCircle
 10
1823.2160632523
 20
5841.0842914923
 30
0.0
 40
2.0
100
AcDbArc
 50
90.0
 51
180.0
  0
LINE
  5
3BE
330
1F
100
AcDbEntity
  8
0
  6
Continuous
 62
     7
370
    25
100
AcDbLine
 10
949.2160632523
 20
5803.0842914923
 30
0.0
 11
949.2160632523
 21
5841.0842914923
 31
0.0
  0
ARC
  5
3BF
330
1F
100
AcDbEntity
  8
0
  6
Continuous
 62
     7
370
    25
100
AcDbCircle
 10
947.2160632523
 20
5841.0842914923
 30
0.0
 40
2.0
100
AcDbArc
 50
0.0
 51
90.0
  0
LINE
  5
3C0
330
1F
100
AcDbEntity
  8
0
  6
Continuous
 62
     7
370
    25
100
AcDbLine
 10
940.2160632523
 20
5843.0842914923
 30
0.0
 11
947.2160632523
 21
5843.0842914923
 31
0.0
  0
LINE
  5
3C1
330
1F
100
AcDbEntity
  8
0
  6
Continuous
 62
     7
370
    25
100
AcDbLine
 10
941.2160632523
 20
5849.0842914923
 30
0.0
 11
947.2160632523
 21
5849.0842914923
 31
0.0
  0
ARC
  5
3C2
330
1F
100
AcDbEntity
  8
0
  6
Continuous
 62
     7
370
    25
100
AcDbCircle
 10
947.2160632523
 20
5841.0842914923
 30
0.0
 40
8.0
100
AcDbArc
 50
0.0
 51
90.0
  0
LINE
  5
3C3
330
1F
100
AcDbEntity
  8
0
  6
Continuous
 62
     7
370
    25
100
AcDbLine
 10
955.2160632523
 20
5803.0842914923
 30
0.0
 11
955.2160632523
 21
5841.0842914923
 31
0.0
  0
LINE
  5
3C4
330
1F
100
AcDbEntity
  8
0
  6
Continuous
 62
     7
370
    25
100
AcDbLine
 10
1815.2160632523
 20
5804.0842914923
 30
0.0
 11
955.2160632523
 21
5804.0842914923
 31
0.0
  0
LINE
  5
3C5
330
1F
100
AcDbEntity
  8
0
  6
Continuous
 62
     7
370
    25
100
AcDbLine
 10
937.2160632523
 20
5758.0842914923
 30
0.0
 11
929.2160632523
 21
5758.0842914923
 31
0.0
  0
LINE
  5
3C6
330
1F
100
AcDbEntity
  8
0
  6
Continuous
 62
     7
370
    25
100
AcDbLine
 10
929.2160632523
 20
5798.0842914923
 30
0.0
 11
929.2160632523
 21
5758.0842914923
 31
0.0
  0
LINE
  5
3C7
330
1F
100
AcDbEntity
  8
0
  6
Continuous
 62
     7
370
    25
100
AcDbLine
 10
937.2160632523
 20
5798.0842914923
 30
0.0
 11
929.2160632523
 21
5798.0842914923
 31
0.0
  0
LINE
  5
3C8
330
1F
100
AcDbEntity
  8
0
  6
Continuous
 62
     7
370
    25
100
AcDbLine
 10
937.2160632523
 20
5787.3842914923
 30
0.0
 11
937.2160632523
 21
5768.7842914923
 31
0.0
  0
LINE
  5
3C9
330
1F
100
AcDbEntity
  8
0
  6
Continuous
 62
     7
370
    25
100
AcDbLine
 10
1832.2160632523
 20
5840.0842914923
 30
0.0
 11
1832.2160632523
 21
5832.0842914923
 31
0.0
  0
LINE
  5
3CA
330
1F
100
AcDbEntity
  8
0
  6
Continuous
 62
     7
370
    25
100
AcDbLine
 10
1832.2160632523
 20
5832.0842914923
 30
0.0
 11
1835.2160632523
 21
5832.0842914923
 31
0.0
  0
LINE
  5
3CB
330
1F
100
AcDbEntity
  8
0
  6
Continuous
 62
     7
370
    25
100
AcDbLine
 10
935.2160632523
 20
5832.0842914923
 30
0.0
 11
938.2160632523
 21
5832.0842914923
 31
0.0
  0
LINE
  5
3CC
330
1F
100
AcDbEntity
  8
0
  6
Continuous
 62
     7
370
    25
100
AcDbLine
 10
938.2160632523
 20
5840.0842914923
 30
0.0
 11
938.2160632523
 21
5832.0842914923
 31
0.0
  0
LINE
  5
3CD
330
1F
100
AcDbEntity
  8
0
  6
Continuous
 62
     7
370
    25
100
AcDbLine
 10
1833.2160632523
 20
5758.0842914923
 30
0.0
 11
1841.2160632523
 21
5758.0842914923
 31
0.0
  0
LINE
  5
3CE
330
1F
100
AcDbEntity
  8
0
  6
Continuous
 62
     7
370
    25
100
AcDbLine
 10
1833.2160632523
 20
5768.7842914922
 30
0.0
 11
1833.2160632523
 21
5787.3842914922
 31
0.0
  0
LINE
  5
3CF
330
1F
100
AcDbEntity
  8
0
  6
Continuous
 62
     7
370
    25
100
AcDbLine
 10
1833.2160632523
 20
5798.0842914923
 30
0.0
 11
1841.2160632523
 21
5798.0842914923
 31
0.0
  0
LINE
  5
3D0
330
1F
100
AcDbEntity
  8
0
  6
Continuous
 62
     7
370
    25
100
AcDbLine
 10
1841.2160632523
 20
5758.0842914923
 30
0.0
 11
1841.2160632523
 21
5798.0842914923
 31
0.0
  0
LINE
  5
3D1
330
1F
100
AcDbEntity
  8
0
  6
Continuous
 62
     7
370
    25
100
AcDbLine
 10
1847.2160632523
 20
5771.7842305283
 30
0.0
 11
1847.2160632523
 21
5771.0842914923
 31
0.0
  0
LINE
  5
3D2
330
1F
100
AcDbEntity
  8
0
  6
Continuous
 62
     7
370
    25
100
AcDbLine
 10
1847.2160632523
 20
5785.0842914923
 30
0.0
 11
1847.2160632523
 21
5771.7842305283
 31
0.0
  0
LINE
  5
3D3
330
1F
100
AcDbEntity
  8
0
  6
Continuous
 62
     7
370
    25
100
AcDbLine
 10
1846.2160632523
 20
5770.8842218192
 30
0.0
 11
1846.2160632523
 21
5786.0842914923
 31
0.0
  0
LINE
  5
3D4
330
1F
100
AcDbEntity
  8
0
  6
Continuous
 62
     7
370
    25
100
AcDbLine
 10
1846.2160632523
 20
5770.0842914923
 30
0.0
 11
1846.2160632523
 21
5770.8842218192
 31
0.0
  0
LINE
  5
3D5
330
1F
100
AcDbEntity
  8
0
  6
Continuous
 62
     7
370
    25
100
AcDbLine
 10
924.2160632523
 20
5786.0842914923
 30
0.0
 11
924.2160632523
 21
5770.0842914923
 31
0.0
  0
LINE
  5
3D6
330
1F
100
AcDbEntity
  8
0
  6
Continuous
 62
     7
370
    25
100
AcDbLine
 10
923.2160632523
 20
5771.0842914923
 30
0.0
 11
923.2160632523
 21
5785.0842914923
 31
0.0
  0
LINE
  5
3D7
330
1F
100
AcDbEntity
  8
0
  6
Continuous
 62
     7
370
    25
100
AcDbLine
 10
1411.2160632523
 20
5832.4842914923
 30
0.0
 11
1359.2160632523
 21
5832.4842914923
 31
0.0
  0
LINE
  5
3D8
330
1F
100
AcDbEntity
  8
0
  6
Continuous
 62
     7
370
    25
100
AcDbLine
 10
1455.2160632523
 20
5810.0842914923
 30
0.0
 11
1315.2160632523
 21
5810.0842914923
 31
0.0
  0
LINE
  5
3D9
330
1F
100
AcDbEntity
  8
0
  6
Continuous
 62
     7
370
    25
100
AcDbLine
 10
1455.2160632523
 20
5804.0842914923
 30
0.0
 11
1455.2160632523
 21
5810.0842914923
 31
0.0
  0
LINE
  5
3DA
330
1F
100
AcDbEntity
  8
0
  6
Continuous
 62
     7
370
    25
100
AcDbLine
 10
1315.2160632523
 20
5810.0842914923
 30
0.0
 11
1315.2160632523
 21
5804.0842914923
 31
0.0
  0
LINE
  5
3DB
330
1F
100
AcDbEntity
  8
0
  6
Continuous
 62
     7
370
    25
100
AcDbLine
 10
1317.2160632523
 20
5734.0842914923
 30
0.0
 11
1315.2160632523
 21
5736.0842914923
 31
0.0
  0
LINE
  5
3DC
330
1F
100
AcDbEntity
  8
0
  6
Continuous
 62
     7
370
    25
100
AcDbLine
 10
1455.2160632523
 20
5736.0842914923
 30
0.0
 11
1453.2160632523
 21
5734.0842914923
 31
0.0
  0
LINE
  5
3DD
330
1F
100
AcDbEntity
  8
0
  6
Continuous
 62
     7
370
    25
100
AcDbLine
 10
1317.2160632523
 20
5734.0842914923
 30
0.0
 11
1453.2160632523
 21
5734.0842914923
 31
0.0
  0
ARC
  5
3DE
330
1F
100
AcDbEntity
  8
0
  6
Continuous
 62
     7
370
    25
100
AcDbCircle
 10
1435.2160632523
 20
5750.0842914923
 30
0.0
 40
8.499999999999323
100
AcDbArc
 50
235.43967822
 51
304.56032178
  0
ARC
  5
3DF
330
1F
100
AcDbEntity
  8
0
  6
Continuous
 62
     7
370
    25
100
AcDbCircle
 10
1335.2160632523
 20
5750.0842914923
 30
0.0
 40
8.499999999999451
100
AcDbArc
 50
235.43967822
 51
304.56032178
  0
LINE
  5
3E0
330
1F
100
AcDbEntity
  8
0
  6
Continuous
 62
     7
370
    25
100
AcDbLine
 10
1315.2160632523
 20
5736.0842914923
 30
0.0
 11
1315.2160632523
 21
5743.0842914923
 31
0.0
  0
LINE
  5
3E1
330
1F
100
AcDbEntity
  8
0
  6
Continuous
 62
     7
370
    25
100
AcDbLine
 10
1455.2160632523
 20
5736.0842914923
 30
0.0
 11
1455.2160632523
 21
5743.0842914923
 31
0.0
  0
LINE
  5
3E2
330
1F
100
AcDbEntity
  8
0
  6
Continuous
 62
     7
370
    25
100
AcDbLine
 10
949.9109686116
 20
5854.6328550788
 30
0.0
 11
949.7940988297
 21
5854.3167476332
 31
0.0
  0
SPLINE
  5
3E3
330
1F
100
AcDbEntity
  8
0
  6
Continuous
 62
     7
370
    25
100
AcDbSpline
210
0.0
220
0.0
230
1.0
 70
     8
 71
     3
 72
    11
 73
     7
 74
     0
 42
0.00000001
 43
0.00000001
 40
0.0
 40
0.0
 40
0.0
 40
0.0
 40
0.3707801040744204
 40
0.6218784424669553
 40
0.8802594157766688
 40
1.0
 40
1.0
 40
1.0
 40
1.0
 10
949.7940988296549
 20
5854.316747633242
 30
0.0
 10
950.2507634097299
 20
5855.28347389816
 30
0.0
 10
951.0166886971607
 20
5856.904882968692
 30
0.0
 10
950.9958010074373
 20
5859.279027146837
 30
0.0
 10
950.4705958837174
 20
5860.946416324337
 30
0.0
 10
949.9568028107069
 20
5861.920845838661
 30
0.0
 10
949.7940988296549
 20
5862.22942057344
 30
0.0
  0
SPLINE
  5
3E4
330
1F
100
AcDbEntity
  8
0
  6
Continuous
 62
     7
370
    25
100
AcDbSpline
210
0.0
220
0.0
230
1.0
 70
     8
 71
     3
 72
    10
 73
     6
 74
     0
 42
0.00000001
 43
0.00000001
 40
0.0
 40
0.0
 40
0.0
 40
0.0
 40
0.2656373379603302
 40
0.5374358411634153
 40
1.0
 40
1.0
 40
1.0
 40
1.0
 10
949.7940988296549
 20
5862.22942057344
 30
0.0
 10
950.1327068975266
 20
5863.512754265603
 30
0.0
 10
950.8177766741575
 20
5866.109187160306
 30
0.0
 10
951.1929472853906
 20
5871.142375423998
 30
0.0
 10
950.3346975930726
 20
5874.734400846445
 30
0.0
 10
949.7940988296549
 20
5876.996964432451
 30
0.0
  0
SPLINE
  5
3E5
330
1F
100
AcDbEntity
  8
0
  6
Continuous
 62
     7
370
    25
100
AcDbSpline
210
0.0
220
0.0
230
1.0
 70
     8
 71
     3
 72
    10
 73
     6
 74
     0
 42
0.00000001
 43
0.00000001
 40
0.0
 40
0.0
 40
0.0
 40
0.0
 40
0.2656373379603335
 40
0.5374358411634197
 40
1.0
 40
1.0
 40
1.0
 40
1.0
 10
949.7940988296549
 20
5876.996964432451
 30
0.0
 10
950.1327068975265
 20
5877.592668558305
 30
0.0
 10
950.8177766741575
 20
5878.797893510571
 30
0.0
 10
951.1929472853906
 20
5881.134223518262
 30
0.0
 10
950.3346975930726
 20
5882.801587491788
 30
0.0
 10
949.7940988296549
 20
5883.851835351266
 30
0.0
  0
LINE
  5
3E6
330
1F
100
AcDbEntity
  8
0
  6
Continuous
 62
     7
370
    25
100
AcDbLine
 10
952.2160632523
 20
5858.3714125562
 30
0.0
 11
952.2160632523
 21
5879.7971704283
 31
0.0
  0
LINE
  5
3E7
330
1F
100
AcDbEntity
  8
0
  6
Continuous
 62
     7
370
    25
100
AcDbLine
 10
949.7940988297
 20
5876.9969644325
 30
0.0
 11
941.2160632523
 21
5876.9969644325
 31
0.0
  0
LINE
  5
3E8
330
1F
100
AcDbEntity
  8
0
  6
Continuous
 62
     7
370
    25
100
AcDbLine
 10
949.7940988297
 20
5862.2294205734
 30
0.0
 11
941.2160632523
 21
5862.2294205734
 31
0.0
  0
LINE
  5
3E9
330
1F
100
AcDbEntity
  8
0
  6
Continuous
 62
     7
370
    25
100
AcDbLine
 10
949.7940988297
 20
5854.3167476332
 30
0.0
 11
941.2160632523
 21
5854.3167476332
 31
0.0
  0
LINE
  5
3EA
330
1F
100
AcDbEntity
  8
0
  6
Continuous
 62
     7
370
    25
100
AcDbLine
 10
949.7940988297
 20
5883.8518353513
 30
0.0
 11
941.2160632523
 21
5883.8518353513
 31
0.0
  0
LINE
  5
3EB
330
1F
100
AcDbEntity
  8
0
  6
Continuous
 62
     7
370
    25
100
AcDbLine
 10
1820.6380276749
 20
5854.3361654854
 30
0.0
 11
1820.3875003349
 21
5854.814657837
 31
0.0
  0
SPLINE
  5
3EC
330
1F
100
AcDbEntity
  8
0
  6
Continuous
 62
     7
370
    25
100
AcDbSpline
210
0.0
220
0.0
230
1.0
 70
     8
 71
     3
 72
    10
 73
     6
 74
     0
 42
0.00000001
 43
0.00000001
 40
0.0
 40
0.0
 40
0.0
 40
0.0
 40
0.2656373379603365
 40
0.5374358411634189
 40
1.0
 40
1.0
 40
1.0
 40
1.0
 10
1820.638027674869
 20
5883.832417499153
 30
0.0
 10
1820.299419606997
 20
5883.264798139047
 30
0.0
 10
1819.614349830367
 20
5882.116394113463
 30
0.0
 10
1819.239179219133
 20
5879.890211539925
 30
0.0
 10
1820.097428911451
 20
5878.301456265888
 30
0.0
 10
1820.638027674869
 20
5877.300722861373
 30
0.0
  0
SPLINE
  5
3ED
330
1F
100
AcDbEntity
  8
0
  6
Continuous
 62
     7
370
    25
100
AcDbSpline
210
0.0
220
0.0
230
1.0
 70
     8
 71
     3
 72
    11
 73
     7
 74
     0
 42
0.00000001
 43
0.00000001
 40
0.0
 40
0.0
 40
0.0
 40
0.0
 40
0.1197412027804272
 40
0.3712053015244599
 40
0.6292179805454517
 40
0.9999999999999999
 40
0.9999999999999999
 40
0.9999999999999999
 40
0.9999999999999999
 10
1820.638027674869
 20
5877.300722861373
 30
0.0
 10
1820.475319757051
 20
5876.725571829142
 30
0.0
 10
1819.970914921526
 20
5874.942567254409
 30
0.0
 10
1819.439852131415
 20
5871.836831845298
 30
0.0
 10
1819.407016969595
 20
5867.410106642915
 30
0.0
 10
1820.18139775634
 20
5864.354436829907
 30
0.0
 10
1820.638027674869
 20
5862.552596854474
 30
0.0
  0
SPLINE
  5
3EE
330
1F
100
AcDbEntity
  8
0
  6
Continuous
 62
     7
370
    25
100
AcDbSpline
210
0.0
220
0.0
230
1.0
 70
     8
 71
     3
 72
    10
 73
     6
 74
     0
 42
0.00000001
 43
0.00000001
 40
0.0
 40
0.0
 40
0.0
 40
0.0
 40
0.2656373379603222
 40
0.5374358411634075
 40
0.9999999999999999
 40
0.9999999999999999
 40
0.9999999999999999
 40
0.9999999999999999
 10
1820.638027674869
 20
5862.552596854474
 30
0.0
 10
1820.299419606997
 20
5861.838569978643
 30
0.0
 10
1819.614349830367
 20
5860.393955160667
 30
0.0
 10
1819.239179219133
 20
5857.593567612725
 30
0.0
 10
1820.097428911451
 20
5855.595020620656
 30
0.0
 10
1820.638027674869
 20
5854.336165485356
 30
0.0
  0
LINE
  5
3EF
330
1F
100
AcDbEntity
  8
0
  6
Continuous
 62
     7
370
    25
100
AcDbLine
 10
1818.2160632523
 20
5869.7893063611
 30
0.0
 11
1818.2160632523
 21
5858.3714125562
 31
0.0
  0
LINE
  5
3F0
330
1F
100
AcDbEntity
  8
0
  6
Continuous
 62
     7
370
    25
100
AcDbLine
 10
1818.2160632523
 20
5879.7971704283
 30
0.0
 11
1818.2160632523
 21
5869.7893063611
 31
0.0
  0
LINE
  5
3F1
330
1F
100
AcDbEntity
  8
0
  6
Continuous
 62
     7
370
    25
100
AcDbLine
 10
1820.6380276749
 20
5854.3361654854
 30
0.0
 11
1829.2160632523
 21
5854.3361654854
 31
0.0
  0
LINE
  5
3F2
330
1F
100
AcDbEntity
  8
0
  6
Continuous
 62
     7
370
    25
100
AcDbLine
 10
1820.6380276749
 20
5862.5525968545
 30
0.0
 11
1829.2160632523
 21
5862.5525968545
 31
0.0
  0
LINE
  5
3F3
330
1F
100
AcDbEntity
  8
0
  6
Continuous
 62
     7
370
    25
100
AcDbLine
 10
1820.6380276749
 20
5877.3007228614
 30
0.0
 11
1829.2160632523
 21
5877.3007228614
 31
0.0
  0
LINE
  5
3F4
330
1F
100
AcDbEntity
  8
0
  6
Continuous
 62
     7
370
    25
100
AcDbLine
 10
1820.6380276749
 20
5883.8324174992
 30
0.0
 11
1829.2160632523
 21
5883.8324174992
 31
0.0
  0
LINE
  5
3F5
330
1F
100
AcDbEntity
  8
0
  6
Continuous
 62
     7
370
    25
100
AcDbLine
 10
941.2160632523
 20
5845.0842914923
 30
0.0
 11
941.2160632523
 21
5893.0842914923
 31
0.0
  0
LINE
  5
3F6
330
1F
100
AcDbEntity
  8
0
  6
Continuous
 62
     7
370
    25
100
AcDbLine
 10
1829.2160632523
 20
5845.0842914923
 30
0.0
 11
1829.2160632523
 21
5893.0842914923
 31
0.0
  0
LINE
  5
3F7
330
1F
100
AcDbEntity
  8
0
  6
Continuous
 62
     7
370
    25
100
AcDbLine
 10
1838.2160632523
 20
6056.0842914923
 30
0.0
 11
1838.2160632523
 21
6038.0842914923
 31
0.0
  0
ARC
  5
3F8
330
1F
100
AcDbEntity
  8
0
  6
Continuous
 62
     7
370
    25
100
AcDbCircle
 10
1836.2160632523
 20
6056.0842914923
 30
0.0
 40
8.00000000000091
100
AcDbArc
 50
0.0
 51
90.0
  0
LINE
  5
3F9
330
1F
100
AcDbEntity
  8
0
  6
Continuous
 62
     7
370
    25
100
AcDbLine
 10
1740.2160632523
 20
6064.0842914923
 30
0.0
 11
1836.2160632523
 21
6064.0842914923
 31
0.0
  0
LINE
  5
3FA
330
1F
100
AcDbEntity
  8
0
  6
Continuous
 62
     7
370
    25
100
AcDbLine
 10
1844.2160632523
 20
6056.0842914923
 30
0.0
 11
1844.2160632523
 21
6038.0842914923
 31
0.0
  0
LINE
  5
3FB
330
1F
100
AcDbEntity
  8
0
  6
Continuous
 62
     7
370
    25
100
AcDbLine
 10
1740.2160632523
 20
6058.0842914923
 30
0.0
 11
1836.2160632523
 21
6058.0842914923
 31
0.0
  0
LINE
  5
3FC
330
1F
100
AcDbEntity
  8
0
  6
Continuous
 62
     7
370
    25
100
AcDbLine
 10
1740.2160632523
 20
6064.0842914923
 30
0.0
 11
1740.2160632523
 21
6058.0842914923
 31
0.0
  0
ARC
  5
3FD
330
1F
100
AcDbEntity
  8
0
  6
Continuous
 62
     7
370
    25
100
AcDbCircle
 10
1836.2160632523
 20
6056.0842914923
 30
0.0
 40
2.0
100
AcDbArc
 50
0.0
 51
90.0
  0
LINE
  5
3FE
330
1F
100
AcDbEntity
  8
0
  6
Continuous
 62
     7
370
    25
100
AcDbLine
 10
932.2160632523
 20
6056.0842914923
 30
0.0
 11
932.2160632523
 21
6038.0842914923
 31
0.0
  0
ARC
  5
3FF
330
1F
100
AcDbEntity
  8
0
  6
Continuous
 62
     7
370
    25
100
AcDbCircle
 10
934.2160632523
 20
6056.0842914923
 30
0.0
 40
8.0
100
AcDbArc
 50
90.0
 51
180.0
  0
ARC
  5
400
330
1F
100
AcDbEntity
  8
0
  6
Continuous
 62
     7
370
    25
100
AcDbCircle
 10
934.2160632523
 20
6056.0842914923
 30
0.0
 40
2.0
100
AcDbArc
 50
90.0
 51
180.0
  0
LINE
  5
401
330
1F
100
AcDbEntity
  8
0
  6
Continuous
 62
     7
370
    25
100
AcDbLine
 10
1030.2160632523
 20
6064.0842914923
 30
0.0
 11
1030.2160632523
 21
6058.0842914923
 31
0.0
  0
LINE
  5
402
330
1F
100
AcDbEntity
  8
0
  6
Continuous
 62
     7
370
    25
100
AcDbLine
 10
1030.2160632523
 20
6058.0842914923
 30
0.0
 11
934.2160632523
 21
6058.0842914923
 31
0.0
  0
LINE
  5
403
330
1F
100
AcDbEntity
  8
0
  6
Continuous
 62
     7
370
    25
100
AcDbLine
 10
926.2160632523
 20
6056.0842914923
 30
0.0
 11
926.2160632523
 21
6038.0842914923
 31
0.0
  0
LINE
  5
404
330
1F
100
AcDbEntity
  8
0
  6
Continuous
 62
     7
370
    25
100
AcDbLine
 10
1030.2160632523
 20
6064.0842914923
 30
0.0
 11
934.2160632523
 21
6064.0842914923
 31
0.0
  0
ARC
  5
405
330
1F
100
AcDbEntity
  8
0
  6
Continuous
 62
     7
370
    25
100
AcDbCircle
 10
1834.2160632523
 20
5804.0842914922
 30
0.0
 40
4.0
100
AcDbArc
 50
90.0
 51
180.0
  0
LINE
  5
406
330
1F
100
AcDbEntity
  8
0
  6
Continuous
 62
     7
370
    25
100
AcDbLine
 10
1886.2160632523
 20
5808.0842914922
 30
0.0
 11
1834.2160632523
 21
5808.0842914922
 31
0.0
  0
ARC
  5
407
330
1F
100
AcDbEntity
  8
0
  6
Continuous
 62
     7
370
    25
100
AcDbCircle
 10
1886.2160632523
 20
5804.0842914922
 30
0.0
 40
4.0
100
AcDbArc
 50
0.0
 51
90.0
  0
LINE
  5
408
330
1F
100
AcDbEntity
  8
0
  6
Continuous
 62
     7
370
    25
100
AcDbLine
 10
1890.2160632523
 20
5752.0842914922
 30
0.0
 11
1890.2160632523
 21
5804.0842914922
 31
0.0
  0
ARC
  5
409
330
1F
100
AcDbEntity
  8
0
  6
Continuous
 62
     7
370
    25
100
AcDbCircle
 10
1886.2160632523
 20
5752.0842914922
 30
0.0
 40
4.0
100
AcDbArc
 50
270.0
 51
0.0
  0
LINE
  5
40A
330
1F
100
AcDbEntity
  8
0
  6
Continuous
 62
     7
370
    25
100
AcDbLine
 10
1834.2160632523
 20
5748.0842914922
 30
0.0
 11
1886.2160632523
 21
5748.0842914922
 31
0.0
  0
ARC
  5
40B
330
1F
100
AcDbEntity
  8
0
  6
Continuous
 62
     7
370
    25
100
AcDbCircle
 10
1834.2160632523
 20
5752.0842914922
 30
0.0
 40
4.0
100
AcDbArc
 50
180.0
 51
270.0
  0
LINE
  5
40C
330
1F
100
AcDbEntity
  8
0
  6
Continuous
 62
     7
370
    25
100
AcDbLine
 10
1830.2160632523
 20
5768.7842914922
 30
0.0
 11
1830.2160632523
 21
5752.0842914922
 31
0.0
  0
LINE
  5
40D
330
1F
100
AcDbEntity
  8
0
  6
Continuous
 62
     7
370
    25
100
AcDbLine
 10
1833.2160632523
 20
5768.7842914922
 30
0.0
 11
1830.2160632523
 21
5768.7842914922
 31
0.0
  0
LINE
  5
40E
330
1F
100
AcDbEntity
  8
0
  6
Continuous
 62
     7
370
    25
100
AcDbLine
 10
1833.2160632523
 20
5768.7842914922
 30
0.0
 11
1833.2160632523
 21
5752.0842914922
 31
0.0
  0
ARC
  5
40F
330
1F
100
AcDbEntity
  8
0
  6
Continuous
 62
     7
370
    25
100
AcDbCircle
 10
1834.2160632523
 20
5752.0842914922
 30
0.0
 40
1.0
100
AcDbArc
 50
180.0
 51
270.0
  0
ARC
  5
410
330
1F
100
AcDbEntity
  8
0
  6
Continuous
 62
     7
370
    25
100
AcDbCircle
 10
1886.2160632523
 20
5752.0842914922
 30
0.0
 40
1.0
100
AcDbArc
 50
270.0
 51
0.0
  0
LINE
  5
411
330
1F
100
AcDbEntity
  8
0
  6
Continuous
 62
     7
370
    25
100
AcDbLine
 10
1887.2160632523
 20
5752.0842914922
 30
0.0
 11
1887.2160632523
 21
5804.0842914922
 31
0.0
  0
ARC
  5
412
330
1F
100
AcDbEntity
  8
0
  6
Continuous
 62
     7
370
    25
100
AcDbCircle
 10
1886.2160632523
 20
5804.0842914922
 30
0.0
 40
1.0
100
AcDbArc
 50
0.0
 51
90.0
  0
LINE
  5
413
330
1F
100
AcDbEntity
  8
0
  6
Continuous
 62
     7
370
    25
100
AcDbLine
 10
1886.2160632523
 20
5805.0842914922
 30
0.0
 11
1834.2160632523
 21
5805.0842914922
 31
0.0
  0
ARC
  5
414
330
1F
100
AcDbEntity
  8
0
  6
Continuous
 62
     7
370
    25
100
AcDbCircle
 10
1834.2160632523
 20
5804.0842914922
 30
0.0
 40
1.0
100
AcDbArc
 50
90.0
 51
180.0
  0
LINE
  5
415
330
1F
100
AcDbEntity
  8
0
  6
Continuous
 62
     7
370
    25
100
AcDbLine
 10
1833.2160632523
 20
5804.0842914922
 30
0.0
 11
1833.2160632523
 21
5787.3842914922
 31
0.0
  0
LINE
  5
416
330
1F
100
AcDbEntity
  8
0
  6
Continuous
 62
     7
370
    25
100
AcDbLine
 10
1833.2160632523
 20
5787.3842914922
 30
0.0
 11
1830.2160632523
 21
5787.3842914922
 31
0.0
  0
LINE
  5
417
330
1F
100
AcDbEntity
  8
0
  6
Continuous
 62
     7
370
    25
100
AcDbLine
 10
1830.2160632523
 20
5804.0842914922
 30
0.0
 11
1830.2160632523
 21
5787.3842914922
 31
0.0
  0
LINE
  5
418
330
1F
100
AcDbEntity
  8
0
  6
Continuous
 62
     7
370
    25
100
AcDbLine
 10
1834.2160632523
 20
5751.0842914922
 30
0.0
 11
1886.2160632523
 21
5751.0842914922
 31
0.0
  0
LINE
  5
419
330
1F
100
AcDbEntity
  8
0
  6
Continuous
 62
     7
370
    25
100
AcDbLine
 10
1790.2160632523
 20
5822.0842914922
 30
0.0
 11
1790.2160632523
 21
5813.0842914923
 31
0.0
  0
ARC
  5
41A
330
1F
100
AcDbEntity
  8
0
  6
Continuous
 62
     7
370
    25
100
AcDbCircle
 10
1780.2160632523
 20
5822.0842914922
 30
0.0
 40
10.0
100
AcDbArc
 50
0.0
 51
180.0
  0
LINE
  5
41B
330
1F
100
AcDbEntity
  8
0
  6
Continuous
 62
     7
370
    25
100
AcDbLine
 10
1770.2160632523
 20
5813.0842914923
 30
0.0
 11
1770.2160632523
 21
5822.0842914922
 31
0.0
  0
LINE
  5
41C
330
1F
100
AcDbEntity
  8
0
  6
Continuous
 62
     7
370
    25
100
AcDbLine
 10
1890.2160632523
 20
5748.0842914922
 30
0.0
 11
1886.2160632523
 21
5748.0842914922
 31
0.0
  0
LINE
  5
41D
330
1F
100
AcDbEntity
  8
0
  6
Continuous
 62
     7
370
    25
100
AcDbLine
 10
1834.2160632523
 20
5748.0842914922
 30
0.0
 11
1828.2160632523
 21
5748.0842914922
 31
0.0
  0
LINE
  5
41E
330
1F
100
AcDbEntity
  8
0
  6
Continuous
 62
     7
370
    25
100
AcDbLine
 10
1750.2160632523
 20
5814.1015525299
 30
0.0
 11
1750.2160632523
 21
5848.0842914922
 31
0.0
  0
LINE
  5
41F
330
1F
100
AcDbEntity
  8
0
  6
Continuous
 62
     7
370
    25
100
AcDbLine
 10
1750.2160632523
 20
5848.0842914922
 30
0.0
 11
1819.343079906
 21
5848.0842914922
 31
0.0
  0
LINE
  5
420
330
1F
100
AcDbEntity
  8
0
  6
Continuous
 62
     7
370
    25
100
AcDbLine
 10
1890.2160632523
 20
5810.0842914922
 30
0.0
 11
1890.2160632523
 21
5804.0842914922
 31
0.0
  0
LINE
  5
421
330
1F
100
AcDbEntity
  8
0
  6
Continuous
 62
     7
370
    25
100
AcDbLine
 10
1890.2160632523
 20
5752.0842914922
 30
0.0
 11
1890.2160632523
 21
5748.0842914922
 31
0.0
  0
ARC
  5
422
330
1F
100
AcDbEntity
  8
0
  6
Continuous
 62
     7
370
    25
100
AcDbCircle
 10
936.2160632523
 20
5752.0842914923
 30
0.0
 40
4.000000000000114
100
AcDbArc
 50
270.0
 51
0.0
  0
LINE
  5
423
330
1F
100
AcDbEntity
  8
0
  6
Continuous
 62
     7
370
    25
100
AcDbLine
 10
884.2160632523
 20
5748.0842914923
 30
0.0
 11
936.2160632523
 21
5748.0842914923
 31
0.0
  0
ARC
  5
424
330
1F
100
AcDbEntity
  8
0
  6
Continuous
 62
     7
370
    25
100
AcDbCircle
 10
884.2160632523
 20
5752.0842914923
 30
0.0
 40
4.0
100
AcDbArc
 50
180.0
 51
270.0
  0
LINE
  5
425
330
1F
100
AcDbEntity
  8
0
  6
Continuous
 62
     7
370
    25
100
AcDbLine
 10
936.2160632523
 20
5808.0842914923
 30
0.0
 11
884.2160632523
 21
5808.0842914923
 31
0.0
  0
ARC
  5
426
330
1F
100
AcDbEntity
  8
0
  6
Continuous
 62
     7
370
    25
100
AcDbCircle
 10
936.2160632523
 20
5804.0842914923
 30
0.0
 40
4.0
100
AcDbArc
 50
0.0
 51
90.0
  0
LINE
  5
427
330
1F
100
AcDbEntity
  8
0
  6
Continuous
 62
     7
370
    25
100
AcDbLine
 10
937.2160632523
 20
5787.3842914923
 30
0.0
 11
940.2160632523
 21
5787.3842914923
 31
0.0
  0
LINE
  5
428
330
1F
100
AcDbEntity
  8
0
  6
Continuous
 62
     7
370
    25
100
AcDbLine
 10
936.2160632523
 20
5805.0842914923
 30
0.0
 11
884.2160632523
 21
5805.0842914923
 31
0.0
  0
ARC
  5
429
330
1F
100
AcDbEntity
  8
0
  6
Continuous
 62
     7
370
    25
100
AcDbCircle
 10
884.2160632523
 20
5804.0842914923
 30
0.0
 40
1.0
100
AcDbArc
 50
90.0
 51
180.0
  0
ARC
  5
42A
330
1F
100
AcDbEntity
  8
0
  6
Continuous
 62
     7
370
    25
100
AcDbCircle
 10
884.2160632523
 20
5752.0842914923
 30
0.0
 40
1.0
100
AcDbArc
 50
180.0
 51
270.0
  0
LINE
  5
42B
330
1F
100
AcDbEntity
  8
0
  6
Continuous
 62
     7
370
    25
100
AcDbLine
 10
884.2160632523
 20
5751.0842914923
 30
0.0
 11
936.2160632523
 21
5751.0842914923
 31
0.0
  0
ARC
  5
42C
330
1F
100
AcDbEntity
  8
0
  6
Continuous
 62
     7
370
    25
100
AcDbCircle
 10
936.2160632523
 20
5752.0842914923
 30
0.0
 40
1.0
100
AcDbArc
 50
270.0
 51
0.0
  0
LINE
  5
42D
330
1F
100
AcDbEntity
  8
0
  6
Continuous
 62
     7
370
    25
100
AcDbLine
 10
937.2160632523
 20
5752.0842914923
 30
0.0
 11
937.2160632523
 21
5768.7842914923
 31
0.0
  0
LINE
  5
42E
330
1F
100
AcDbEntity
  8
0
  6
Continuous
 62
     7
370
    25
100
AcDbLine
 10
937.2160632523
 20
5768.7842914923
 30
0.0
 11
940.2160632523
 21
5768.7842914923
 31
0.0
  0
LINE
  5
42F
330
1F
100
AcDbEntity
  8
0
  6
Continuous
 62
     7
370
    25
100
AcDbLine
 10
940.2160632523
 20
5752.0842914923
 30
0.0
 11
940.2160632523
 21
5768.7842914923
 31
0.0
  0
ARC
  5
430
330
1F
100
AcDbEntity
  8
0
  6
Continuous
 62
     7
370
    25
100
AcDbCircle
 10
936.2160632523
 20
5804.0842914923
 30
0.0
 40
1.000000000000114
100
AcDbArc
 50
0.0
 51
90.0
  0
LINE
  5
431
330
1F
100
AcDbEntity
  8
0
  6
Continuous
 62
     7
370
    25
100
AcDbLine
 10
883.2160632523
 20
5804.0842914923
 30
0.0
 11
883.2160632523
 21
5752.0842914923
 31
0.0
  0
LINE
  5
432
330
1F
100
AcDbEntity
  8
0
  6
Continuous
 62
     7
370
    25
100
AcDbLine
 10
937.2160632523
 20
5787.3842914923
 30
0.0
 11
937.2160632523
 21
5804.0842914923
 31
0.0
  0
LINE
  5
433
330
1F
100
AcDbEntity
  8
0
  6
Continuous
 62
     7
370
    25
100
AcDbLine
 10
880.2160632523
 20
5804.0842914923
 30
0.0
 11
880.2160632523
 21
5752.0842914923
 31
0.0
  0
ARC
  5
434
330
1F
100
AcDbEntity
  8
0
  6
Continuous
 62
     7
370
    25
100
AcDbCircle
 10
884.2160632523
 20
5804.0842914923
 30
0.0
 40
4.0
100
AcDbArc
 50
90.0
 51
180.0
  0
LINE
  5
435
330
1F
100
AcDbEntity
  8
0
  6
Continuous
 62
     7
370
    25
100
AcDbLine
 10
940.2160632523
 20
5787.3842914923
 30
0.0
 11
940.2160632523
 21
5804.0842914923
 31
0.0
  0
LINE
  5
436
330
1F
100
AcDbEntity
  8
0
  6
Continuous
 62
     7
370
    25
100
AcDbLine
 10
973.6160632523
 20
5828.0842914923
 30
0.0
 11
993.6160632523
 21
5828.0842914923
 31
0.0
  0
LINE
  5
437
330
1F
100
AcDbEntity
  8
0
  6
Continuous
 62
     7
370
    25
100
AcDbLine
 10
880.2160632523
 20
5748.0842914923
 30
0.0
 11
880.2160632523
 21
5752.0842914922
 31
0.0
  0
LINE
  5
438
330
1F
100
AcDbEntity
  8
0
  6
Continuous
 62
     7
370
    25
100
AcDbLine
 10
880.2160632523
 20
5804.0842914922
 30
0.0
 11
880.2160632523
 21
5810.0842914922
 31
0.0
  0
LINE
  5
439
330
1F
100
AcDbEntity
  8
0
  6
Continuous
 62
     7
370
    25
100
AcDbLine
 10
1020.2160632523
 20
5848.0842914923
 30
0.0
 11
1020.2160632523
 21
5813.0842914923
 31
0.0
  0
LINE
  5
43A
330
1F
100
AcDbEntity
  8
0
  6
Continuous
 62
     7
370
    25
100
AcDbLine
 10
942.2160632523
 20
5748.0842914923
 30
0.0
 11
936.2160632523
 21
5748.0842914923
 31
0.0
  0
LINE
  5
43B
330
1F
100
AcDbEntity
  8
0
  6
Continuous
 62
     7
370
    25
100
AcDbLine
 10
884.2160632523
 20
5748.0842914923
 30
0.0
 11
880.2160632523
 21
5748.0842914923
 31
0.0
  0
ARC
  5
43C
330
1F
100
AcDbEntity
  8
0
  6
Continuous
 62
     7
370
    25
100
AcDbCircle
 10
993.6160632523
 20
5818.0842914923
 30
0.0
 40
10.0
100
AcDbArc
 50
330.0
 51
90.0
  0
ARC
  5
43D
330
1F
100
AcDbEntity
  8
0
  6
Continuous
 62
     7
370
    25
100
AcDbCircle
 10
973.6160632523
 20
5818.0842914923
 30
0.0
 40
10.0
100
AcDbArc
 50
90.0
 51
210.0
  0
LINE
  5
43E
330
1F
100
AcDbEntity
  8
0
  6
Continuous
 62
     7
370
    25
100
AcDbLine
 10
951.0890465985
 20
5848.0842914923
 30
0.0
 11
1020.2160632523
 21
5848.0842914923
 31
0.0
  0
ARC
  5
43F
330
1F
100
AcDbEntity
  8
0
  6
Continuous
 62
     7
370
    25
100
AcDbCircle
 10
1830.2160632523
 20
5748.0842914923
 30
0.0
 40
2.000000000000909
100
AcDbArc
 50
180.0
 51
270.0
  0
LINE
  5
440
330
1F
100
AcDbEntity
  8
0
  6
Continuous
 62
     7
370
    25
100
AcDbLine
 10
1890.2160632523
 20
5746.0842914923
 30
0.0
 11
1830.2160632523
 21
5746.0842914923
 31
0.0
  0
ARC
  5
441
330
1F
100
AcDbEntity
  8
0
  6
Continuous
 62
     7
370
    25
100
AcDbCircle
 10
1890.2160632523
 20
5748.0842914923
 30
0.0
 40
2.000000000000909
100
AcDbArc
 50
270.0
 51
0.0
  0
LINE
  5
442
330
1F
100
AcDbEntity
  8
0
  6
Continuous
 62
     7
370
    25
100
AcDbLine
 10
1892.2160632523
 20
5808.0842914923
 30
0.0
 11
1892.2160632523
 21
5748.0842914923
 31
0.0
  0
ARC
  5
443
330
1F
100
AcDbEntity
  8
0
  6
Continuous
 62
     7
370
    25
100
AcDbCircle
 10
1890.2160632523
 20
5808.0842914923
 30
0.0
 40
2.0
100
AcDbArc
 50
0.0
 51
90.0
  0
ARC
  5
444
330
1F
100
AcDbEntity
  8
0
  6
Continuous
 62
     7
370
    25
100
AcDbCircle
 10
1830.2160632523
 20
5808.0842914923
 30
0.0
 40
2.0
100
AcDbArc
 50
90.0
 51
180.0
  0
LINE
  5
445
330
1F
100
AcDbEntity
  8
0
  6
Continuous
 62
     7
370
    25
100
AcDbLine
 10
1890.2160632523
 20
5743.0842914923
 30
0.0
 11
1830.2160632523
 21
5743.0842914923
 31
0.0
  0
ARC
  5
446
330
1F
100
AcDbEntity
  8
0
  6
Continuous
 62
     7
370
    25
100
AcDbCircle
 10
1830.2160632523
 20
5748.0842914923
 30
0.0
 40
5.0
100
AcDbArc
 50
180.0
 51
270.0
  0
LINE
  5
447
330
1F
100
AcDbEntity
  8
0
  6
Continuous
 62
     7
370
    25
100
AcDbLine
 10
1825.2160632523
 20
5748.0842914923
 30
0.0
 11
1825.2160632523
 21
5808.0842914923
 31
0.0
  0
ARC
  5
448
330
1F
100
AcDbEntity
  8
0
  6
Continuous
 62
     7
370
    25
100
AcDbCircle
 10
1830.2160632523
 20
5808.0842914923
 30
0.0
 40
5.0
100
AcDbArc
 50
90.0
 51
180.0
  0
LINE
  5
449
330
1F
100
AcDbEntity
  8
0
  6
Continuous
 62
     7
370
    25
100
AcDbLine
 10
1830.2160632523
 20
5813.0842914923
 30
0.0
 11
1890.2160632523
 21
5813.0842914923
 31
0.0
  0
ARC
  5
44A
330
1F
100
AcDbEntity
  8
0
  6
Continuous
 62
     7
370
    25
100
AcDbCircle
 10
1890.2160632523
 20
5808.0842914923
 30
0.0
 40
5.0
100
AcDbArc
 50
0.0
 51
90.0
  0
ARC
  5
44B
330
1F
100
AcDbEntity
  8
0
  6
Continuous
 62
     7
370
    25
100
AcDbCircle
 10
1890.2160632523
 20
5748.0842914923
 30
0.0
 40
5.0
100
AcDbArc
 50
270.0
 51
0.0
  0
LINE
  5
44C
330
1F
100
AcDbEntity
  8
0
  6
Continuous
 62
     7
370
    25
100
AcDbLine
 10
1830.2160632523
 20
5810.0842914923
 30
0.0
 11
1890.2160632523
 21
5810.0842914923
 31
0.0
  0
LINE
  5
44D
330
1F
100
AcDbEntity
  8
0
  6
Continuous
 62
     7
370
    25
100
AcDbLine
 10
1828.2160632523
 20
5748.0842914923
 30
0.0
 11
1828.2160632523
 21
5808.0842914923
 31
0.0
  0
LINE
  5
44E
330
1F
100
AcDbEntity
  8
0
  6
Continuous
 62
     7
370
    25
100
AcDbLine
 10
1895.2160632523
 20
5808.0842914923
 30
0.0
 11
1895.2160632523
 21
5748.0842914923
 31
0.0
  0
LINE
  5
44F
330
1F
100
AcDbEntity
  8
0
  6
Continuous
 62
     7
370
    25
100
AcDbLine
 10
878.2160632523
 20
5748.0842914923
 30
0.0
 11
878.2160632523
 21
5808.0842914923
 31
0.0
  0
ARC
  5
450
330
1F
100
AcDbEntity
  8
0
  6
Continuous
 62
     7
370
    25
100
AcDbCircle
 10
880.2160632523
 20
5748.0842914923
 30
0.0
 40
2.000000000000909
100
AcDbArc
 50
180.0
 51
270.0
  0
LINE
  5
451
330
1F
100
AcDbEntity
  8
0
  6
Continuous
 62
     7
370
    25
100
AcDbLine
 10
940.2160632523
 20
5746.0842914923
 30
0.0
 11
880.2160632523
 21
5746.0842914923
 31
0.0
  0
ARC
  5
452
330
1F
100
AcDbEntity
  8
0
  6
Continuous
 62
     7
370
    25
100
AcDbCircle
 10
940.2160632523
 20
5748.0842914923
 30
0.0
 40
2.000000000000909
100
AcDbArc
 50
270.0
 51
0.0
  0
LINE
  5
453
330
1F
100
AcDbEntity
  8
0
  6
Continuous
 62
     7
370
    25
100
AcDbLine
 10
942.2160632523
 20
5808.0842914923
 30
0.0
 11
942.2160632523
 21
5748.0842914923
 31
0.0
  0
ARC
  5
454
330
1F
100
AcDbEntity
  8
0
  6
Continuous
 62
     7
370
    25
100
AcDbCircle
 10
940.2160632523
 20
5808.0842914923
 30
0.0
 40
2.0
100
AcDbArc
 50
0.0
 51
90.0
  0
LINE
  5
455
330
1F
100
AcDbEntity
  8
0
  6
Continuous
 62
     7
370
    25
100
AcDbLine
 10
880.2160632523
 20
5810.0842914923
 30
0.0
 11
940.2160632523
 21
5810.0842914923
 31
0.0
  0
ARC
  5
456
330
1F
100
AcDbEntity
  8
0
  6
Continuous
 62
     7
370
    25
100
AcDbCircle
 10
880.2160632523
 20
5808.0842914923
 30
0.0
 40
2.0
100
AcDbArc
 50
90.0
 51
180.0
  0
LINE
  5
457
330
1F
100
AcDbEntity
  8
0
  6
Continuous
 62
     7
370
    25
100
AcDbLine
 10
940.2160632523
 20
5743.0842914923
 30
0.0
 11
880.2160632523
 21
5743.0842914923
 31
0.0
  0
ARC
  5
458
330
1F
100
AcDbEntity
  8
0
  6
Continuous
 62
     7
370
    25
100
AcDbCircle
 10
880.2160632523
 20
5748.0842914923
 30
0.0
 40
5.0
100
AcDbArc
 50
180.0
 51
270.0
  0
LINE
  5
459
330
1F
100
AcDbEntity
  8
0
  6
Continuous
 62
     7
370
    25
100
AcDbLine
 10
875.2160632523
 20
5748.0842914923
 30
0.0
 11
875.2160632523
 21
5808.0842914923
 31
0.0
  0
ARC
  5
45A
330
1F
100
AcDbEntity
  8
0
  6
Continuous
 62
     7
370
    25
100
AcDbCircle
 10
880.2160632523
 20
5808.0842914923
 30
0.0
 40
5.0
100
AcDbArc
 50
90.0
 51
180.0
  0
LINE
  5
45B
330
1F
100
AcDbEntity
  8
0
  6
Continuous
 62
     7
370
    25
100
AcDbLine
 10
945.2160632523
 20
5808.0842914923
 30
0.0
 11
945.2160632523
 21
5748.0842914923
 31
0.0
  0
ARC
  5
45C
330
1F
100
AcDbEntity
  8
0
  6
Continuous
 62
     7
370
    25
100
AcDbCircle
 10
940.2160632523
 20
5748.0842914923
 30
0.0
 40
5.000000000000114
100
AcDbArc
 50
270.0
 51
0.0
  0
LINE
  5
45D
330
1F
100
AcDbEntity
  8
0
  6
Continuous
 62
     7
370
    25
100
AcDbLine
 10
880.2160632523
 20
5813.0842914923
 30
0.0
 11
940.2160632523
 21
5813.0842914923
 31
0.0
  0
ARC
  5
45E
330
1F
100
AcDbEntity
  8
0
  6
Continuous
 62
     7
370
    25
100
AcDbCircle
 10
940.2160632523
 20
5808.0842914923
 30
0.0
 40
5.000000000000114
100
AcDbArc
 50
0.0
 51
90.0
  0
LINE
  5
45F
330
1F
100
AcDbEntity
  8
0
  6
Continuous
 62
     7
370
    25
100
AcDbLine
 10
1825.2160632523
 20
5813.0842914923
 30
0.0
 11
1821.2160632523
 21
5813.0842914923
 31
0.0
  0
LINE
  5
460
330
1F
100
AcDbEntity
  8
0
  6
Continuous
 62
     7
370
    25
100
AcDbLine
 10
1815.2160632523
 20
5813.0842914923
 30
0.0
 11
1754.2333242899
 21
5813.0842914923
 31
0.0
  0
LINE
  5
461
330
1F
100
AcDbEntity
  8
0
  6
Continuous
 62
     7
370
    25
100
AcDbLine
 10
1616.1988022146
 20
5813.0842914923
 30
0.0
 11
1440.2160632523
 21
5813.0842914923
 31
0.0
  0
LINE
  5
462
330
1F
100
AcDbEntity
  8
0
  6
Continuous
 62
     7
370
    25
100
AcDbLine
 10
1330.2160632523
 20
5813.0842914923
 30
0.0
 11
955.2160632523
 21
5813.0842914923
 31
0.0
  0
LINE
  5
463
330
1F
100
AcDbEntity
  8
0
  6
Continuous
 62
     7
370
    25
100
AcDbLine
 10
949.2160632523
 20
5813.0842914923
 30
0.0
 11
945.2160632523
 21
5813.0842914923
 31
0.0
  0
LINE
  5
464
330
1F
100
AcDbEntity
  8
0
  6
Continuous
 62
     7
370
    25
100
AcDbLine
 10
945.2160632523
 20
5808.0842914923
 30
0.0
 11
945.2160632523
 21
5813.0842914923
 31
0.0
  0
LINE
  5
465
330
1F
100
AcDbEntity
  8
0
  6
Continuous
 62
     7
370
    25
100
AcDbLine
 10
1825.2160632523
 20
5813.0842914923
 30
0.0
 11
1825.2160632523
 21
5808.0842914923
 31
0.0
  0
LINE
  5
466
330
1F
100
AcDbEntity
  8
0
  6
Continuous
 62
     7
370
    25
100
AcDbLine
 10
1825.2160632523
 20
5746.0842914923
 30
0.0
 11
1825.2160632523
 21
5800.0842914923
 31
0.0
  0
LINE
  5
467
330
1F
100
AcDbEntity
  8
0
  6
Continuous
 62
     7
370
    25
100
AcDbLine
 10
1825.2160632523
 20
5746.0842914923
 30
0.0
 11
945.2160632523
 21
5746.0842914923
 31
0.0
  0
LINE
  5
468
330
1F
100
AcDbEntity
  8
0
  6
Continuous
 62
     7
370
    25
100
AcDbLine
 10
945.2160632523
 20
5800.0842914923
 30
0.0
 11
945.2160632523
 21
5746.0842914923
 31
0.0
  0
LINE
  5
469
330
1F
100
AcDbEntity
  8
0
  6
Continuous
 62
     7
370
    25
100
AcDbLine
 10
1825.2160632523
 20
5800.0842914923
 30
0.0
 11
945.2160632523
 21
5800.0842914923
 31
0.0
  0
LINE
  5
46A
330
1F
100
AcDbEntity
  8
0
  6
Continuous
 62
     7
370
    25
100
AcDbLine
 10
1825.2160632523
 20
5803.0842914923
 30
0.0
 11
945.2160632523
 21
5803.0842914923
 31
0.0
  0
LINE
  5
46B
330
1F
100
AcDbEntity
  8
0
  6
Continuous
 62
     7
370
    25
100
AcDbLine
 10
1825.2160632523
 20
5743.0842914923
 30
0.0
 11
945.2160632523
 21
5743.0842914923
 31
0.0
  0
LINE
  5
46C
330
1F
100
AcDbEntity
  8
0
  6
Continuous
 62
     7
370
    25
100
AcDbLine
 10
1825.2160632523
 20
5743.0842914923
 30
0.0
 11
1825.2160632523
 21
5746.0842914923
 31
0.0
  0
LINE
  5
46D
330
1F
100
AcDbEntity
  8
0
  6
Continuous
 62
     7
370
    25
100
AcDbLine
 10
945.2160632523
 20
5746.0842914923
 30
0.0
 11
945.2160632523
 21
5743.0842914923
 31
0.0
  0
ARC
  5
46E
330
1F
100
AcDbEntity
  8
0
  6
Continuous
 62
     7
370
    25
100
AcDbCircle
 10
1830.2160632523
 20
5818.0842914923
 30
0.0
 40
5.0
100
AcDbArc
 50
180.0
 51
270.0
  0
LINE
  5
46F
330
1F
100
AcDbEntity
  8
0
  6
Continuous
 62
     7
370
    25
100
AcDbLine
 10
1825.2160632523
 20
5818.0842914923
 30
0.0
 11
1825.2160632523
 21
5838.0842914923
 31
0.0
  0
LINE
  5
470
330
1F
100
AcDbEntity
  8
0
  6
Continuous
 62
     7
370
    25
100
AcDbLine
 10
1830.2160632523
 20
5840.0842914923
 30
0.0
 11
1835.2160632523
 21
5840.0842914923
 31
0.0
  0
ARC
  5
471
330
1F
100
AcDbEntity
  8
0
  6
Continuous
 62
     7
370
    25
100
AcDbCircle
 10
1830.2160632523
 20
5838.0842914923
 30
0.0
 40
1.999999999999773
100
AcDbArc
 50
90.0
 51
180.0
  0
LINE
  5
472
330
1F
100
AcDbEntity
  8
0
  6
Continuous
 62
     7
370
    25
100
AcDbLine
 10
1828.2160632523
 20
5818.0842914923
 30
0.0
 11
1828.2160632523
 21
5838.0842914923
 31
0.0
  0
ARC
  5
473
330
1F
100
AcDbEntity
  8
0
  6
Continuous
 62
     7
370
    25
100
AcDbCircle
 10
1830.2160632523
 20
5818.0842914923
 30
0.0
 40
2.0
100
AcDbArc
 50
180.0
 51
270.0
  0
LINE
  5
474
330
1F
100
AcDbEntity
  8
0
  6
Continuous
 62
     7
370
    25
100
AcDbLine
 10
1835.2160632523
 20
5816.0842914923
 30
0.0
 11
1830.2160632523
 21
5816.0842914923
 31
0.0
  0
LINE
  5
475
330
1F
100
AcDbEntity
  8
0
  6
Continuous
 62
     7
370
    25
100
AcDbLine
 10
1830.2160632523
 20
5843.0842914923
 30
0.0
 11
1835.2160632523
 21
5843.0842914923
 31
0.0
  0
ARC
  5
476
330
1F
100
AcDbEntity
  8
0
  6
Continuous
 62
     7
370
    25
100
AcDbCircle
 10
1830.2160632523
 20
5838.0842914923
 30
0.0
 40
4.999999999999773
100
AcDbArc
 50
90.0
 51
180.0
  0
LINE
  5
477
330
1F
100
AcDbEntity
  8
0
  6
Continuous
 62
     7
370
    25
100
AcDbLine
 10
945.2160632523
 20
5838.0842914923
 30
0.0
 11
945.2160632523
 21
5818.0842914923
 31
0.0
  0
ARC
  5
478
330
1F
100
AcDbEntity
  8
0
  6
Continuous
 62
     7
370
    25
100
AcDbCircle
 10
940.2160632523
 20
5818.0842914923
 30
0.0
 40
5.0
100
AcDbArc
 50
270.0
 51
0.0
  0
LINE
  5
479
330
1F
100
AcDbEntity
  8
0
  6
Continuous
 62
     7
370
    25
100
AcDbLine
 10
940.2160632523
 20
5816.0842914923
 30
0.0
 11
935.2160632523
 21
5816.0842914923
 31
0.0
  0
ARC
  5
47A
330
1F
100
AcDbEntity
  8
0
  6
Continuous
 62
     7
370
    25
100
AcDbCircle
 10
940.2160632523
 20
5818.0842914923
 30
0.0
 40
2.0
100
AcDbArc
 50
270.0
 51
0.0
  0
LINE
  5
47B
330
1F
100
AcDbEntity
  8
0
  6
Continuous
 62
     7
370
    25
100
AcDbLine
 10
942.2160632523
 20
5838.0842914923
 30
0.0
 11
942.2160632523
 21
5818.0842914923
 31
0.0
  0
ARC
  5
47C
330
1F
100
AcDbEntity
  8
0
  6
Continuous
 62
     7
370
    25
100
AcDbCircle
 10
940.2160632523
 20
5838.0842914923
 30
0.0
 40
2.0
100
AcDbArc
 50
0.0
 51
90.0
  0
LINE
  5
47D
330
1F
100
AcDbEntity
  8
0
  6
Continuous
 62
     7
370
    25
100
AcDbLine
 10
935.2160632523
 20
5840.0842914923
 30
0.0
 11
940.2160632523
 21
5840.0842914923
 31
0.0
  0
ARC
  5
47E
330
1F
100
AcDbEntity
  8
0
  6
Continuous
 62
     7
370
    25
100
AcDbCircle
 10
940.2160632523
 20
5838.0842914923
 30
0.0
 40
5.0
100
AcDbArc
 50
0.0
 51
90.0
  0
LINE
  5
47F
330
1F
100
AcDbEntity
  8
0
  6
Continuous
 62
     7
370
    25
100
AcDbLine
 10
935.2160632523
 20
5843.0842914923
 30
0.0
 11
940.2160632523
 21
5843.0842914923
 31
0.0
  0
LINE
  5
480
330
1F
100
AcDbEntity
  8
0
  6
Continuous
 62
     7
370
    25
100
AcDbLine
 10
879.2160632523
 20
5813.0842914923
 30
0.0
 11
931.2160632523
 21
5813.0842914923
 31
0.0
  0
LINE
  5
481
330
1F
100
AcDbEntity
  8
0
  6
Continuous
 62
     7
370
    25
100
AcDbLine
 10
879.2160632523
 20
6038.0842914923
 30
0.0
 11
879.2160632523
 21
5813.0842914923
 31
0.0
  0
LINE
  5
482
330
1F
100
AcDbEntity
  8
0
  6
Continuous
 62
     7
370
    25
100
AcDbLine
 10
879.2160632523
 20
6038.0842914923
 30
0.0
 11
931.2160632523
 21
6038.0842914923
 31
0.0
  0
LINE
  5
483
330
1F
100
AcDbEntity
  8
0
  6
Continuous
 62
     7
370
    25
100
AcDbLine
 10
931.2160632523
 20
6038.0842914923
 30
0.0
 11
931.2160632523
 21
5813.0842914923
 31
0.0
  0
LINE
  5
484
330
1F
100
AcDbEntity
  8
0
  6
Continuous
 62
     7
370
    25
100
AcDbLine
 10
875.2160632523
 20
5813.0842914923
 30
0.0
 11
879.2160632523
 21
5813.0842914923
 31
0.0
  0
LINE
  5
485
330
1F
100
AcDbEntity
  8
0
  6
Continuous
 62
     7
370
    25
100
AcDbLine
 10
875.2160632523
 20
6038.0842914923
 30
0.0
 11
875.2160632523
 21
5813.0842914923
 31
0.0
  0
LINE
  5
486
330
1F
100
AcDbEntity
  8
0
  6
Continuous
 62
     7
370
    25
100
AcDbLine
 10
875.2160632523
 20
6038.0842914923
 30
0.0
 11
879.2160632523
 21
6038.0842914923
 31
0.0
  0
LINE
  5
487
330
1F
100
AcDbEntity
  8
0
  6
Continuous
 62
     7
370
    25
100
AcDbLine
 10
935.2160632523
 20
6038.0842914923
 30
0.0
 11
935.2160632523
 21
5813.0842914923
 31
0.0
  0
LINE
  5
488
330
1F
100
AcDbEntity
  8
0
  6
Continuous
 62
     7
370
    25
100
AcDbLine
 10
931.2160632523
 20
6038.0842914923
 30
0.0
 11
935.2160632523
 21
6038.0842914923
 31
0.0
  0
LINE
  5
489
330
1F
100
AcDbEntity
  8
0
  6
Continuous
 62
     7
370
    25
100
AcDbLine
 10
1839.2160632523
 20
5813.0842914923
 30
0.0
 11
1891.2160632523
 21
5813.0842914923
 31
0.0
  0
LINE
  5
48A
330
1F
100
AcDbEntity
  8
0
  6
Continuous
 62
     7
370
    25
100
AcDbLine
 10
1839.2160632523
 20
6038.0842914923
 30
0.0
 11
1839.2160632523
 21
5813.0842914923
 31
0.0
  0
LINE
  5
48B
330
1F
100
AcDbEntity
  8
0
  6
Continuous
 62
     7
370
    25
100
AcDbLine
 10
1891.2160632523
 20
6038.0842914923
 30
0.0
 11
1891.2160632523
 21
5813.0842914923
 31
0.0
  0
LINE
  5
48C
330
1F
100
AcDbEntity
  8
0
  6
Continuous
 62
     7
370
    25
100
AcDbLine
 10
1839.2160632523
 20
6038.0842914923
 30
0.0
 11
1891.2160632523
 21
6038.0842914923
 31
0.0
  0
LINE
  5
48D
330
1F
100
AcDbEntity
  8
0
  6
Continuous
 62
     7
370
    25
100
AcDbLine
 10
1891.2160632523
 20
5813.0842914923
 30
0.0
 11
1895.2160632523
 21
5813.0842914923
 31
0.0
  0
LINE
  5
48E
330
1F
100
AcDbEntity
  8
0
  6
Continuous
 62
     7
370
    25
100
AcDbLine
 10
1895.2160632523
 20
6038.0842914923
 30
0.0
 11
1895.2160632523
 21
5813.0842914923
 31
0.0
  0
LINE
  5
48F
330
1F
100
AcDbEntity
  8
0
  6
Continuous
 62
     7
370
    25
100
AcDbLine
 10
1891.2160632523
 20
6038.0842914923
 30
0.0
 11
1895.2160632523
 21
6038.0842914923
 31
0.0
  0
LINE
  5
490
330
1F
100
AcDbEntity
  8
0
  6
Continuous
 62
     7
370
    25
100
AcDbLine
 10
1835.2160632523
 20
6038.0842914923
 30
0.0
 11
1835.2160632523
 21
5813.0842914923
 31
0.0
  0
LINE
  5
491
330
1F
100
AcDbEntity
  8
0
  6
Continuous
 62
     7
370
    25
100
AcDbLine
 10
1835.2160632523
 20
6038.0842914923
 30
0.0
 11
1839.2160632523
 21
6038.0842914923
 31
0.0
  0
LINE
  5
492
330
1F
100
AcDbEntity
  8
0
  6
Continuous
 62
     7
370
    25
100
AcDbLine
 10
1347.0322970682
 20
5812.0842914923
 30
0.0
 11
1357.0322970682
 21
5812.0842914923
 31
0.0
  0
LINE
  5
493
330
1F
100
AcDbEntity
  8
0
  6
Continuous
 62
     7
370
    25
100
AcDbLine
 10
1337.0322970682
 20
5812.0842914923
 30
0.0
 11
1347.0322970682
 21
5812.0842914923
 31
0.0
  0
LINE
  5
494
330
1F
100
AcDbEntity
  8
0
  6
Continuous
 62
     7
370
    25
100
AcDbLine
 10
1423.3998294363
 20
5812.0842914923
 30
0.0
 11
1433.3998294363
 21
5812.0842914923
 31
0.0
  0
LINE
  5
495
330
1F
100
AcDbEntity
  8
0
  6
Continuous
 62
     7
370
    25
100
AcDbLine
 10
1413.3998294363
 20
5812.0842914923
 30
0.0
 11
1423.3998294363
 21
5812.0842914923
 31
0.0
  0
LINE
  5
496
330
1F
100
AcDbEntity
  8
0
  6
Continuous
 62
     7
370
    25
100
AcDbLine
 10
1347.0322970682
 20
5812.0842914923
 30
0.0
 11
1347.0322970682
 21
5818.3617808312
 31
0.0
  0
SPLINE
  5
497
330
1F
100
AcDbEntity
  8
0
  6
Continuous
 62
     7
370
    25
100
AcDbSpline
210
0.0
220
0.0
230
1.0
 70
     8
 71
     3
 72
     9
 73
     5
 74
     0
 42
0.00000001
 43
0.00000001
 40
0.0
 40
0.0
 40
0.0
 40
0.0
 40
0.4912124615584988
 40
1.0
 40
1.0
 40
1.0
 40
1.0
 10
1355.032297068188
 20
5818.361780831226
 30
0.0
 10
1353.722727521277
 20
5818.584337569437
 30
0.0
 10
1351.056733375372
 20
5819.03741389715
 30
0.0
 10
1348.389402021787
 20
5818.589615218602
 30
0.0
 10
1347.032297068188
 20
5818.361780831226
 30
0.0
  0
LINE
  5
498
330
1F
100
AcDbEntity
  8
0
  6
Continuous
 62
     7
370
    25
100
AcDbLine
 10
1355.0322970682
 20
5812.0842914923
 30
0.0
 11
1355.0322970682
 21
5818.3617808312
 31
0.0
  0
LINE
  5
499
330
1F
100
AcDbEntity
  8
0
  6
Continuous
 62
     7
370
    25
100
AcDbLine
 10
1339.0322970682
 20
5812.0842914923
 30
0.0
 11
1339.0322970682
 21
5818.3617808312
 31
0.0
  0
SPLINE
  5
49A
330
1F
100
AcDbEntity
  8
0
  6
Continuous
 62
     7
370
    25
100
AcDbSpline
210
0.0
220
0.0
230
1.0
 70
     8
 71
     3
 72
     9
 73
     5
 74
     0
 42
0.00000001
 43
0.00000001
 40
0.0
 40
0.0
 40
0.0
 40
0.0
 40
0.4912124615584954
 40
1.0
 40
1.0
 40
1.0
 40
1.0
 10
1347.032297068188
 20
5818.361780831226
 30
0.0
 10
1345.722727521277
 20
5818.584337569437
 30
0.0
 10
1343.056733375372
 20
5819.03741389715
 30
0.0
 10
1340.389402021787
 20
5818.589615218602
 30
0.0
 10
1339.032297068188
 20
5818.361780831226
 30
0.0
  0
SPLINE
  5
49B
330
1F
100
AcDbEntity
  8
0
  6
Continuous
 62
     7
370
    25
100
AcDbSpline
210
0.0
220
0.0
230
1.0
 70
    24
 71
     3
 72
    10
 73
     6
 74
     0
 42
0.00000001
 43
0.00000001
 40
0.0
 40
0.0
 40
0.0
 40
0.0
 40
0.027061592716981
 40
0.8764953357582691
 40
1.0
 40
1.0
 40
1.0
 40
1.0
 10
1339.032297068188
 20
5818.361780831226
 30
0.0
 10
1339.032297068188
 20
5818.369195780781
 30
0.0
 10
1339.032297068188
 20
5818.609357872046
 30
0.0
 10
1339.032297068188
 20
5818.893267496795
 30
0.0
 10
1339.032297068188
 20
5818.782836435727
 30
0.0
 10
1339.032297068188
 20
5818.768818332406
 30
0.0
  0
SPLINE
  5
49C
330
1F
100
AcDbEntity
  8
0
  6
Continuous
 62
     7
370
    25
100
AcDbSpline
210
0.0
220
0.0
230
1.0
 70
    24
 71
     3
 72
    10
 73
     6
 74
     0
 42
0.00000001
 43
0.00000001
 40
0.0
 40
0.0
 40
0.0
 40
0.0
 40
0.1000165896587695
 40
0.9729370430647174
 40
1.0
 40
1.0
 40
1.0
 40
1.0
 10
1355.032297068188
 20
5818.777118408922
 30
0.0
 10
1355.032297068188
 20
5818.788519820169
 30
0.0
 10
1355.032297068188
 20
5818.899429974007
 30
0.0
 10
1355.032297068188
 20
5818.615786807779
 30
0.0
 10
1355.032297068188
 20
5818.369195943402
 30
0.0
 10
1355.032297068188
 20
5818.361780831226
 30
0.0
  0
LINE
  5
49D
330
1F
100
AcDbEntity
  8
0
  6
Continuous
 62
     7
370
    25
100
AcDbLine
 10
1354.2848196487
 20
5819.0842914923
 30
0.0
 11
1339.7797744876
 21
5819.0842914923
 31
0.0
  0
LINE
  5
49E
330
1F
100
AcDbEntity
  8
0
  6
Continuous
 62
     7
370
    25
100
AcDbLine
 10
1415.3998294363
 20
5812.0842914923
 30
0.0
 11
1415.3998294363
 21
5818.3617808312
 31
0.0
  0
SPLINE
  5
49F
330
1F
100
AcDbEntity
  8
0
  6
Continuous
 62
     7
370
    25
100
AcDbSpline
210
0.0
220
0.0
230
1.0
 70
     8
 71
     3
 72
     9
 73
     5
 74
     0
 42
0.00000001
 43
0.00000001
 40
0.0
 40
0.0
 40
0.0
 40
0.0
 40
0.491212461558496
 40
1.0
 40
1.0
 40
1.0
 40
1.0
 10
1423.399829436335
 20
5818.361780831226
 30
0.0
 10
1422.090259889424
 20
5818.584337569437
 30
0.0
 10
1419.424265743519
 20
5819.03741389715
 30
0.0
 10
1416.756934389934
 20
5818.589615218602
 30
0.0
 10
1415.399829436335
 20
5818.361780831226
 30
0.0
  0
LINE
  5
4A0
330
1F
100
AcDbEntity
  8
0
  6
Continuous
 62
     7
370
    25
100
AcDbLine
 10
1423.3998294363
 20
5812.0842914923
 30
0.0
 11
1423.3998294363
 21
5818.3617808312
 31
0.0
  0
SPLINE
  5
4A1
330
1F
100
AcDbEntity
  8
0
  6
Continuous
 62
     7
370
    25
100
AcDbSpline
210
0.0
220
0.0
230
1.0
 70
     8
 71
     3
 72
     9
 73
     5
 74
     0
 42
0.00000001
 43
0.00000001
 40
0.0
 40
0.0
 40
0.0
 40
0.0
 40
0.4912124615584988
 40
1.0
 40
1.0
 40
1.0
 40
1.0
 10
1431.399829436335
 20
5818.361780831226
 30
0.0
 10
1430.090259889424
 20
5818.584337569437
 30
0.0
 10
1427.424265743519
 20
5819.03741389715
 30
0.0
 10
1424.756934389934
 20
5818.589615218602
 30
0.0
 10
1423.399829436335
 20
5818.361780831226
 30
0.0
  0
LINE
  5
4A2
330
1F
100
AcDbEntity
  8
0
  6
Continuous
 62
     7
370
    25
100
AcDbLine
 10
1431.3998294363
 20
5812.0842914923
 30
0.0
 11
1431.3998294363
 21
5818.3617808312
 31
0.0
  0
SPLINE
  5
4A3
330
1F
100
AcDbEntity
  8
0
  6
Continuous
 62
     7
370
    25
100
AcDbSpline
210
0.0
220
0.0
230
1.0
 70
    24
 71
     3
 72
    10
 73
     6
 74
     0
 42
0.00000001
 43
0.00000001
 40
0.0
 40
0.0
 40
0.0
 40
0.0
 40
0.027061592716981
 40
0.8764953357582691
 40
1.0
 40
1.0
 40
1.0
 40
1.0
 10
1415.399829436335
 20
5818.361780831226
 30
0.0
 10
1415.399829436335
 20
5818.369195780781
 30
0.0
 10
1415.399829436336
 20
5818.609357872046
 30
0.0
 10
1415.399829436335
 20
5818.893267496795
 30
0.0
 10
1415.399829436335
 20
5818.782836435727
 30
0.0
 10
1415.399829436335
 20
5818.768818332406
 30
0.0
  0
SPLINE
  5
4A4
330
1F
100
AcDbEntity
  8
0
  6
Continuous
 62
     7
370
    25
100
AcDbSpline
210
0.0
220
0.0
230
1.0
 70
    24
 71
     3
 72
    10
 73
     6
 74
     0
 42
0.00000001
 43
0.00000001
 40
0.0
 40
0.0
 40
0.0
 40
0.0
 40
0.1000165896587695
 40
0.9729370430647174
 40
1.0
 40
1.0
 40
1.0
 40
1.0
 10
1431.399829436335
 20
5818.777118408922
 30
0.0
 10
1431.399829436335
 20
5818.788519820169
 30
0.0
 10
1431.399829436335
 20
5818.899429974007
 30
0.0
 10
1431.399829436336
 20
5818.615786807779
 30
0.0
 10
1431.399829436335
 20
5818.369195943402
 30
0.0
 10
1431.399829436335
 20
5818.361780831226
 30
0.0
  0
LINE
  5
4A5
330
1F
100
AcDbEntity
  8
0
  6
Continuous
 62
     7
370
    25
100
AcDbLine
 10
1430.6523520169
 20
5819.0842914923
 30
0.0
 11
1416.1473068558
 21
5819.0842914923
 31
0.0
  0
LINE
  5
4A6
330
1F
100
AcDbEntity
  8
0
  6
Continuous
 62
     8
370
    25
100
AcDbLine
 10
1435.2160632523
 20
5837.8842914923
 30
0.0
 11
1335.2160632523
 21
5837.8842914923
 31
0.0
  0
ARC
  5
4A7
330
1F
100
AcDbEntity
  8
0
  6
Continuous
 62
     8
370
    25
100
AcDbCircle
 10
1385.2160632523
 20
5898.8661586783
 30
0.0
 40
50.00002874918699
100
AcDbArc
 50
0.0614419949
 51
179.9385580051
  0
LINE
  5
4A8
330
1F
100
AcDbEntity
  8
0
  6
Continuous
 62
     8
370
    25
100
AcDbLine
 10
1825.2160632523
 20
5808.0842914923
 30
0.0
 11
1821.2160632523
 21
5808.0842914923
 31
0.0
  0
LINE
  5
4A9
330
1F
100
AcDbEntity
  8
0
  6
Continuous
 62
     8
370
    25
100
AcDbLine
 10
1815.2160632523
 20
5808.0842914923
 30
0.0
 11
1755.2160632523
 21
5808.0842914923
 31
0.0
  0
LINE
  5
4AA
330
1F
100
AcDbEntity
  8
0
  6
Continuous
 62
     8
370
    25
100
AcDbLine
 10
1615.2160632523
 20
5808.0842914923
 30
0.0
 11
1455.2160632523
 21
5808.0842914923
 31
0.0
  0
LINE
  5
4AB
330
1F
100
AcDbEntity
  8
0
  6
Continuous
 62
     8
370
    25
100
AcDbLine
 10
1315.2160632523
 20
5808.0842914923
 30
0.0
 11
1265.6713450673
 21
5808.0842914923
 31
0.0
  0
LINE
  5
4AC
330
1F
100
AcDbEntity
  8
0
  6
Continuous
 62
     8
370
    25
100
AcDbLine
 10
1065.6713450673
 20
5808.0842914923
 30
0.0
 11
955.2160632523
 21
5808.0842914923
 31
0.0
  0
LINE
  5
4AD
330
1F
100
AcDbEntity
  8
0
  6
Continuous
 62
     8
370
    25
100
AcDbLine
 10
949.2160632523
 20
5808.0842914923
 30
0.0
 11
945.2160632523
 21
5808.0842914923
 31
0.0
  0
ENDSEC
  0
SECTION
  2
OBJECTS
  0
DICTIONARY
  5
C
330
0
100
AcDbDictionary
281
     1
  3
ACAD_GROUP
350
D
  3
ACAD_LAYOUT
350
1A
  3
ACAD_MLINESTYLE
350
17
  3
ACAD_PLOTSETTINGS
350
19
  3
ACAD_PLOTSTYLENAME
350
E
  3
ACAD_SCALELIST
350
47
  3
DWGPROPS
350
4AE
  0
DICTIONARY
  5
D
102
{ACAD_REACTORS
330
C
102
}
330
C
100
AcDbDictionary
281
     1
  0
DICTIONARY
  5
1A
102
{ACAD_REACTORS
330
C
102
}
330
C
100
AcDbDictionary
281
     1
  3
Layout1
350
1E
  3
Layout2
350
26
  3
Model
350
22
  0
DICTIONARY
  5
17
102
{ACAD_REACTORS
330
C
102
}
330
C
100
AcDbDictionary
281
     1
  3
Standard
350
18
  0
DICTIONARY
  5
19
102
{ACAD_REACTORS
330
C
102
}
330
C
100
AcDbDictionary
281
     1
  0
ACDBDICTIONARYWDFLT
  5
E
102
{ACAD_REACTORS
330
C
102
}
330
C
100
AcDbDictionary
281
     1
  3
Normal
350
F
100
AcDbDictionaryWithDefault
340
F
  0
DICTIONARY
  5
47
102
{ACAD_REACTORS
330
C
102
}
330
C
100
AcDbDictionary
281
     1
  3
A0
350
48
  3
A1
350
49
  3
A2
350
4A
  3
A3
350
4B
  3
A4
350
4C
  3
A5
350
4D
  3
A6
350
4E
  3
A7
350
4F
  3
A8
350
50
  3
A9
350
51
  3
B0
350
52
  3
B1
350
53
  3
B2
350
54
  3
B3
350
55
  3
B4
350
56
  3
B5
350
57
  3
B6
350
58
  3
B7
350
59
  3
B8
350
5A
  3
B9
350
5B
  3
C0
350
5C
  3
C1
350
5D
  3
C2
350
5E
  3
C3
350
5F
  3
C4
350
60
  3
C5
350
61
  3
C6
350
62
  3
C7
350
63
  3
C8
350
64
  3
C9
350
65
  3
D0
350
66
  3
D1
350
67
  3
D2
350
68
  0
XRECORD
  5
4AE
102
{ACAD_REACTORS
330
C
102
}
330
C
100
AcDbXrecord
280
     1
  1
DWGPROPS COOKIE
  2

  3

  4

  6

  7

  8
radek.stransky
  9

300
=
301
=
302
=
303
=
304
=
305
=
306
=
307
=
308
=
309
=
 40
0.0
 41
2459095.362579479
 42
2459095.362580058
  1

 90
        0
  0
LAYOUT
  5
1E
102
{ACAD_REACTORS
330
1A
102
}
330
1A
100
AcDbPlotSettings
  1

  2
none_device
  4

  6

 40
0.0
 41
0.0
 42
0.0
 43
0.0
 44
0.0
 45
0.0
 46
0.0
 47
0.0
 48
0.0
 49
0.0
140
0.0
141
0.0
142
1.0
143
1.0
 70
   688
 72
     1
 73
     0
 74
     5
  7

 75
    16
147
1.0
148
0.0
149
0.0
100
AcDbLayout
  1
Layout1
 70
     1
 71
     1
 10
0.0
 20
0.0
 11
420.0
 21
297.0
 12
0.0
 22
0.0
 32
0.0
 14
1.0000000000E+20
 24
1.0000000000E+20
 34
1.0000000000E+20
 15
-1.0000000000E+20
 25
-1.0000000000E+20
 35
-1.0000000000E+20
146
0.0
 13
0.0
 23
0.0
 33
0.0
 16
1.0
 26
0.0
 36
0.0
 17
0.0
 27
1.0
 37
0.0
 76
     0
330
1B
  0
LAYOUT
  5
26
102
{ACAD_REACTORS
330
1A
102
}
330
1A
100
AcDbPlotSettings
  1

  2
none_device
  4

  6

 40
0.0
 41
0.0
 42
0.0
 43
0.0
 44
0.0
 45
0.0
 46
0.0
 47
0.0
 48
0.0
 49
0.0
140
0.0
141
0.0
142
1.0
143
1.0
 70
   688
 72
     1
 73
     0
 74
     5
  7

 75
    16
147
1.0
148
0.0
149
0.0
100
AcDbLayout
  1
Layout2
 70
     1
 71
     2
 10
0.0
 20
0.0
 11
0.0
 21
0.0
 12
0.0
 22
0.0
 32
0.0
 14
0.0
 24
0.0
 34
0.0
 15
0.0
 25
0.0
 35
0.0
146
0.0
 13
0.0
 23
0.0
 33
0.0
 16
1.0
 26
0.0
 36
0.0
 17
0.0
 27
1.0
 37
0.0
 76
     0
330
23
  0
LAYOUT
  5
22
102
{ACAD_REACTORS
330
1A
102
}
330
1A
100
AcDbPlotSettings
  1

  2
none_device
  4
Letter_(8.50_x_11.00_Inches)
  6

 40
6.35
 41
6.35
 42
6.35000508
 43
6.35000508
 44
215.9
 45
279.4
 46
0.0
 47
0.0
 48
0.0
 49
0.0
140
0.0
141
0.0
142
1.0
143
1.0
 70
  1712
 72
     1
 73
     0
 74
     0
  7

 75
     0
147
1.0
148
0.0
149
0.0
100
AcDbLayout
  1
Model
 70
     1
 71
     0
 10
0.0
 20
0.0
 11
20000.0
 21
10000.0
 12
0.0
 22
0.0
 32
0.0
 14
0.0
 24
0.0
 34
0.0
 15
20000.0
 25
10000.0
 35
0.0
146
0.0
 13
0.0
 23
0.0
 33
0.0
 16
1.0
 26
0.0
 36
0.0
 17
0.0
 27
1.0
 37
0.0
 76
     0
330
1F
331
29
  0
MLINESTYLE
  5
18
102
{ACAD_REACTORS
330
17
102
}
330
17
100
AcDbMlineStyle
  2
Standard
 70
     0
  3

 62
   256
 51
90.0
 52
90.0
 71
     2
 49
0.5
 62
   256
  6
BYLAYER
 49
-0.5
 62
   256
  6
BYLAYER
  0
ACDBPLACEHOLDER
  5
F
102
{ACAD_REACTORS
330
E
102
}
330
E
  0
SCALE
  5
48
102
{ACAD_REACTORS
330
47
102
}
330
47
100
AcDbScale
 70
     0
300
1:1
140
1.0
141
1.0
290
     1
  0
SCALE
  5
49
102
{ACAD_REACTORS
330
47
102
}
330
47
100
AcDbScale
 70
     0
300
1:2
140
1.0
141
2.0
290
     0
  0
SCALE
  5
4A
102
{ACAD_REACTORS
330
47
102
}
330
47
100
AcDbScale
 70
     0
300
1:4
140
1.0
141
4.0
290
     0
  0
SCALE
  5
4B
102
{ACAD_REACTORS
330
47
102
}
330
47
100
AcDbScale
 70
     0
300
1:5
140
1.0
141
5.0
290
     0
  0
SCALE
  5
4C
102
{ACAD_REACTORS
330
47
102
}
330
47
100
AcDbScale
 70
     0
300
1:8
140
1.0
141
8.0
290
     0
  0
SCALE
  5
4D
102
{ACAD_REACTORS
330
47
102
}
330
47
100
AcDbScale
 70
     0
300
1:10
140
1.0
141
10.0
290
     0
  0
SCALE
  5
4E
102
{ACAD_REACTORS
330
47
102
}
330
47
100
AcDbScale
 70
     0
300
1:16
140
1.0
141
16.0
290
     0
  0
SCALE
  5
4F
102
{ACAD_REACTORS
330
47
102
}
330
47
100
AcDbScale
 70
     0
300
1:20
140
1.0
141
20.0
290
     0
  0
SCALE
  5
50
102
{ACAD_REACTORS
330
47
102
}
330
47
100
AcDbScale
 70
     0
300
1:30
140
1.0
141
30.0
290
     0
  0
SCALE
  5
51
102
{ACAD_REACTORS
330
47
102
}
330
47
100
AcDbScale
 70
     0
300
1:40
140
1.0
141
40.0
290
     0
  0
SCALE
  5
52
102
{ACAD_REACTORS
330
47
102
}
330
47
100
AcDbScale
 70
     0
300
1:50
140
1.0
141
50.0
290
     0
  0
SCALE
  5
53
102
{ACAD_REACTORS
330
47
102
}
330
47
100
AcDbScale
 70
     0
300
1:100
140
1.0
141
100.0
290
     0
  0
SCALE
  5
54
102
{ACAD_REACTORS
330
47
102
}
330
47
100
AcDbScale
 70
     0
300
2:1
140
2.0
141
1.0
290
     0
  0
SCALE
  5
55
102
{ACAD_REACTORS
330
47
102
}
330
47
100
AcDbScale
 70
     0
300
4:1
140
4.0
141
1.0
290
     0
  0
SCALE
  5
56
102
{ACAD_REACTORS
330
47
102
}
330
47
100
AcDbScale
 70
     0
300
8:1
140
8.0
141
1.0
290
     0
  0
SCALE
  5
57
102
{ACAD_REACTORS
330
47
102
}
330
47
100
AcDbScale
 70
     0
300
10:1
140
10.0
141
1.0
290
     0
  0
SCALE
  5
58
102
{ACAD_REACTORS
330
47
102
}
330
47
100
AcDbScale
 70
     0
300
100:1
140
100.0
141
1.0
290
     0
  0
SCALE
  5
59
102
{ACAD_REACTORS
330
47
102
}
330
47
100
AcDbScale
 70
     0
300
1/128" = 1'-0"
140
0.0078125
141
12.0
290
     0
  0
SCALE
  5
5A
102
{ACAD_REACTORS
330
47
102
}
330
47
100
AcDbScale
 70
     0
300
1/64" = 1'-0"
140
0.015625
141
12.0
290
     0
  0
SCALE
  5
5B
102
{ACAD_REACTORS
330
47
102
}
330
47
100
AcDbScale
 70
     0
300
1/32" = 1'-0"
140
0.03125
141
12.0
290
     0
  0
SCALE
  5
5C
102
{ACAD_REACTORS
330
47
102
}
330
47
100
AcDbScale
 70
     0
300
1/16" = 1'-0"
140
0.0625
141
12.0
290
     0
  0
SCALE
  5
5D
102
{ACAD_REACTORS
330
47
102
}
330
47
100
AcDbScale
 70
     0
300
3/32" = 1'-0"
140
0.09375
141
12.0
290
     0
  0
SCALE
  5
5E
102
{ACAD_REACTORS
330
47
102
}
330
47
100
AcDbScale
 70
     0
300
1/8" = 1'-0"
140
0.125
141
12.0
290
     0
  0
SCALE
  5
5F
102
{ACAD_REACTORS
330
47
102
}
330
47
100
AcDbScale
 70
     0
300
3/16" = 1'-0"
140
0.1875
141
12.0
290
     0
  0
SCALE
  5
60
102
{ACAD_REACTORS
330
47
102
}
330
47
100
AcDbScale
 70
     0
300
1/4" = 1'-0"
140
0.25
141
12.0
290
     0
  0
SCALE
  5
61
102
{ACAD_REACTORS
330
47
102
}
330
47
100
AcDbScale
 70
     0
300
3/8" = 1'-0"
140
0.375
141
12.0
290
     0
  0
SCALE
  5
62
102
{ACAD_REACTORS
330
47
102
}
330
47
100
AcDbScale
 70
     0
300
1/2" = 1'-0"
140
0.5
141
12.0
290
     0
  0
SCALE
  5
63
102
{ACAD_REACTORS
330
47
102
}
330
47
100
AcDbScale
 70
     0
300
3/4" = 1'-0"
140
0.75
141
12.0
290
     0
  0
SCALE
  5
64
102
{ACAD_REACTORS
330
47
102
}
330
47
100
AcDbScale
 70
     0
300
1" = 1'-0"
140
1.0
141
12.0
290
     0
  0
SCALE
  5
65
102
{ACAD_REACTORS
330
47
102
}
330
47
100
AcDbScale
 70
     0
300
1-1/2" = 1'-0"
140
1.5
141
12.0
290
     0
  0
SCALE
  5
66
102
{ACAD_REACTORS
330
47
102
}
330
47
100
AcDbScale
 70
     0
300
3" = 1'-0"
140
3.0
141
12.0
290
     0
  0
SCALE
  5
67
102
{ACAD_REACTORS
330
47
102
}
330
47
100
AcDbScale
 70
     0
300
6" = 1'-0"
140
6.0
141
12.0
290
     0
  0
SCALE
  5
68
102
{ACAD_REACTORS
330
47
102
}
330
47
100
AcDbScale
 70
     0
300
1'-0" = 1'-0"
140
12.0
141
12.0
290
     0
  0
ENDSEC
  0
EOF
