  0
SECTION
  2
HEADER
  9
$ACADVER
  1
AC1015
  9
$ACADMAINTVER
 70
     6
  9
$DWGCODEPAGE
  3
ANSI_1250
  9
$INSBASE
 10
0.0
 20
0.0
 30
0.0
  9
$EXTMIN
 10
809.5398001937
 20
2090.2536148731
 30
0.0
  9
$EXTMAX
 10
2699.6757703535
 20
4432.4384393499
 30
0.0
  9
$LIMMIN
 10
0.0
 20
0.0
  9
$LIMMAX
 10
420.0
 20
297.0
  9
$ORTHOMODE
 70
     0
  9
$REGENMODE
 70
     1
  9
$FILLMODE
 70
     1
  9
$QTEXTMODE
 70
     0
  9
$MIRRTEXT
 70
     1
  9
$LTSCALE
 40
1.0
  9
$ATTMODE
 70
     1
  9
$TEXTSIZE
 40
3.5
  9
$TRACEWID
 40
1.0
  9
$TEXTSTYLE
  7
Standard
  9
$CLAYER
  8
0
  9
$CELTYPE
  6
ByLayer
  9
$CECOLOR
 62
   256
  9
$CELTSCALE
 40
1.0
  9
$DISPSILH
 70
     0
  9
$DIMSCALE
 40
1.0
  9
$DIMASZ
 40
3.302
  9
$DIMEXO
 40
0.0
  9
$DIMDLI
 40
3.75
  9
$DIMRND
 40
0.0
  9
$DIMDLE
 40
0.0
  9
$DIMEXE
 40
1.0
  9
$DIMTP
 40
0.0
  9
$DIMTM
 40
0.0
  9
$DIMTXT
 40
3.5
  9
$DIMCEN
 40
2.5
  9
$DIMTSZ
 40
0.0
  9
$DIMTOL
 70
     0
  9
$DIMLIM
 70
     0
  9
$DIMTIH
 70
     1
  9
$DIMTOH
 70
     1
  9
$DIMSE1
 70
     0
  9
$DIMSE2
 70
     0
  9
$DIMTAD
 70
     1
  9
$DIMZIN
 70
     0
  9
$DIMBLK
  1

  9
$DIMASO
 70
     1
  9
$DIMSHO
 70
     1
  9
$DIMPOST
  1

  9
$DIMAPOST
  1

  9
$DIMALT
 70
     0
  9
$DIMALTD
 70
     3
  9
$DIMALTF
 40
0.0393700787
  9
$DIMLFAC
 40
1.0
  9
$DIMTOFL
 70
     1
  9
$DIMTVP
 40
0.0
  9
$DIMTIX
 70
     0
  9
$DIMSOXD
 70
     0
  9
$DIMSAH
 70
     0
  9
$DIMBLK1
  1

  9
$DIMBLK2
  1

  9
$DIMSTYLE
  2
ISO-25
  9
$DIMCLRD
 70
     0
  9
$DIMCLRE
 70
     0
  9
$DIMCLRT
 70
     0
  9
$DIMTFAC
 40
1.0
  9
$DIMGAP
 40
1.524
  9
$DIMJUST
 70
     0
  9
$DIMSD1
 70
     0
  9
$DIMSD2
 70
     0
  9
$DIMTOLJ
 70
     0
  9
$DIMTZIN
 70
     0
  9
$DIMALTZ
 70
     0
  9
$DIMALTTZ
 70
     0
  9
$DIMUPT
 70
     0
  9
$DIMDEC
 70
     2
  9
$DIMTDEC
 70
     2
  9
$DIMALTU
 70
     2
  9
$DIMALTTD
 70
     3
  9
$DIMTXSTY
  7
Standard
  9
$DIMAUNIT
 70
     0
  9
$DIMADEC
 70
     2
  9
$DIMALTRND
 40
0.0
  9
$DIMAZIN
 70
     0
  9
$DIMDSEP
 70
    44
  9
$DIMATFIT
 70
     3
  9
$DIMFRAC
 70
     0
  9
$DIMLDRBLK
  1

  9
$DIMLUNIT
 70
     2
  9
$DIMLWD
 70
    -2
  9
$DIMLWE
 70
    -2
  9
$DIMTMOVE
 70
     0
  9
$LUNITS
 70
     2
  9
$LUPREC
 70
     2
  9
$SKETCHINC
 40
1.0
  9
$FILLETRAD
 40
10.0
  9
$AUNITS
 70
     0
  9
$AUPREC
 70
     2
  9
$MENU
  1
.
  9
$ELEVATION
 40
0.0
  9
$PELEVATION
 40
0.0
  9
$THICKNESS
 40
0.0
  9
$LIMCHECK
 70
     0
  9
$CHAMFERA
 40
0.0
  9
$CHAMFERB
 40
0.0
  9
$CHAMFERC
 40
0.0
  9
$CHAMFERD
 40
0.0
  9
$SKPOLY
 70
     0
  9
$TDCREATE
 40
2459094.595930197
  9
$TDUCREATE
 40
2459094.512596863
  9
$TDUPDATE
 40
2459094.596006435
  9
$TDUUPDATE
 40
2459094.512673102
  9
$TDINDWG
 40
0.0000000116
  9
$TDUSRTIMER
 40
0.0000000116
  9
$USRTIMER
 70
     1
  9
$ANGBASE
 50
0.0
  9
$ANGDIR
 70
     0
  9
$PDMODE
 70
     0
  9
$PDSIZE
 40
-1.0
  9
$PLINEWID
 40
0.0
  9
$SPLFRAME
 70
     0
  9
$SPLINETYPE
 70
     6
  9
$SPLINESEGS
 70
     8
  9
$HANDSEED
  5
234
  9
$SURFTAB1
 70
     6
  9
$SURFTAB2
 70
     6
  9
$SURFTYPE
 70
     6
  9
$SURFU
 70
     6
  9
$SURFV
 70
     6
  9
$UCSBASE
  2

  9
$UCSNAME
  2

  9
$UCSORG
 10
0.0
 20
0.0
 30
0.0
  9
$UCSXDIR
 10
1.0
 20
0.0
 30
0.0
  9
$UCSYDIR
 10
0.0
 20
1.0
 30
0.0
  9
$UCSORTHOREF
  2

  9
$UCSORTHOVIEW
 70
     0
  9
$UCSORGTOP
 10
0.0
 20
0.0
 30
0.0
  9
$UCSORGBOTTOM
 10
0.0
 20
0.0
 30
0.0
  9
$UCSORGLEFT
 10
0.0
 20
0.0
 30
0.0
  9
$UCSORGRIGHT
 10
0.0
 20
0.0
 30
0.0
  9
$UCSORGFRONT
 10
0.0
 20
0.0
 30
0.0
  9
$UCSORGBACK
 10
0.0
 20
0.0
 30
0.0
  9
$PUCSBASE
  2

  9
$PUCSNAME
  2

  9
$PUCSORG
 10
0.0
 20
0.0
 30
0.0
  9
$PUCSXDIR
 10
1.0
 20
0.0
 30
0.0
  9
$PUCSYDIR
 10
0.0
 20
1.0
 30
0.0
  9
$PUCSORTHOREF
  2

  9
$PUCSORTHOVIEW
 70
     0
  9
$PUCSORGTOP
 10
0.0
 20
0.0
 30
0.0
  9
$PUCSORGBOTTOM
 10
0.0
 20
0.0
 30
0.0
  9
$PUCSORGLEFT
 10
0.0
 20
0.0
 30
0.0
  9
$PUCSORGRIGHT
 10
0.0
 20
0.0
 30
0.0
  9
$PUCSORGFRONT
 10
0.0
 20
0.0
 30
0.0
  9
$PUCSORGBACK
 10
0.0
 20
0.0
 30
0.0
  9
$USERI1
 70
     0
  9
$USERI2
 70
     0
  9
$USERI3
 70
     0
  9
$USERI4
 70
     0
  9
$USERI5
 70
     0
  9
$USERR1
 40
0.0
  9
$USERR2
 40
0.0
  9
$USERR3
 40
0.0
  9
$USERR4
 40
0.0
  9
$USERR5
 40
0.0
  9
$WORLDVIEW
 70
     1
  9
$SHADEDGE
 70
     3
  9
$SHADEDIF
 70
    70
  9
$TILEMODE
 70
     1
  9
$MAXACTVP
 70
    64
  9
$PINSBASE
 10
0.0
 20
0.0
 30
0.0
  9
$PLIMCHECK
 70
     0
  9
$PEXTMIN
 10
1.0000000000E+20
 20
1.0000000000E+20
 30
1.0000000000E+20
  9
$PEXTMAX
 10
-1.0000000000E+20
 20
-1.0000000000E+20
 30
-1.0000000000E+20
  9
$PLIMMIN
 10
0.0
 20
0.0
  9
$PLIMMAX
 10
420.0
 20
297.0
  9
$UNITMODE
 70
     0
  9
$VISRETAIN
 70
     1
  9
$PLINEGEN
 70
     0
  9
$PSLTSCALE
 70
     1
  9
$TREEDEPTH
 70
  3020
  9
$CMLSTYLE
  2
Standard
  9
$CMLJUST
 70
     0
  9
$CMLSCALE
 40
20.0
  9
$PROXYGRAPHICS
 70
     1
  9
$MEASUREMENT
 70
     1
  9
$CELWEIGHT
370
    -1
  9
$ENDCAPS
280
     0
  9
$JOINSTYLE
280
     0
  9
$LWDISPLAY
290
     1
  9
$INSUNITS
 70
     4
  9
$HYPERLINKBASE
  1

  9
$STYLESHEET
  1

  9
$XEDIT
290
     1
  9
$CEPSNTYPE
380
     0
  9
$PSTYLEMODE
290
     1
  9
$FINGERPRINTGUID
  2
{b89bd777-a9cc-4e88-9557-68071d119446}
  9
$VERSIONGUID
  2
{FAEB1C32-E019-11D5-929B-00C0DF256EC4}
  9
$EXTNAMES
290
     1
  9
$PSVPSCALE
 40
0.0
  9
$OLESTARTUP
290
     0
  0
ENDSEC
  0
SECTION
  2
CLASSES
  0
CLASS
  1
ACDBDICTIONARYWDFLT
  2
AcDbDictionaryWithDefault
  3
ObjectDBX Classes
 90
        0
280
     0
281
     0
  0
CLASS
  1
VISUALSTYLE
  2
AcDbVisualStyle
  3
ObjectDBX Classes
 90
     4095
280
     0
281
     0
  0
CLASS
  1
MATERIAL
  2
AcDbMaterial
  3
ObjectDBX Classes
 90
     1153
280
     0
281
     0
  0
CLASS
  1
SCALE
  2
AcDbScale
  3
ObjectDBX Classes
 90
     1153
280
     0
281
     0
  0
CLASS
  1
TABLESTYLE
  2
AcDbTableStyle
  3
ObjectDBX Classes
 90
     4095
280
     0
281
     0
  0
CLASS
  1
MLEADERSTYLE
  2
AcDbMLeaderStyle
  3
ACDB_MLEADERSTYLE_CLASS
 90
     4095
280
     0
281
     0
  0
CLASS
  1
SUN
  2
AcDbSun
  3
SCENEOE
 90
     1153
280
     0
281
     0
  0
CLASS
  1
ACDBPLACEHOLDER
  2
AcDbPlaceHolder
  3
ObjectDBX Classes
 90
        0
280
     0
281
     0
  0
CLASS
  1
LAYOUT
  2
AcDbLayout
  3
ObjectDBX Classes
 90
        0
280
     0
281
     0
  0
ENDSEC
  0
SECTION
  2
TABLES
  0
TABLE
  2
VPORT
  5
8
330
0
100
AcDbSymbolTable
 70
     1
  0
VPORT
  5
29
330
8
100
AcDbSymbolTableRecord
100
AcDbViewportTableRecord
  2
*Active
 70
     0
 10
0.0
 20
0.0
 11
1.0
 21
1.0
 12
1754.6077852736
 22
3261.3460271115
 13
0.0
 23
0.0
 14
10.0
 24
10.0
 15
10.0
 25
10.0
 16
0.0
 26
0.0
 36
1.0
 17
0.0
 27
0.0
 37
0.0
 40
2389.0285209664
 41
0.8069969331
 42
50.0
 43
0.0
 44
0.0
 50
0.0
 51
0.0
 71
     0
 72
   100
 73
     1
 74
     3
 75
     0
 76
     0
 77
     0
 78
     0
281
     0
 65
     1
110
0.0
120
0.0
130
0.0
111
1.0
121
0.0
131
0.0
112
0.0
122
1.0
132
0.0
 79
     0
146
0.0
  0
ENDTAB
  0
TABLE
  2
LTYPE
  5
5
330
0
100
AcDbSymbolTable
 70
     6
  0
LTYPE
  5
14
330
5
100
AcDbSymbolTableRecord
100
AcDbLinetypeTableRecord
  2
ByBlock
 70
     0
  3

 72
    65
 73
     0
 40
0.0
  0
LTYPE
  5
15
330
5
100
AcDbSymbolTableRecord
100
AcDbLinetypeTableRecord
  2
ByLayer
 70
     0
  3

 72
    65
 73
     0
 40
0.0
  0
LTYPE
  5
16
330
5
100
AcDbSymbolTableRecord
100
AcDbLinetypeTableRecord
  2
Continuous
 70
     0
  3
Solid line
 72
    65
 73
     0
 40
0.0
  0
LTYPE
  5
6E
330
5
100
AcDbSymbolTableRecord
100
AcDbLinetypeTableRecord
  2
HIDDEN
 70
     0
  3
Hidden __ __ __ __ __ __ __ __ __ __ __ __ __ __
 72
    65
 73
     2
 40
1.905
 49
1.27
 74
     0
 49
-0.635
 74
     0
  0
LTYPE
  5
6F
330
5
100
AcDbSymbolTableRecord
100
AcDbLinetypeTableRecord
  2
PHANTOM
 70
     0
  3
Phantom ______  __  __  ______  __  __  ______
 72
    65
 73
     6
 40
12.7
 49
6.35
 74
     0
 49
-1.27
 74
     0
 49
1.27
 74
     0
 49
-1.27
 74
     0
 49
1.27
 74
     0
 49
-1.27
 74
     0
  0
LTYPE
  5
70
330
5
100
AcDbSymbolTableRecord
100
AcDbLinetypeTableRecord
  2
CENTER
 70
     0
  3
Center ____ _ ____ _ ____ _ ____ _ ____ _ ____
 72
    65
 73
     4
 40
10.16
 49
6.35
 74
     0
 49
-1.27
 74
     0
 49
1.27
 74
     0
 49
-1.27
 74
     0
  0
LTYPE
  5
71
330
5
100
AcDbSymbolTableRecord
100
AcDbLinetypeTableRecord
  2
CENTERX2
 70
     0
  3
Center (2x) ________  __  ________  __  _____
 72
    65
 73
     4
 40
20.32
 49
12.7
 74
     0
 49
-2.54
 74
     0
 49
2.54
 74
     0
 49
-2.54
 74
     0
  0
LTYPE
  5
72
330
5
100
AcDbSymbolTableRecord
100
AcDbLinetypeTableRecord
  2
DOT2
 70
     0
  3
Dot (.5x) ........................................
 72
    65
 73
     2
 40
0.635
 49
0.0
 74
     0
 49
-0.635
 74
     0
  0
ENDTAB
  0
TABLE
  2
LAYER
  5
2
330
0
100
AcDbSymbolTable
 70
     1
  0
LAYER
  5
10
330
2
100
AcDbSymbolTableRecord
100
AcDbLayerTableRecord
  2
0
 70
     0
 62
     7
  6
Continuous
370
    -3
390
F
  0
ENDTAB
  0
TABLE
  2
STYLE
  5
3
330
0
100
AcDbSymbolTable
 70
     1
  0
STYLE
  5
11
330
3
100
AcDbSymbolTableRecord
100
AcDbTextStyleTableRecord
  2
Standard
 70
     0
 40
0.0
 41
1.0
 50
0.0
 71
     0
 42
3.5
  3
txt
  4

  0
ENDTAB
  0
TABLE
  2
VIEW
  5
6
330
0
100
AcDbSymbolTable
 70
     0
  0
ENDTAB
  0
TABLE
  2
UCS
  5
7
330
0
100
AcDbSymbolTable
 70
     0
  0
ENDTAB
  0
TABLE
  2
APPID
  5
9
330
0
100
AcDbSymbolTable
 70
     1
  0
APPID
  5
12
330
9
100
AcDbSymbolTableRecord
100
AcDbRegAppTableRecord
  2
ACAD
 70
     0
  0
ENDTAB
  0
TABLE
  2
DIMSTYLE
  5
A
330
0
100
AcDbSymbolTable
 70
     1
100
AcDbDimStyleTable
  0
DIMSTYLE
105
27
330
A
100
AcDbSymbolTableRecord
100
AcDbDimStyleTableRecord
  2
ISO-25
 70
     0
 41
2.5
 42
0.625
 43
3.75
 44
1.25
 73
     0
 74
     0
 77
     1
 78
     8
140
2.5
141
2.5
143
0.0393700787
147
0.625
171
     3
172
     1
178
     0
271
     2
272
     2
274
     3
278
    44
283
     0
284
     8
340
11
  0
ENDTAB
  0
TABLE
  2
BLOCK_RECORD
  5
1
330
0
100
AcDbSymbolTable
 70
     1
  0
BLOCK_RECORD
  5
1F
330
1
100
AcDbSymbolTableRecord
100
AcDbBlockTableRecord
  2
*Model_Space
340
22
  0
BLOCK_RECORD
  5
1B
330
1
100
AcDbSymbolTableRecord
100
AcDbBlockTableRecord
  2
*Paper_Space
340
1E
  0
BLOCK_RECORD
  5
23
330
1
100
AcDbSymbolTableRecord
100
AcDbBlockTableRecord
  2
*Paper_Space0
340
26
  0
ENDTAB
  0
ENDSEC
  0
SECTION
  2
BLOCKS
  0
BLOCK
  5
20
330
1F
100
AcDbEntity
  8
0
100
AcDbBlockBegin
  2
*Model_Space
 70
     0
 10
0.0
 20
0.0
 30
0.0
  3
*Model_Space
  1

  0
ENDBLK
  5
21
330
1F
100
AcDbEntity
  8
0
100
AcDbBlockEnd
  0
BLOCK
  5
1C
330
1B
100
AcDbEntity
 67
     1
  8
0
100
AcDbBlockBegin
  2
*Paper_Space
 70
     0
 10
0.0
 20
0.0
 30
0.0
  3
*Paper_Space
  1

  0
ENDBLK
  5
1D
330
1B
100
AcDbEntity
 67
     1
  8
0
100
AcDbBlockEnd
  0
BLOCK
  5
24
330
23
100
AcDbEntity
  8
0
100
AcDbBlockBegin
  2
*Paper_Space0
 70
     0
 10
0.0
 20
0.0
 30
0.0
  3
*Paper_Space0
  1

  0
ENDBLK
  5
25
330
23
100
AcDbEntity
  8
0
100
AcDbBlockEnd
  0
ENDSEC
  0
SECTION
  2
ENTITIES
  0
ARC
  5
73
330
1F
100
AcDbEntity
  8
0
  6
Continuous
 62
     7
100
AcDbCircle
 10
1351.3890201648
 20
3327.3070099005
 30
0.0
 40
7.560779376240053
100
AcDbArc
 50
28.0388921552
 51
51.7443585051
  0
ARC
  5
74
330
1F
100
AcDbEntity
  8
0
  6
Continuous
 62
     7
100
AcDbCircle
 10
2508.5572394686
 20
3337.3073814165
 30
0.0
 40
7.560779376240719
100
AcDbArc
 50
28.0388921552
 51
50.7850988755
  0
ARC
  5
75
330
1F
100
AcDbEntity
  8
0
  6
Continuous
 62
     7
100
AcDbCircle
 10
2572.6640842099
 20
3337.3073814165
 30
0.0
 40
7.560779376240719
100
AcDbArc
 50
129.2149011245
 51
151.9611078448
  0
ARC
  5
76
330
1F
100
AcDbEntity
  8
0
  6
Continuous
 62
     7
100
AcDbCircle
 10
2456.4143405225
 20
3284.8681607928
 30
0.0
 40
28.14691151919988
100
AcDbArc
 50
235.2919507275
 51
270.0
  0
ARC
  5
77
330
1F
100
AcDbEntity
  8
0
  6
Continuous
 62
     7
100
AcDbCircle
 10
2456.4143405225
 20
3282.6644880048
 30
0.0
 40
28.14691151919952
100
AcDbArc
 50
90.0
 51
124.7080492725
  0
ARC
  5
78
330
1F
100
AcDbEntity
  8
0
  6
Continuous
 62
     7
100
AcDbCircle
 10
2456.4143405225
 20
3257.7229187226
 30
0.0
 40
1.001669449083238
100
AcDbArc
 50
270.0000000001
 51
0.0
  0
ARC
  5
79
330
1F
100
AcDbEntity
  8
0
  6
Continuous
 62
     7
100
AcDbCircle
 10
2456.4143405225
 20
3309.8097300749
 30
0.0
 40
1.001669449082328
100
AcDbArc
 50
0.0
 51
90.0
  0
ARC
  5
7A
330
1F
100
AcDbEntity
  8
0
  6
Continuous
 62
     7
100
AcDbCircle
 10
2601.5121643434
 20
4277.6766351566
 30
0.0
 40
50.08347245409013
100
AcDbArc
 50
360.0
 51
64.5366549381
  0
ARC
  5
7B
330
1F
100
AcDbEntity
  8
0
  6
Continuous
 62
     7
100
AcDbCircle
 10
2392.6640842099
 20
4430.9359351763
 30
0.0
 40
1.502504173622583
100
AcDbArc
 50
64.5366549375
 51
180.0
  0
ARC
  5
7C
330
1F
100
AcDbEntity
  8
0
  6
Continuous
 62
     7
100
AcDbCircle
 10
1411.4719894508
 20
2873.3338539749
 30
0.0
 40
18.72351354842386
100
AcDbArc
 50
192.5898336885
 51
210.9554624827
  0
ARC
  5
7D
330
1F
100
AcDbEntity
  8
0
  6
Continuous
 62
     7
100
AcDbCircle
 10
1411.4719894508
 20
2873.3338539749
 30
0.0
 40
18.72351354802718
100
AcDbArc
 50
216.4950456213
 51
330.9174379654
  0
ARC
  5
7E
330
1F
100
AcDbEntity
  8
0
  6
Continuous
 62
     7
100
AcDbCircle
 10
1411.4719894508
 20
2873.3338539749
 30
0.0
 40
18.72351354801873
100
AcDbArc
 50
336.5043484508
 51
17.7544502166
  0
ARC
  5
7F
330
1F
100
AcDbEntity
  8
0
  6
Continuous
 62
     7
100
AcDbCircle
 10
1411.4719894508
 20
2873.3338539749
 30
0.0
 40
18.72351354842402
100
AcDbArc
 50
162.2455497838
 51
192.5898336885
  0
ARC
  5
80
330
1F
100
AcDbEntity
  8
0
  6
Continuous
 62
     7
100
AcDbCircle
 10
1411.4719894508
 20
2873.3338539749
 30
0.0
 40
15.66713753671812
100
AcDbArc
 50
337.0053872216
 51
12.5898336894
  0
ARC
  5
81
330
1F
100
AcDbEntity
  8
0
  6
Continuous
 62
     7
100
AcDbCircle
 10
1411.4719894508
 20
2873.3338539749
 30
0.0
 40
15.66713753672679
100
AcDbArc
 50
217.0055594622
 51
330.3706826933
  0
ARC
  5
82
330
1F
100
AcDbEntity
  8
0
  6
Continuous
 62
     7
100
AcDbCircle
 10
1411.4719894508
 20
2873.3338539749
 30
0.0
 40
15.66713753712522
100
AcDbArc
 50
158.627723844
 51
210.3699975425
  0
ARC
  5
83
330
1F
100
AcDbEntity
  8
0
  6
Continuous
 62
     7
100
AcDbCircle
 10
1411.4719894508
 20
2873.3338539749
 30
0.0
 40
16.16797226134046
100
AcDbArc
 50
243.380048025
 51
299.4069950836
  0
ARC
  5
84
330
1F
100
AcDbEntity
  8
0
  6
Continuous
 62
     7
100
AcDbCircle
 10
1411.4719894508
 20
2873.3338539749
 30
0.0
 40
16.16797226163458
100
AcDbArc
 50
183.3800480261
 51
210.4693713584
  0
ARC
  5
85
330
1F
100
AcDbEntity
  8
0
  6
Continuous
 62
     7
100
AcDbCircle
 10
1411.4719894508
 20
2873.3338539749
 30
0.0
 40
16.16797226155263
100
AcDbArc
 50
216.9064909382
 51
239.4069233116
  0
ARC
  5
86
330
1F
100
AcDbEntity
  8
0
  6
Continuous
 62
     7
100
AcDbCircle
 10
1411.4719894508
 20
2873.3338539749
 30
0.0
 40
16.16797226166685
100
AcDbArc
 50
159.3206663137
 51
179.4069233122
  0
ARC
  5
87
330
1F
100
AcDbEntity
  8
0
  6
Continuous
 62
     7
100
AcDbCircle
 10
1411.4719894508
 20
2873.3338539749
 30
0.0
 40
16.16797226126754
100
AcDbArc
 50
303.3800480255
 51
330.5986720453
  0
ARC
  5
88
330
1F
100
AcDbEntity
  8
0
  6
Continuous
 62
     7
100
AcDbCircle
 10
1411.4719894508
 20
2873.3338539749
 30
0.0
 40
16.16797226125886
100
AcDbArc
 50
336.9064909386
 51
359.4069233124
  0
ARC
  5
89
330
1F
100
AcDbEntity
  8
0
  6
Continuous
 62
     7
100
AcDbCircle
 10
1411.4719894508
 20
2873.3338539749
 30
0.0
 40
16.16797226125139
100
AcDbArc
 50
3.3800480264
 51
20.6793336868
  0
ARC
  5
8A
330
1F
100
AcDbEntity
  8
0
  6
Continuous
 62
     7
100
AcDbCircle
 10
1411.4719894508
 20
2873.3338539749
 30
0.0
 40
15.012199820073
100
AcDbArc
 50
246.6378997213
 51
306.1886005332
  0
ARC
  5
8B
330
1F
100
AcDbEntity
  8
0
  6
Continuous
 62
     7
100
AcDbCircle
 10
1411.4719894508
 20
2873.3338539749
 30
0.0
 40
15.01219982038863
100
AcDbArc
 50
186.6378997225
 51
209.5962223044
  0
ARC
  5
8C
330
1F
100
AcDbEntity
  8
0
  6
Continuous
 62
     7
100
AcDbCircle
 10
1411.4719894508
 20
2873.3338539749
 30
0.0
 40
15.01219982027868
100
AcDbArc
 50
217.1599641065
 51
246.188600533
  0
ARC
  5
8D
330
1F
100
AcDbEntity
  8
0
  6
Continuous
 62
     7
100
AcDbCircle
 10
1411.4719894508
 20
2873.3338539749
 30
0.0
 40
15.01219982041942
100
AcDbArc
 50
157.646180673
 51
186.1886005336
  0
ARC
  5
8E
330
1F
100
AcDbEntity
  8
0
  6
Continuous
 62
     7
100
AcDbCircle
 10
1411.4719894508
 20
2873.3338539749
 30
0.0
 40
15.01219982001907
100
AcDbArc
 50
306.637899722
 51
330.2510383836
  0
ARC
  5
8F
330
1F
100
AcDbEntity
  8
0
  6
Continuous
 62
     7
100
AcDbCircle
 10
1411.4719894508
 20
2873.3338539749
 30
0.0
 40
15.01219982000734
100
AcDbArc
 50
337.1599641068
 51
6.188600534
  0
ARC
  5
90
330
1F
100
AcDbEntity
  8
0
  6
Continuous
 62
     7
100
AcDbCircle
 10
1411.4719894508
 20
2873.3338539749
 30
0.0
 40
15.01219982001482
100
AcDbArc
 50
6.637899723
 51
22.3538193276
  0
ARC
  5
91
330
1F
100
AcDbEntity
  8
0
  6
Continuous
 62
     7
100
AcDbCircle
 10
1411.4719894508
 20
2873.3338539749
 30
0.0
 40
12.48837185327617
100
AcDbArc
 50
337.8511822634
 51
27.2057103106
  0
ARC
  5
92
330
1F
100
AcDbEntity
  8
0
  6
Continuous
 62
     7
100
AcDbCircle
 10
1411.4719894508
 20
2873.3338539749
 30
0.0
 40
12.48837185327607
100
AcDbArc
 50
329.5719197668
 51
337.8511822634
  0
ARC
  5
93
330
1F
100
AcDbEntity
  8
0
  6
Continuous
 62
     7
100
AcDbCircle
 10
1411.4719894508
 20
2873.3338539749
 30
0.0
 40
12.48837185327606
100
AcDbArc
 50
217.8511822628
 51
329.5719197668
  0
ARC
  5
94
330
1F
100
AcDbEntity
  8
0
  6
Continuous
 62
     7
100
AcDbCircle
 10
1411.4719894508
 20
2873.3338539749
 30
0.0
 40
12.4883718532762
100
AcDbArc
 50
209.5719197661
 51
217.8511822628
  0
ARC
  5
95
330
1F
100
AcDbEntity
  8
0
  6
Continuous
 62
     7
100
AcDbCircle
 10
1411.4719894508
 20
2873.3338539749
 30
0.0
 40
12.48837185327624
100
AcDbArc
 50
152.7942896903
 51
209.5719197661
  0
ARC
  5
96
330
1F
100
AcDbEntity
  8
0
  6
Continuous
 62
     7
100
AcDbCircle
 10
1411.4719894508
 20
2873.3338539749
 30
0.0
 40
12.52086811367492
100
AcDbArc
 50
209.5826822932
 51
217.8404197358
  0
ARC
  5
97
330
1F
100
AcDbEntity
  8
0
  6
Continuous
 62
     7
100
AcDbCircle
 10
1411.4719894508
 20
2873.3338539749
 30
0.0
 40
20.03338898142097
100
AcDbArc
 50
211.1323699851
 51
216.2907320451
  0
ARC
  5
98
330
1F
100
AcDbEntity
  8
0
  6
Continuous
 62
     7
100
AcDbCircle
 10
1411.4719894508
 20
2873.3338539749
 30
0.0
 40
12.52086811335955
100
AcDbArc
 50
329.5826822938
 51
337.8404197364
  0
ARC
  5
99
330
1F
100
AcDbEntity
  8
0
  6
Continuous
 62
     7
100
AcDbCircle
 10
1411.4719894508
 20
2873.3338539749
 30
0.0
 40
20.03338898141933
100
AcDbArc
 50
331.1323699635
 51
336.2907320668
  0
ARC
  5
9A
330
1F
100
AcDbEntity
  8
0
  6
Continuous
 62
     7
100
AcDbCircle
 10
1411.4719894508
 20
2873.3338539749
 30
0.0
 40
20.03338898142054
100
AcDbArc
 50
216.2907320451
 51
331.1323699635
  0
ARC
  5
9B
330
1F
100
AcDbEntity
  8
0
  6
Continuous
 62
     7
100
AcDbCircle
 10
1411.4719894508
 20
2873.3338539749
 30
0.0
 40
20.03338898141924
100
AcDbArc
 50
336.2907320668
 51
16.5588485851
  0
ARC
  5
9C
330
1F
100
AcDbEntity
  8
0
  6
Continuous
 62
     7
100
AcDbCircle
 10
1411.4719894508
 20
2873.3338539749
 30
0.0
 40
20.03338898142097
100
AcDbArc
 50
163.4411514153
 51
211.1323699851
  0
ARC
  5
9D
330
1F
100
AcDbEntity
  8
0
  6
Continuous
 62
     7
100
AcDbCircle
 10
1411.4719894508
 20
2873.3338539749
 30
0.0
 40
22.03672787961323
100
AcDbArc
 50
164.9838732491
 51
15.0161267512
  0
ARC
  5
9E
330
1F
100
AcDbEntity
  8
0
  6
Continuous
 62
     7
100
AcDbCircle
 10
1411.4719894508
 20
2873.3338539749
 30
0.0
 40
35.0584307610056
100
AcDbArc
 50
170.4579332353
 51
9.3727740976
  0
ARC
  5
9F
330
1F
100
AcDbEntity
  8
0
  6
Continuous
 62
     7
100
AcDbCircle
 10
1404.9613796188
 20
2873.3899415682
 30
0.0
 40
26.04340567612698
100
AcDbArc
 50
341.9924546756
 51
360.0
  0
ARC
  5
A0
330
1F
100
AcDbEntity
  8
0
  6
Continuous
 62
     7
100
AcDbCircle
 10
1411.4719894508
 20
2873.3338539749
 30
0.0
 40
11.60965106133937
100
AcDbArc
 50
150.5416673382
 51
29.4583326628
  0
ARC
  5
A1
330
1F
100
AcDbEntity
  8
0
  6
Continuous
 62
     7
100
AcDbCircle
 10
1411.4719894508
 20
2873.3338539749
 30
0.0
 40
23.84228590743133
100
AcDbArc
 50
166.1447295037
 51
13.8552704966
  0
LINE
  5
A2
330
1F
100
AcDbEntity
  8
0
  6
Continuous
 62
     7
100
AcDbLine
 10
811.5431390918
 20
4421.5115718037
 30
0.0
 11
809.5398001937
 21
4421.5115718037
 31
0.0
  0
LINE
  5
A3
330
1F
100
AcDbEntity
  8
0
  6
Continuous
 62
     7
100
AcDbLine
 10
2009.5398001937
 20
4421.5115718037
 30
0.0
 11
2011.5431390918
 21
4421.5115718037
 31
0.0
  0
LINE
  5
A4
330
1F
100
AcDbEntity
  8
0
  6
Continuous
 62
     7
100
AcDbLine
 10
2011.5431390918
 20
4421.5115718037
 30
0.0
 11
811.5431390918
 21
4421.5115718037
 31
0.0
  0
LINE
  5
A5
330
1F
100
AcDbEntity
  8
0
  6
Continuous
 62
     7
100
AcDbLine
 10
1434.0269913012
 20
3321.8460864387
 30
0.0
 11
1434.0269913012
 21
3324.8510947859
 31
0.0
  0
LINE
  5
A6
330
1F
100
AcDbEntity
  8
0
  6
Continuous
 62
     7
100
AcDbLine
 10
1319.8366741059
 20
3324.8510947859
 30
0.0
 11
1319.8366741059
 21
3321.8460864387
 31
0.0
  0
LINE
  5
A7
330
1F
100
AcDbEntity
  8
0
  6
Continuous
 62
     7
100
AcDbLine
 10
1418.0002801159
 20
3324.8510947859
 30
0.0
 11
1418.0002801159
 21
3330.8611114804
 31
0.0
  0
LINE
  5
A8
330
1F
100
AcDbEntity
  8
0
  6
Continuous
 62
     7
100
AcDbLine
 10
1335.8633852912
 20
3330.8611114804
 30
0.0
 11
1335.8633852912
 21
3324.8510947859
 31
0.0
  0
LINE
  5
A9
330
1F
100
AcDbEntity
  8
0
  6
Continuous
 62
     7
100
AcDbLine
 10
1325.8466908004
 20
3283.0079364506
 30
0.0
 11
1325.8466908004
 21
3278.7620864633
 31
0.0
  0
LINE
  5
AA
330
1F
100
AcDbEntity
  8
0
  6
Continuous
 62
     7
100
AcDbLine
 10
1428.0169746067
 20
3278.7620864633
 30
0.0
 11
1428.0169746067
 21
3283.0086008455
 31
0.0
  0
LINE
  5
AB
330
1F
100
AcDbEntity
  8
0
  6
Continuous
 62
     7
100
AcDbLine
 10
809.5398001937
 20
3439.4170862348
 30
0.0
 11
2009.5398001937
 21
3439.4170862348
 31
0.0
  0
LINE
  5
AC
330
1F
100
AcDbEntity
  8
0
  6
Continuous
 62
     7
100
AcDbLine
 10
2009.5398001937
 20
3437.4137473366
 30
0.0
 11
2009.5398001937
 21
3439.4170862348
 31
0.0
  0
LINE
  5
AD
330
1F
100
AcDbEntity
  8
0
  6
Continuous
 62
     7
100
AcDbLine
 10
809.5398001937
 20
3437.4137473366
 30
0.0
 11
2009.5398001937
 21
3437.4137473366
 31
0.0
  0
LINE
  5
AE
330
1F
100
AcDbEntity
  8
0
  6
Continuous
 62
     7
100
AcDbLine
 10
809.5398001937
 20
3437.4137473366
 30
0.0
 11
809.5398001937
 21
3439.4170862348
 31
0.0
  0
LINE
  5
AF
330
1F
100
AcDbEntity
  8
0
  6
Continuous
 62
     7
100
AcDbLine
 10
811.5431390918
 20
3332.238455183
 30
0.0
 11
811.5431390918
 21
3337.2468024284
 31
0.0
  0
LINE
  5
B0
330
1F
100
AcDbEntity
  8
0
  6
Continuous
 62
     7
100
AcDbLine
 10
809.5398001937
 20
3332.238455183
 30
0.0
 11
811.5431390918
 21
3332.238455183
 31
0.0
  0
LINE
  5
B1
330
1F
100
AcDbEntity
  8
0
  6
Continuous
 62
     7
100
AcDbLine
 10
809.5398001937
 20
3351.1826382521
 30
0.0
 11
2009.5398001937
 21
3351.1826382521
 31
0.0
  0
LINE
  5
B2
330
1F
100
AcDbEntity
  8
0
  6
Continuous
 62
     7
100
AcDbLine
 10
2011.5431390918
 20
3332.238455183
 30
0.0
 11
2009.5398001937
 21
3332.238455183
 31
0.0
  0
LINE
  5
B3
330
1F
100
AcDbEntity
  8
0
  6
Continuous
 62
     7
100
AcDbLine
 10
2011.5431390918
 20
3337.2468024284
 30
0.0
 11
2011.5431390918
 21
3332.238455183
 31
0.0
  0
LINE
  5
B4
330
1F
100
AcDbEntity
  8
0
  6
Continuous
 62
     7
100
AcDbLine
 10
2011.5431390918
 20
3337.2468024284
 30
0.0
 11
811.5431390918
 21
3337.2468024284
 31
0.0
  0
LINE
  5
B5
330
1F
100
AcDbEntity
  8
0
  6
Continuous
 62
     7
100
AcDbLine
 10
2009.5398001937
 20
3332.238455183
 30
0.0
 11
2009.5398001937
 21
3351.1826382521
 31
0.0
  0
LINE
  5
B6
330
1F
100
AcDbEntity
  8
0
  6
Continuous
 62
     7
100
AcDbLine
 10
809.5398001937
 20
3332.238455183
 30
0.0
 11
809.5398001937
 21
3351.1826382521
 31
0.0
  0
LINE
  5
B7
330
1F
100
AcDbEntity
  8
0
  6
Continuous
 62
     7
100
AcDbLine
 10
2009.5398001937
 20
3351.1826382521
 30
0.0
 11
2009.5398001937
 21
3437.4137473366
 31
0.0
  0
LINE
  5
B8
330
1F
100
AcDbEntity
  8
0
  6
Continuous
 62
     7
100
AcDbLine
 10
809.5398001937
 20
3351.1826382521
 30
0.0
 11
809.5398001937
 21
3437.4137473366
 31
0.0
  0
LINE
  5
B9
330
1F
100
AcDbEntity
  8
0
  6
Continuous
 62
     7
100
AcDbLine
 10
811.5431390918
 20
4266.7497676103
 30
0.0
 11
809.5398001937
 21
4266.7497676103
 31
0.0
  0
LINE
  5
BA
330
1F
100
AcDbEntity
  8
0
  6
Continuous
 62
     7
100
AcDbLine
 10
2011.5431390918
 20
3472.4721780545
 30
0.0
 11
2011.5431390918
 21
4266.7497676103
 31
0.0
  0
LINE
  5
BB
330
1F
100
AcDbEntity
  8
0
  6
Continuous
 62
     7
100
AcDbLine
 10
2011.5431390918
 20
4266.7497676103
 30
0.0
 11
2009.5398001937
 21
4266.7497676103
 31
0.0
  0
LINE
  5
BC
330
1F
100
AcDbEntity
  8
0
  6
Continuous
 62
     7
100
AcDbLine
 10
811.5431390918
 20
3472.4721780545
 30
0.0
 11
2011.5431390918
 21
3472.4721780545
 31
0.0
  0
LINE
  5
BD
330
1F
100
AcDbEntity
  8
0
  6
Continuous
 62
     7
100
AcDbLine
 10
811.5431390918
 20
3472.4721780545
 30
0.0
 11
811.5431390918
 21
4266.7497676103
 31
0.0
  0
LINE
  5
BE
330
1F
100
AcDbEntity
  8
0
  6
Continuous
 62
     7
100
AcDbLine
 10
2009.5398001937
 20
3439.4170862348
 30
0.0
 11
2009.5398001937
 21
4266.7497676103
 31
0.0
  0
LINE
  5
BF
330
1F
100
AcDbEntity
  8
0
  6
Continuous
 62
     7
100
AcDbLine
 10
809.5398001937
 20
3439.4170862348
 30
0.0
 11
809.5398001937
 21
4266.7497676103
 31
0.0
  0
LINE
  5
C0
330
1F
100
AcDbEntity
  8
0
  6
Continuous
 62
     7
100
AcDbLine
 10
811.5431390918
 20
4311.9681575347
 30
0.0
 11
809.5398001937
 21
4311.9681575347
 31
0.0
  0
LINE
  5
C1
330
1F
100
AcDbEntity
  8
0
  6
Continuous
 62
     7
100
AcDbLine
 10
811.5431390918
 20
4266.7497676103
 30
0.0
 11
811.5431390918
 21
4311.9681575347
 31
0.0
  0
LINE
  5
C2
330
1F
100
AcDbEntity
  8
0
  6
Continuous
 62
     7
100
AcDbLine
 10
809.5398001937
 20
4266.7497676103
 30
0.0
 11
809.5398001937
 21
4311.9681575347
 31
0.0
  0
LINE
  5
C3
330
1F
100
AcDbEntity
  8
0
  6
Continuous
 62
     7
100
AcDbLine
 10
2011.5431390918
 20
4311.9681575347
 30
0.0
 11
2009.5398001937
 21
4311.9681575347
 31
0.0
  0
LINE
  5
C4
330
1F
100
AcDbEntity
  8
0
  6
Continuous
 62
     7
100
AcDbLine
 10
2011.5431390918
 20
4266.7497676103
 30
0.0
 11
2011.5431390918
 21
4311.9681575347
 31
0.0
  0
LINE
  5
C5
330
1F
100
AcDbEntity
  8
0
  6
Continuous
 62
     7
100
AcDbLine
 10
2009.5398001937
 20
4266.7497676103
 30
0.0
 11
2009.5398001937
 21
4311.9681575347
 31
0.0
  0
LINE
  5
C6
330
1F
100
AcDbEntity
  8
0
  6
Continuous
 62
     7
100
AcDbLine
 10
1410.761749347
 20
3333.2787674132
 30
0.0
 11
1407.6393249272
 21
3330.8611114804
 31
0.0
  0
LINE
  5
C7
330
1F
100
AcDbEntity
  8
0
  6
Continuous
 62
     7
100
AcDbLine
 10
811.5431390918
 20
3332.238455183
 30
0.0
 11
2009.5398001937
 21
3332.238455183
 31
0.0
  0
LINE
  5
C8
330
1F
100
AcDbEntity
  8
0
  6
Continuous
 62
     7
100
AcDbLine
 10
811.5431390918
 20
4353.9412932465
 30
0.0
 11
2011.5431390918
 21
4353.9412932465
 31
0.0
  0
LINE
  5
C9
330
1F
100
AcDbEntity
  8
0
  6
Continuous
 62
     7
100
AcDbLine
 10
809.5398001937
 20
4421.3656193278
 30
0.0
 11
811.5431390918
 21
4421.3656193278
 31
0.0
  0
LINE
  5
CA
330
1F
100
AcDbEntity
  8
0
  6
Continuous
 62
     7
100
AcDbLine
 10
811.5431390918
 20
4404.0247657006
 30
0.0
 11
2011.5431390918
 21
4404.0247657006
 31
0.0
  0
LINE
  5
CB
330
1F
100
AcDbEntity
  8
0
  6
Continuous
 62
     7
100
AcDbLine
 10
2011.5431390918
 20
4421.3656193278
 30
0.0
 11
2009.5398001937
 21
4421.3656193278
 31
0.0
  0
LINE
  5
CC
330
1F
100
AcDbEntity
  8
0
  6
Continuous
 62
     7
100
AcDbLine
 10
2011.5431390918
 20
4404.0247657006
 30
0.0
 11
2011.5431390918
 21
4421.3656193278
 31
0.0
  0
LINE
  5
CD
330
1F
100
AcDbEntity
  8
0
  6
Continuous
 62
     7
100
AcDbLine
 10
811.5431390918
 20
4404.0247657006
 30
0.0
 11
811.5431390918
 21
4421.3656193278
 31
0.0
  0
LINE
  5
CE
330
1F
100
AcDbEntity
  8
0
  6
Continuous
 62
     7
100
AcDbLine
 10
2011.5431390918
 20
4311.9681575347
 30
0.0
 11
2011.5431390918
 21
4353.9412932465
 31
0.0
  0
LINE
  5
CF
330
1F
100
AcDbEntity
  8
0
  6
Continuous
 62
     7
100
AcDbLine
 10
811.5431390918
 20
4311.9681575347
 30
0.0
 11
811.5431390918
 21
4353.9412932465
 31
0.0
  0
LINE
  5
D0
330
1F
100
AcDbEntity
  8
0
  6
Continuous
 62
     7
100
AcDbLine
 10
2009.5398001937
 20
4311.9681575347
 30
0.0
 11
2009.5398001937
 21
4421.3656193278
 31
0.0
  0
LINE
  5
D1
330
1F
100
AcDbEntity
  8
0
  6
Continuous
 62
     7
100
AcDbLine
 10
809.5398001937
 20
4311.9681575347
 30
0.0
 11
809.5398001937
 21
4421.3656193278
 31
0.0
  0
LINE
  5
D2
330
1F
100
AcDbEntity
  8
0
  6
Continuous
 62
     7
100
AcDbLine
 10
811.5431390918
 20
4298.849473547
 30
0.0
 11
2011.5431390918
 21
4298.849473547
 31
0.0
  0
LINE
  5
D3
330
1F
100
AcDbEntity
  8
0
  6
Continuous
 62
     7
100
AcDbLine
 10
811.5431390918
 20
4421.5115718037
 30
0.0
 11
811.5431390918
 21
4421.3656193278
 31
0.0
  0
LINE
  5
D4
330
1F
100
AcDbEntity
  8
0
  6
Continuous
 62
     7
100
AcDbLine
 10
809.5398001937
 20
4421.3656193278
 30
0.0
 11
809.5398001937
 21
4421.5115718037
 31
0.0
  0
LINE
  5
D5
330
1F
100
AcDbEntity
  8
0
  6
Continuous
 62
     7
100
AcDbLine
 10
2011.5431390918
 20
4421.3656193278
 30
0.0
 11
2011.5431390918
 21
4421.5115718037
 31
0.0
  0
LINE
  5
D6
330
1F
100
AcDbEntity
  8
0
  6
Continuous
 62
     7
100
AcDbLine
 10
2009.5398001937
 20
4421.3656193278
 30
0.0
 11
2009.5398001937
 21
4421.5115718037
 31
0.0
  0
LINE
  5
D7
330
1F
100
AcDbEntity
  8
0
  6
Continuous
 62
     7
100
AcDbLine
 10
811.5431390918
 20
4421.3656193278
 30
0.0
 11
2011.5431390918
 21
4421.3656193278
 31
0.0
  0
LINE
  5
D8
330
1F
100
AcDbEntity
  8
0
  6
Continuous
 62
     7
100
AcDbLine
 10
1319.8366741059
 20
3321.8460864387
 30
0.0
 11
1434.0269913012
 21
3321.8460864387
 31
0.0
  0
LINE
  5
D9
330
1F
100
AcDbEntity
  8
0
  6
Continuous
 62
     7
100
AcDbLine
 10
1319.8366741059
 20
3324.8510947859
 30
0.0
 11
1434.0269913012
 21
3324.8510947859
 31
0.0
  0
LINE
  5
DA
330
1F
100
AcDbEntity
  8
0
  6
Continuous
 62
     7
100
AcDbLine
 10
1328.4111639647
 20
3275.7831528909
 30
0.0
 11
1329.0636713959
 21
3273.9774691526
 31
0.0
  0
LINE
  5
DB
330
1F
100
AcDbEntity
  8
0
  6
Continuous
 62
     7
100
AcDbLine
 10
1329.0636713959
 20
3273.9774691526
 30
0.0
 11
1330.7867742504
 21
3270.6492889782
 31
0.0
  0
LINE
  5
DC
330
1F
100
AcDbEntity
  8
0
  6
Continuous
 62
     7
100
AcDbLine
 10
1330.7867742504
 20
3270.6492889782
 30
0.0
 11
1333.6709051855
 21
3266.5738217492
 31
0.0
  0
LINE
  5
DD
330
1F
100
AcDbEntity
  8
0
  6
Continuous
 62
     7
100
AcDbLine
 10
1333.6709051855
 20
3266.5738217492
 30
0.0
 11
1337.250128044
 21
3262.8212517754
 31
0.0
  0
LINE
  5
DE
330
1F
100
AcDbEntity
  8
0
  6
Continuous
 62
     7
100
AcDbLine
 10
1337.250128044
 20
3262.8212517754
 30
0.0
 11
1341.5244428261
 21
3259.3915790569
 31
0.0
  0
LINE
  5
DF
330
1F
100
AcDbEntity
  8
0
  6
Continuous
 62
     7
100
AcDbLine
 10
1341.5244428261
 20
3259.3915790569
 30
0.0
 11
1346.374294982
 21
3256.3693914426
 31
0.0
  0
LINE
  5
E0
330
1F
100
AcDbEntity
  8
0
  6
Continuous
 62
     7
100
AcDbLine
 10
1346.374294982
 20
3256.3693914426
 30
0.0
 11
1351.6812303287
 21
3253.8384986866
 31
0.0
  0
LINE
  5
E1
330
1F
100
AcDbEntity
  8
0
  6
Continuous
 62
     7
100
AcDbLine
 10
1351.6812303287
 20
3253.8384986866
 30
0.0
 11
1357.4452488664
 21
3251.7989007891
 31
0.0
  0
LINE
  5
E2
330
1F
100
AcDbEntity
  8
0
  6
Continuous
 62
     7
100
AcDbLine
 10
1357.4452488664
 20
3251.7989007891
 30
0.0
 11
1362.151555825
 21
3250.5805495018
 31
0.0
  0
LINE
  5
E3
330
1F
100
AcDbEntity
  8
0
  6
Continuous
 62
     7
100
AcDbLine
 10
1362.151555825
 20
3250.5805495018
 30
0.0
 11
1366.968088784
 21
3249.7102859113
 31
0.0
  0
LINE
  5
E4
330
1F
100
AcDbEntity
  8
0
  6
Continuous
 62
     7
100
AcDbLine
 10
1366.968088784
 20
3249.7102859113
 30
0.0
 11
1371.8948477436
 21
3249.1881100177
 31
0.0
  0
LINE
  5
E5
330
1F
100
AcDbEntity
  8
0
  6
Continuous
 62
     7
100
AcDbLine
 10
1371.8948477436
 20
3249.1881100177
 30
0.0
 11
1376.9318327035
 21
3249.0140218209
 31
0.0
  0
LINE
  5
E6
330
1F
100
AcDbEntity
  8
0
  6
Continuous
 62
     7
100
AcDbLine
 10
1376.9318327035
 20
3249.0140218209
 30
0.0
 11
1381.9683667411
 21
3249.1880434991
 31
0.0
  0
LINE
  5
E7
330
1F
100
AcDbEntity
  8
0
  6
Continuous
 62
     7
100
AcDbLine
 10
1381.9683667411
 20
3249.1880434991
 30
0.0
 11
1386.8949753932
 21
3249.7101972198
 31
0.0
  0
LINE
  5
E8
330
1F
100
AcDbEntity
  8
0
  6
Continuous
 62
     7
100
AcDbLine
 10
1386.8949753932
 20
3249.7101972198
 30
0.0
 11
1391.7116586597
 21
3250.5804829831
 31
0.0
  0
LINE
  5
E9
330
1F
100
AcDbEntity
  8
0
  6
Continuous
 62
     7
100
AcDbLine
 10
1391.7116586597
 20
3250.5804829831
 30
0.0
 11
1396.4184165407
 21
3251.7989007891
 31
0.0
  0
LINE
  5
EA
330
1F
100
AcDbEntity
  8
0
  6
Continuous
 62
     7
100
AcDbLine
 10
1396.4184165407
 20
3251.7989007891
 30
0.0
 11
1402.1819975043
 21
3253.8382892966
 31
0.0
  0
LINE
  5
EB
330
1F
100
AcDbEntity
  8
0
  6
Continuous
 62
     7
100
AcDbLine
 10
1402.1819975043
 20
3253.8382892966
 30
0.0
 11
1407.4889328511
 21
3256.3691820525
 31
0.0
  0
LINE
  5
EC
330
1F
100
AcDbEntity
  8
0
  6
Continuous
 62
     7
100
AcDbLine
 10
1407.4889328511
 20
3256.3691820525
 30
0.0
 11
1412.339222581
 21
3259.3915790569
 31
0.0
  0
LINE
  5
ED
330
1F
100
AcDbEntity
  8
0
  6
Continuous
 62
     7
100
AcDbLine
 10
1412.339222581
 20
3259.3915790569
 30
0.0
 11
1416.6132412397
 21
3262.8209423631
 31
0.0
  0
LINE
  5
EE
330
1F
100
AcDbEntity
  8
0
  6
Continuous
 62
     7
100
AcDbLine
 10
1416.6132412397
 20
3262.8209423631
 30
0.0
 11
1420.1924640982
 21
3266.5735123369
 31
0.0
  0
LINE
  5
EF
330
1F
100
AcDbEntity
  8
0
  6
Continuous
 62
     7
100
AcDbLine
 10
1420.1924640982
 20
3266.5735123369
 30
0.0
 11
1423.0768911564
 21
3270.6492889783
 31
0.0
  0
LINE
  5
F0
330
1F
100
AcDbEntity
  8
0
  6
Continuous
 62
     7
100
AcDbLine
 10
1423.0768911564
 20
3270.6492889783
 30
0.0
 11
1424.7998999336
 21
3273.9771502924
 31
0.0
  0
LINE
  5
F1
330
1F
100
AcDbEntity
  8
0
  6
Continuous
 62
     7
100
AcDbLine
 10
1424.7998999336
 20
3273.9771502924
 30
0.0
 11
1425.4526678359
 21
3275.7835444868
 31
0.0
  0
LINE
  5
F2
330
1F
100
AcDbEntity
  8
0
  6
Continuous
 62
     7
100
AcDbLine
 10
1335.8633852912
 20
3330.8611114804
 30
0.0
 11
1418.0002801159
 21
3330.8611114804
 31
0.0
  0
LINE
  5
F3
330
1F
100
AcDbEntity
  8
0
  6
Continuous
 62
     7
100
AcDbLine
 10
1427.9396814199
 20
3282.442044618
 30
0.0
 11
1427.7371248543
 21
3280.6525394223
 31
0.0
  0
LINE
  5
F4
330
1F
100
AcDbEntity
  8
0
  6
Continuous
 62
     7
100
AcDbLine
 10
1427.7371248543
 20
3280.6525394223
 30
0.0
 11
1427.1121162967
 21
3277.6596748513
 31
0.0
  0
LINE
  5
F5
330
1F
100
AcDbEntity
  8
0
  6
Continuous
 62
     7
100
AcDbLine
 10
1427.1121162967
 20
3277.6596748513
 30
0.0
 11
1426.1351291042
 21
3274.7142879155
 31
0.0
  0
LINE
  5
F6
330
1F
100
AcDbEntity
  8
0
  6
Continuous
 62
     7
100
AcDbLine
 10
1426.1351291042
 20
3274.7142879155
 30
0.0
 11
1424.81301614
 21
3271.8370383879
 31
0.0
  0
LINE
  5
F7
330
1F
100
AcDbEntity
  8
0
  6
Continuous
 62
     7
100
AcDbLine
 10
1424.81301614
 20
3271.8370383879
 30
0.0
 11
1423.1550510766
 21
3269.0481081067
 31
0.0
  0
LINE
  5
F8
330
1F
100
AcDbEntity
  8
0
  6
Continuous
 62
     7
100
AcDbLine
 10
1423.1550510766
 20
3269.0481081067
 30
0.0
 11
1421.1728633476
 21
3266.3670594141
 31
0.0
  0
LINE
  5
F9
330
1F
100
AcDbEntity
  8
0
  6
Continuous
 62
     7
100
AcDbLine
 10
1421.1728633476
 20
3266.3670594141
 30
0.0
 11
1418.8803565758
 21
3263.8126979401
 31
0.0
  0
LINE
  5
FA
330
1F
100
AcDbEntity
  8
0
  6
Continuous
 62
     7
100
AcDbLine
 10
1418.8803565758
 20
3263.8126979401
 30
0.0
 11
1416.293611049
 21
3261.4029406954
 31
0.0
  0
LINE
  5
FB
330
1F
100
AcDbEntity
  8
0
  6
Continuous
 62
     7
100
AcDbLine
 10
1416.293611049
 20
3261.4029406954
 30
0.0
 11
1413.4307709285
 21
3259.1546903954
 31
0.0
  0
LINE
  5
FC
330
1F
100
AcDbEntity
  8
0
  6
Continuous
 62
     7
100
AcDbLine
 10
1413.4307709285
 20
3259.1546903954
 30
0.0
 11
1410.3119169808
 21
3257.0837169008
 31
0.0
  0
LINE
  5
FD
330
1F
100
AcDbEntity
  8
0
  6
Continuous
 62
     7
100
AcDbLine
 10
1410.3119169808
 20
3257.0837169008
 30
0.0
 11
1406.9589257255
 21
3255.2045466026
 31
0.0
  0
LINE
  5
FE
330
1F
100
AcDbEntity
  8
0
  6
Continuous
 62
     7
100
AcDbLine
 10
1406.9589257255
 20
3255.2045466026
 30
0.0
 11
1403.3953159871
 21
3253.5303605302
 31
0.0
  0
LINE
  5
FF
330
1F
100
AcDbEntity
  8
0
  6
Continuous
 62
     7
100
AcDbLine
 10
1403.3953159871
 20
3253.5303605302
 30
0.0
 11
1399.6460839274
 21
3252.0729018961
 31
0.0
  0
LINE
  5
100
330
1F
100
AcDbEntity
  8
0
  6
Continuous
 62
     7
100
AcDbLine
 10
1399.6460839274
 20
3252.0729018961
 30
0.0
 11
1395.7375277155
 21
3250.8423937254
 31
0.0
  0
LINE
  5
101
330
1F
100
AcDbEntity
  8
0
  6
Continuous
 62
     7
100
AcDbLine
 10
1395.7375277155
 20
3250.8423937254
 30
0.0
 11
1391.697063065
 21
3249.8474671487
 31
0.0
  0
LINE
  5
102
330
1F
100
AcDbEntity
  8
0
  6
Continuous
 62
     7
100
AcDbLine
 10
1391.697063065
 20
3249.8474671487
 30
0.0
 11
1387.5530309323
 21
3249.0951008613
 31
0.0
  0
LINE
  5
103
330
1F
100
AcDbEntity
  8
0
  6
Continuous
 62
     7
100
AcDbLine
 10
1387.5530309323
 20
3249.0951008613
 30
0.0
 11
1383.3344987254
 21
3248.5905721719
 31
0.0
  0
LINE
  5
104
330
1F
100
AcDbEntity
  8
0
  6
Continuous
 62
     7
100
AcDbLine
 10
1383.3344987254
 20
3248.5905721719
 30
0.0
 11
1379.0710564166
 21
3248.3374199868
 31
0.0
  0
LINE
  5
105
330
1F
100
AcDbEntity
  8
0
  6
Continuous
 62
     7
100
AcDbLine
 10
1379.0710564166
 20
3248.3374199868
 30
0.0
 11
1374.7926089905
 21
3248.3374199868
 31
0.0
  0
LINE
  5
106
330
1F
100
AcDbEntity
  8
0
  6
Continuous
 62
     7
100
AcDbLine
 10
1374.7926089905
 20
3248.3374199868
 30
0.0
 11
1370.5291666818
 21
3248.5905721719
 31
0.0
  0
LINE
  5
107
330
1F
100
AcDbEntity
  8
0
  6
Continuous
 62
     7
100
AcDbLine
 10
1370.5291666818
 20
3248.5905721719
 30
0.0
 11
1366.3106344748
 21
3249.0951008613
 31
0.0
  0
LINE
  5
108
330
1F
100
AcDbEntity
  8
0
  6
Continuous
 62
     7
100
AcDbLine
 10
1366.3106344748
 20
3249.0951008613
 30
0.0
 11
1362.1666023421
 21
3249.8474671487
 31
0.0
  0
LINE
  5
109
330
1F
100
AcDbEntity
  8
0
  6
Continuous
 62
     7
100
AcDbLine
 10
1362.1666023421
 20
3249.8474671487
 30
0.0
 11
1358.1261376916
 21
3250.8423937254
 31
0.0
  0
LINE
  5
10A
330
1F
100
AcDbEntity
  8
0
  6
Continuous
 62
     7
100
AcDbLine
 10
1358.1261376916
 20
3250.8423937254
 30
0.0
 11
1354.2175814798
 21
3252.0729018961
 31
0.0
  0
LINE
  5
10B
330
1F
100
AcDbEntity
  8
0
  6
Continuous
 62
     7
100
AcDbLine
 10
1354.2175814798
 20
3252.0729018961
 30
0.0
 11
1350.4683494201
 21
3253.5303605302
 31
0.0
  0
LINE
  5
10C
330
1F
100
AcDbEntity
  8
0
  6
Continuous
 62
     7
100
AcDbLine
 10
1350.4683494201
 20
3253.5303605302
 30
0.0
 11
1346.9047396816
 21
3255.2045466026
 31
0.0
  0
LINE
  5
10D
330
1F
100
AcDbEntity
  8
0
  6
Continuous
 62
     7
100
AcDbLine
 10
1346.9047396816
 20
3255.2045466026
 30
0.0
 11
1343.5517484262
 21
3257.0837169008
 31
0.0
  0
LINE
  5
10E
330
1F
100
AcDbEntity
  8
0
  6
Continuous
 62
     7
100
AcDbLine
 10
1343.5517484262
 20
3257.0837169008
 30
0.0
 11
1340.4328944786
 21
3259.1546903954
 31
0.0
  0
LINE
  5
10F
330
1F
100
AcDbEntity
  8
0
  6
Continuous
 62
     7
100
AcDbLine
 10
1340.4328944786
 20
3259.1546903954
 30
0.0
 11
1337.5700543581
 21
3261.4029406954
 31
0.0
  0
LINE
  5
110
330
1F
100
AcDbEntity
  8
0
  6
Continuous
 62
     7
100
AcDbLine
 10
1337.5700543581
 20
3261.4029406954
 30
0.0
 11
1334.9833088313
 21
3263.8126979401
 31
0.0
  0
LINE
  5
111
330
1F
100
AcDbEntity
  8
0
  6
Continuous
 62
     7
100
AcDbLine
 10
1334.9833088313
 20
3263.8126979401
 30
0.0
 11
1332.6908020595
 21
3266.3670594141
 31
0.0
  0
LINE
  5
112
330
1F
100
AcDbEntity
  8
0
  6
Continuous
 62
     7
100
AcDbLine
 10
1332.6908020595
 20
3266.3670594141
 30
0.0
 11
1330.7086143305
 21
3269.0481081067
 31
0.0
  0
LINE
  5
113
330
1F
100
AcDbEntity
  8
0
  6
Continuous
 62
     7
100
AcDbLine
 10
1330.7086143305
 20
3269.0481081067
 30
0.0
 11
1329.050649267
 21
3271.8370383879
 31
0.0
  0
LINE
  5
114
330
1F
100
AcDbEntity
  8
0
  6
Continuous
 62
     7
100
AcDbLine
 10
1329.050649267
 20
3271.8370383879
 30
0.0
 11
1327.7285363029
 21
3274.7142879155
 31
0.0
  0
LINE
  5
115
330
1F
100
AcDbEntity
  8
0
  6
Continuous
 62
     7
100
AcDbLine
 10
1327.7285363029
 20
3274.7142879155
 30
0.0
 11
1326.7515491104
 21
3277.6596748513
 31
0.0
  0
LINE
  5
116
330
1F
100
AcDbEntity
  8
0
  6
Continuous
 62
     7
100
AcDbLine
 10
1326.7515491104
 20
3277.6596748513
 30
0.0
 11
1326.1265405529
 21
3280.6525394223
 31
0.0
  0
LINE
  5
117
330
1F
100
AcDbEntity
  8
0
  6
Continuous
 62
     7
100
AcDbLine
 10
1326.1265405529
 20
3280.6525394223
 30
0.0
 11
1325.9144356301
 21
3282.5686911384
 31
0.0
  0
LINE
  5
118
330
1F
100
AcDbEntity
  8
0
  6
Continuous
 62
     7
100
AcDbLine
 10
1428.0169746067
 20
3278.7620864633
 30
0.0
 11
1428.0057707909
 21
3278.0055907542
 31
0.0
  0
LINE
  5
119
330
1F
100
AcDbEntity
  8
0
  6
Continuous
 62
     7
100
AcDbLine
 10
1428.0057707909
 20
3278.0055907542
 30
0.0
 11
1427.7371248543
 21
3274.9862413427
 31
0.0
  0
LINE
  5
11A
330
1F
100
AcDbEntity
  8
0
  6
Continuous
 62
     7
100
AcDbLine
 10
1427.7371248543
 20
3274.9862413427
 30
0.0
 11
1427.1121162967
 21
3271.9933767717
 31
0.0
  0
LINE
  5
11B
330
1F
100
AcDbEntity
  8
0
  6
Continuous
 62
     7
100
AcDbLine
 10
1427.1121162967
 20
3271.9933767717
 30
0.0
 11
1426.1351291042
 21
3269.0479898358
 31
0.0
  0
LINE
  5
11C
330
1F
100
AcDbEntity
  8
0
  6
Continuous
 62
     7
100
AcDbLine
 10
1426.1351291042
 20
3269.0479898358
 30
0.0
 11
1424.81301614
 21
3266.1707403082
 31
0.0
  0
LINE
  5
11D
330
1F
100
AcDbEntity
  8
0
  6
Continuous
 62
     7
100
AcDbLine
 10
1424.81301614
 20
3266.1707403082
 30
0.0
 11
1423.1550510766
 21
3263.3818100271
 31
0.0
  0
LINE
  5
11E
330
1F
100
AcDbEntity
  8
0
  6
Continuous
 62
     7
100
AcDbLine
 10
1423.1550510766
 20
3263.3818100271
 30
0.0
 11
1421.1728633476
 21
3260.7007613344
 31
0.0
  0
LINE
  5
11F
330
1F
100
AcDbEntity
  8
0
  6
Continuous
 62
     7
100
AcDbLine
 10
1421.1728633476
 20
3260.7007613344
 30
0.0
 11
1418.8803565758
 21
3258.1463998605
 31
0.0
  0
LINE
  5
120
330
1F
100
AcDbEntity
  8
0
  6
Continuous
 62
     7
100
AcDbLine
 10
1418.8803565758
 20
3258.1463998605
 30
0.0
 11
1416.293611049
 21
3255.7366426157
 31
0.0
  0
LINE
  5
121
330
1F
100
AcDbEntity
  8
0
  6
Continuous
 62
     7
100
AcDbLine
 10
1416.293611049
 20
3255.7366426157
 30
0.0
 11
1413.4307709285
 21
3253.4883923158
 31
0.0
  0
LINE
  5
122
330
1F
100
AcDbEntity
  8
0
  6
Continuous
 62
     7
100
AcDbLine
 10
1413.4307709285
 20
3253.4883923158
 30
0.0
 11
1410.3119169808
 21
3251.4174188212
 31
0.0
  0
LINE
  5
123
330
1F
100
AcDbEntity
  8
0
  6
Continuous
 62
     7
100
AcDbLine
 10
1410.3119169808
 20
3251.4174188212
 30
0.0
 11
1406.9589257255
 21
3249.538248523
 31
0.0
  0
LINE
  5
124
330
1F
100
AcDbEntity
  8
0
  6
Continuous
 62
     7
100
AcDbLine
 10
1406.9589257255
 20
3249.538248523
 30
0.0
 11
1403.3953159871
 21
3247.8640624506
 31
0.0
  0
LINE
  5
125
330
1F
100
AcDbEntity
  8
0
  6
Continuous
 62
     7
100
AcDbLine
 10
1403.3953159871
 20
3247.8640624506
 30
0.0
 11
1399.6460839274
 21
3246.4066038165
 31
0.0
  0
LINE
  5
126
330
1F
100
AcDbEntity
  8
0
  6
Continuous
 62
     7
100
AcDbLine
 10
1399.6460839274
 20
3246.4066038165
 30
0.0
 11
1395.7375277155
 21
3245.1760956458
 31
0.0
  0
LINE
  5
127
330
1F
100
AcDbEntity
  8
0
  6
Continuous
 62
     7
100
AcDbLine
 10
1395.7375277155
 20
3245.1760956458
 30
0.0
 11
1391.697063065
 21
3244.1811690691
 31
0.0
  0
LINE
  5
128
330
1F
100
AcDbEntity
  8
0
  6
Continuous
 62
     7
100
AcDbLine
 10
1391.697063065
 20
3244.1811690691
 30
0.0
 11
1387.5530309323
 21
3243.4288027816
 31
0.0
  0
LINE
  5
129
330
1F
100
AcDbEntity
  8
0
  6
Continuous
 62
     7
100
AcDbLine
 10
1387.5530309323
 20
3243.4288027816
 30
0.0
 11
1383.3344987254
 21
3242.9242740922
 31
0.0
  0
LINE
  5
12A
330
1F
100
AcDbEntity
  8
0
  6
Continuous
 62
     7
100
AcDbLine
 10
1383.3344987254
 20
3242.9242740922
 30
0.0
 11
1379.0710564166
 21
3242.6711219072
 31
0.0
  0
LINE
  5
12B
330
1F
100
AcDbEntity
  8
0
  6
Continuous
 62
     7
100
AcDbLine
 10
1379.0710564166
 20
3242.6711219072
 30
0.0
 11
1374.7926089905
 21
3242.6711219072
 31
0.0
  0
LINE
  5
12C
330
1F
100
AcDbEntity
  8
0
  6
Continuous
 62
     7
100
AcDbLine
 10
1374.7926089905
 20
3242.6711219072
 30
0.0
 11
1370.5291666818
 21
3242.9242740922
 31
0.0
  0
LINE
  5
12D
330
1F
100
AcDbEntity
  8
0
  6
Continuous
 62
     7
100
AcDbLine
 10
1370.5291666818
 20
3242.9242740922
 30
0.0
 11
1366.3106344748
 21
3243.4288027816
 31
0.0
  0
LINE
  5
12E
330
1F
100
AcDbEntity
  8
0
  6
Continuous
 62
     7
100
AcDbLine
 10
1366.3106344748
 20
3243.4288027816
 30
0.0
 11
1362.1666023421
 21
3244.1811690691
 31
0.0
  0
LINE
  5
12F
330
1F
100
AcDbEntity
  8
0
  6
Continuous
 62
     7
100
AcDbLine
 10
1362.1666023421
 20
3244.1811690691
 30
0.0
 11
1358.1261376916
 21
3245.1760956458
 31
0.0
  0
LINE
  5
130
330
1F
100
AcDbEntity
  8
0
  6
Continuous
 62
     7
100
AcDbLine
 10
1358.1261376916
 20
3245.1760956458
 30
0.0
 11
1354.2175814798
 21
3246.4066038165
 31
0.0
  0
LINE
  5
131
330
1F
100
AcDbEntity
  8
0
  6
Continuous
 62
     7
100
AcDbLine
 10
1354.2175814798
 20
3246.4066038165
 30
0.0
 11
1350.4683494201
 21
3247.8640624506
 31
0.0
  0
LINE
  5
132
330
1F
100
AcDbEntity
  8
0
  6
Continuous
 62
     7
100
AcDbLine
 10
1350.4683494201
 20
3247.8640624506
 30
0.0
 11
1346.9047396816
 21
3249.538248523
 31
0.0
  0
LINE
  5
133
330
1F
100
AcDbEntity
  8
0
  6
Continuous
 62
     7
100
AcDbLine
 10
1346.9047396816
 20
3249.538248523
 30
0.0
 11
1343.5517484262
 21
3251.4174188212
 31
0.0
  0
LINE
  5
134
330
1F
100
AcDbEntity
  8
0
  6
Continuous
 62
     7
100
AcDbLine
 10
1343.5517484262
 20
3251.4174188212
 30
0.0
 11
1340.4328944786
 21
3253.4883923158
 31
0.0
  0
LINE
  5
135
330
1F
100
AcDbEntity
  8
0
  6
Continuous
 62
     7
100
AcDbLine
 10
1340.4328944786
 20
3253.4883923158
 30
0.0
 11
1337.5700543581
 21
3255.7366426157
 31
0.0
  0
LINE
  5
136
330
1F
100
AcDbEntity
  8
0
  6
Continuous
 62
     7
100
AcDbLine
 10
1337.5700543581
 20
3255.7366426157
 30
0.0
 11
1334.9833088313
 21
3258.1463998605
 31
0.0
  0
LINE
  5
137
330
1F
100
AcDbEntity
  8
0
  6
Continuous
 62
     7
100
AcDbLine
 10
1334.9833088313
 20
3258.1463998605
 30
0.0
 11
1332.6908020595
 21
3260.7007613344
 31
0.0
  0
LINE
  5
138
330
1F
100
AcDbEntity
  8
0
  6
Continuous
 62
     7
100
AcDbLine
 10
1332.6908020595
 20
3260.7007613344
 30
0.0
 11
1330.7086143305
 21
3263.3818100271
 31
0.0
  0
LINE
  5
139
330
1F
100
AcDbEntity
  8
0
  6
Continuous
 62
     7
100
AcDbLine
 10
1330.7086143305
 20
3263.3818100271
 30
0.0
 11
1329.050649267
 21
3266.1707403082
 31
0.0
  0
LINE
  5
13A
330
1F
100
AcDbEntity
  8
0
  6
Continuous
 62
     7
100
AcDbLine
 10
1329.050649267
 20
3266.1707403082
 30
0.0
 11
1327.7285363029
 21
3269.0479898358
 31
0.0
  0
LINE
  5
13B
330
1F
100
AcDbEntity
  8
0
  6
Continuous
 62
     7
100
AcDbLine
 10
1327.7285363029
 20
3269.0479898358
 30
0.0
 11
1326.7515491104
 21
3271.9933767717
 31
0.0
  0
LINE
  5
13C
330
1F
100
AcDbEntity
  8
0
  6
Continuous
 62
     7
100
AcDbLine
 10
1326.7515491104
 20
3271.9933767717
 30
0.0
 11
1326.1265405529
 21
3274.9862413427
 31
0.0
  0
LINE
  5
13D
330
1F
100
AcDbEntity
  8
0
  6
Continuous
 62
     7
100
AcDbLine
 10
1326.1265405529
 20
3274.9862413427
 30
0.0
 11
1325.8578946162
 21
3278.0055907542
 31
0.0
  0
LINE
  5
13E
330
1F
100
AcDbEntity
  8
0
  6
Continuous
 62
     7
100
AcDbLine
 10
1325.8578946162
 20
3278.0055907542
 30
0.0
 11
1325.8466908004
 21
3278.7620864633
 31
0.0
  0
LINE
  5
13F
330
1F
100
AcDbEntity
  8
0
  6
Continuous
 62
     7
100
AcDbLine
 10
2440.3876293372
 20
3298.791366135
 30
0.0
 11
2391.1615800363
 21
3298.791366135
 31
0.0
  0
LINE
  5
140
330
1F
100
AcDbEntity
  8
0
  6
Continuous
 62
     7
100
AcDbLine
 10
2391.1615800363
 20
3268.7412826625
 30
0.0
 11
2440.3876293372
 21
3268.7412826625
 31
0.0
  0
LINE
  5
141
330
1F
100
AcDbEntity
  8
0
  6
Continuous
 62
     7
100
AcDbLine
 10
2597.6497328431
 20
3331.8464579547
 30
0.0
 11
2597.6497328431
 21
3334.8514663019
 31
0.0
  0
LINE
  5
142
330
1F
100
AcDbEntity
  8
0
  6
Continuous
 62
     7
100
AcDbLine
 10
2483.4594156477
 20
3334.8514663019
 30
0.0
 11
2483.4594156477
 21
3331.8464579547
 31
0.0
  0
LINE
  5
143
330
1F
100
AcDbEntity
  8
0
  6
Continuous
 62
     7
100
AcDbLine
 10
2481.7494589387
 20
3330.5514063165
 30
0.0
 11
2476.083160859
 21
3324.8851082369
 31
0.0
  0
LINE
  5
144
330
1F
100
AcDbEntity
  8
0
  6
Continuous
 62
     7
100
AcDbLine
 10
2548.3284613743
 20
3252.6398077216
 30
0.0
 11
2553.9947594539
 21
3258.3061058012
 31
0.0
  0
LINE
  5
145
330
1F
100
AcDbEntity
  8
0
  6
Continuous
 62
     7
100
AcDbLine
 10
2581.6230216577
 20
3334.8514663019
 30
0.0
 11
2581.6230216577
 21
3340.8614829964
 31
0.0
  0
LINE
  5
146
330
1F
100
AcDbEntity
  8
0
  6
Continuous
 62
     7
100
AcDbLine
 10
2499.486126833
 20
3340.8614829964
 30
0.0
 11
2499.486126833
 21
3334.8514663019
 31
0.0
  0
LINE
  5
147
330
1F
100
AcDbEntity
  8
0
  6
Continuous
 62
     7
100
AcDbLine
 10
2457.4160099716
 20
3261.8297634639
 30
0.0
 11
2470.4377128097
 21
3261.8297634639
 31
0.0
  0
LINE
  5
148
330
1F
100
AcDbEntity
  8
0
  6
Continuous
 62
     7
100
AcDbLine
 10
2470.4377128097
 20
3305.7028853337
 30
0.0
 11
2457.4160099716
 21
3305.7028853337
 31
0.0
  0
LINE
  5
149
330
1F
100
AcDbEntity
  8
0
  6
Continuous
 62
     7
100
AcDbLine
 10
2391.1615800363
 20
3268.7412826625
 30
0.0
 11
2391.1615800363
 21
3298.791366135
 31
0.0
  0
LINE
  5
14A
330
1F
100
AcDbEntity
  8
0
  6
Continuous
 62
     7
100
AcDbLine
 10
2623.0447309741
 20
4322.895025081
 30
0.0
 11
2393.3100612088
 21
4432.2924868741
 31
0.0
  0
LINE
  5
14B
330
1F
100
AcDbEntity
  8
0
  6
Continuous
 62
     7
100
AcDbLine
 10
2651.5956367975
 20
3450.3439537811
 30
0.0
 11
2651.5956367975
 21
4277.6766351566
 31
0.0
  0
LINE
  5
14C
330
1F
100
AcDbEntity
  8
0
  6
Continuous
 62
     7
100
AcDbLine
 10
2699.6757703535
 20
3450.3439537811
 30
0.0
 11
2651.5956367975
 21
3450.3439537811
 31
0.0
  0
LINE
  5
14D
330
1F
100
AcDbEntity
  8
0
  6
Continuous
 62
     7
100
AcDbLine
 10
2699.6757703535
 20
3448.3406148829
 30
0.0
 11
2699.6757703535
 21
3450.3439537811
 31
0.0
  0
LINE
  5
14E
330
1F
100
AcDbEntity
  8
0
  6
Continuous
 62
     7
100
AcDbLine
 10
2651.5956367975
 20
3448.3406148829
 30
0.0
 11
2699.6757703535
 21
3448.3406148829
 31
0.0
  0
LINE
  5
14F
330
1F
100
AcDbEntity
  8
0
  6
Continuous
 62
     7
100
AcDbLine
 10
2651.5956367975
 20
3362.1095057984
 30
0.0
 11
2651.5956367975
 21
3448.3406148829
 31
0.0
  0
LINE
  5
150
330
1F
100
AcDbEntity
  8
0
  6
Continuous
 62
     7
100
AcDbLine
 10
2632.6514537284
 20
3343.1653227293
 30
0.0
 11
2651.5956367975
 21
3362.1095057984
 31
0.0
  0
LINE
  5
151
330
1F
100
AcDbEntity
  8
0
  6
Continuous
 62
     7
100
AcDbLine
 10
2391.1615800363
 20
3343.1653227293
 30
0.0
 11
2632.6514537284
 21
3343.1653227293
 31
0.0
  0
LINE
  5
152
330
1F
100
AcDbEntity
  8
0
  6
Continuous
 62
     7
100
AcDbLine
 10
2391.1615800363
 20
4430.9359351763
 30
0.0
 11
2391.1615800363
 21
3343.1653227293
 31
0.0
  0
LINE
  5
153
330
1F
100
AcDbEntity
  8
0
  6
Continuous
 62
     7
100
AcDbLine
 10
2483.4594156477
 20
3331.8464579547
 30
0.0
 11
2597.6497328431
 21
3331.8464579547
 31
0.0
  0
LINE
  5
154
330
1F
100
AcDbEntity
  8
0
  6
Continuous
 62
     7
100
AcDbLine
 10
2483.4594156477
 20
3334.8514663019
 30
0.0
 11
2597.6497328431
 21
3334.8514663019
 31
0.0
  0
LINE
  5
155
330
1F
100
AcDbEntity
  8
0
  6
Continuous
 62
     7
100
AcDbLine
 10
2553.9947594539
 20
3258.3061058012
 30
0.0
 11
2481.7494589387
 21
3330.5514063165
 31
0.0
  0
LINE
  5
156
330
1F
100
AcDbEntity
  8
0
  6
Continuous
 62
     7
100
AcDbLine
 10
2548.3284613743
 20
3252.6398077216
 30
0.0
 11
2476.083160859
 21
3324.8851082369
 31
0.0
  0
LINE
  5
157
330
1F
100
AcDbEntity
  8
0
  6
Continuous
 62
     7
100
AcDbLine
 10
2470.4377128097
 20
3305.645394937
 30
0.0
 11
2470.4377128097
 21
3261.8297634639
 31
0.0
  0
LINE
  5
158
330
1F
100
AcDbEntity
  8
0
  6
Continuous
 62
     7
100
AcDbLine
 10
2499.486126833
 20
3340.8614829964
 30
0.0
 11
2581.6230216577
 21
3340.8614829964
 31
0.0
  0
LINE
  5
159
330
1F
100
AcDbEntity
  8
0
  6
Continuous
 62
     7
100
AcDbLine
 10
2440.3876293372
 20
3305.8030522786
 30
0.0
 11
2440.3876293372
 21
3261.729596519
 31
0.0
  0
LINE
  5
15A
330
1F
100
AcDbEntity
  8
0
  6
Continuous
 62
     7
100
AcDbLine
 10
2457.4160099716
 20
3283.7663243988
 30
0.0
 11
2457.4160099716
 21
3257.7229187226
 31
0.0
  0
LINE
  5
15B
330
1F
100
AcDbEntity
  8
0
  6
Continuous
 62
     7
100
AcDbLine
 10
2457.4160099716
 20
3309.8097300749
 30
0.0
 11
2457.4160099716
 21
3283.7663243988
 31
0.0
  0
LINE
  5
15C
330
1F
100
AcDbEntity
  8
0
  6
Continuous
 62
     7
100
AcDbLine
 10
2456.4143405225
 20
3310.811399524
 30
0.0
 11
2456.4143405225
 21
3256.7212492736
 31
0.0
  0
LINE
  5
15D
330
1F
100
AcDbEntity
  8
0
  6
Continuous
 62
     7
100
AcDbLine
 10
1416.1544814113
 20
2855.2928165191
 30
0.0
 11
1417.3542175223
 21
2856.5952246246
 31
0.0
  0
LINE
  5
15E
330
1F
100
AcDbEntity
  8
0
  6
Continuous
 62
     7
100
AcDbLine
 10
1419.4112570291
 20
2859.2979734667
 30
0.0
 11
1419.8560000038
 21
2859.9933355248
 31
0.0
  0
LINE
  5
15F
330
1F
100
AcDbEntity
  8
0
  6
Continuous
 62
     7
100
AcDbLine
 10
1420.3674459412
 20
2859.8329584169
 30
0.0
 11
1419.8560000038
 21
2859.9933355248
 31
0.0
  0
LINE
  5
160
330
1F
100
AcDbEntity
  8
0
  6
Continuous
 62
     7
100
AcDbLine
 10
1403.2861941552
 20
2859.4403063105
 30
0.0
 11
1404.1107668497
 21
2859.4028286252
 31
0.0
  0
LINE
  5
161
330
1F
100
AcDbEntity
  8
0
  6
Continuous
 62
     7
100
AcDbLine
 10
1404.2275991688
 20
2858.8797148969
 30
0.0
 11
1404.1107668497
 21
2859.4028286252
 31
0.0
  0
LINE
  5
162
330
1F
100
AcDbEntity
  8
0
  6
Continuous
 62
     7
100
AcDbLine
 10
1398.0549269517
 20
2860.2883242291
 30
0.0
 11
1399.9170252446
 21
2859.8703803588
 31
0.0
  0
LINE
  5
163
330
1F
100
AcDbEntity
  8
0
  6
Continuous
 62
     7
100
AcDbLine
 10
1427.2172226047
 20
2873.9243608745
 30
0.0
 11
1427.5970523245
 21
2873.1915211312
 31
0.0
  0
LINE
  5
164
330
1F
100
AcDbEntity
  8
0
  6
Continuous
 62
     7
100
AcDbLine
 10
1427.6118362231
 20
2874.2870974951
 30
0.0
 11
1427.2172226047
 21
2873.9243608745
 31
0.0
  0
LINE
  5
165
330
1F
100
AcDbEntity
  8
0
  6
Continuous
 62
     7
100
AcDbLine
 10
1395.3469265768
 20
2873.4761868187
 30
0.0
 11
1395.7267562966
 21
2872.7433470753
 31
0.0
  0
LINE
  5
166
330
1F
100
AcDbEntity
  8
0
  6
Continuous
 62
     7
100
AcDbLine
 10
1395.3321426782
 20
2872.3806104548
 30
0.0
 11
1395.7267562966
 21
2872.7433470753
 31
0.0
  0
LINE
  5
167
330
1F
100
AcDbEntity
  8
0
  6
Continuous
 62
     7
100
AcDbLine
 10
1393.5112331556
 20
2878.28485535
 30
0.0
 11
1394.0347971729
 21
2876.6090097092
 31
0.0
  0
LINE
  5
168
330
1F
100
AcDbEntity
  8
0
  6
Continuous
 62
     7
100
AcDbLine
 10
1426.061733357
 20
2879.0433698341
 30
0.0
 11
1426.0619281304
 21
2879.0428720973
 31
0.0
  0
LINE
  5
169
330
1F
100
AcDbEntity
  8
0
  6
Continuous
 62
     7
100
AcDbLine
 10
1426.0619281304
 20
2879.0428720973
 30
0.0
 11
1426.7624177619
 21
2876.7488211281
 31
0.0
  0
LINE
  5
16A
330
1F
100
AcDbEntity
  8
0
  6
Continuous
 62
     7
100
AcDbLine
 10
1400.5832893145
 20
2867.1525638457
 30
0.0
 11
1400.6103916005
 21
2867.1706467187
 31
0.0
  0
LINE
  5
16B
330
1F
100
AcDbEntity
  8
0
  6
Continuous
 62
     7
100
AcDbLine
 10
1401.5839789841
 20
2865.6527481085
 30
0.0
 11
1401.61108127
 21
2865.6708309816
 31
0.0
  0
LINE
  5
16C
330
1F
100
AcDbEntity
  8
0
  6
Continuous
 62
     7
100
AcDbLine
 10
1423.0680274934
 20
2868.6111386512
 30
0.0
 11
1423.0388161233
 21
2868.6255684827
 31
0.0
  0
LINE
  5
16D
330
1F
100
AcDbEntity
  8
0
  6
Continuous
 62
     7
100
AcDbLine
 10
1422.2694937988
 20
2866.9946081075
 30
0.0
 11
1422.2402824287
 21
2867.009037939
 31
0.0
  0
LINE
  5
16E
330
1F
100
AcDbEntity
  8
0
  6
Continuous
 62
     7
100
AcDbLine
 10
2011.4719894632
 20
3022.8170635223
 30
0.0
 11
811.4719893917
 21
3020.6003267598
 31
0.0
  0
LINE
  5
16F
330
1F
100
AcDbEntity
  8
0
  6
Continuous
 62
     7
100
AcDbLine
 10
2011.4719894632
 20
3020.6685823498
 30
0.0
 11
2011.4719894632
 21
3022.8170635223
 31
0.0
  0
LINE
  5
170
330
1F
100
AcDbEntity
  8
0
  6
Continuous
 62
     7
100
AcDbLine
 10
2011.4719894632
 20
3020.6685823498
 30
0.0
 11
2011.4719894632
 21
2994.5616798824
 31
0.0
  0
LINE
  5
171
330
1F
100
AcDbEntity
  8
0
  6
Continuous
 62
     7
100
AcDbLine
 10
2011.4719894632
 20
2994.5616798824
 30
0.0
 11
811.4719893917
 21
2994.5616798824
 31
0.0
  0
LINE
  5
172
330
1F
100
AcDbEntity
  8
0
  6
Continuous
 62
     7
100
AcDbLine
 10
811.4719893917
 20
3020.6003267598
 30
0.0
 11
811.4719893917
 21
3022.7488079324
 31
0.0
  0
LINE
  5
173
330
1F
100
AcDbEntity
  8
0
  6
Continuous
 62
     7
100
AcDbLine
 10
2013.4753282898
 20
2790.9247878459
 30
0.0
 11
2011.4719894632
 21
2790.9339125892
 31
0.0
  0
LINE
  5
174
330
1F
100
AcDbEntity
  8
0
  6
Continuous
 62
     7
100
AcDbLine
 10
2013.4753282898
 20
2790.9247878459
 30
0.0
 11
2013.4753244101
 21
2879.0092419892
 31
0.0
  0
LINE
  5
175
330
1F
100
AcDbEntity
  8
0
  6
Continuous
 62
     7
100
AcDbLine
 10
813.4753282898
 20
2879.0092419892
 30
0.0
 11
2013.4753244101
 21
2879.0092419892
 31
0.0
  0
LINE
  5
176
330
1F
100
AcDbEntity
  8
0
  6
Continuous
 62
     7
100
AcDbLine
 10
813.4753282898
 20
2790.86536395
 30
0.0
 11
813.4753282898
 21
2879.0092419892
 31
0.0
  0
LINE
  5
177
330
1F
100
AcDbEntity
  8
0
  6
Continuous
 62
     7
100
AcDbLine
 10
813.4753282898
 20
2790.86536395
 30
0.0
 11
811.4719893917
 21
2790.8656569923
 31
0.0
  0
LINE
  5
178
330
1F
100
AcDbEntity
  8
0
  6
Continuous
 62
     7
100
AcDbLine
 10
2011.4719894632
 20
2790.9339125892
 30
0.0
 11
2011.4719894632
 21
3020.6685823498
 31
0.0
  0
LINE
  5
179
330
1F
100
AcDbEntity
  8
0
  6
Continuous
 62
     7
100
AcDbLine
 10
811.4719893917
 20
2790.8656569923
 30
0.0
 11
811.4719893917
 21
3020.6003267598
 31
0.0
  0
LINE
  5
17A
330
1F
100
AcDbEntity
  8
0
  6
Continuous
 62
     7
100
AcDbLine
 10
2013.4753282898
 20
2762.3147511711
 30
0.0
 11
2011.4719893913
 21
2762.3830066634
 31
0.0
  0
LINE
  5
17B
330
1F
100
AcDbEntity
  8
0
  6
Continuous
 62
     7
100
AcDbLine
 10
2013.4753282898
 20
2762.3147511711
 30
0.0
 11
2013.4753282898
 21
2790.9247878459
 31
0.0
  0
LINE
  5
17C
330
1F
100
AcDbEntity
  8
0
  6
Continuous
 62
     7
100
AcDbLine
 10
2011.4719893913
 20
2762.3830066634
 30
0.0
 11
2011.4719894632
 21
2790.9339125892
 31
0.0
  0
LINE
  5
17D
330
1F
100
AcDbEntity
  8
0
  6
Continuous
 62
     7
100
AcDbLine
 10
813.4753282898
 20
2762.3147511711
 30
0.0
 11
811.4719893917
 21
2762.3147511711
 31
0.0
  0
LINE
  5
17E
330
1F
100
AcDbEntity
  8
0
  6
Continuous
 62
     7
100
AcDbLine
 10
813.4753282898
 20
2762.3147511711
 30
0.0
 11
813.4753282898
 21
2790.86536395
 31
0.0
  0
LINE
  5
17F
330
1F
100
AcDbEntity
  8
0
  6
Continuous
 62
     7
100
AcDbLine
 10
811.4719893917
 20
2762.3147511711
 30
0.0
 11
811.4719893917
 21
2790.8656569923
 31
0.0
  0
LINE
  5
180
330
1F
100
AcDbEntity
  8
0
  6
Continuous
 62
     7
100
AcDbLine
 10
811.4719893917
 20
2790.8656569923
 30
0.0
 11
2011.4719765535
 21
2790.6901246554
 31
0.0
  0
LINE
  5
181
330
1F
100
AcDbEntity
  8
0
  6
Continuous
 62
     7
100
AcDbLine
 10
813.4753282898
 20
2762.3147511711
 30
0.0
 11
2013.4753282898
 21
2762.3147511711
 31
0.0
  0
LINE
  5
182
330
1F
100
AcDbEntity
  8
0
  6
Continuous
 62
     7
100
AcDbLine
 10
811.4720336827
 20
2090.7143888924
 30
0.0
 11
2011.471945219
 21
2090.2536148731
 31
0.0
  0
LINE
  5
183
330
1F
100
AcDbEntity
  8
0
  6
Continuous
 62
     7
100
AcDbLine
 10
2011.471945219
 20
2090.2536148731
 30
0.0
 11
2011.4719893913
 21
2762.3830066634
 31
0.0
  0
LINE
  5
184
330
1F
100
AcDbEntity
  8
0
  6
Continuous
 62
     7
100
AcDbLine
 10
811.4720336827
 20
2090.7143888924
 30
0.0
 11
811.4719893917
 21
2762.3147511711
 31
0.0
  0
LINE
  5
185
330
1F
100
AcDbEntity
  8
0
  6
Continuous
 62
     7
100
AcDbLine
 10
1446.0623782315
 20
2879.0433698412
 30
0.0
 11
2011.4719894632
 21
2790.9339125892
 31
0.0
  0
LINE
  5
186
330
1F
100
AcDbEntity
  8
0
  6
Continuous
 62
     7
100
AcDbLine
 10
1482.8253439006
 20
2879.0433698341
 30
0.0
 11
1446.4209570839
 21
2876.1021071727
 31
0.0
  0
LINE
  5
187
330
1F
100
AcDbEntity
  8
0
  6
Continuous
 62
     7
100
AcDbLine
 10
1376.5230218173
 20
2876.1021071727
 30
0.0
 11
1340.1186350007
 21
2879.0433698341
 31
0.0
  0
LINE
  5
188
330
1F
100
AcDbEntity
  8
0
  6
Continuous
 62
     7
100
AcDbLine
 10
813.4753282898
 20
2790.86536395
 30
0.0
 11
1376.8986216274
 21
2879.1455494907
 31
0.0
  0
LINE
  5
189
330
1F
100
AcDbEntity
  8
0
  6
Continuous
 62
     7
100
AcDbLine
 10
1404.9613796188
 20
2862.1765471996
 30
0.0
 11
1406.0957134566
 21
2862.2429827518
 31
0.0
  0
LINE
  5
18A
330
1F
100
AcDbEntity
  8
0
  6
Continuous
 62
     7
100
AcDbLine
 10
1419.2704770536
 20
2863.7204193263
 30
0.0
 11
1421.0627396659
 21
2864.1065875405
 31
0.0
  0
LINE
  5
18B
330
1F
100
AcDbEntity
  8
0
  6
Continuous
 62
     7
100
AcDbLine
 10
1421.8639344293
 20
2864.3502816748
 30
0.0
 11
1423.8696870505
 21
2864.9893781541
 31
0.0
  0
LINE
  5
18C
330
1F
100
AcDbEntity
  8
0
  6
Continuous
 62
     7
100
AcDbLine
 10
1397.1006994198
 20
2862.6614662898
 30
0.0
 11
1399.8014690606
 21
2862.3785203369
 31
0.0
  0
LINE
  5
18D
330
1F
100
AcDbEntity
  8
0
  6
Continuous
 62
     7
100
AcDbLine
 10
1401.5386183702
 20
2862.2947318654
 30
0.0
 11
1404.9613796188
 21
2862.1765471996
 31
0.0
  0
LINE
  5
18E
330
1F
100
AcDbEntity
  8
0
  6
Continuous
 62
     7
100
AcDbLine
 10
1431.0047852949
 20
2873.3899415682
 30
0.0
 11
1430.8286891026
 21
2876.413396427
 31
0.0
  0
LINE
  5
18F
330
1F
100
AcDbEntity
  8
0
  6
Continuous
 62
     7
100
AcDbLine
 10
1430.8286891026
 20
2876.413396427
 30
0.0
 11
1430.3837659752
 21
2879.0433698341
 31
0.0
  0
LINE
  5
190
330
1F
100
AcDbEntity
  8
0
  6
Continuous
 62
     7
100
AcDbLine
 10
1430.0031158458
 20
2873.3899415682
 30
0.0
 11
1429.8273503036
 21
2876.3517071172
 31
0.0
  0
LINE
  5
191
330
1F
100
AcDbEntity
  8
0
  6
Continuous
 62
     7
100
AcDbLine
 10
1429.8273503036
 20
2876.3517071172
 30
0.0
 11
1429.4961144731
 21
2878.4034571905
 31
0.0
  0
LINE
  5
192
330
1F
100
AcDbEntity
  8
0
  6
Continuous
 62
     7
100
AcDbLine
 10
1429.4060986188
 20
2867.9544778092
 30
0.0
 11
1429.526864962
 21
2868.5293363468
 31
0.0
  0
LINE
  5
193
330
1F
100
AcDbEntity
  8
0
  6
Continuous
 62
     7
100
AcDbLine
 10
1429.7426799525
 20
2869.7877606962
 30
0.0
 11
1429.8273503036
 21
2870.4281760193
 31
0.0
  0
LINE
  5
194
330
1F
100
AcDbEntity
  8
0
  6
Continuous
 62
     7
100
AcDbLine
 10
1429.8273503036
 20
2870.4281760193
 30
0.0
 11
1430.0031158458
 21
2873.3899415682
 31
0.0
  0
LINE
  5
195
330
1F
100
AcDbEntity
  8
0
  6
Continuous
 62
     7
100
AcDbLine
 10
1429.8095091124
 20
2870.282046149
 30
0.0
 11
1429.6318548573
 21
2870.210603481
 31
0.0
  0
LINE
  5
196
330
1F
100
AcDbEntity
  8
0
  6
Continuous
 62
     7
100
AcDbLine
 10
1428.9806189014
 20
2869.954459227
 30
0.0
 11
1427.2302533676
 21
2869.3093560186
 31
0.0
  0
LINE
  5
197
330
1F
100
AcDbEntity
  8
0
  6
Continuous
 62
     7
100
AcDbLine
 10
1427.2302533676
 20
2869.3093560186
 30
0.0
 11
1427.1212115383
 21
2869.2711978122
 31
0.0
  0
LINE
  5
198
330
1F
100
AcDbEntity
  8
0
  6
Continuous
 62
     7
100
AcDbLine
 10
1425.7908088823
 20
2868.8241362979
 30
0.0
 11
1423.7360863132
 21
2868.1985381
 31
0.0
  0
LINE
  5
199
330
1F
100
AcDbEntity
  8
0
  6
Continuous
 62
     7
100
AcDbLine
 10
1397.0312397748
 20
2866.0628103191
 30
0.0
 11
1394.5484401788
 21
2866.3899432394
 31
0.0
  0
LINE
  5
19A
330
1F
100
AcDbEntity
  8
0
  6
Continuous
 62
     7
100
AcDbLine
 10
1394.5484401788
 20
2866.3899432394
 30
0.0
 11
1394.0534601162
 21
2866.4661909508
 31
0.0
  0
LINE
  5
19B
330
1F
100
AcDbEntity
  8
0
  6
Continuous
 62
     7
100
AcDbLine
 10
1429.8285626415
 20
2870.6418948754
 30
0.0
 11
1429.500338803
 21
2870.4992490264
 31
0.0
  0
LINE
  5
19C
330
1F
100
AcDbEntity
  8
0
  6
Continuous
 62
     7
100
AcDbLine
 10
1425.8184315848
 20
2869.1774527282
 30
0.0
 11
1423.4841308377
 21
2868.4055919376
 31
0.0
  0
LINE
  5
19D
330
1F
100
AcDbEntity
  8
0
  6
Continuous
 62
     7
100
AcDbLine
 10
1399.1018775373
 20
2866.1641534529
 30
0.0
 11
1398.3986818979
 21
2866.2257992188
 31
0.0
  0
LINE
  5
19E
330
1F
100
AcDbEntity
  8
0
  6
Continuous
 62
     7
100
AcDbLine
 10
1434.1773833773
 20
3322.447654743
 30
0.0
 11
1434.1773833773
 21
3325.4526630902
 31
0.0
  0
LINE
  5
19F
330
1F
100
AcDbEntity
  8
0
  6
Continuous
 62
     7
100
AcDbLine
 10
1319.9870661819
 20
3325.4526630902
 30
0.0
 11
1319.9870661819
 21
3322.447654743
 31
0.0
  0
LINE
  5
1A0
330
1F
100
AcDbEntity
  8
0
  6
Continuous
 62
     7
100
AcDbLine
 10
1418.150672192
 20
3325.4526630902
 30
0.0
 11
1418.150672192
 21
3331.4626797847
 31
0.0
  0
LINE
  5
1A1
330
1F
100
AcDbEntity
  8
0
  6
Continuous
 62
     7
100
AcDbLine
 10
1336.0137773673
 20
3331.4626797847
 30
0.0
 11
1336.0137773673
 21
3325.4526630902
 31
0.0
  0
LINE
  5
1A2
330
1F
100
AcDbEntity
  8
0
  6
Continuous
 62
     7
100
AcDbLine
 10
1325.9970828764
 20
3283.6095047549
 30
0.0
 11
1325.9970828764
 21
3279.3636547676
 31
0.0
  0
LINE
  5
1A3
330
1F
100
AcDbEntity
  8
0
  6
Continuous
 62
     7
100
AcDbLine
 10
1428.1673666828
 20
3279.3636547676
 30
0.0
 11
1428.1673666828
 21
3283.6101691498
 31
0.0
  0
LINE
  5
1A4
330
1F
100
AcDbEntity
  8
0
  6
Continuous
 62
     7
100
AcDbLine
 10
1319.9870661819
 20
3322.447654743
 30
0.0
 11
1434.1773833773
 21
3322.447654743
 31
0.0
  0
LINE
  5
1A5
330
1F
100
AcDbEntity
  8
0
  6
Continuous
 62
     7
100
AcDbLine
 10
1319.9870661819
 20
3325.4526630902
 30
0.0
 11
1434.1773833773
 21
3325.4526630902
 31
0.0
  0
LINE
  5
1A6
330
1F
100
AcDbEntity
  8
0
  6
Continuous
 62
     7
100
AcDbLine
 10
1328.5615560407
 20
3276.3847211952
 30
0.0
 11
1329.214063472
 21
3274.5790374569
 31
0.0
  0
LINE
  5
1A7
330
1F
100
AcDbEntity
  8
0
  6
Continuous
 62
     7
100
AcDbLine
 10
1329.214063472
 20
3274.5790374569
 30
0.0
 11
1330.9371663265
 21
3271.2508572825
 31
0.0
  0
LINE
  5
1A8
330
1F
100
AcDbEntity
  8
0
  6
Continuous
 62
     7
100
AcDbLine
 10
1330.9371663265
 20
3271.2508572825
 30
0.0
 11
1333.8212972615
 21
3267.1753900534
 31
0.0
  0
LINE
  5
1A9
330
1F
100
AcDbEntity
  8
0
  6
Continuous
 62
     7
100
AcDbLine
 10
1333.8212972615
 20
3267.1753900534
 30
0.0
 11
1337.4005201201
 21
3263.4228200796
 31
0.0
  0
LINE
  5
1AA
330
1F
100
AcDbEntity
  8
0
  6
Continuous
 62
     7
100
AcDbLine
 10
1337.4005201201
 20
3263.4228200796
 30
0.0
 11
1341.6748349022
 21
3259.9931473611
 31
0.0
  0
LINE
  5
1AB
330
1F
100
AcDbEntity
  8
0
  6
Continuous
 62
     7
100
AcDbLine
 10
1341.6748349022
 20
3259.9931473611
 30
0.0
 11
1346.5246870581
 21
3256.9709597468
 31
0.0
  0
LINE
  5
1AC
330
1F
100
AcDbEntity
  8
0
  6
Continuous
 62
     7
100
AcDbLine
 10
1346.5246870581
 20
3256.9709597468
 30
0.0
 11
1351.8316224048
 21
3254.4400669909
 31
0.0
  0
LINE
  5
1AD
330
1F
100
AcDbEntity
  8
0
  6
Continuous
 62
     7
100
AcDbLine
 10
1351.8316224048
 20
3254.4400669909
 30
0.0
 11
1357.5956409425
 21
3252.4004690934
 31
0.0
  0
LINE
  5
1AE
330
1F
100
AcDbEntity
  8
0
  6
Continuous
 62
     7
100
AcDbLine
 10
1357.5956409425
 20
3252.4004690934
 30
0.0
 11
1362.3019479011
 21
3251.1821178061
 31
0.0
  0
LINE
  5
1AF
330
1F
100
AcDbEntity
  8
0
  6
Continuous
 62
     7
100
AcDbLine
 10
1362.3019479011
 20
3251.1821178061
 30
0.0
 11
1367.1184808601
 21
3250.3118542156
 31
0.0
  0
LINE
  5
1B0
330
1F
100
AcDbEntity
  8
0
  6
Continuous
 62
     7
100
AcDbLine
 10
1367.1184808601
 20
3250.3118542156
 30
0.0
 11
1372.0452398196
 21
3249.789678322
 31
0.0
  0
LINE
  5
1B1
330
1F
100
AcDbEntity
  8
0
  6
Continuous
 62
     7
100
AcDbLine
 10
1372.0452398196
 20
3249.789678322
 30
0.0
 11
1377.0822247796
 21
3249.6155901252
 31
0.0
  0
LINE
  5
1B2
330
1F
100
AcDbEntity
  8
0
  6
Continuous
 62
     7
100
AcDbLine
 10
1377.0822247796
 20
3249.6155901252
 30
0.0
 11
1382.1187588172
 21
3249.7896118033
 31
0.0
  0
LINE
  5
1B3
330
1F
100
AcDbEntity
  8
0
  6
Continuous
 62
     7
100
AcDbLine
 10
1382.1187588172
 20
3249.7896118033
 30
0.0
 11
1387.0453674693
 21
3250.3117655241
 31
0.0
  0
LINE
  5
1B4
330
1F
100
AcDbEntity
  8
0
  6
Continuous
 62
     7
100
AcDbLine
 10
1387.0453674693
 20
3250.3117655241
 30
0.0
 11
1391.8620507358
 21
3251.1820512874
 31
0.0
  0
LINE
  5
1B5
330
1F
100
AcDbEntity
  8
0
  6
Continuous
 62
     7
100
AcDbLine
 10
1391.8620507358
 20
3251.1820512874
 30
0.0
 11
1396.5688086168
 21
3252.4004690934
 31
0.0
  0
LINE
  5
1B6
330
1F
100
AcDbEntity
  8
0
  6
Continuous
 62
     7
100
AcDbLine
 10
1396.5688086168
 20
3252.4004690934
 30
0.0
 11
1402.3323895804
 21
3254.4398576009
 31
0.0
  0
LINE
  5
1B7
330
1F
100
AcDbEntity
  8
0
  6
Continuous
 62
     7
100
AcDbLine
 10
1402.3323895804
 20
3254.4398576009
 30
0.0
 11
1407.6393249272
 21
3256.9707503568
 31
0.0
  0
LINE
  5
1B8
330
1F
100
AcDbEntity
  8
0
  6
Continuous
 62
     7
100
AcDbLine
 10
1407.6393249272
 20
3256.9707503568
 30
0.0
 11
1412.4896146571
 21
3259.9931473611
 31
0.0
  0
LINE
  5
1B9
330
1F
100
AcDbEntity
  8
0
  6
Continuous
 62
     7
100
AcDbLine
 10
1412.4896146571
 20
3259.9931473611
 30
0.0
 11
1416.7636333158
 21
3263.4225106674
 31
0.0
  0
LINE
  5
1BA
330
1F
100
AcDbEntity
  8
0
  6
Continuous
 62
     7
100
AcDbLine
 10
1416.7636333158
 20
3263.4225106674
 30
0.0
 11
1420.3428561742
 21
3267.1750806411
 31
0.0
  0
LINE
  5
1BB
330
1F
100
AcDbEntity
  8
0
  6
Continuous
 62
     7
100
AcDbLine
 10
1420.3428561742
 20
3267.1750806411
 30
0.0
 11
1423.2272832325
 21
3271.2508572826
 31
0.0
  0
LINE
  5
1BC
330
1F
100
AcDbEntity
  8
0
  6
Continuous
 62
     7
100
AcDbLine
 10
1423.2272832325
 20
3271.2508572826
 30
0.0
 11
1424.9502920097
 21
3274.5787185966
 31
0.0
  0
LINE
  5
1BD
330
1F
100
AcDbEntity
  8
0
  6
Continuous
 62
     7
100
AcDbLine
 10
1424.9502920097
 20
3274.5787185966
 30
0.0
 11
1425.603059912
 21
3276.3851127911
 31
0.0
  0
LINE
  5
1BE
330
1F
100
AcDbEntity
  8
0
  6
Continuous
 62
     7
100
AcDbLine
 10
1428.090073496
 20
3283.0436129223
 30
0.0
 11
1427.8875169303
 21
3281.2541077266
 31
0.0
  0
LINE
  5
1BF
330
1F
100
AcDbEntity
  8
0
  6
Continuous
 62
     7
100
AcDbLine
 10
1427.8875169303
 20
3281.2541077266
 30
0.0
 11
1427.2625083727
 21
3278.2612431556
 31
0.0
  0
LINE
  5
1C0
330
1F
100
AcDbEntity
  8
0
  6
Continuous
 62
     7
100
AcDbLine
 10
1427.2625083727
 20
3278.2612431556
 30
0.0
 11
1426.2855211803
 21
3275.3158562197
 31
0.0
  0
LINE
  5
1C1
330
1F
100
AcDbEntity
  8
0
  6
Continuous
 62
     7
100
AcDbLine
 10
1426.2855211803
 20
3275.3158562197
 30
0.0
 11
1424.9634082161
 21
3272.4386066922
 31
0.0
  0
LINE
  5
1C2
330
1F
100
AcDbEntity
  8
0
  6
Continuous
 62
     7
100
AcDbLine
 10
1424.9634082161
 20
3272.4386066922
 30
0.0
 11
1423.3054431527
 21
3269.649676411
 31
0.0
  0
LINE
  5
1C3
330
1F
100
AcDbEntity
  8
0
  6
Continuous
 62
     7
100
AcDbLine
 10
1423.3054431527
 20
3269.649676411
 30
0.0
 11
1421.3232554237
 21
3266.9686277183
 31
0.0
  0
LINE
  5
1C4
330
1F
100
AcDbEntity
  8
0
  6
Continuous
 62
     7
100
AcDbLine
 10
1421.3232554237
 20
3266.9686277183
 30
0.0
 11
1419.0307486519
 21
3264.4142662444
 31
0.0
  0
LINE
  5
1C5
330
1F
100
AcDbEntity
  8
0
  6
Continuous
 62
     7
100
AcDbLine
 10
1419.0307486519
 20
3264.4142662444
 30
0.0
 11
1416.4440031251
 21
3262.0045089996
 31
0.0
  0
LINE
  5
1C6
330
1F
100
AcDbEntity
  8
0
  6
Continuous
 62
     7
100
AcDbLine
 10
1416.4440031251
 20
3262.0045089996
 30
0.0
 11
1413.5811630046
 21
3259.7562586997
 31
0.0
  0
LINE
  5
1C7
330
1F
100
AcDbEntity
  8
0
  6
Continuous
 62
     7
100
AcDbLine
 10
1413.5811630046
 20
3259.7562586997
 30
0.0
 11
1410.4623090569
 21
3257.6852852051
 31
0.0
  0
LINE
  5
1C8
330
1F
100
AcDbEntity
  8
0
  6
Continuous
 62
     7
100
AcDbLine
 10
1410.4623090569
 20
3257.6852852051
 30
0.0
 11
1407.1093178016
 21
3255.8061149069
 31
0.0
  0
LINE
  5
1C9
330
1F
100
AcDbEntity
  8
0
  6
Continuous
 62
     7
100
AcDbLine
 10
1407.1093178016
 20
3255.8061149069
 30
0.0
 11
1403.5457080631
 21
3254.1319288345
 31
0.0
  0
LINE
  5
1CA
330
1F
100
AcDbEntity
  8
0
  6
Continuous
 62
     7
100
AcDbLine
 10
1403.5457080631
 20
3254.1319288345
 30
0.0
 11
1399.7964760034
 21
3252.6744702004
 31
0.0
  0
LINE
  5
1CB
330
1F
100
AcDbEntity
  8
0
  6
Continuous
 62
     7
100
AcDbLine
 10
1399.7964760034
 20
3252.6744702004
 30
0.0
 11
1395.8879197916
 21
3251.4439620297
 31
0.0
  0
LINE
  5
1CC
330
1F
100
AcDbEntity
  8
0
  6
Continuous
 62
     7
100
AcDbLine
 10
1395.8879197916
 20
3251.4439620297
 30
0.0
 11
1391.8474551411
 21
3250.449035453
 31
0.0
  0
LINE
  5
1CD
330
1F
100
AcDbEntity
  8
0
  6
Continuous
 62
     7
100
AcDbLine
 10
1391.8474551411
 20
3250.449035453
 30
0.0
 11
1387.7034230084
 21
3249.6966691656
 31
0.0
  0
LINE
  5
1CE
330
1F
100
AcDbEntity
  8
0
  6
Continuous
 62
     7
100
AcDbLine
 10
1387.7034230084
 20
3249.6966691656
 30
0.0
 11
1383.4848908014
 21
3249.1921404762
 31
0.0
  0
LINE
  5
1CF
330
1F
100
AcDbEntity
  8
0
  6
Continuous
 62
     7
100
AcDbLine
 10
1383.4848908014
 20
3249.1921404762
 30
0.0
 11
1379.2214484927
 21
3248.9389882911
 31
0.0
  0
LINE
  5
1D0
330
1F
100
AcDbEntity
  8
0
  6
Continuous
 62
     7
100
AcDbLine
 10
1379.2214484927
 20
3248.9389882911
 30
0.0
 11
1374.9430010666
 21
3248.9389882911
 31
0.0
  0
LINE
  5
1D1
330
1F
100
AcDbEntity
  8
0
  6
Continuous
 62
     7
100
AcDbLine
 10
1374.9430010666
 20
3248.9389882911
 30
0.0
 11
1370.6795587578
 21
3249.1921404762
 31
0.0
  0
LINE
  5
1D2
330
1F
100
AcDbEntity
  8
0
  6
Continuous
 62
     7
100
AcDbLine
 10
1370.6795587578
 20
3249.1921404762
 30
0.0
 11
1366.4610265509
 21
3249.6966691656
 31
0.0
  0
LINE
  5
1D3
330
1F
100
AcDbEntity
  8
0
  6
Continuous
 62
     7
100
AcDbLine
 10
1366.4610265509
 20
3249.6966691656
 30
0.0
 11
1362.3169944182
 21
3250.449035453
 31
0.0
  0
LINE
  5
1D4
330
1F
100
AcDbEntity
  8
0
  6
Continuous
 62
     7
100
AcDbLine
 10
1362.3169944182
 20
3250.449035453
 30
0.0
 11
1358.2765297677
 21
3251.4439620297
 31
0.0
  0
LINE
  5
1D5
330
1F
100
AcDbEntity
  8
0
  6
Continuous
 62
     7
100
AcDbLine
 10
1358.2765297677
 20
3251.4439620297
 30
0.0
 11
1354.3679735558
 21
3252.6744702004
 31
0.0
  0
LINE
  5
1D6
330
1F
100
AcDbEntity
  8
0
  6
Continuous
 62
     7
100
AcDbLine
 10
1354.3679735558
 20
3252.6744702004
 30
0.0
 11
1350.6187414961
 21
3254.1319288345
 31
0.0
  0
LINE
  5
1D7
330
1F
100
AcDbEntity
  8
0
  6
Continuous
 62
     7
100
AcDbLine
 10
1350.6187414961
 20
3254.1319288345
 30
0.0
 11
1347.0551317577
 21
3255.8061149069
 31
0.0
  0
LINE
  5
1D8
330
1F
100
AcDbEntity
  8
0
  6
Continuous
 62
     7
100
AcDbLine
 10
1347.0551317577
 20
3255.8061149069
 30
0.0
 11
1343.7021405023
 21
3257.6852852051
 31
0.0
  0
LINE
  5
1D9
330
1F
100
AcDbEntity
  8
0
  6
Continuous
 62
     7
100
AcDbLine
 10
1343.7021405023
 20
3257.6852852051
 30
0.0
 11
1340.5832865546
 21
3259.7562586997
 31
0.0
  0
LINE
  5
1DA
330
1F
100
AcDbEntity
  8
0
  6
Continuous
 62
     7
100
AcDbLine
 10
1340.5832865546
 20
3259.7562586997
 30
0.0
 11
1337.7204464341
 21
3262.0045089996
 31
0.0
  0
LINE
  5
1DB
330
1F
100
AcDbEntity
  8
0
  6
Continuous
 62
     7
100
AcDbLine
 10
1337.7204464341
 20
3262.0045089996
 30
0.0
 11
1335.1337009074
 21
3264.4142662444
 31
0.0
  0
LINE
  5
1DC
330
1F
100
AcDbEntity
  8
0
  6
Continuous
 62
     7
100
AcDbLine
 10
1335.1337009074
 20
3264.4142662444
 30
0.0
 11
1332.8411941355
 21
3266.9686277183
 31
0.0
  0
LINE
  5
1DD
330
1F
100
AcDbEntity
  8
0
  6
Continuous
 62
     7
100
AcDbLine
 10
1332.8411941355
 20
3266.9686277183
 30
0.0
 11
1330.8590064066
 21
3269.649676411
 31
0.0
  0
LINE
  5
1DE
330
1F
100
AcDbEntity
  8
0
  6
Continuous
 62
     7
100
AcDbLine
 10
1330.8590064066
 20
3269.649676411
 30
0.0
 11
1329.2010413431
 21
3272.4386066922
 31
0.0
  0
LINE
  5
1DF
330
1F
100
AcDbEntity
  8
0
  6
Continuous
 62
     7
100
AcDbLine
 10
1329.2010413431
 20
3272.4386066922
 30
0.0
 11
1327.878928379
 21
3275.3158562197
 31
0.0
  0
LINE
  5
1E0
330
1F
100
AcDbEntity
  8
0
  6
Continuous
 62
     7
100
AcDbLine
 10
1327.878928379
 20
3275.3158562197
 30
0.0
 11
1326.9019411865
 21
3278.2612431556
 31
0.0
  0
LINE
  5
1E1
330
1F
100
AcDbEntity
  8
0
  6
Continuous
 62
     7
100
AcDbLine
 10
1326.9019411865
 20
3278.2612431556
 30
0.0
 11
1326.2769326289
 21
3281.2541077266
 31
0.0
  0
LINE
  5
1E2
330
1F
100
AcDbEntity
  8
0
  6
Continuous
 62
     7
100
AcDbLine
 10
1326.2769326289
 20
3281.2541077266
 30
0.0
 11
1326.0648277062
 21
3283.1702594427
 31
0.0
  0
LINE
  5
1E3
330
1F
100
AcDbEntity
  8
0
  6
Continuous
 62
     7
100
AcDbLine
 10
1428.1673666828
 20
3279.3636547676
 30
0.0
 11
1428.156162867
 21
3278.6071590585
 31
0.0
  0
LINE
  5
1E4
330
1F
100
AcDbEntity
  8
0
  6
Continuous
 62
     7
100
AcDbLine
 10
1428.156162867
 20
3278.6071590585
 30
0.0
 11
1427.8875169303
 21
3275.587809647
 31
0.0
  0
LINE
  5
1E5
330
1F
100
AcDbEntity
  8
0
  6
Continuous
 62
     7
100
AcDbLine
 10
1427.8875169303
 20
3275.587809647
 30
0.0
 11
1427.2625083727
 21
3272.5949450759
 31
0.0
  0
LINE
  5
1E6
330
1F
100
AcDbEntity
  8
0
  6
Continuous
 62
     7
100
AcDbLine
 10
1427.2625083727
 20
3272.5949450759
 30
0.0
 11
1426.2855211803
 21
3269.6495581401
 31
0.0
  0
LINE
  5
1E7
330
1F
100
AcDbEntity
  8
0
  6
Continuous
 62
     7
100
AcDbLine
 10
1426.2855211803
 20
3269.6495581401
 30
0.0
 11
1424.9634082161
 21
3266.7723086125
 31
0.0
  0
LINE
  5
1E8
330
1F
100
AcDbEntity
  8
0
  6
Continuous
 62
     7
100
AcDbLine
 10
1424.9634082161
 20
3266.7723086125
 30
0.0
 11
1423.3054431527
 21
3263.9833783314
 31
0.0
  0
LINE
  5
1E9
330
1F
100
AcDbEntity
  8
0
  6
Continuous
 62
     7
100
AcDbLine
 10
1423.3054431527
 20
3263.9833783314
 30
0.0
 11
1421.3232554237
 21
3261.3023296387
 31
0.0
  0
LINE
  5
1EA
330
1F
100
AcDbEntity
  8
0
  6
Continuous
 62
     7
100
AcDbLine
 10
1421.3232554237
 20
3261.3023296387
 30
0.0
 11
1419.0307486519
 21
3258.7479681648
 31
0.0
  0
LINE
  5
1EB
330
1F
100
AcDbEntity
  8
0
  6
Continuous
 62
     7
100
AcDbLine
 10
1419.0307486519
 20
3258.7479681648
 30
0.0
 11
1416.4440031251
 21
3256.33821092
 31
0.0
  0
LINE
  5
1EC
330
1F
100
AcDbEntity
  8
0
  6
Continuous
 62
     7
100
AcDbLine
 10
1416.4440031251
 20
3256.33821092
 30
0.0
 11
1413.5811630046
 21
3254.0899606201
 31
0.0
  0
LINE
  5
1ED
330
1F
100
AcDbEntity
  8
0
  6
Continuous
 62
     7
100
AcDbLine
 10
1413.5811630046
 20
3254.0899606201
 30
0.0
 11
1410.4623090569
 21
3252.0189871255
 31
0.0
  0
LINE
  5
1EE
330
1F
100
AcDbEntity
  8
0
  6
Continuous
 62
     7
100
AcDbLine
 10
1410.4623090569
 20
3252.0189871255
 30
0.0
 11
1407.1093178016
 21
3250.1398168273
 31
0.0
  0
LINE
  5
1EF
330
1F
100
AcDbEntity
  8
0
  6
Continuous
 62
     7
100
AcDbLine
 10
1407.1093178016
 20
3250.1398168273
 30
0.0
 11
1403.5457080631
 21
3248.4656307549
 31
0.0
  0
LINE
  5
1F0
330
1F
100
AcDbEntity
  8
0
  6
Continuous
 62
     7
100
AcDbLine
 10
1403.5457080631
 20
3248.4656307549
 30
0.0
 11
1399.7964760034
 21
3247.0081721208
 31
0.0
  0
LINE
  5
1F1
330
1F
100
AcDbEntity
  8
0
  6
Continuous
 62
     7
100
AcDbLine
 10
1399.7964760034
 20
3247.0081721208
 30
0.0
 11
1395.8879197916
 21
3245.77766395
 31
0.0
  0
LINE
  5
1F2
330
1F
100
AcDbEntity
  8
0
  6
Continuous
 62
     7
100
AcDbLine
 10
1395.8879197916
 20
3245.77766395
 30
0.0
 11
1391.8474551411
 21
3244.7827373734
 31
0.0
  0
LINE
  5
1F3
330
1F
100
AcDbEntity
  8
0
  6
Continuous
 62
     7
100
AcDbLine
 10
1391.8474551411
 20
3244.7827373734
 30
0.0
 11
1387.7034230084
 21
3244.0303710859
 31
0.0
  0
LINE
  5
1F4
330
1F
100
AcDbEntity
  8
0
  6
Continuous
 62
     7
100
AcDbLine
 10
1387.7034230084
 20
3244.0303710859
 30
0.0
 11
1383.4848908014
 21
3243.5258423965
 31
0.0
  0
LINE
  5
1F5
330
1F
100
AcDbEntity
  8
0
  6
Continuous
 62
     7
100
AcDbLine
 10
1383.4848908014
 20
3243.5258423965
 30
0.0
 11
1379.2214484927
 21
3243.2726902115
 31
0.0
  0
LINE
  5
1F6
330
1F
100
AcDbEntity
  8
0
  6
Continuous
 62
     7
100
AcDbLine
 10
1379.2214484927
 20
3243.2726902115
 30
0.0
 11
1374.9430010666
 21
3243.2726902115
 31
0.0
  0
LINE
  5
1F7
330
1F
100
AcDbEntity
  8
0
  6
Continuous
 62
     7
100
AcDbLine
 10
1374.9430010666
 20
3243.2726902115
 30
0.0
 11
1370.6795587578
 21
3243.5258423965
 31
0.0
  0
LINE
  5
1F8
330
1F
100
AcDbEntity
  8
0
  6
Continuous
 62
     7
100
AcDbLine
 10
1370.6795587578
 20
3243.5258423965
 30
0.0
 11
1366.4610265509
 21
3244.0303710859
 31
0.0
  0
LINE
  5
1F9
330
1F
100
AcDbEntity
  8
0
  6
Continuous
 62
     7
100
AcDbLine
 10
1366.4610265509
 20
3244.0303710859
 30
0.0
 11
1362.3169944182
 21
3244.7827373734
 31
0.0
  0
LINE
  5
1FA
330
1F
100
AcDbEntity
  8
0
  6
Continuous
 62
     7
100
AcDbLine
 10
1362.3169944182
 20
3244.7827373734
 30
0.0
 11
1358.2765297677
 21
3245.77766395
 31
0.0
  0
LINE
  5
1FB
330
1F
100
AcDbEntity
  8
0
  6
Continuous
 62
     7
100
AcDbLine
 10
1358.2765297677
 20
3245.77766395
 30
0.0
 11
1354.3679735558
 21
3247.0081721208
 31
0.0
  0
LINE
  5
1FC
330
1F
100
AcDbEntity
  8
0
  6
Continuous
 62
     7
100
AcDbLine
 10
1354.3679735558
 20
3247.0081721208
 30
0.0
 11
1350.6187414961
 21
3248.4656307549
 31
0.0
  0
LINE
  5
1FD
330
1F
100
AcDbEntity
  8
0
  6
Continuous
 62
     7
100
AcDbLine
 10
1350.6187414961
 20
3248.4656307549
 30
0.0
 11
1347.0551317577
 21
3250.1398168273
 31
0.0
  0
LINE
  5
1FE
330
1F
100
AcDbEntity
  8
0
  6
Continuous
 62
     7
100
AcDbLine
 10
1347.0551317577
 20
3250.1398168273
 30
0.0
 11
1343.7021405023
 21
3252.0189871255
 31
0.0
  0
LINE
  5
1FF
330
1F
100
AcDbEntity
  8
0
  6
Continuous
 62
     7
100
AcDbLine
 10
1343.7021405023
 20
3252.0189871255
 30
0.0
 11
1340.5832865546
 21
3254.0899606201
 31
0.0
  0
LINE
  5
200
330
1F
100
AcDbEntity
  8
0
  6
Continuous
 62
     7
100
AcDbLine
 10
1340.5832865546
 20
3254.0899606201
 30
0.0
 11
1337.7204464341
 21
3256.33821092
 31
0.0
  0
LINE
  5
201
330
1F
100
AcDbEntity
  8
0
  6
Continuous
 62
     7
100
AcDbLine
 10
1337.7204464341
 20
3256.33821092
 30
0.0
 11
1335.1337009074
 21
3258.7479681648
 31
0.0
  0
LINE
  5
202
330
1F
100
AcDbEntity
  8
0
  6
Continuous
 62
     7
100
AcDbLine
 10
1335.1337009074
 20
3258.7479681648
 30
0.0
 11
1332.8411941355
 21
3261.3023296387
 31
0.0
  0
LINE
  5
203
330
1F
100
AcDbEntity
  8
0
  6
Continuous
 62
     7
100
AcDbLine
 10
1332.8411941355
 20
3261.3023296387
 30
0.0
 11
1330.8590064066
 21
3263.9833783314
 31
0.0
  0
LINE
  5
204
330
1F
100
AcDbEntity
  8
0
  6
Continuous
 62
     7
100
AcDbLine
 10
1330.8590064066
 20
3263.9833783314
 30
0.0
 11
1329.2010413431
 21
3266.7723086125
 31
0.0
  0
LINE
  5
205
330
1F
100
AcDbEntity
  8
0
  6
Continuous
 62
     7
100
AcDbLine
 10
1329.2010413431
 20
3266.7723086125
 30
0.0
 11
1327.878928379
 21
3269.6495581401
 31
0.0
  0
LINE
  5
206
330
1F
100
AcDbEntity
  8
0
  6
Continuous
 62
     7
100
AcDbLine
 10
1327.878928379
 20
3269.6495581401
 30
0.0
 11
1326.9019411865
 21
3272.5949450759
 31
0.0
  0
LINE
  5
207
330
1F
100
AcDbEntity
  8
0
  6
Continuous
 62
     7
100
AcDbLine
 10
1326.9019411865
 20
3272.5949450759
 30
0.0
 11
1326.2769326289
 21
3275.587809647
 31
0.0
  0
LINE
  5
208
330
1F
100
AcDbEntity
  8
0
  6
Continuous
 62
     7
100
AcDbLine
 10
1326.2769326289
 20
3275.587809647
 30
0.0
 11
1326.0082866923
 21
3278.6071590585
 31
0.0
  0
LINE
  5
209
330
1F
100
AcDbEntity
  8
0
  6
Continuous
 62
     7
100
AcDbLine
 10
1326.0082866923
 20
3278.6071590585
 30
0.0
 11
1325.9970828764
 21
3279.3636547676
 31
0.0
  0
LWPOLYLINE
  5
20A
330
1F
100
AcDbEntity
  8
0
  6
Continuous
 62
     7
100
AcDbPolyline
 90
        5
 70
   128
 43
0.0
 10
1321.8393325806
 20
3321.8460864387
 10
1321.4743816849
 20
3305.1532127548
 10
1322.7186351999
 20
3294.4230927136
 10
1325.3603832247
 20
3284.4897158472
 10
1328.366763933
 20
3275.7479050631
  0
LWPOLYLINE
  5
20B
330
1F
100
AcDbEntity
  8
0
  6
Continuous
 62
     7
100
AcDbPolyline
 90
        5
 70
   128
 43
0.0
 10
1425.4970550537
 20
3275.7483395482
 10
1430.0473685261
 20
3289.7412976278
 10
1432.0460282212
 20
3300.2504080927
 10
1432.4397293861
 20
3311.0606521983
 10
1432.0236335206
 20
3321.8460864387
  0
LWPOLYLINE
  5
20C
330
1F
100
AcDbEntity
  8
0
  6
Continuous
 62
     7
100
AcDbPolyline
 90
        3
 70
   128
 43
0.0
 10
1356.1229705811
 20
3333.2787674132
 10
1388.6112297669
 20
3334.7146229067
 10
1410.761749347
 20
3333.2787674132
  0
LWPOLYLINE
  5
20D
330
1F
100
AcDbEntity
  8
0
  6
Continuous
 62
     7
100
AcDbPolyline
 90
        3
 70
   128
 43
0.0
 10
2485.4621887207
 20
3331.8464579547
 10
2484.1710011227
 20
3330.0933478422
 10
2482.4577461986
 20
3329.8431190565
  0
LWPOLYLINE
  5
20E
330
1F
100
AcDbEntity
  8
0
  6
Continuous
 62
     7
100
AcDbPolyline
 90
        5
 70
   128
 43
0.0
 10
2553.2855987549
 20
3259.0143933369
 10
2575.8953418305
 20
3278.4836156613
 10
2586.7674006892
 20
3294.3727116659
 10
2592.6013668247
 20
3312.7614963914
 10
2595.6463749723
 20
3331.8464579547
  0
LWPOLYLINE
  5
20F
330
1F
100
AcDbEntity
  8
0
  6
Continuous
 62
     7
100
AcDbPolyline
 90
        3
 70
   128
 43
0.0
 10
2476.7913818359
 20
3324.176804633
 10
2473.2813092295
 20
3313.788636191
 10
2470.4377128096
 20
3305.6932713773
  0
LWPOLYLINE
  5
210
330
1F
100
AcDbEntity
  8
0
  6
Continuous
 62
     7
100
AcDbPolyline
 90
        5
 70
   128
 43
0.0
 10
2470.4360961914
 20
3261.8297634639
 10
2496.6928766362
 20
3259.0512944852
 10
2513.6566642021
 20
3257.1921211831
 10
2530.6346470308
 20
3255.2975407313
 10
2547.6085994304
 20
3253.3596696655
  0
LWPOLYLINE
  5
211
330
1F
100
AcDbEntity
  8
0
  6
Continuous
 62
     7
100
AcDbPolyline
 90
        3
 70
   128
 43
0.0
 10
1419.4107055664
 20
2859.2979734667
 10
1418.3992772228
 20
2857.764569703
 10
1417.3542175223
 20
2856.5952246246
  0
LWPOLYLINE
  5
212
330
1F
100
AcDbEntity
  8
0
  6
Continuous
 62
     7
100
AcDbPolyline
 90
        3
 70
   128
 43
0.0
 10
1417.2487258911
 20
2855.5795950363
 10
1419.3861532352
 20
2857.9016034324
 10
1420.3674459412
 20
2859.8329584169
  0
LWPOLYLINE
  5
213
330
1F
100
AcDbEntity
  8
0
  6
Continuous
 62
     7
100
AcDbPolyline
 90
        3
 70
   128
 43
0.0
 10
1403.2859802246
 20
2859.4403063105
 10
1401.4522376384
 20
2859.5500046489
 10
1399.9170252446
 20
2859.8703803588
  0
LWPOLYLINE
  5
214
330
1F
100
AcDbEntity
  8
0
  6
Continuous
 62
     7
100
AcDbPolyline
 90
        3
 70
   128
 43
0.0
 10
1399.28150177
 20
2859.3237130512
 10
1402.1841099648
 20
2858.7494337465
 10
1404.2275991688
 20
2858.8797148969
  0
LWPOLYLINE
  5
215
330
1F
100
AcDbEntity
  8
0
  6
Continuous
 62
     7
100
AcDbPolyline
 90
        3
 70
   128
 43
0.0
 10
1428.9083480835
 20
2870.0586982407
 10
1429.1849119617
 20
2869.2385459792
 10
1429.3864958872
 20
2868.5619972798
  0
LWPOLYLINE
  5
216
330
1F
100
AcDbEntity
  8
0
  6
Continuous
 62
     7
100
AcDbPolyline
 90
        3
 70
   128
 43
0.0
 10
1427.5970458984
 20
2873.1915211312
 10
1428.419029035
 20
2871.548419029
 10
1428.9091817284
 20
2870.0586982407
  0
LWPOLYLINE
  5
217
330
1F
100
AcDbEntity
  8
0
  6
Continuous
 62
     7
100
AcDbPolyline
 90
        3
 70
   128
 43
0.0
 10
1429.7342300415
 20
2869.4791720172
 10
1428.7906323691
 20
2872.4777885181
 10
1427.6118362231
 20
2874.2870974951
  0
LWPOLYLINE
  5
218
330
1F
100
AcDbEntity
  8
0
  6
Continuous
 62
     7
100
AcDbPolyline
 90
        3
 70
   128
 43
0.0
 10
1395.3466415405
 20
2873.4761868187
 10
1394.5249498663
 20
2875.1192889209
 10
1394.0347971729
 20
2876.6090097092
  0
LWPOLYLINE
  5
219
330
1F
100
AcDbEntity
  8
0
  6
Continuous
 62
     7
100
AcDbPolyline
 90
        3
 70
   128
 43
0.0
 10
1393.2552337646
 20
2876.8411570306
 10
1394.206061052
 20
2874.0688113601
 10
1395.3321426782
 20
2872.3806104548
  0
LWPOLYLINE
  5
21A
330
1F
100
AcDbEntity
  8
0
  6
Continuous
 62
     7
100
AcDbPolyline
 90
        3
 70
   128
 43
0.0
 10
1399.9166488647
 20
2859.8703803588
 10
1401.8224220419
 20
2859.519195609
 10
1403.2861941552
 20
2859.4403063105
  0
LWPOLYLINE
  5
21B
330
1F
100
AcDbEntity
  8
0
  6
Continuous
 62
     7
100
AcDbPolyline
 90
        3
 70
   128
 43
0.0
 10
1394.0343856812
 20
2876.6090097092
 10
1394.6833606568
 20
2874.7832953035
 10
1395.3469265768
 20
2873.4761868187
  0
LWPOLYLINE
  5
21C
330
1F
100
AcDbEntity
  8
0
  6
Continuous
 62
     7
100
AcDbPolyline
 90
        3
 70
   128
 43
0.0
 10
1428.9083480835
 20
2870.0586982407
 10
1428.2606182445
 20
2871.8844126464
 10
1427.5970523245
 20
2873.1915211312
  0
LWPOLYLINE
  5
21D
330
1F
100
AcDbEntity
  8
0
  6
Continuous
 62
     7
100
AcDbPolyline
 90
        3
 70
   128
 43
0.0
 10
1417.3536300659
 20
2856.5952246246
 10
1418.6110806107
 20
2858.069743165
 10
1419.4112570291
 20
2859.2979734667
  0
LWPOLYLINE
  5
21E
330
1F
100
AcDbEntity
  8
0
  6
Continuous
 62
     7
100
AcDbPolyline
 90
        3
 70
   128
 43
0.0
 10
1420.3357696533
 20
2861.2178407405
 10
1421.0227059853
 20
2863.6599294884
 10
1421.1615939997
 20
2865.5471962866
  0
LWPOLYLINE
  5
21F
330
1F
100
AcDbEntity
  8
0
  6
Continuous
 62
     7
100
AcDbPolyline
 90
        3
 70
   128
 43
0.0
 10
1410.1734161377
 20
2861.0821918672
 10
1407.7436480672
 20
2859.9640636266
 10
1405.5190407434
 20
2859.5523974073
  0
LWPOLYLINE
  5
220
330
1F
100
AcDbEntity
  8
0
  6
Continuous
 62
     7
100
AcDbPolyline
 90
        3
 70
   128
 43
0.0
 10
1405.4107666016
 20
2859.5995021949
 10
1407.9440718544
 20
2860.2526415989
 10
1409.6896640952
 20
2861.1168306261
  0
LWPOLYLINE
  5
221
330
1F
100
AcDbEntity
  8
0
  6
Continuous
 62
     7
100
AcDbPolyline
 90
        3
 70
   128
 43
0.0
 10
1400.1226425171
 20
2868.3909349462
 10
1397.9932770435
 20
2869.9117660297
 10
1396.5604236082
 20
2871.5985304988
  0
LWPOLYLINE
  5
222
330
1F
100
AcDbEntity
  8
0
  6
Continuous
 62
     7
100
AcDbPolyline
 90
        3
 70
   128
 43
0.0
 10
1396.5463638306
 20
2871.7155154293
 10
1398.3187668237
 20
2869.8996530748
 10
1399.8837438075
 20
2868.835739127
  0
LWPOLYLINE
  5
223
330
1F
100
AcDbEntity
  8
0
  6
Continuous
 62
     7
100
AcDbPolyline
 90
        3
 70
   128
 43
0.0
 10
1426.3963699341
 20
2874.9521925205
 10
1424.5646104787
 20
2876.8191939021
 10
1422.9434047071
 20
2877.8988266137
  0
LWPOLYLINE
  5
224
330
1F
100
AcDbEntity
  8
0
  6
Continuous
 62
     7
100
AcDbPolyline
 90
        3
 70
   128
 43
0.0
 10
1421.4267730713
 20
2865.9769034001
 10
1421.1749607488
 20
2863.3719905927
 10
1420.4306065859
 20
2861.2877208832
  0
LWPOLYLINE
  5
225
330
1F
100
AcDbEntity
  8
0
  6
Continuous
 62
     7
100
AcDbPolyline
 90
        3
 70
   128
 43
0.0
 10
1422.7304458618
 20
2878.3353504905
 10
1424.9147382274
 20
2876.7899107971
 10
1426.3835552931
 20
2875.0691774511
  0
LWPOLYLINE
  5
226
330
1F
100
AcDbEntity
  8
0
  6
Continuous
 62
     7
100
AcDbPolyline
 90
        3
 70
   128
 43
0.0
 10
1406.943321228
 20
2859.1812599185
 10
1409.2793217917
 20
2859.9943491808
 10
1410.9106220018
 20
2860.8898510656
  0
LWPOLYLINE
  5
227
330
1F
100
AcDbEntity
  8
0
  6
Continuous
 62
     7
100
AcDbPolyline
 90
        3
 70
   128
 43
0.0
 10
1421.4639663696
 20
2862.3362809057
 10
1421.9280056468
 20
2864.7651956831
 10
1421.9681283704
 20
2866.6256940487
  0
LWPOLYLINE
  5
228
330
1F
100
AcDbEntity
  8
0
  6
Continuous
 62
     7
100
AcDbPolyline
 90
        3
 70
   128
 43
0.0
 10
1396.9507217407
 20
2870.1788329879
 10
1398.8233055954
 20
2868.5630074727
 10
1400.4144830818
 20
2867.598010992
  0
LWPOLYLINE
  5
229
330
1F
100
AcDbEntity
  8
0
  6
Continuous
 62
     7
100
AcDbPolyline
 90
        3
 70
   128
 43
0.0
 10
1425.9920120239
 20
2876.4888749621
 10
1424.1206733057
 20
2878.1047004773
 10
1422.5294958193
 20
2879.069696958
  0
LWPOLYLINE
  5
22A
330
1F
100
AcDbEntity
  8
0
  6
Continuous
 62
     7
100
AcDbPolyline
 90
        3
 70
   128
 43
0.0
 10
1401.4377593994
 20
2865.5554532758
 10
1398.9852571081
 20
2863.9188590276
 10
1395.3245964577
 20
2861.4764354697
  0
LWPOLYLINE
  5
22B
330
1F
100
AcDbEntity
  8
0
  6
Continuous
 62
     7
100
AcDbPolyline
 90
        3
 70
   128
 43
0.0
 10
1400.4373550415
 20
2867.0552690129
 10
1397.9845674419
 20
2865.4186747596
 10
1394.3239067965
 20
2862.9762511943
  0
LWPOLYLINE
  5
22C
330
1F
100
AcDbEntity
  8
0
  6
Continuous
 62
     7
100
AcDbPolyline
 90
        3
 70
   128
 43
0.0
 10
1423.2244491577
 20
2868.5334989947
 10
1425.8689804241
 20
2867.2275240324
 10
1429.8145115992
 20
2865.2785106975
  0
LWPOLYLINE
  5
22D
330
1F
100
AcDbEntity
  8
0
  6
Continuous
 62
     7
100
AcDbPolyline
 90
        3
 70
   128
 43
0.0
 10
1422.4262237549
 20
2866.9169684509
 10
1425.0590079449
 20
2865.6166440191
 10
1429.0159779047
 20
2863.6619801538
  0
LWPOLYLINE
  5
22E
330
1F
100
AcDbEntity
  8
0
  6
Continuous
 62
     7
100
AcDbPolyline
 90
        3
 70
   128
 43
0.0
 10
1427.8392791748
 20
2866.2542239754
 10
1428.4516479515
 20
2866.4414065257
 10
1428.9026144253
 20
2866.6287691937
  0
LWPOLYLINE
  5
22F
330
1F
100
AcDbEntity
  8
0
  6
Continuous
 62
     7
100
AcDbPolyline
 90
        3
 70
   128
 43
0.0
 10
1428.7757873535
 20
2870.1846896754
 10
1427.813533266
 20
2869.8142426052
 10
1427.0180564204
 20
2869.5741211417
  0
LWPOLYLINE
  5
230
330
1F
100
AcDbEntity
  8
0
  6
Continuous
 62
     7
100
AcDbPolyline
 90
        3
 70
   128
 43
0.0
 10
1397.066116333
 20
2866.3425624104
 10
1395.4066051907
 20
2866.5218617927
 10
1394.1273501503
 20
2866.7603655645
  0
LWPOLYLINE
  5
231
330
1F
100
AcDbEntity
  8
0
  6
Continuous
 62
     7
100
AcDbPolyline
 90
        5
 70
   128
 43
0.0
 10
1321.9900131226
 20
3322.447654743
 10
1321.624773761
 20
3305.7547810591
 10
1322.869027276
 20
3295.0246610179
 10
1325.5107753008
 20
3285.0912841515
 10
1328.5171560091
 20
3276.3494733673
  0
LWPOLYLINE
  5
232
330
1F
100
AcDbEntity
  8
0
  6
Continuous
 62
     7
100
AcDbPolyline
 90
        5
 70
   128
 43
0.0
 10
1425.6467819214
 20
3276.3499078525
 10
1430.1977606022
 20
3290.3428659321
 10
1432.1964202973
 20
3300.851976397
 10
1432.5901214622
 20
3311.6622205026
 10
1432.1740255967
 20
3322.447654743
  0
ENDSEC
  0
SECTION
  2
OBJECTS
  0
DICTIONARY
  5
C
330
0
100
AcDbDictionary
281
     1
  3
ACAD_GROUP
350
D
  3
ACAD_LAYOUT
350
1A
  3
ACAD_MLINESTYLE
350
17
  3
ACAD_PLOTSETTINGS
350
19
  3
ACAD_PLOTSTYLENAME
350
E
  3
ACAD_SCALELIST
350
47
  3
DWGPROPS
350
233
  0
DICTIONARY
  5
D
102
{ACAD_REACTORS
330
C
102
}
330
C
100
AcDbDictionary
281
     1
  0
DICTIONARY
  5
1A
102
{ACAD_REACTORS
330
C
102
}
330
C
100
AcDbDictionary
281
     1
  3
Layout1
350
1E
  3
Layout2
350
26
  3
Model
350
22
  0
DICTIONARY
  5
17
102
{ACAD_REACTORS
330
C
102
}
330
C
100
AcDbDictionary
281
     1
  3
Standard
350
18
  0
DICTIONARY
  5
19
102
{ACAD_REACTORS
330
C
102
}
330
C
100
AcDbDictionary
281
     1
  0
ACDBDICTIONARYWDFLT
  5
E
102
{ACAD_REACTORS
330
C
102
}
330
C
100
AcDbDictionary
281
     1
  3
Normal
350
F
100
AcDbDictionaryWithDefault
340
F
  0
DICTIONARY
  5
47
102
{ACAD_REACTORS
330
C
102
}
330
C
100
AcDbDictionary
281
     1
  3
A0
350
48
  3
A1
350
49
  3
A2
350
4A
  3
A3
350
4B
  3
A4
350
4C
  3
A5
350
4D
  3
A6
350
4E
  3
A7
350
4F
  3
A8
350
50
  3
A9
350
51
  3
B0
350
52
  3
B1
350
53
  3
B2
350
54
  3
B3
350
55
  3
B4
350
56
  3
B5
350
57
  3
B6
350
58
  3
B7
350
59
  3
B8
350
5A
  3
B9
350
5B
  3
C0
350
5C
  3
C1
350
5D
  3
C2
350
5E
  3
C3
350
5F
  3
C4
350
60
  3
C5
350
61
  3
C6
350
62
  3
C7
350
63
  3
C8
350
64
  3
C9
350
65
  3
D0
350
66
  3
D1
350
67
  3
D2
350
68
  0
XRECORD
  5
233
102
{ACAD_REACTORS
330
C
102
}
330
C
100
AcDbXrecord
280
     1
  1
DWGPROPS COOKIE
  2

  3

  4

  6

  7

  8
radek.stransky
  9

300
=
301
=
302
=
303
=
304
=
305
=
306
=
307
=
308
=
309
=
 40
0.0
 41
2459094.512596863
 42
2459094.512673102
  1

 90
        0
  0
LAYOUT
  5
1E
102
{ACAD_REACTORS
330
1A
102
}
330
1A
100
AcDbPlotSettings
  1

  2
none_device
  4

  6

 40
0.0
 41
0.0
 42
0.0
 43
0.0
 44
0.0
 45
0.0
 46
0.0
 47
0.0
 48
0.0
 49
0.0
140
0.0
141
0.0
142
1.0
143
1.0
 70
   688
 72
     1
 73
     0
 74
     5
  7

 75
    16
147
1.0
148
0.0
149
0.0
100
AcDbLayout
  1
Layout1
 70
     1
 71
     1
 10
0.0
 20
0.0
 11
420.0
 21
297.0
 12
0.0
 22
0.0
 32
0.0
 14
1.0000000000E+20
 24
1.0000000000E+20
 34
1.0000000000E+20
 15
-1.0000000000E+20
 25
-1.0000000000E+20
 35
-1.0000000000E+20
146
0.0
 13
0.0
 23
0.0
 33
0.0
 16
1.0
 26
0.0
 36
0.0
 17
0.0
 27
1.0
 37
0.0
 76
     0
330
1B
  0
LAYOUT
  5
26
102
{ACAD_REACTORS
330
1A
102
}
330
1A
100
AcDbPlotSettings
  1

  2
none_device
  4

  6

 40
0.0
 41
0.0
 42
0.0
 43
0.0
 44
0.0
 45
0.0
 46
0.0
 47
0.0
 48
0.0
 49
0.0
140
0.0
141
0.0
142
1.0
143
1.0
 70
   688
 72
     1
 73
     0
 74
     5
  7

 75
    16
147
1.0
148
0.0
149
0.0
100
AcDbLayout
  1
Layout2
 70
     1
 71
     2
 10
0.0
 20
0.0
 11
0.0
 21
0.0
 12
0.0
 22
0.0
 32
0.0
 14
0.0
 24
0.0
 34
0.0
 15
0.0
 25
0.0
 35
0.0
146
0.0
 13
0.0
 23
0.0
 33
0.0
 16
1.0
 26
0.0
 36
0.0
 17
0.0
 27
1.0
 37
0.0
 76
     0
330
23
  0
LAYOUT
  5
22
102
{ACAD_REACTORS
330
1A
102
}
330
1A
100
AcDbPlotSettings
  1

  2
none_device
  4
ANSI_A_(11.00_x_8.50_Inches)
  6

 40
6.35
 41
19.05
 42
6.35000508
 43
19.05000254
 44
279.4
 45
215.9
 46
-26.7704245976
 47
-208.7209891169
 48
0.0
 49
0.0
140
0.0
141
0.0
142
0.0035927993
143
1.0
 70
  1696
 72
     0
 73
     0
 74
     0
  7

 75
     0
147
0.0179189148
148
-1300.4909072572
149
0.0
100
AcDbLayout
  1
Model
 70
     1
 71
     0
 10
0.0
 20
0.0
 11
420.0
 21
297.0
 12
0.0
 22
0.0
 32
0.0
 14
809.5398001937
 24
2090.2536148731
 34
0.0
 15
2699.6757703535
 25
4432.4384393499
 35
0.0
146
0.0
 13
0.0
 23
0.0
 33
0.0
 16
1.0
 26
0.0
 36
0.0
 17
0.0
 27
1.0
 37
0.0
 76
     0
330
1F
331
29
  0
MLINESTYLE
  5
18
102
{ACAD_REACTORS
330
17
102
}
330
17
100
AcDbMlineStyle
  2
Standard
 70
     0
  3

 62
   256
 51
90.0
 52
90.0
 71
     2
 49
0.5
 62
   256
  6
BYLAYER
 49
-0.5
 62
   256
  6
BYLAYER
  0
ACDBPLACEHOLDER
  5
F
102
{ACAD_REACTORS
330
E
102
}
330
E
  0
SCALE
  5
48
102
{ACAD_REACTORS
330
47
102
}
330
47
100
AcDbScale
 70
     0
300
1:1
140
1.0
141
1.0
290
     1
  0
SCALE
  5
49
102
{ACAD_REACTORS
330
47
102
}
330
47
100
AcDbScale
 70
     0
300
1:2
140
1.0
141
2.0
290
     0
  0
SCALE
  5
4A
102
{ACAD_REACTORS
330
47
102
}
330
47
100
AcDbScale
 70
     0
300
1:4
140
1.0
141
4.0
290
     0
  0
SCALE
  5
4B
102
{ACAD_REACTORS
330
47
102
}
330
47
100
AcDbScale
 70
     0
300
1:5
140
1.0
141
5.0
290
     0
  0
SCALE
  5
4C
102
{ACAD_REACTORS
330
47
102
}
330
47
100
AcDbScale
 70
     0
300
1:8
140
1.0
141
8.0
290
     0
  0
SCALE
  5
4D
102
{ACAD_REACTORS
330
47
102
}
330
47
100
AcDbScale
 70
     0
300
1:10
140
1.0
141
10.0
290
     0
  0
SCALE
  5
4E
102
{ACAD_REACTORS
330
47
102
}
330
47
100
AcDbScale
 70
     0
300
1:16
140
1.0
141
16.0
290
     0
  0
SCALE
  5
4F
102
{ACAD_REACTORS
330
47
102
}
330
47
100
AcDbScale
 70
     0
300
1:20
140
1.0
141
20.0
290
     0
  0
SCALE
  5
50
102
{ACAD_REACTORS
330
47
102
}
330
47
100
AcDbScale
 70
     0
300
1:30
140
1.0
141
30.0
290
     0
  0
SCALE
  5
51
102
{ACAD_REACTORS
330
47
102
}
330
47
100
AcDbScale
 70
     0
300
1:40
140
1.0
141
40.0
290
     0
  0
SCALE
  5
52
102
{ACAD_REACTORS
330
47
102
}
330
47
100
AcDbScale
 70
     0
300
1:50
140
1.0
141
50.0
290
     0
  0
SCALE
  5
53
102
{ACAD_REACTORS
330
47
102
}
330
47
100
AcDbScale
 70
     0
300
1:100
140
1.0
141
100.0
290
     0
  0
SCALE
  5
54
102
{ACAD_REACTORS
330
47
102
}
330
47
100
AcDbScale
 70
     0
300
2:1
140
2.0
141
1.0
290
     0
  0
SCALE
  5
55
102
{ACAD_REACTORS
330
47
102
}
330
47
100
AcDbScale
 70
     0
300
4:1
140
4.0
141
1.0
290
     0
  0
SCALE
  5
56
102
{ACAD_REACTORS
330
47
102
}
330
47
100
AcDbScale
 70
     0
300
8:1
140
8.0
141
1.0
290
     0
  0
SCALE
  5
57
102
{ACAD_REACTORS
330
47
102
}
330
47
100
AcDbScale
 70
     0
300
10:1
140
10.0
141
1.0
290
     0
  0
SCALE
  5
58
102
{ACAD_REACTORS
330
47
102
}
330
47
100
AcDbScale
 70
     0
300
100:1
140
100.0
141
1.0
290
     0
  0
SCALE
  5
59
102
{ACAD_REACTORS
330
47
102
}
330
47
100
AcDbScale
 70
     0
300
1/128" = 1'-0"
140
0.0078125
141
12.0
290
     0
  0
SCALE
  5
5A
102
{ACAD_REACTORS
330
47
102
}
330
47
100
AcDbScale
 70
     0
300
1/64" = 1'-0"
140
0.015625
141
12.0
290
     0
  0
SCALE
  5
5B
102
{ACAD_REACTORS
330
47
102
}
330
47
100
AcDbScale
 70
     0
300
1/32" = 1'-0"
140
0.03125
141
12.0
290
     0
  0
SCALE
  5
5C
102
{ACAD_REACTORS
330
47
102
}
330
47
100
AcDbScale
 70
     0
300
1/16" = 1'-0"
140
0.0625
141
12.0
290
     0
  0
SCALE
  5
5D
102
{ACAD_REACTORS
330
47
102
}
330
47
100
AcDbScale
 70
     0
300
3/32" = 1'-0"
140
0.09375
141
12.0
290
     0
  0
SCALE
  5
5E
102
{ACAD_REACTORS
330
47
102
}
330
47
100
AcDbScale
 70
     0
300
1/8" = 1'-0"
140
0.125
141
12.0
290
     0
  0
SCALE
  5
5F
102
{ACAD_REACTORS
330
47
102
}
330
47
100
AcDbScale
 70
     0
300
3/16" = 1'-0"
140
0.1875
141
12.0
290
     0
  0
SCALE
  5
60
102
{ACAD_REACTORS
330
47
102
}
330
47
100
AcDbScale
 70
     0
300
1/4" = 1'-0"
140
0.25
141
12.0
290
     0
  0
SCALE
  5
61
102
{ACAD_REACTORS
330
47
102
}
330
47
100
AcDbScale
 70
     0
300
3/8" = 1'-0"
140
0.375
141
12.0
290
     0
  0
SCALE
  5
62
102
{ACAD_REACTORS
330
47
102
}
330
47
100
AcDbScale
 70
     0
300
1/2" = 1'-0"
140
0.5
141
12.0
290
     0
  0
SCALE
  5
63
102
{ACAD_REACTORS
330
47
102
}
330
47
100
AcDbScale
 70
     0
300
3/4" = 1'-0"
140
0.75
141
12.0
290
     0
  0
SCALE
  5
64
102
{ACAD_REACTORS
330
47
102
}
330
47
100
AcDbScale
 70
     0
300
1" = 1'-0"
140
1.0
141
12.0
290
     0
  0
SCALE
  5
65
102
{ACAD_REACTORS
330
47
102
}
330
47
100
AcDbScale
 70
     0
300
1-1/2" = 1'-0"
140
1.5
141
12.0
290
     0
  0
SCALE
  5
66
102
{ACAD_REACTORS
330
47
102
}
330
47
100
AcDbScale
 70
     0
300
3" = 1'-0"
140
3.0
141
12.0
290
     0
  0
SCALE
  5
67
102
{ACAD_REACTORS
330
47
102
}
330
47
100
AcDbScale
 70
     0
300
6" = 1'-0"
140
6.0
141
12.0
290
     0
  0
SCALE
  5
68
102
{ACAD_REACTORS
330
47
102
}
330
47
100
AcDbScale
 70
     0
300
1'-0" = 1'-0"
140
12.0
141
12.0
290
     0
  0
ENDSEC
  0
EOF
