  0
SECTION
  2
HEADER
  9
$ACADVER
  1
AC1015
  9
$ACADMAINTVER
 70
     6
  9
$DWGCODEPAGE
  3
ANSI_1250
  9
$INSBASE
 10
0.0
 20
0.0
 30
0.0
  9
$EXTMIN
 10
0.0
 20
0.0
 30
0.0
  9
$EXTMAX
 10
20000.0
 20
10000.0
 30
0.0
  9
$LIMMIN
 10
0.0
 20
0.0
  9
$LIMMAX
 10
20000.0
 20
10000.0
  9
$ORTHOMODE
 70
     0
  9
$REGENMODE
 70
     1
  9
$FILLMODE
 70
     1
  9
$QTEXTMODE
 70
     0
  9
$MIRRTEXT
 70
     1
  9
$LTSCALE
 40
1.0
  9
$ATTMODE
 70
     1
  9
$TEXTSIZE
 40
2.0
  9
$TRACEWID
 40
1.0
  9
$TEXTSTYLE
  7
Standard
  9
$CLAYER
  8
0
  9
$CELTYPE
  6
ByLayer
  9
$CECOLOR
 62
   256
  9
$CELTSCALE
 40
1.0
  9
$DISPSILH
 70
     0
  9
$DIMSCALE
 40
1.0
  9
$DIMASZ
 40
2.0
  9
$DIMEXO
 40
1.0
  9
$DIMDLI
 40
3.75
  9
$DIMRND
 40
0.0
  9
$DIMDLE
 40
0.0
  9
$DIMEXE
 40
1.0
  9
$DIMTP
 40
0.0
  9
$DIMTM
 40
0.0
  9
$DIMTXT
 40
2.0
  9
$DIMCEN
 40
2.5
  9
$DIMTSZ
 40
0.0
  9
$DIMTOL
 70
     0
  9
$DIMLIM
 70
     0
  9
$DIMTIH
 70
     1
  9
$DIMTOH
 70
     1
  9
$DIMSE1
 70
     0
  9
$DIMSE2
 70
     0
  9
$DIMTAD
 70
     1
  9
$DIMZIN
 70
     0
  9
$DIMBLK
  1

  9
$DIMASO
 70
     1
  9
$DIMSHO
 70
     1
  9
$DIMPOST
  1

  9
$DIMAPOST
  1

  9
$DIMALT
 70
     0
  9
$DIMALTD
 70
     3
  9
$DIMALTF
 40
0.0393700787
  9
$DIMLFAC
 40
1.0
  9
$DIMTOFL
 70
     1
  9
$DIMTVP
 40
0.0
  9
$DIMTIX
 70
     0
  9
$DIMSOXD
 70
     0
  9
$DIMSAH
 70
     0
  9
$DIMBLK1
  1

  9
$DIMBLK2
  1

  9
$DIMSTYLE
  2
ISO-25
  9
$DIMCLRD
 70
     0
  9
$DIMCLRE
 70
     0
  9
$DIMCLRT
 70
     0
  9
$DIMTFAC
 40
1.0
  9
$DIMGAP
 40
1.524
  9
$DIMJUST
 70
     0
  9
$DIMSD1
 70
     0
  9
$DIMSD2
 70
     0
  9
$DIMTOLJ
 70
     0
  9
$DIMTZIN
 70
     0
  9
$DIMALTZ
 70
     0
  9
$DIMALTTZ
 70
     0
  9
$DIMUPT
 70
     0
  9
$DIMDEC
 70
     2
  9
$DIMTDEC
 70
     0
  9
$DIMALTU
 70
     2
  9
$DIMALTTD
 70
     3
  9
$DIMTXSTY
  7
Standard
  9
$DIMAUNIT
 70
     0
  9
$DIMADEC
 70
     2
  9
$DIMALTRND
 40
0.0
  9
$DIMAZIN
 70
     0
  9
$DIMDSEP
 70
    44
  9
$DIMATFIT
 70
     3
  9
$DIMFRAC
 70
     0
  9
$DIMLDRBLK
  1

  9
$DIMLUNIT
 70
     2
  9
$DIMLWD
 70
    -2
  9
$DIMLWE
 70
    -2
  9
$DIMTMOVE
 70
     0
  9
$LUNITS
 70
     2
  9
$LUPREC
 70
     3
  9
$SKETCHINC
 40
1.0
  9
$FILLETRAD
 40
10.0
  9
$AUNITS
 70
     0
  9
$AUPREC
 70
     2
  9
$MENU
  1
.
  9
$ELEVATION
 40
0.0
  9
$PELEVATION
 40
0.0
  9
$THICKNESS
 40
0.0
  9
$LIMCHECK
 70
     0
  9
$CHAMFERA
 40
0.0
  9
$CHAMFERB
 40
0.0
  9
$CHAMFERC
 40
0.0
  9
$CHAMFERD
 40
0.0
  9
$SKPOLY
 70
     0
  9
$TDCREATE
 40
2459088.314783264
  9
$TDUCREATE
 40
2459088.23144993
  9
$TDUPDATE
 40
2459088.314783843
  9
$TDUUPDATE
 40
2459088.231450509
  9
$TDINDWG
 40
0.0000000116
  9
$TDUSRTIMER
 40
0.0000000116
  9
$USRTIMER
 70
     1
  9
$ANGBASE
 50
0.0
  9
$ANGDIR
 70
     0
  9
$PDMODE
 70
     0
  9
$PDSIZE
 40
-1.0
  9
$PLINEWID
 40
0.0
  9
$SPLFRAME
 70
     0
  9
$SPLINETYPE
 70
     6
  9
$SPLINESEGS
 70
     8
  9
$HANDSEED
  5
27D
  9
$SURFTAB1
 70
     6
  9
$SURFTAB2
 70
     6
  9
$SURFTYPE
 70
     6
  9
$SURFU
 70
     6
  9
$SURFV
 70
     6
  9
$UCSBASE
  2

  9
$UCSNAME
  2

  9
$UCSORG
 10
0.0
 20
0.0
 30
0.0
  9
$UCSXDIR
 10
1.0
 20
0.0
 30
0.0
  9
$UCSYDIR
 10
0.0
 20
1.0
 30
0.0
  9
$UCSORTHOREF
  2

  9
$UCSORTHOVIEW
 70
     0
  9
$UCSORGTOP
 10
0.0
 20
0.0
 30
0.0
  9
$UCSORGBOTTOM
 10
0.0
 20
0.0
 30
0.0
  9
$UCSORGLEFT
 10
0.0
 20
0.0
 30
0.0
  9
$UCSORGRIGHT
 10
0.0
 20
0.0
 30
0.0
  9
$UCSORGFRONT
 10
0.0
 20
0.0
 30
0.0
  9
$UCSORGBACK
 10
0.0
 20
0.0
 30
0.0
  9
$PUCSBASE
  2

  9
$PUCSNAME
  2

  9
$PUCSORG
 10
0.0
 20
0.0
 30
0.0
  9
$PUCSXDIR
 10
1.0
 20
0.0
 30
0.0
  9
$PUCSYDIR
 10
0.0
 20
1.0
 30
0.0
  9
$PUCSORTHOREF
  2

  9
$PUCSORTHOVIEW
 70
     0
  9
$PUCSORGTOP
 10
0.0
 20
0.0
 30
0.0
  9
$PUCSORGBOTTOM
 10
0.0
 20
0.0
 30
0.0
  9
$PUCSORGLEFT
 10
0.0
 20
0.0
 30
0.0
  9
$PUCSORGRIGHT
 10
0.0
 20
0.0
 30
0.0
  9
$PUCSORGFRONT
 10
0.0
 20
0.0
 30
0.0
  9
$PUCSORGBACK
 10
0.0
 20
0.0
 30
0.0
  9
$USERI1
 70
     0
  9
$USERI2
 70
     0
  9
$USERI3
 70
     0
  9
$USERI4
 70
     0
  9
$USERI5
 70
     0
  9
$USERR1
 40
0.0
  9
$USERR2
 40
0.0
  9
$USERR3
 40
0.0
  9
$USERR4
 40
0.0
  9
$USERR5
 40
0.0
  9
$WORLDVIEW
 70
     1
  9
$SHADEDGE
 70
     3
  9
$SHADEDIF
 70
    70
  9
$TILEMODE
 70
     1
  9
$MAXACTVP
 70
    64
  9
$PINSBASE
 10
0.0
 20
0.0
 30
0.0
  9
$PLIMCHECK
 70
     0
  9
$PEXTMIN
 10
1.0000000000E+20
 20
1.0000000000E+20
 30
1.0000000000E+20
  9
$PEXTMAX
 10
-1.0000000000E+20
 20
-1.0000000000E+20
 30
-1.0000000000E+20
  9
$PLIMMIN
 10
0.0
 20
0.0
  9
$PLIMMAX
 10
420.0
 20
297.0
  9
$UNITMODE
 70
     0
  9
$VISRETAIN
 70
     1
  9
$PLINEGEN
 70
     0
  9
$PSLTSCALE
 70
     1
  9
$TREEDEPTH
 70
  3020
  9
$CMLSTYLE
  2
Standard
  9
$CMLJUST
 70
     0
  9
$CMLSCALE
 40
20.0
  9
$PROXYGRAPHICS
 70
     1
  9
$MEASUREMENT
 70
     1
  9
$CELWEIGHT
370
    -1
  9
$ENDCAPS
280
     0
  9
$JOINSTYLE
280
     0
  9
$LWDISPLAY
290
     1
  9
$INSUNITS
 70
     4
  9
$HYPERLINKBASE
  1

  9
$STYLESHEET
  1

  9
$XEDIT
290
     1
  9
$CEPSNTYPE
380
     0
  9
$PSTYLEMODE
290
     1
  9
$FINGERPRINTGUID
  2
{0e6c26a3-1740-4a3e-a23c-43ebfa71cb58}
  9
$VERSIONGUID
  2
{FAEB1C32-E019-11D5-929B-00C0DF256EC4}
  9
$EXTNAMES
290
     1
  9
$PSVPSCALE
 40
0.0
  9
$OLESTARTUP
290
     0
  0
ENDSEC
  0
SECTION
  2
CLASSES
  0
CLASS
  1
ACDBDICTIONARYWDFLT
  2
AcDbDictionaryWithDefault
  3
ObjectDBX Classes
 90
        0
280
     0
281
     0
  0
CLASS
  1
VISUALSTYLE
  2
AcDbVisualStyle
  3
ObjectDBX Classes
 90
     4095
280
     0
281
     0
  0
CLASS
  1
MATERIAL
  2
AcDbMaterial
  3
ObjectDBX Classes
 90
     1153
280
     0
281
     0
  0
CLASS
  1
SCALE
  2
AcDbScale
  3
ObjectDBX Classes
 90
     1153
280
     0
281
     0
  0
CLASS
  1
TABLESTYLE
  2
AcDbTableStyle
  3
ObjectDBX Classes
 90
     4095
280
     0
281
     0
  0
CLASS
  1
MLEADERSTYLE
  2
AcDbMLeaderStyle
  3
ACDB_MLEADERSTYLE_CLASS
 90
     4095
280
     0
281
     0
  0
CLASS
  1
SUN
  2
AcDbSun
  3
SCENEOE
 90
     1153
280
     0
281
     0
  0
CLASS
  1
ACDBPLACEHOLDER
  2
AcDbPlaceHolder
  3
ObjectDBX Classes
 90
        0
280
     0
281
     0
  0
CLASS
  1
LAYOUT
  2
AcDbLayout
  3
ObjectDBX Classes
 90
        0
280
     0
281
     0
  0
ENDSEC
  0
SECTION
  2
TABLES
  0
TABLE
  2
VPORT
  5
8
330
0
100
AcDbSymbolTable
 70
     1
  0
VPORT
  5
29
330
8
100
AcDbSymbolTableRecord
100
AcDbViewportTableRecord
  2
*Active
 70
     0
 10
0.0
 20
0.0
 11
1.0
 21
1.0
 12
10000.0
 22
5000.0
 13
0.0
 23
0.0
 14
10.0
 24
10.0
 15
10.0
 25
10.0
 16
0.0
 26
0.0
 36
1.0
 17
0.0
 27
0.0
 37
0.0
 40
10000.0
 41
2.0
 42
50.0
 43
0.0
 44
0.0
 50
0.0
 51
0.0
 71
     0
 72
  2000
 73
     1
 74
     3
 75
     0
 76
     0
 77
     0
 78
     0
281
     0
 65
     1
110
0.0
120
0.0
130
0.0
111
1.0
121
0.0
131
0.0
112
0.0
122
1.0
132
0.0
 79
     0
146
0.0
  0
ENDTAB
  0
TABLE
  2
LTYPE
  5
5
330
0
100
AcDbSymbolTable
 70
     6
  0
LTYPE
  5
14
330
5
100
AcDbSymbolTableRecord
100
AcDbLinetypeTableRecord
  2
ByBlock
 70
     0
  3

 72
    65
 73
     0
 40
0.0
  0
LTYPE
  5
15
330
5
100
AcDbSymbolTableRecord
100
AcDbLinetypeTableRecord
  2
ByLayer
 70
     0
  3

 72
    65
 73
     0
 40
0.0
  0
LTYPE
  5
16
330
5
100
AcDbSymbolTableRecord
100
AcDbLinetypeTableRecord
  2
Continuous
 70
     0
  3
Solid line
 72
    65
 73
     0
 40
0.0
  0
LTYPE
  5
6E
330
5
100
AcDbSymbolTableRecord
100
AcDbLinetypeTableRecord
  2
HIDDEN
 70
     0
  3
Hidden __ __ __ __ __ __ __ __ __ __ __ __ __ __
 72
    65
 73
     2
 40
1.905
 49
1.27
 74
     0
 49
-0.635
 74
     0
  0
LTYPE
  5
6F
330
5
100
AcDbSymbolTableRecord
100
AcDbLinetypeTableRecord
  2
PHANTOM
 70
     0
  3
Phantom ______  __  __  ______  __  __  ______
 72
    65
 73
     6
 40
12.7
 49
6.35
 74
     0
 49
-1.27
 74
     0
 49
1.27
 74
     0
 49
-1.27
 74
     0
 49
1.27
 74
     0
 49
-1.27
 74
     0
  0
LTYPE
  5
70
330
5
100
AcDbSymbolTableRecord
100
AcDbLinetypeTableRecord
  2
CENTER
 70
     0
  3
Center ____ _ ____ _ ____ _ ____ _ ____ _ ____
 72
    65
 73
     4
 40
10.16
 49
6.35
 74
     0
 49
-1.27
 74
     0
 49
1.27
 74
     0
 49
-1.27
 74
     0
  0
LTYPE
  5
71
330
5
100
AcDbSymbolTableRecord
100
AcDbLinetypeTableRecord
  2
CENTERX2
 70
     0
  3
Center (2x) ________  __  ________  __  _____
 72
    65
 73
     4
 40
20.32
 49
12.7
 74
     0
 49
-2.54
 74
     0
 49
2.54
 74
     0
 49
-2.54
 74
     0
  0
LTYPE
  5
72
330
5
100
AcDbSymbolTableRecord
100
AcDbLinetypeTableRecord
  2
DOT2
 70
     0
  3
Dot (.5x) ........................................
 72
    65
 73
     2
 40
0.635
 49
0.0
 74
     0
 49
-0.635
 74
     0
  0
ENDTAB
  0
TABLE
  2
LAYER
  5
2
330
0
100
AcDbSymbolTable
 70
    13
  0
LAYER
  5
10
330
2
100
AcDbSymbolTableRecord
100
AcDbLayerTableRecord
  2
0
 70
     0
 62
     7
  6
Continuous
370
    -3
390
F
  0
LAYER
  5
73
330
2
100
AcDbSymbolTableRecord
100
AcDbLayerTableRecord
  2
FORMAT
 70
     0
 62
     7
  6
Continuous
370
    -3
390
F
  0
LAYER
  5
74
330
2
100
AcDbSymbolTableRecord
100
AcDbLayerTableRecord
  2
OSA
 70
     0
 62
     7
  6
CENTER
370
    -3
390
F
  0
LAYER
  5
75
330
2
100
AcDbSymbolTableRecord
100
AcDbLayerTableRecord
  2
0_35
 70
     0
 62
     7
  6
Continuous
370
    35
390
F
  0
LAYER
  5
76
330
2
100
AcDbSymbolTableRecord
100
AcDbLayerTableRecord
  2
0_5
 70
     0
 62
     7
  6
Continuous
370
    50
390
F
  0
LAYER
  5
77
330
2
100
AcDbSymbolTableRecord
100
AcDbLayerTableRecord
  2
0_25
 70
     0
 62
     7
  6
Continuous
370
    25
390
F
  0
LAYER
  5
78
330
2
100
AcDbSymbolTableRecord
100
AcDbLayerTableRecord
  2
0_18
 70
     0
 62
     7
  6
Continuous
370
    -3
390
F
  0
LAYER
  5
79
330
2
100
AcDbSymbolTableRecord
100
AcDbLayerTableRecord
  2
SLD-0
 70
     0
 62
   179
  6
Continuous
370
    -3
390
F
  0
LAYER
  5
7A
330
2
100
AcDbSymbolTableRecord
100
AcDbLayerTableRecord
  2
KOTY
 70
     0
 62
     7
  6
Continuous
370
    -3
390
F
  0
LAYER
  5
7B
330
2
100
AcDbSymbolTableRecord
100
AcDbLayerTableRecord
  2
SILNA
 70
     0
 62
   179
  6
Continuous
370
    -3
390
F
  0
LAYER
  5
7C
330
2
100
AcDbSymbolTableRecord
100
AcDbLayerTableRecord
  2
0_18_1
 70
     0
 62
   179
  6
Continuous
370
    -3
390
F
  0
LAYER
  5
7D
330
2
100
AcDbSymbolTableRecord
100
AcDbLayerTableRecord
  2
0_35_1
 70
     0
 62
   179
  6
Continuous
370
    35
390
F
  0
LAYER
  5
7E
330
2
100
AcDbSymbolTableRecord
100
AcDbLayerTableRecord
  2
0_5_1
 70
     0
 62
   179
  6
Continuous
370
    50
390
F
  0
ENDTAB
  0
TABLE
  2
STYLE
  5
3
330
0
100
AcDbSymbolTable
 70
     1
  0
STYLE
  5
11
330
3
100
AcDbSymbolTableRecord
100
AcDbTextStyleTableRecord
  2
Standard
 70
     0
 40
0.0
 41
1.0
 50
0.0
 71
     0
 42
2.0
  3
txt
  4

  0
ENDTAB
  0
TABLE
  2
VIEW
  5
6
330
0
100
AcDbSymbolTable
 70
     0
  0
ENDTAB
  0
TABLE
  2
UCS
  5
7
330
0
100
AcDbSymbolTable
 70
     0
  0
ENDTAB
  0
TABLE
  2
APPID
  5
9
330
0
100
AcDbSymbolTable
 70
     1
  0
APPID
  5
12
330
9
100
AcDbSymbolTableRecord
100
AcDbRegAppTableRecord
  2
ACAD
 70
     0
  0
ENDTAB
  0
TABLE
  2
DIMSTYLE
  5
A
330
0
100
AcDbSymbolTable
 70
     1
100
AcDbDimStyleTable
  0
DIMSTYLE
105
27
330
A
100
AcDbSymbolTableRecord
100
AcDbDimStyleTableRecord
  2
ISO-25
 70
     0
 41
2.5
 42
0.625
 43
3.75
 44
1.25
 73
     0
 74
     0
 77
     1
 78
     8
140
2.5
141
2.5
143
0.0393700787
147
0.625
171
     3
172
     1
178
     0
271
     2
272
     2
274
     3
278
    44
283
     0
284
     8
340
11
  0
ENDTAB
  0
TABLE
  2
BLOCK_RECORD
  5
1
330
0
100
AcDbSymbolTable
 70
     1
  0
BLOCK_RECORD
  5
1F
330
1
100
AcDbSymbolTableRecord
100
AcDbBlockTableRecord
  2
*Model_Space
340
22
  0
BLOCK_RECORD
  5
1B
330
1
100
AcDbSymbolTableRecord
100
AcDbBlockTableRecord
  2
*Paper_Space
340
1E
  0
BLOCK_RECORD
  5
23
330
1
100
AcDbSymbolTableRecord
100
AcDbBlockTableRecord
  2
*Paper_Space0
340
26
  0
ENDTAB
  0
ENDSEC
  0
SECTION
  2
BLOCKS
  0
BLOCK
  5
20
330
1F
100
AcDbEntity
  8
0
100
AcDbBlockBegin
  2
*Model_Space
 70
     0
 10
0.0
 20
0.0
 30
0.0
  3
*Model_Space
  1

  0
ENDBLK
  5
21
330
1F
100
AcDbEntity
  8
0
100
AcDbBlockEnd
  0
BLOCK
  5
1C
330
1B
100
AcDbEntity
 67
     1
  8
0
100
AcDbBlockBegin
  2
*Paper_Space
 70
     0
 10
0.0
 20
0.0
 30
0.0
  3
*Paper_Space
  1

  0
ENDBLK
  5
1D
330
1B
100
AcDbEntity
 67
     1
  8
0
100
AcDbBlockEnd
  0
BLOCK
  5
24
330
23
100
AcDbEntity
  8
0
100
AcDbBlockBegin
  2
*Paper_Space0
 70
     0
 10
0.0
 20
0.0
 30
0.0
  3
*Paper_Space0
  1

  0
ENDBLK
  5
25
330
23
100
AcDbEntity
  8
0
100
AcDbBlockEnd
  0
ENDSEC
  0
SECTION
  2
ENTITIES
  0
SPLINE
  5
7F
330
1F
100
AcDbEntity
  8
0
  6
Continuous
 62
     7
370
    25
100
AcDbSpline
210
0.0
220
0.0
230
1.0
 70
     8
 71
     3
 72
    66
 73
    62
 74
     0
 42
0.00000001
 43
0.00000001
 40
0.0
 40
0.0
 40
0.0
 40
0.0
 40
0.002432402769603
 40
0.0108692671025658
 40
0.0187870292152503
 40
0.0269224331048542
 40
0.0365232832168934
 40
0.0466325560828113
 40
0.0576602503266694
 40
0.0698822527562271
 40
0.0822036781783622
 40
0.0945271508588445
 40
0.1068564858393552
 40
0.1191750606865244
 40
0.1314684266890122
 40
0.1437219603284831
 40
0.155904011018725
 40
0.1685207024211146
 40
0.1815705241361527
 40
0.1952059134823585
 40
0.2095767553368914
 40
0.2248739655543088
 40
0.2413518021977996
 40
0.259369418254648
 40
0.279469896145514
 40
0.3025264313242664
 40
0.3298291154291953
 40
0.3617231336306099
 40
0.3892313805644338
 40
0.4153342612603022
 40
0.4429747175505449
 40
0.4692452385204904
 40
0.4917662619369982
 40
0.511799731588796
 40
0.5302907504821356
 40
0.5475891852018008
 40
0.5634018683002298
 40
0.5807754040228582
 40
0.5947637764361497
 40
0.6076462027338115
 40
0.6196910159926506
 40
0.6310924488580358
 40
0.6431945068202092
 40
0.6534250776631051
 40
0.6631676846795134
 40
0.6734320320964714
 40
0.6839163974173069
 40
0.6946624685395603
 40
0.7057025887927525
 40
0.7170636183324991
 40
0.7287658983696114
 40
0.7408358836220656
 40
0.7535371237649441
 40
0.767581572433203
 40
0.7828292792477513
 40
0.7998596363658357
 40
0.8197719130946605
 40
0.8457366621738502
 40
0.8958500576460827
 40
0.9500473429057134
 40
1.0
 40
1.0
 40
1.0
 40
1.0
 10
3977.078051255272
 20
7630.497279284967
 30
0.0
 10
3976.306324555486
 20
7630.500454335361
 30
0.0
 10
3972.857839898675
 20
7630.514642146372
 30
0.0
 10
3966.905787928251
 20
7630.659588747466
 30
0.0
 10
3959.199510796711
 20
7631.002727752694
 30
0.0
 10
3951.234160401587
 20
7631.573730309949
 30
0.0
 10
3942.710570252657
 20
7632.355255661216
 30
0.0
 10
3933.470064833432
 20
7633.400501599564
 30
0.0
 10
3923.625659285946
 20
7634.700242661174
 30
0.0
 10
3913.323506181413
 20
7636.232923483346
 30
0.0
 10
3902.925258585926
 20
7638.001591430409
 30
0.0
 10
3892.79858907225
 20
7639.94867985615
 30
0.0
 10
3883.006323727695
 20
7642.06582332225
 30
0.0
 10
3873.584265719049
 20
7644.346194518402
 30
0.0
 10
3864.570865247682
 20
7646.781244531631
 30
0.0
 10
3856.011212949067
 20
7649.358889745211
 30
0.0
 10
3847.81269538777
 20
7652.107100740074
 30
0.0
 10
3839.871309421319
 20
7655.056003643441
 30
0.0
 10
3832.078174810324
 20
7658.257840478342
 30
0.0
 10
3824.399823241557
 20
7661.741748190143
 30
0.0
 10
3816.771782130248
 20
7665.558172308918
 30
0.0
 10
3809.116900253905
 20
7669.774029186307
 30
0.0
 10
3801.328488354611
 20
7674.485805871916
 30
0.0
 10
3793.249436487716
 20
7679.839467604251
 30
0.0
 10
3784.629602428696
 20
7686.067074894248
 30
0.0
 10
3775.077887850583
 20
7693.544227195795
 30
0.0
 10
3764.113446332498
 20
7702.684166429662
 30
0.0
 10
3752.872016059753
 20
7712.709271047316
 30
0.0
 10
3742.072905949096
 20
7723.102976358211
 30
0.0
 10
3732.04980843281
 20
7733.470119922036
 30
0.0
 10
3722.405919705718
 20
7744.222559678415
 30
0.0
 10
3713.404872493206
 20
7755.076096535603
 30
0.0
 10
3705.466375432314
 20
7765.347390811495
 30
0.0
 10
3698.617252370819
 20
7774.890607949154
 30
0.0
 10
3692.525689583416
 20
7784.069885241634
 30
0.0
 10
3687.059863615946
 20
7792.999230062502
 30
0.0
 10
3681.88929799404
 20
7802.182003456521
 30
0.0
 10
3677.206048871547
 20
7811.226674159234
 30
0.0
 10
3672.990647934216
 20
7820.137398350171
 30
0.0
 10
3669.446747887597
 20
7828.377172124955
 30
0.0
 10
3666.307816730356
 20
7836.45833891942
 30
0.0
 10
3663.418373569455
 20
7844.753463554899
 30
0.0
 10
3660.876160768719
 20
7853.021893927426
 30
0.0
 10
3658.660489534331
 20
7861.21947981889
 30
0.0
 10
3656.835106555391
 20
7869.276025082746
 30
0.0
 10
3655.243100749773
 20
7877.708654113827
 30
0.0
 10
3653.861495240566
 20
7886.696822514617
 30
0.0
 10
3652.708540513183
 20
7896.152433988513
 30
0.0
 10
3651.786316762644
 20
7906.077634846035
 30
0.0
 10
3651.095843524471
 20
7916.469659225899
 30
0.0
 10
3650.639399965294
 20
7927.324509906477
 30
0.0
 10
3650.408257006744
 20
7938.712441930957
 30
0.0
 10
3650.354962441677
 20
7950.910729819298
 30
0.0
 10
3650.506156810108
 20
7964.16777583113
 30
0.0
 10
3650.879697708931
 20
7978.828764174724
 30
0.0
 10
3651.50229091942
 20
7995.364741331447
 30
0.0
 10
3652.442513096474
 20
8015.29946678594
 30
0.0
 10
3654.063128161574
 20
8045.70827534067
 30
0.0
 10
3656.647393946233
 20
8086.956076500372
 30
0.0
 10
3660.178586392035
 20
8135.764759064424
 30
0.0
 10
3662.761527671236
 20
8168.695676284141
 30
0.0
 10
3664.000364458837
 20
8184.490085560789
 30
0.0
  0
SPLINE
  5
80
330
1F
100
AcDbEntity
  8
0
  6
Continuous
 62
     7
370
    25
100
AcDbSpline
210
0.0
220
0.0
230
1.0
 70
     8
 71
     3
 72
    65
 73
    61
 74
     0
 42
0.00000001
 43
0.00000001
 40
0.0
 40
0.0
 40
0.0
 40
0.0
 40
0.052322401127665
 40
0.1084062671750919
 40
0.1584292773616924
 40
0.1852223796111211
 40
0.2066680569316235
 40
0.2235261178683514
 40
0.2385646032493538
 40
0.2523045768062648
 40
0.2651167887954957
 40
0.2766600230078499
 40
0.2888385370829747
 40
0.3006413200706343
 40
0.3120794966064743
 40
0.3231835298971618
 40
0.3339908517475464
 40
0.3445444200164655
 40
0.3549190607372083
 40
0.3655655674897262
 40
0.376959895657334
 40
0.3888729620222483
 40
0.4014660236685744
 40
0.4149322622356244
 40
0.4295376067664859
 40
0.4456449929714157
 40
0.4625943129945931
 40
0.4805010060379627
 40
0.4995906109870059
 40
0.5201998181815656
 40
0.5429159309838105
 40
0.5674787719056
 40
0.5930490417893168
 40
0.619825117324009
 40
0.6479993059705028
 40
0.6777760410810306
 40
0.7093486165296281
 40
0.7319617250510959
 40
0.7515127512878533
 40
0.7689527886400037
 40
0.7848452586444461
 40
0.7995653601141153
 40
0.8133767905143884
 40
0.826474749822003
 40
0.840357379870825
 40
0.8536269032864063
 40
0.8663884629358398
 40
0.8786242491284225
 40
0.8908839664713409
 40
0.9031900885316383
 40
0.9155282251136866
 40
0.9278844165785742
 40
0.9402468166748118
 40
0.9526026860072169
 40
0.9629479758729796
 40
0.9724568622997993
 40
0.9810297655520409
 40
0.9886822122052684
 40
0.9967039409526595
 40
0.9999999999999999
 40
0.9999999999999999
 40
0.9999999999999999
 40
0.9999999999999999
 10
4290.143358805659
 20
8184.489682446474
 30
0.0
 10
4291.445095548734
 20
8167.946125444024
 30
0.0
 10
4294.142151076004
 20
8133.66969275398
 30
0.0
 10
4297.740799788996
 20
8083.540588373394
 30
0.0
 10
4300.337436055576
 20
8041.459525449959
 30
0.0
 10
4301.963646394926
 20
8010.328968785975
 30
0.0
 10
4302.891487936665
 20
7989.699520609627
 30
0.0
 10
4303.452910477507
 20
7972.802995138401
 30
0.0
 10
4303.739532838792
 20
7958.371187596456
 30
0.0
 10
4303.800833405779
 20
7945.26389930576
 30
0.0
 10
4303.660623077746
 20
7933.324273946587
 30
0.0
 10
4303.323410492642
 20
7921.968432159938
 30
0.0
 10
4302.736199601374
 20
7911.06136521297
 30
0.0
 10
4301.875676699316
 20
7900.364445324221
 30
0.0
 10
4300.759106354627
 20
7890.206778663434
 30
0.0
 10
4299.392475558418
 20
7880.594483016162
 30
0.0
 10
4297.779276114431
 20
7871.525176933416
 30
0.0
 10
4295.928685993375
 20
7862.983137382002
 30
0.0
 10
4293.796054632869
 20
7854.854514730999
 30
0.0
 10
4291.397079679859
 20
7846.824671706112
 30
0.0
 10
4288.692442115702
 20
7838.791580598092
 30
0.0
 10
4285.641104642351
 20
7830.693780382098
 30
0.0
 10
4282.231504343576
 20
7822.540158574954
 30
0.0
 10
4278.405877279091
 20
7814.229182186506
 30
0.0
 10
4274.077640825323
 20
7805.617607877759
 30
0.0
 10
4269.261444783336
 20
7796.748842652617
 30
0.0
 10
4263.934515708506
 20
7787.74876258931
 30
0.0
 10
4258.117233270929
 20
7778.692673001417
 30
0.0
 10
4251.726550389711
 20
7769.496586226222
 30
0.0
 10
4244.613209906754
 20
7760.000945037741
 30
0.0
 10
4236.694351152456
 20
7750.106166856796
 30
0.0
 10
4228.033591182472
 20
7740.002989783735
 30
0.0
 10
4218.687892204814
 20
7729.855326588653
 30
0.0
 10
4208.678603192345
 20
7719.746880332982
 30
0.0
 10
4197.891572681528
 20
7709.61380396838
 30
0.0
 10
4186.180452777332
 20
7699.390595627025
 30
0.0
 10
4174.933443640066
 20
7690.201314110625
 30
0.0
 10
4164.76288748455
 20
7682.553582831214
 30
0.0
 10
4156.13388637746
 20
7676.615496564405
 30
0.0
 10
4148.047255042806
 20
7671.540867596296
 30
0.0
 10
4140.253507778588
 20
7667.091805546705
 30
0.0
 10
4132.601185656635
 20
7663.123312866328
 30
0.0
 10
4124.986784593623
 20
7659.539453817928
 30
0.0
 10
4117.075263220523
 20
7656.162758828489
 30
0.0
 10
4108.790877184082
 20
7652.97631564321
 30
0.0
 10
4100.077503797756
 20
7649.97563651629
 30
0.0
 10
4091.249564035933
 20
7647.259649698364
 30
0.0
 10
4082.212684940115
 20
7644.77101624947
 30
0.0
 10
4072.894836747383
 20
7642.470062823669
 30
0.0
 10
4063.184886605025
 20
7640.32601100583
 30
0.0
 10
4053.11040446307
 20
7638.345899614083
 30
0.0
 10
4042.711955943003
 20
7636.535613847186
 30
0.0
 10
4032.020536431178
 20
7634.907774452594
 30
0.0
 10
4021.694836654183
 20
7633.521784385758
 30
0.0
 10
4012.023835182459
 20
7632.414965868476
 30
0.0
 10
4003.331241898222
 20
7631.606505080377
 30
0.0
 10
3995.345417059221
 20
7631.026058901625
 30
0.0
 10
3987.719993792984
 20
7630.676165270663
 30
0.0
 10
3981.711880936085
 20
7630.523689590742
 30
0.0
 10
3978.121210023231
 20
7630.50465669095
 30
0.0
 10
3977.075505371139
 20
7630.49911377367
 30
0.0
  0
SPLINE
  5
81
330
1F
100
AcDbEntity
  8
0
  6
Continuous
 62
     7
370
    25
100
AcDbSpline
210
0.0
220
0.0
230
1.0
 70
     8
 71
     3
 72
    69
 73
    65
 74
     0
 42
0.00000001
 43
0.00000001
 40
0.0
 40
0.0
 40
0.0
 40
0.0
 40
0.0255150889786237
 40
0.0482318216373145
 40
0.06832628988806
 40
0.085914369764598
 40
0.1011450129390115
 40
0.1142194054784632
 40
0.1436391488564006
 40
0.1746194955566262
 40
0.2027689543912664
 40
0.2317792818582315
 40
0.2606361787148208
 40
0.2880355895294448
 40
0.3019352614985502
 40
0.3141367645487159
 40
0.3249134091608233
 40
0.3346552150023985
 40
0.3458747264157345
 40
0.3624534255142739
 40
0.3791075713811604
 40
0.3953259257077005
 40
0.4087408717224445
 40
0.424580432233548
 40
0.4430413980329579
 40
0.4642228820703604
 40
0.4893343359128915
 40
0.5172487238136965
 40
0.5449843510775125
 40
0.5697166900899251
 40
0.592066652104864
 40
0.6118878028203816
 40
0.6291494764389798
 40
0.6439194935091838
 40
0.6564053045303888
 40
0.6668635253870742
 40
0.6754986032214018
 40
0.6824697731500456
 40
0.6879020344180014
 40
0.6919002422504115
 40
0.6951208795827541
 40
0.7003017062259254
 40
0.7077644021291208
 40
0.7174116455973207
 40
0.7291413473848063
 40
0.7428833371989478
 40
0.7586349118925403
 40
0.7764860645180753
 40
0.7946353290935626
 40
0.8118430447292486
 40
0.8281542543546625
 40
0.8434455546075936
 40
0.8576158454456618
 40
0.870607011824787
 40
0.8823947714691133
 40
0.8879346752326305
 40
0.8939172950914328
 40
0.9005638691058385
 40
0.9079765107235419
 40
0.921628778100955
 40
0.9377000647010532
 40
0.9562905870050759
 40
0.9772514381308532
 40
1.0
 40
1.0
 40
1.0
 40
1.0
 10
4350.457776607655
 20
7644.378255152894
 30
0.0
 10
4350.45898117537
 20
7650.334297200189
 30
0.0
 10
4350.461258200361
 20
7661.593154965889
 30
0.0
 10
4350.474017361794
 20
7677.72156256683
 30
0.0
 10
4350.486697565587
 20
7692.126859162306
 30
0.0
 10
4350.497631383259
 20
7704.909466609759
 30
0.0
 10
4350.506619338254
 20
7716.15572062503
 30
0.0
 10
4350.517692587097
 20
7730.606464941044
 30
0.0
 10
4350.532900411273
 20
7749.283803957342
 30
0.0
 10
4350.554965918681
 20
7771.816631795085
 30
0.0
 10
4350.580828727585
 20
7794.330353187802
 30
0.0
 10
4350.610039581135
 20
7816.317460046701
 30
0.0
 10
4350.64361887504
 20
7838.116296589816
 30
0.0
 10
4350.675768577868
 20
7856.026970097939
 30
0.0
 10
4350.702848916835
 20
7869.687292961243
 30
0.0
 10
4350.722740741265
 20
7879.125862250655
 30
0.0
 10
4350.740616888107
 20
7887.521035868729
 30
0.0
 10
4350.757004887888
 20
7895.689782952042
 30
0.0
 10
4350.777308307429
 20
7905.3663978094
 30
0.0
 10
4350.80219218023
 20
7916.829409429
 30
0.0
 10
4350.830712530438
 20
7929.584861691011
 30
0.0
 10
4350.855417509595
 20
7941.526890967775
 30
0.0
 10
4350.870815084775
 20
7953.261452306233
 30
0.0
 10
4350.879075945327
 20
7965.575666895065
 30
0.0
 10
4350.882278987205
 20
7979.894336736351
 30
0.0
 10
4350.882324859286
 20
7996.605308962991
 30
0.0
 10
4350.881568971105
 20
8015.754809713652
 30
0.0
 10
4350.881220577665
 20
8036.593340888848
 30
0.0
 10
4350.883735506311
 20
8057.333358127436
 30
0.0
 10
4350.889245725504
 20
8076.638057307847
 30
0.0
 10
4350.897462017788
 20
8093.901026512586
 30
0.0
 10
4350.907877088418
 20
8109.237008937301
 30
0.0
 10
4350.919790536555
 20
8122.617858117143
 30
0.0
 10
4350.932795399371
 20
8134.106586293905
 30
0.0
 10
4350.946346251182
 20
8143.839817824384
 30
0.0
 10
4350.959864699032
 20
8151.989101597163
 30
0.0
 10
4350.973019378253
 20
8158.711395550106
 30
0.0
 10
4350.985540902576
 20
8164.130970666548
 30
0.0
 10
4350.997200997885
 20
8168.335447539608
 30
0.0
 10
4351.008192752537
 20
8171.553270278995
 30
0.0
 10
4351.022435779772
 20
8174.561066894787
 30
0.0
 10
4351.03486194993
 20
8178.630440994768
 30
0.0
 10
4351.051722923647
 20
8184.327681429759
 30
0.0
 10
4351.071538370256
 20
8191.745524795597
 30
0.0
 10
4351.093903375082
 20
8200.783157604292
 30
0.0
 10
4351.116487926296
 20
8211.404140184808
 30
0.0
 10
4351.136338248056
 20
8223.608275701625
 30
0.0
 10
4351.148520532866
 20
8236.952545367036
 30
0.0
 10
4351.147330667598
 20
8250.679992831328
 30
0.0
 10
4351.130804877314
 20
8264.015462001837
 30
0.0
 10
4351.100952645032
 20
8276.611130967753
 30
0.0
 10
4351.060927187493
 20
8288.412975010147
 30
0.0
 10
4351.013780357859
 20
8299.3356600032
 30
0.0
 10
4350.962456976622
 20
8309.321732397844
 30
0.0
 10
4350.917127480877
 20
8317.031791199915
 30
0.0
 10
4350.879733812252
 20
8322.925158461312
 30
0.0
 10
4350.848187338759
 20
8327.315501690015
 30
0.0
 10
4350.811809906493
 20
8331.904075582625
 30
0.0
 10
4350.759865421189
 20
8337.901679357043
 30
0.0
 10
4350.689034866726
 20
8345.377570337176
 30
0.0
 10
4350.602402769264
 20
8354.408039766566
 30
0.0
 10
4350.522208921861
 20
8364.177053502759
 30
0.0
 10
4350.465250154015
 20
8374.598284106609
 30
0.0
 10
4350.460334802244
 20
8381.431059683071
 30
0.0
 10
4350.457776607655
 20
8384.987177399802
 30
0.0
  0
SPLINE
  5
82
330
1F
100
AcDbEntity
  8
0
  6
Continuous
 62
     7
370
    25
100
AcDbSpline
210
0.0
220
0.0
230
1.0
 70
     8
 71
     3
 72
    62
 73
    58
 74
     0
 42
0.00000001
 43
0.00000001
 40
0.0
 40
0.0
 40
0.0
 40
0.0
 40
0.0164904337201468
 40
0.0311168123346423
 40
0.0437164876817285
 40
0.0542307019640588
 40
0.0626772665990238
 40
0.0691313233701678
 40
0.073758196012464
 40
0.0774137535302621
 40
0.0859874634478279
 40
0.0964806922207165
 40
0.10894241559975
 40
0.1233778439277228
 40
0.1410577989396418
 40
0.1608667550883981
 40
0.1816609407128675
 40
0.2007027736842546
 40
0.2179186425088873
 40
0.2335717024368004
 40
0.2478671598599986
 40
0.2655225632673676
 40
0.2809728590221401
 40
0.2957423993569879
 40
0.311600032890311
 40
0.3322511546625439
 40
0.3552990198554148
 40
0.3812969657290113
 40
0.4101313845481354
 40
0.440433113768961
 40
0.4714780872770714
 40
0.4979083953893493
 40
0.5239924962989144
 40
0.5493281143213906
 40
0.573497531567932
 40
0.5960401155366389
 40
0.6151784299714254
 40
0.6327336287778655
 40
0.6525553009437758
 40
0.6742118429640532
 40
0.6953889562050934
 40
0.7136949003575449
 40
0.7381183792887759
 40
0.760439878830927
 40
0.7829975021373492
 40
0.805782361919013
 40
0.8149016302268693
 40
0.8252627279370457
 40
0.8375173091992166
 40
0.851943857839502
 40
0.8688399646889081
 40
0.8850316760773297
 40
0.9033365187718614
 40
0.9238965168762693
 40
0.946806970895987
 40
0.9721376146818967
 40
1.0
 40
1.0
 40
1.0
 40
1.0
 10
3603.696111741949
 20
8384.987177399911
 30
0.0
 10
3603.694547445516
 20
8383.37767310479
 30
0.0
 10
3603.691595678488
 20
8380.34060058426
 30
0.0
 10
3603.666694179879
 20
8375.800444770246
 30
0.0
 10
3603.63533582027
 20
8371.669782541847
 30
0.0
 10
3603.602590287097
 20
8367.947291118913
 30
0.0
 10
3603.572708937038
 20
8364.613312993306
 30
0.0
 10
3603.547314892757
 20
8361.658731521142
 30
0.0
 10
3603.524794736472
 20
8358.880002095202
 30
0.0
 10
3603.494233605323
 20
8354.800676655906
 30
0.0
 10
3603.452491152624
 20
8349.228974292653
 30
0.0
 10
3603.394439400856
 20
8341.225566693385
 30
0.0
 10
3603.32857048952
 20
8331.645816033306
 30
0.0
 10
3603.255962418231
 20
8320.139232695748
 30
0.0
 10
3603.181452363573
 20
8306.688029153729
 30
0.0
 10
3603.112619722769
 20
8291.555729309186
 30
0.0
 10
3603.059658529138
 20
8276.054343767159
 30
0.0
 10
3603.025503519298
 20
8261.22419231414
 30
0.0
 10
3603.009565714771
 20
8247.725518600424
 30
0.0
 10
3603.007153925738
 20
8235.45700187223
 30
0.0
 10
3603.01495940426
 20
8223.07141911243
 30
0.0
 10
3603.032089427023
 20
8210.735924486034
 30
0.0
 10
3603.0578192071
 20
8198.28790170403
 30
0.0
 10
3603.08656584904
 20
8186.314053292203
 30
0.0
 10
3603.117796784354
 20
8172.974250565913
 30
0.0
 10
3603.151563743094
 20
8157.478246078123
 30
0.0
 10
3603.184821576401
 20
8139.343191576744
 30
0.0
 10
3603.213501091101
 20
8119.082057813866
 30
0.0
 10
3603.236270168878
 20
8096.936395050767
 30
0.0
 10
3603.252779512284
 20
8073.472218845074
 30
0.0
 10
3603.261814188224
 20
8050.632876928802
 30
0.0
 10
3603.265650161572
 20
8028.891576366746
 30
0.0
 10
3603.266336078925
 20
8008.63800180124
 30
0.0
 10
3603.266593225636
 20
7988.976264377611
 30
0.0
 10
3603.268719020521
 20
7970.242808221101
 30
0.0
 10
3603.278595876026
 20
7953.127287325703
 30
0.0
 10
3603.302994247008
 20
7937.752823639974
 30
0.0
 10
3603.337252600325
 20
7923.099939848384
 30
0.0
 10
3603.372133817536
 20
7907.785767513076
 30
0.0
 10
3603.405615278338
 20
7891.531045605968
 30
0.0
 10
3603.438790702121
 20
7875.672316376756
 30
0.0
 10
3603.472141822911
 20
7859.132822990499
 30
0.0
 10
3603.502557810803
 20
7842.320690723473
 30
0.0
 10
3603.531282604557
 20
7824.506253183319
 30
0.0
 10
3603.556213207892
 20
7807.101664963683
 30
0.0
 10
3603.574095297842
 20
7793.109306208521
 30
0.0
 10
3603.586870400659
 20
7782.236629389475
 30
0.0
 10
3603.596075500659
 20
7774.165043565825
 30
0.0
 10
3603.606473773712
 20
7764.84648293795
 30
0.0
 10
3603.618441646902
 20
7753.965036715775
 30
0.0
 10
3603.631191585112
 20
7742.155278946321
 30
0.0
 10
3603.644484498478
 20
7729.406997797008
 30
0.0
 10
3603.657949650085
 20
7715.757521839784
 30
0.0
 10
3603.671811503142
 20
7700.440027662861
 30
0.0
 10
3603.684341544907
 20
7683.375557199449
 30
0.0
 10
3603.694053752988
 20
7664.496889565441
 30
0.0
 10
3603.695404318739
 20
7651.293933124668
 30
0.0
 10
3603.696111741949
 20
7644.378255151683
 30
0.0
  0
SPLINE
  5
83
330
1F
100
AcDbEntity
  8
0
  6
Continuous
 62
     7
370
    25
100
AcDbSpline
210
0.0
220
0.0
230
1.0
 70
     8
 71
     3
 72
    20
 73
    16
 74
     0
 42
0.00000001
 43
0.00000001
 40
0.0
 40
0.0
 40
0.0
 40
0.0
 40
0.0449451173768178
 40
0.1325559207082687
 40
0.2188248367689497
 40
0.3051650677087495
 40
0.3898475800356573
 40
0.4746498590449959
 40
0.5589068785425957
 40
0.6421423777175236
 40
0.7257736833927143
 40
0.8087915209029508
 40
0.8919076778808258
 40
0.9752657803161653
 40
0.9999999999999999
 40
0.9999999999999999
 40
0.9999999999999999
 40
0.9999999999999999
 10
4249.834005802378
 20
8221.036741141255
 30
0.0
 10
4250.73010706898
 20
8221.03931517132
 30
0.0
 10
4253.372964299642
 20
8221.046906717298
 30
0.0
 10
4257.702500314231
 20
8220.377465703037
 30
0.0
 10
4262.726303207249
 20
8219.072303586832
 30
0.0
 10
4267.500215562632
 20
8217.1645131041
 30
0.0
 10
4271.969751824966
 20
8214.690222233727
 30
0.0
 10
4276.06100051926
 20
8211.700773348419
 30
0.0
 10
4279.732193972721
 20
8208.250210536879
 30
0.0
 10
4282.910204923105
 20
8204.370897356413
 30
0.0
 10
4285.56913485875
 20
8200.151321155177
 30
0.0
 10
4287.684246111586
 20
8195.630944322742
 30
0.0
 10
4289.149735316284
 20
8190.879932074253
 30
0.0
 10
4289.950788598208
 20
8187.133518202849
 30
0.0
 10
4290.038707423413
 20
8184.981948461204
 30
0.0
 10
4290.058825443772
 20
8184.489615633009
 30
0.0
  0
SPLINE
  5
84
330
1F
100
AcDbEntity
  8
0
  6
Continuous
 62
     7
370
    25
100
AcDbSpline
210
0.0
220
0.0
230
1.0
 70
     8
 71
     3
 72
    20
 73
    16
 74
     0
 42
0.00000001
 43
0.00000001
 40
0.0
 40
0.0
 40
0.0
 40
0.0
 40
0.0796151771604537
 40
0.1619219350815949
 40
0.2440051039811892
 40
0.326233830579041
 40
0.4089367849245912
 40
0.4912610015813523
 40
0.5743282834828858
 40
0.6578062914786307
 40
0.7413799809314731
 40
0.8259646073230068
 40
0.9115348232924341
 40
0.9981032324891467
 40
1.0
 40
1.0
 40
1.0
 40
1.0
 10
3664.034973062355
 20
8184.475040215131
 30
0.0
 10
3664.217107386175
 20
8186.068800304245
 30
0.0
 10
3664.587533518599
 20
8189.31020133969
 30
0.0
 10
3665.915767670587
 20
8194.057880983893
 30
0.0
 10
3667.804589848085
 20
8198.65888920635
 30
0.0
 10
3670.288431319579
 20
8202.98158401449
 30
0.0
 10
3673.28214098121
 20
8206.97263544942
 30
0.0
 10
3676.775838971649
 20
8210.560116072045
 30
0.0
 10
3680.701848275049
 20
8213.691771734128
 30
0.0
 10
3685.002167600299
 20
8216.337808159005
 30
0.0
 10
3689.631398761987
 20
8218.423629348561
 30
0.0
 10
3694.517612167573
 20
8219.972886613206
 30
0.0
 10
3699.611111262473
 20
8220.85713390202
 30
0.0
 10
3703.12269455594
 20
8221.22050151837
 30
0.0
 10
3704.901054833557
 20
8221.117156526923
 30
0.0
 10
3704.939184367942
 20
8221.114940723715
 30
0.0
  0
ARC
  5
85
330
1F
100
AcDbEntity
  8
0
  6
Continuous
 62
     7
370
    25
100
AcDbCircle
 10
4340.4605098012
 20
8387.8664804638
 30
0.0
 40
9.999999930393125
100
AcDbArc
 50
0.0773915542
 51
89.8094070318
  0
ARC
  5
86
330
1F
100
AcDbEntity
  8
0
  6
Continuous
 62
     7
370
    25
100
AcDbCircle
 10
3613.6933785483
 20
8387.8664804639
 30
0.0
 40
9.999999930285254
100
AcDbArc
 50
90.1905929672
 51
179.8852041438
  0
SPLINE
  5
87
330
1F
100
AcDbEntity
  8
0
  6
Continuous
 62
     7
370
    25
100
AcDbSpline
210
0.0
220
0.0
230
1.0
 70
     8
 71
     3
 72
    51
 73
    47
 74
     0
 42
0.00000001
 43
0.00000001
 40
0.0
 40
0.0
 40
0.0
 40
0.0
 40
0.0169375919490407
 40
0.0272371767325507
 40
0.0375546100660795
 40
0.0477924556690919
 40
0.0548229691454324
 40
0.0618808223328315
 40
0.0757378006760559
 40
0.0896534867389622
 40
0.1036057457380237
 40
0.1175127829542988
 40
0.1419151126074624
 40
0.1663640504400357
 40
0.1908881349937033
 40
0.2154675608245845
 40
0.2400444117592534
 40
0.2645322533611094
 40
0.3040733821340091
 40
0.3436167075715703
 40
0.3831602022811335
 40
0.422698056039404
 40
0.4427754686355691
 40
0.4628792106646696
 40
0.4829543717574089
 40
0.5029927490325404
 40
0.5168869606400425
 40
0.5308248043114422
 40
0.5447405240023125
 40
0.5586044628455261
 40
0.5724629541013814
 40
0.5863582091356567
 40
0.6002311752493521
 40
0.6152704990977234
 40
0.6303133323890029
 40
0.6453077099215135
 40
0.6603047777580131
 40
0.7002262423208445
 40
0.7401600375651415
 40
0.7800934485897436
 40
0.8408398322853172
 40
0.9015861408929665
 40
0.962328106209325
 40
0.9748965723661127
 40
0.9874623444084616
 40
1.0
 40
1.0
 40
1.0
 40
1.0
 10
3977.076944174788
 20
7621.784171166612
 30
0.0
 10
3970.295755195838
 20
7621.916535325654
 30
0.0
 10
3959.390991210957
 20
7622.129388841296
 30
0.0
 10
3944.379895307796
 20
7621.773710780209
 30
0.0
 10
3932.121532275889
 20
7620.416525105852
 30
0.0
 10
3921.379113433597
 20
7618.860091324238
 30
0.0
 10
3912.307123267818
 20
7618.687365302075
 30
0.0
 10
3902.255177596953
 20
7619.736961754988
 30
0.0
 10
3890.24300027876
 20
7621.294885534396
 30
0.0
 10
3876.792128549482
 20
7624.056335438656
 30
0.0
 10
3864.17536081101
 20
7627.329287873074
 30
0.0
 10
3849.351988477319
 20
7631.891502183107
 30
0.0
 10
3832.779949285675
 20
7637.856393671925
 30
0.0
 10
3815.024654951771
 20
7645.531428025605
 30
0.0
 10
3798.678276178796
 20
7653.841910545378
 30
0.0
 10
3783.526192075579
 20
7662.734929611773
 30
0.0
 10
3769.371360600701
 20
7672.155274936175
 30
0.0
 10
3753.202508969284
 20
7684.094295920087
 30
0.0
 10
3735.33053036559
 20
7699.016278088027
 30
0.0
 10
3715.708480617554
 20
7717.608902661085
 30
0.0
 10
3695.786365221126
 20
7737.705626545992
 30
0.0
 10
3678.605128088803
 20
7755.986715167024
 30
0.0
 10
3664.691112398727
 20
7771.761148691643
 30
0.0
 10
3654.543035213332
 20
7784.482682359842
 30
0.0
 10
3645.025497249631
 20
7798.224453543764
 30
0.0
 10
3637.322988498024
 20
7811.646470762867
 30
0.0
 10
3631.410679153421
 20
7824.505611903073
 30
0.0
 10
3626.975518865208
 20
7836.517961435021
 30
0.0
 10
3623.274558902767
 20
7849.376485748186
 30
0.0
 10
3620.386972469748
 20
7863.106234369275
 30
0.0
 10
3618.290189069489
 20
7877.745100526997
 30
0.0
 10
3616.740457854831
 20
7893.077976609638
 30
0.0
 10
3615.55420922016
 20
7909.367685460949
 30
0.0
 10
3614.629321845706
 20
7926.477363020872
 30
0.0
 10
3613.980232133948
 20
7944.270895176225
 30
0.0
 10
3613.554275620791
 20
7962.194486174604
 30
0.0
 10
3613.161534733913
 20
7990.135020258112
 30
0.0
 10
3612.87303925145
 20
8028.121693376363
 30
0.0
 10
3612.632268166069
 20
8076.100623614405
 30
0.0
 10
3612.279122209037
 20
8132.42162862154
 30
0.0
 10
3611.572385154438
 20
8197.052899512735
 30
0.0
 10
3610.815934325627
 20
8270.016186008092
 30
0.0
 10
3610.799840794595
 20
8323.715467707716
 30
0.0
 10
3610.793754172534
 20
8358.104362612
 30
0.0
 10
3610.875453009964
 20
8373.209517795825
 30
0.0
 10
3611.591847365599
 20
8383.219384907337
 30
0.0
 10
3611.949643353847
 20
8388.21871281552
 30
0.0
  0
ARC
  5
88
330
1F
100
AcDbEntity
  8
0
  6
Continuous
 62
     7
370
    25
100
AcDbCircle
 10
3614.0388781585
 20
8169.1355344418
 30
0.0
 40
219.0931398935225
100
AcDbArc
 50
88.2490591589
 51
90.5463710594
  0
SPLINE
  5
89
330
1F
100
AcDbEntity
  8
0
  6
Continuous
 62
     7
370
    25
100
AcDbSpline
210
0.0
220
0.0
230
1.0
 70
     8
 71
     3
 72
    47
 73
    43
 74
     0
 42
0.00000001
 43
0.00000001
 40
0.0
 40
0.0
 40
0.0
 40
0.0
 40
0.0381679217939735
 40
0.1312005099180509
 40
0.2242334695188637
 40
0.2649407536606099
 40
0.3056490150396119
 40
0.346345640842361
 40
0.3612850240563031
 40
0.3762214916811442
 40
0.3909815987761131
 40
0.4057372450646095
 40
0.4191012580963377
 40
0.4324858900735717
 40
0.4458384767977016
 40
0.459131270482784
 40
0.4724766135650572
 40
0.4858447368069381
 40
0.4991687072051406
 40
0.5188849614648142
 40
0.5386387903316284
 40
0.5584224377792406
 40
0.578179419914065
 40
0.6051343965433024
 40
0.6320992835859442
 40
0.6590597042651868
 40
0.6990338565768771
 40
0.7390057878133147
 40
0.7635214395608939
 40
0.7881233992591397
 40
0.8127276340290988
 40
0.8372776803823855
 40
0.8617543972514069
 40
0.8861863301617735
 40
0.8997244047261469
 40
0.913300324313668
 40
0.9268498094874278
 40
0.9403517232555582
 40
0.9545570253895426
 40
0.9688372769752502
 40
0.9830692572568132
 40
1.0
 40
1.0
 40
1.0
 40
1.0
 10
3620.733252905355
 20
8388.126377389966
 30
0.0
 10
3620.601394653968
 20
8373.160461291136
 30
0.0
 10
3620.148137861203
 20
8321.715799615391
 30
0.0
 10
3621.119116973256
 20
8233.799812717025
 30
0.0
 10
3622.064843642117
 20
8144.895098284177
 30
0.0
 10
3622.51066330338
 20
8076.471959947977
 30
0.0
 10
3622.73129160795
 20
8028.576033999377
 30
0.0
 10
3623.001711646512
 20
7990.789599974366
 30
0.0
 10
3623.375458789474
 20
7963.162756718471
 30
0.0
 10
3623.786709575882
 20
7945.758339842543
 30
0.0
 10
3624.420571021903
 20
7928.563457930246
 30
0.0
 10
3625.33422905129
 20
7912.210729452253
 30
0.0
 10
3626.512588094361
 20
7896.744742937994
 30
0.0
 10
3628.038047722223
 20
7882.26437765204
 30
0.0
 10
3630.090099451842
 20
7868.415865716433
 30
0.0
 10
3632.917844687771
 20
7855.415360440921
 30
0.0
 10
3636.5392990861
 20
7843.283095567981
 30
0.0
 10
3640.86215607724
 20
7831.964731414423
 30
0.0
 10
3646.656412603003
 20
7819.749234782458
 30
0.0
 10
3654.221153559794
 20
7806.936890620706
 30
0.0
 10
3663.588054563045
 20
7793.774437597575
 30
0.0
 10
3673.54264838535
 20
7781.622578414669
 30
0.0
 10
3685.072185149096
 20
7768.861125362817
 30
0.0
 10
3697.760901181878
 20
7755.501361613251
 30
0.0
 10
3711.40979090486
 20
7741.710727778551
 30
0.0
 10
3726.932398866138
 20
7726.534992605604
 30
0.0
 10
3744.364409160101
 20
7710.304289301367
 30
0.0
 10
3762.105123704232
 20
7695.665742591105
 30
0.0
 10
3778.094683768255
 20
7683.960195412226
 30
0.0
 10
3792.020119055513
 20
7674.742573263594
 30
0.0
 10
3806.913879845812
 20
7665.980524668714
 30
0.0
 10
3822.968851366713
 20
7657.697659622811
 30
0.0
 10
3840.397467308911
 20
7649.919498755033
 30
0.0
 10
3856.550371650269
 20
7643.746480025973
 30
0.0
 10
3870.867645420836
 20
7638.971254543788
 30
0.0
 10
3882.867560665442
 20
7635.437903975358
 30
0.0
 10
3895.639656267761
 20
7632.210296013999
 30
0.0
 10
3909.407230052702
 20
7629.283901697618
 30
0.0
 10
3924.453730332641
 20
7626.900919576842
 30
0.0
 10
3940.570949544617
 20
7625.222907403525
 30
0.0
 10
3958.196161880117
 20
7624.139973825729
 30
0.0
 10
3970.430185353877
 20
7624.023974247861
 30
0.0
 10
3977.076944174788
 20
7623.960951545715
 30
0.0
  0
LINE
  5
8A
330
1F
100
AcDbEntity
  8
0
  6
Continuous
 62
     7
370
    25
100
AcDbLine
 10
3977.0769441748
 20
7623.9609515457
 30
0.0
 11
3977.0769441748
 21
7621.7841711666
 31
0.0
  0
SPLINE
  5
8B
330
1F
100
AcDbEntity
  8
0
  6
Continuous
 62
     7
370
    25
100
AcDbSpline
210
0.0
220
0.0
230
1.0
 70
     8
 71
     3
 72
    47
 73
    43
 74
     0
 42
0.00000001
 43
0.00000001
 40
0.0
 40
0.0
 40
0.0
 40
0.0
 40
0.0381679217939725
 40
0.131200509918048
 40
0.2242334695188587
 40
0.2649407536606044
 40
0.3056490150396055
 40
0.3463456408423538
 40
0.3612850240562955
 40
0.3762214916811365
 40
0.3909815987761049
 40
0.4057372450646009
 40
0.4191012580963288
 40
0.4324858900735625
 40
0.4458384767976922
 40
0.4591312704827744
 40
0.4724766135650473
 40
0.4858447368069277
 40
0.4991687072051302
 40
0.5188849614648036
 40
0.5386387903316178
 40
0.5584224377792295
 40
0.5781794199140536
 40
0.6051343965432903
 40
0.6320992835859314
 40
0.6590597042651732
 40
0.6990338565768628
 40
0.7390057878132996
 40
0.7635214395608779
 40
0.7881233992591234
 40
0.8127276340290821
 40
0.8372776803823679
 40
0.8617543972513887
 40
0.886186330161755
 40
0.8997244047261279
 40
0.9133003243136487
 40
0.9268498094874084
 40
0.9403517232555384
 40
0.9545570253895225
 40
0.9688372769752299
 40
0.9830692572567926
 40
1.0
 40
1.0
 40
1.0
 40
1.0
 10
4333.420635444247
 20
8388.126377389966
 30
0.0
 10
4333.552493695634
 20
8373.160461291136
 30
0.0
 10
4334.005750488399
 20
8321.715799615393
 30
0.0
 10
4333.034771376346
 20
8233.799812717025
 30
0.0
 10
4332.089044707483
 20
8144.895098284177
 30
0.0
 10
4331.643225046222
 20
8076.471959947977
 30
0.0
 10
4331.422596741651
 20
8028.576033999377
 30
0.0
 10
4331.15217670309
 20
7990.789599974365
 30
0.0
 10
4330.778429560128
 20
7963.162756718471
 30
0.0
 10
4330.36717877372
 20
7945.758339842543
 30
0.0
 10
4329.733317327698
 20
7928.563457930245
 30
0.0
 10
4328.819659298312
 20
7912.210729452254
 30
0.0
 10
4327.64130025524
 20
7896.744742937994
 30
0.0
 10
4326.115840627378
 20
7882.26437765204
 30
0.0
 10
4324.063788897759
 20
7868.415865716433
 30
0.0
 10
4321.236043661832
 20
7855.41536044092
 30
0.0
 10
4317.614589263504
 20
7843.283095567981
 30
0.0
 10
4313.291732272363
 20
7831.964731414422
 30
0.0
 10
4307.497475746598
 20
7819.749234782458
 30
0.0
 10
4299.932734789806
 20
7806.936890620706
 30
0.0
 10
4290.565833786557
 20
7793.774437597575
 30
0.0
 10
4280.611239964252
 20
7781.622578414668
 30
0.0
 10
4269.081703200506
 20
7768.861125362816
 30
0.0
 10
4256.392987167722
 20
7755.501361613252
 30
0.0
 10
4242.744097444741
 20
7741.71072777855
 30
0.0
 10
4227.221489483463
 20
7726.534992605604
 30
0.0
 10
4209.7894791895
 20
7710.304289301367
 30
0.0
 10
4192.048764645369
 20
7695.665742591105
 30
0.0
 10
4176.059204581346
 20
7683.960195412226
 30
0.0
 10
4162.133769294087
 20
7674.742573263594
 30
0.0
 10
4147.240008503788
 20
7665.980524668714
 30
0.0
 10
4131.185036982886
 20
7657.697659622811
 30
0.0
 10
4113.756421040689
 20
7649.919498755034
 30
0.0
 10
4097.603516699332
 20
7643.746480025973
 30
0.0
 10
4083.286242928765
 20
7638.971254543787
 30
0.0
 10
4071.286327684158
 20
7635.437903975357
 30
0.0
 10
4058.51423208184
 20
7632.210296013999
 30
0.0
 10
4044.746658296899
 20
7629.283901697618
 30
0.0
 10
4029.700158016959
 20
7626.900919576842
 30
0.0
 10
4013.582938804983
 20
7625.222907403526
 30
0.0
 10
3995.957726469475
 20
7624.139973825728
 30
0.0
 10
3983.723702995706
 20
7624.023974247861
 30
0.0
 10
3977.076944174788
 20
7623.960951545715
 30
0.0
  0
ARC
  5
8C
330
1F
100
AcDbEntity
  8
0
  6
Continuous
 62
     7
370
    25
100
AcDbCircle
 10
4340.1150101911
 20
8169.1355344417
 30
0.0
 40
219.0931398936198
100
AcDbArc
 50
89.4536289406
 51
91.7509408411
  0
SPLINE
  5
8D
330
1F
100
AcDbEntity
  8
0
  6
Continuous
 62
     7
370
    25
100
AcDbSpline
210
0.0
220
0.0
230
1.0
 70
     8
 71
     3
 72
    51
 73
    47
 74
     0
 42
0.00000001
 43
0.00000001
 40
0.0
 40
0.0
 40
0.0
 40
0.0
 40
0.0169375919490612
 40
0.0272371767325708
 40
0.0375546100660995
 40
0.0477924556691116
 40
0.0548229691454521
 40
0.0618808223328506
 40
0.0757378006760748
 40
0.0896534867389807
 40
0.103605745738042
 40
0.1175127829543167
 40
0.1419151126074799
 40
0.1663640504400527
 40
0.1908881349937197
 40
0.2154675608246004
 40
0.240044411759269
 40
0.2645322533611245
 40
0.3040733821340234
 40
0.3436167075715837
 40
0.3831602022811463
 40
0.422698056039416
 40
0.4427754686355802
 40
0.4628792106646793
 40
0.4829543717574182
 40
0.5029927490325494
 40
0.516886960640051
 40
0.5308248043114503
 40
0.544740524002321
 40
0.5586044628455349
 40
0.5724629541013899
 40
0.586358209135665
 40
0.60023117524936
 40
0.6152704990977312
 40
0.6303133323890103
 40
0.6453077099215208
 40
0.6603047777580198
 40
0.7002262423208506
 40
0.7401600375651469
 40
0.7800934485897483
 40
0.8408398322853206
 40
0.9015861408929685
 40
0.9623281062093256
 40
0.9748965723661133
 40
0.9874623444084617
 40
1.0
 40
1.0
 40
1.0
 40
1.0
 10
3977.076944174788
 20
7621.784171166612
 30
0.0
 10
3983.858133153746
 20
7621.916535325655
 30
0.0
 10
3994.762897138635
 20
7622.129388841298
 30
0.0
 10
4009.773993041803
 20
7621.773710780204
 30
0.0
 10
4022.032356073709
 20
7620.416525105841
 30
0.0
 10
4032.774774916003
 20
7618.860091324239
 30
0.0
 10
4041.846765081782
 20
7618.687365302078
 30
0.0
 10
4051.898710752647
 20
7619.736961754986
 30
0.0
 10
4063.910888070841
 20
7621.294885534398
 30
0.0
 10
4077.361759800119
 20
7624.056335438658
 30
0.0
 10
4089.978527538591
 20
7627.329287873074
 30
0.0
 10
4104.801899872282
 20
7631.891502183107
 30
0.0
 10
4121.373939063927
 20
7637.856393671922
 30
0.0
 10
4139.12923339783
 20
7645.531428025602
 30
0.0
 10
4155.475612170805
 20
7653.841910545375
 30
0.0
 10
4170.627696274022
 20
7662.73492961177
 30
0.0
 10
4184.7825277489
 20
7672.155274936174
 30
0.0
 10
4200.951379380317
 20
7684.094295920087
 30
0.0
 10
4218.82335798401
 20
7699.016278088028
 30
0.0
 10
4238.445407732047
 20
7717.608902661085
 30
0.0
 10
4258.367523128475
 20
7737.705626545992
 30
0.0
 10
4275.548760260798
 20
7755.986715167022
 30
0.0
 10
4289.462775950874
 20
7771.761148691645
 30
0.0
 10
4299.610853136271
 20
7784.482682359851
 30
0.0
 10
4309.12839109997
 20
7798.224453543774
 30
0.0
 10
4316.830899851578
 20
7811.646470762868
 30
0.0
 10
4322.74320919618
 20
7824.505611903064
 30
0.0
 10
4327.178369484395
 20
7836.517961435015
 30
0.0
 10
4330.879329446835
 20
7849.376485748186
 30
0.0
 10
4333.766915879854
 20
7863.106234369275
 30
0.0
 10
4335.863699280114
 20
7877.745100526996
 30
0.0
 10
4337.413430494771
 20
7893.077976609638
 30
0.0
 10
4338.599679129442
 20
7909.367685460948
 30
0.0
 10
4339.524566503897
 20
7926.47736302087
 30
0.0
 10
4340.173656215654
 20
7944.270895176224
 30
0.0
 10
4340.599612728811
 20
7962.194486174604
 30
0.0
 10
4340.992353615689
 20
7990.135020258111
 30
0.0
 10
4341.280849098152
 20
8028.121693376362
 30
0.0
 10
4341.521620183534
 20
8076.100623614405
 30
0.0
 10
4341.874766140565
 20
8132.421628621538
 30
0.0
 10
4342.581503195164
 20
8197.052899512735
 30
0.0
 10
4343.337954023975
 20
8270.016186008092
 30
0.0
 10
4343.354047555008
 20
8323.715467707716
 30
0.0
 10
4343.360134177068
 20
8358.104362612
 30
0.0
 10
4343.278435339638
 20
8373.209517795825
 30
0.0
 10
4342.562040984003
 20
8383.219384907336
 30
0.0
 10
4342.204244995756
 20
8388.21871281552
 30
0.0
  0
LINE
  5
8E
330
1F
100
AcDbEntity
  8
0
  6
Continuous
 62
     7
370
    25
100
AcDbLine
 10
4333.4206354442
 20
8388.12637739
 30
0.0
 11
3620.7332529054
 21
8388.12637739
 31
0.0
  0
SPLINE
  5
8F
330
1F
100
AcDbEntity
  8
0
  6
Continuous
 62
     7
370
    25
100
AcDbSpline
210
0.0
220
0.0
230
1.0
 70
     8
 71
     3
 72
    16
 73
    12
 74
     0
 42
0.00000001
 43
0.00000001
 40
0.0
 40
0.0
 40
0.0
 40
0.0
 40
0.1102402519518367
 40
0.2204811266696196
 40
0.3306807413456341
 40
0.4408852078228178
 40
0.5515065332339552
 40
0.6621392027910618
 40
0.7744636876633337
 40
0.8868079180595432
 40
1.0
 40
1.0
 40
1.0
 40
1.0
 10
4300.094446182389
 20
8185.565972835264
 30
0.0
 10
4299.737155473948
 20
8188.313944714056
 30
0.0
 10
4299.022572038672
 20
8193.809903995398
 30
0.0
 10
4296.232862332515
 20
8201.68407739326
 30
0.0
 10
4292.235488166106
 20
8208.984743107281
 30
0.0
 10
4287.063560530309
 20
8215.534540371928
 30
0.0
 10
4280.851999601468
 20
8221.11692820576
 30
0.0
 10
4273.771887491866
 20
8225.654546581214
 30
0.0
 10
4265.991587784212
 20
8228.93319315727
 30
0.0
 10
4257.723477207293
 20
8231.036166914111
 30
0.0
 10
4252.058205858926
 20
8231.292635268746
 30
0.0
 10
4249.21492154681
 20
8231.421351512761
 30
0.0
  0
LINE
  5
90
330
1F
100
AcDbEntity
  8
0
  6
Continuous
 62
     7
370
    25
100
AcDbLine
 10
3704.9389668028
 20
8231.4213515128
 30
0.0
 11
4249.2149215468
 21
8231.4213515128
 31
0.0
  0
SPLINE
  5
91
330
1F
100
AcDbEntity
  8
0
  6
Continuous
 62
     7
370
    25
100
AcDbSpline
210
0.0
220
0.0
230
1.0
 70
     8
 71
     3
 72
    16
 73
    12
 74
     0
 42
0.00000001
 43
0.00000001
 40
0.0
 40
0.0
 40
0.0
 40
0.0
 40
0.110240251951836
 40
0.220481126669619
 40
0.3306807413456381
 40
0.4408852078228189
 40
0.5515065332339553
 40
0.6621392027910612
 40
0.7744636876633292
 40
0.886807918059539
 40
1.0
 40
1.0
 40
1.0
 40
1.0
 10
3654.059442167213
 20
8185.565972835264
 30
0.0
 10
3654.416732875653
 20
8188.313944714056
 30
0.0
 10
3655.131316310929
 20
8193.809903995398
 30
0.0
 10
3657.921026017088
 20
8201.68407739326
 30
0.0
 10
3661.918400183495
 20
8208.984743107283
 30
0.0
 10
3667.090327819294
 20
8215.534540371928
 30
0.0
 10
3673.301888748134
 20
8221.11692820576
 30
0.0
 10
3680.382000857736
 20
8225.654546581214
 30
0.0
 10
3688.16230056539
 20
8228.93319315727
 30
0.0
 10
3696.430411142308
 20
8231.036166914111
 30
0.0
 10
3702.095682490676
 20
8231.292635268746
 30
0.0
 10
3704.938966802793
 20
8231.421351512761
 30
0.0
  0
SPLINE
  5
92
330
1F
100
AcDbEntity
  8
0
  6
Continuous
 62
     7
370
    25
100
AcDbSpline
210
0.0
220
0.0
230
1.0
 70
     8
 71
     3
 72
    43
 73
    39
 74
     0
 42
0.00000001
 43
0.00000001
 40
0.0
 40
0.0
 40
0.0
 40
0.0
 40
0.0125730873511307
 40
0.0251534871052999
 40
0.0443107443401536
 40
0.0635263969796622
 40
0.0827173872200072
 40
0.1028463077330785
 40
0.123045684967098
 40
0.143249744359047
 40
0.163385071704298
 40
0.1868526610862321
 40
0.2103742305436043
 40
0.2339610811038947
 40
0.2575682407949084
 40
0.2811078011998437
 40
0.3270640517875046
 40
0.3730338612986841
 40
0.418989005114778
 40
0.4540141537789456
 40
0.4890758781847014
 40
0.5241024236176807
 40
0.5590795420191419
 40
0.5811487493975465
 40
0.6032785269327211
 40
0.6253538950503278
 40
0.6473486700786137
 40
0.6646287114394751
 40
0.6819947830014566
 40
0.6993751140929152
 40
0.716674694051181
 40
0.7417168448883117
 40
0.7668160341717439
 40
0.7920298580028388
 40
0.8172958529985579
 40
0.8424782970153529
 40
0.9212376416761607
 40
0.9999999999999999
 40
0.9999999999999999
 40
0.9999999999999999
 40
0.9999999999999999
 10
3977.076944174788
 20
7629.877606222207
 30
0.0
 10
3973.082254133632
 20
7629.926999392311
 30
0.0
 10
3965.090550772817
 20
7630.025814459174
 30
0.0
 10
3951.206868299701
 20
7630.885677984686
 30
0.0
 10
3935.609757349335
 20
7632.385118280507
 30
0.0
 10
3918.5752460088
 20
7634.65319007097
 30
0.0
 10
3901.863410581494
 20
7637.403763924805
 30
0.0
 10
3885.566190350236
 20
7640.6176770123
 30
0.0
 10
3869.896091552001
 20
7644.347040201659
 30
0.0
 10
3855.181257425684
 20
7648.499078052473
 30
0.0
 10
3840.793353724603
 20
7653.310366336722
 30
0.0
 10
3826.992981648556
 20
7658.840845352814
 30
0.0
 10
3813.804504054106
 20
7665.09900319721
 30
0.0
 10
3801.750146370775
 20
7671.760016220517
 30
0.0
 10
3790.63041542872
 20
7678.768240363659
 30
0.0
 10
3777.00063429364
 20
7688.429187264542
 30
0.0
 10
3761.00554973489
 20
7701.082613544518
 30
0.0
 10
3742.777793598532
 20
7717.321329189374
 30
0.0
 10
3726.644325591005
 20
7733.50967780571
 30
0.0
 10
3712.250602929712
 20
7749.34203457554
 30
0.0
 10
3699.593047350844
 20
7764.738543298014
 30
0.0
 10
3687.404331312702
 20
7781.514184215894
 30
0.0
 10
3677.240519480556
 20
7797.687301290782
 30
0.0
 10
3668.926886319639
 20
7812.771859306851
 30
0.0
 10
3662.311196135229
 20
7826.375615028627
 30
0.0
 10
3656.20233625482
 20
7841.163941336646
 30
0.0
 10
3651.079666842154
 20
7856.096564617797
 30
0.0
 10
3647.159693351034
 20
7871.083625854758
 30
0.0
 10
3644.401273198494
 20
7885.722500369566
 30
0.0
 10
3642.377505650684
 20
7901.017512130602
 30
0.0
 10
3640.932425272895
 20
7919.15936140687
 30
0.0
 10
3640.252402301111
 20
7940.189618302053
 30
0.0
 10
3640.325145743874
 20
7963.976323580862
 30
0.0
 10
3641.053572700022
 20
7987.936571852932
 30
0.0
 10
3642.207795443446
 20
8011.932089067674
 30
0.0
 10
3644.480411658708
 20
8052.897498128349
 30
0.0
 10
3648.198253959696
 20
8110.79024973832
 30
0.0
 10
3652.105687846048
 20
8160.640413896285
 30
0.0
 10
3654.059442167213
 20
8185.565972835264
 30
0.0
  0
SPLINE
  5
93
330
1F
100
AcDbEntity
  8
0
  6
Continuous
 62
     7
370
    25
100
AcDbSpline
210
0.0
220
0.0
230
1.0
 70
     8
 71
     3
 72
    43
 73
    39
 74
     0
 42
0.00000001
 43
0.00000001
 40
0.0
 40
0.0
 40
0.0
 40
0.0
 40
0.0125730873511562
 40
0.025153487105325
 40
0.0443107443401784
 40
0.0635263969796866
 40
0.0827173872200308
 40
0.1028463077331014
 40
0.1230456849671206
 40
0.143249744359069
 40
0.1633850717043195
 40
0.1868526610862531
 40
0.2103742305436244
 40
0.2339610811039144
 40
0.2575682407949275
 40
0.2811078011998622
 40
0.327064051787522
 40
0.3730338612987003
 40
0.418989005114793
 40
0.4540141537789595
 40
0.4890758781847145
 40
0.5241024236176929
 40
0.5590795420191532
 40
0.5811487493975572
 40
0.6032785269327312
 40
0.6253538950503374
 40
0.6473486700786228
 40
0.6646287114394834
 40
0.6819947830014649
 40
0.6993751140929232
 40
0.7166746940511883
 40
0.7417168448883183
 40
0.7668160341717497
 40
0.7920298580028439
 40
0.8172958529985627
 40
0.842478297015357
 40
0.921237641676163
 40
1.0
 40
1.0
 40
1.0
 40
1.0
 10
3977.076944174788
 20
7629.877606222207
 30
0.0
 10
3981.071634215951
 20
7629.926999392311
 30
0.0
 10
3989.063337576776
 20
7630.025814459174
 30
0.0
 10
4002.947020049899
 20
7630.885677984686
 30
0.0
 10
4018.544131000266
 20
7632.385118280507
 30
0.0
 10
4035.578642340801
 20
7634.653190070969
 30
0.0
 10
4052.290477768106
 20
7637.403763924805
 30
0.0
 10
4068.587697999364
 20
7640.617677012301
 30
0.0
 10
4084.257796797599
 20
7644.347040201659
 30
0.0
 10
4098.972630923917
 20
7648.499078052473
 30
0.0
 10
4113.360534624998
 20
7653.310366336722
 30
0.0
 10
4127.160906701046
 20
7658.840845352814
 30
0.0
 10
4140.349384295495
 20
7665.09900319721
 30
0.0
 10
4152.403741978826
 20
7671.760016220518
 30
0.0
 10
4163.52347292088
 20
7678.768240363659
 30
0.0
 10
4177.153254055961
 20
7688.429187264541
 30
0.0
 10
4193.148338614713
 20
7701.082613544518
 30
0.0
 10
4211.376094751071
 20
7717.321329189374
 30
0.0
 10
4227.509562758596
 20
7733.50967780571
 30
0.0
 10
4241.903285419889
 20
7749.342034575541
 30
0.0
 10
4254.560840998755
 20
7764.738543298013
 30
0.0
 10
4266.749557036899
 20
7781.514184215894
 30
0.0
 10
4276.913368869045
 20
7797.687301290782
 30
0.0
 10
4285.227002029963
 20
7812.771859306851
 30
0.0
 10
4291.842692214372
 20
7826.375615028626
 30
0.0
 10
4297.951552094781
 20
7841.163941336646
 30
0.0
 10
4303.074221507449
 20
7856.096564617797
 30
0.0
 10
4306.994194998569
 20
7871.083625854758
 30
0.0
 10
4309.752615151108
 20
7885.722500369566
 30
0.0
 10
4311.776382698918
 20
7901.017512130602
 30
0.0
 10
4313.221463076707
 20
7919.159361406869
 30
0.0
 10
4313.901486048492
 20
7940.189618302053
 30
0.0
 10
4313.828742605728
 20
7963.976323580861
 30
0.0
 10
4313.100315649581
 20
7987.936571852931
 30
0.0
 10
4311.946092906156
 20
8011.932089067674
 30
0.0
 10
4309.673476690893
 20
8052.897498128349
 30
0.0
 10
4305.955634389907
 20
8110.79024973832
 30
0.0
 10
4302.048200503555
 20
8160.640413896285
 30
0.0
 10
4300.094446182389
 20
8185.565972835264
 30
0.0
  0
SPLINE
  5
94
330
1F
100
AcDbEntity
  8
0
  6
Continuous
 62
     7
370
    25
100
AcDbSpline
210
0.0
220
0.0
230
1.0
 70
     8
 71
     3
 72
    19
 73
    15
 74
     0
 42
0.00000001
 43
0.00000001
 40
0.0
 40
0.0
 40
0.0
 40
0.0
 40
0.1366785977231018
 40
0.246060271757837
 40
0.3555178804111866
 40
0.4649487794773968
 40
0.5742660628397702
 40
0.6835299750925063
 40
0.7387390258336402
 40
0.7940826032897211
 40
0.849340545392415
 40
0.9044325025004415
 40
0.9522401265828961
 40
1.0
 40
1.0
 40
1.0
 40
1.0
 10
3977.076944174815
 20
8184.960899650672
 30
0.0
 10
3963.373582287437
 20
8184.94152261763
 30
0.0
 10
3938.70364122735
 20
8184.906638458031
 30
0.0
 10
3903.056967642237
 20
8184.674450684199
 30
0.0
 10
3870.143382663256
 20
8184.413298709657
 30
0.0
 10
3837.235562158155
 20
8184.144940140171
 30
0.0
 10
3804.345646898975
 20
8183.923181179431
 30
0.0
 10
3776.915339889174
 20
8183.826956143783
 30
0.0
 10
3754.994655395837
 20
8183.815046459264
 30
0.0
 10
3738.605182074583
 20
8183.825556456765
 30
0.0
 10
3722.45700949075
 20
8183.869099872649
 30
0.0
 10
3707.449565752825
 20
8183.925532805032
 30
0.0
 10
3693.533041487288
 20
8184.060949952249
 30
0.0
 10
3685.272286461858
 20
8184.10968206998
 30
0.0
 10
3681.143972708052
 20
8184.134035954251
 30
0.0
  0
SPLINE
  5
95
330
1F
100
AcDbEntity
  8
0
  6
Continuous
 62
     7
370
    25
100
AcDbSpline
210
0.0
220
0.0
230
1.0
 70
     8
 71
     3
 72
    19
 73
    15
 74
     0
 42
0.00000001
 43
0.00000001
 40
0.0
 40
0.0
 40
0.0
 40
0.0
 40
0.1366785977231021
 40
0.2460602717578383
 40
0.3555178804111874
 40
0.4649487794773993
 40
0.5742660628397717
 40
0.6835299750925071
 40
0.7387390258336413
 40
0.7940826032897211
 40
0.8493405453924143
 40
0.904432502500441
 40
0.9522401265828951
 40
0.9999999999999999
 40
0.9999999999999999
 40
0.9999999999999999
 40
0.9999999999999999
 10
3977.076944174788
 20
8184.960899650672
 30
0.0
 10
3990.780306062166
 20
8184.941522617632
 30
0.0
 10
4015.450247122252
 20
8184.906638458038
 30
0.0
 10
4051.096920707366
 20
8184.674450684181
 30
0.0
 10
4084.010505686346
 20
8184.413298709592
 30
0.0
 10
4116.918326191448
 20
8184.144940140072
 30
0.0
 10
4149.808241450628
 20
8183.92318117933
 30
0.0
 10
4177.238548460428
 20
8183.826956143768
 30
0.0
 10
4199.159232953765
 20
8183.815046459308
 30
0.0
 10
4215.548706275019
 20
8183.825556456796
 30
0.0
 10
4231.696878858852
 20
8183.869099872652
 30
0.0
 10
4246.704322596777
 20
8183.925532805034
 30
0.0
 10
4260.620846862314
 20
8184.06094995224
 30
0.0
 10
4268.881601887743
 20
8184.109682069977
 30
0.0
 10
4273.00991564155
 20
8184.134035954251
 30
0.0
  0
LINE
  5
96
330
1F
100
AcDbEntity
  8
0
  6
Continuous
 62
     7
370
    25
100
AcDbLine
 10
4350.4587637475
 20
8387.8833697384
 30
0.0
 11
4350.4577766077
 21
8387.866480394
 31
0.0
  0
LINE
  5
97
330
1F
100
AcDbEntity
  8
0
  6
Continuous
 62
     7
370
    25
100
AcDbLine
 10
4350.4577766077
 20
8387.866480394
 30
0.0
 11
4350.4577766077
 21
8384.9871773998
 31
0.0
  0
LINE
  5
98
330
1F
100
AcDbEntity
  8
0
  6
Continuous
 62
     7
370
    25
100
AcDbLine
 10
4350.4577766076
 20
7644.3782551529
 30
0.0
 11
4350.4577766076
 21
6871.121604419
 31
0.0
  0
SPLINE
  5
99
330
1F
100
AcDbEntity
  8
0
  6
Continuous
 62
     7
370
    25
100
AcDbSpline
210
0.0
220
0.0
230
1.0
 70
    24
 71
     3
 72
    61
 73
    57
 74
     0
 42
0.00000001
 43
0.00000001
 40
0.0
 40
0.0
 40
0.0
 40
0.0
 40
0.0418835411895109
 40
0.0801695906416817
 40
0.1148584946668749
 40
0.1459507197724928
 40
0.1734469155330366
 40
0.1916216710895143
 40
0.2079852936535735
 40
0.2225385172536787
 40
0.234148085524489
 40
0.2444274376778901
 40
0.2533781592315661
 40
0.2631645257102736
 40
0.2711081694017282
 40
0.2766698614152095
 40
0.2808876239534834
 40
0.2855807991332341
 40
0.2898945842179288
 40
0.293756826840703
 40
0.2993790163670287
 40
0.3047260207007403
 40
0.3157924418176165
 40
0.3223573354031235
 40
0.3301308003856878
 40
0.3395100253794989
 40
0.3506974336661146
 40
0.3640550557437447
 40
0.3799566156618573
 40
0.3983011742607365
 40
0.4200600077682156
 40
0.4390004302457212
 40
0.4609403328841448
 40
0.4842717927335236
 40
0.5102387311486293
 40
0.5408645837037277
 40
0.552506788699237
 40
0.5654033176120301
 40
0.5737903968223286
 40
0.584810927881021
 40
0.5994430462345788
 40
0.6176867519551754
 40
0.6374006651396208
 40
0.655685899362554
 40
0.6772536397827288
 40
0.6972402653321678
 40
0.7156457778195537
 40
0.7344257157044919
 40
0.7594410661422949
 40
0.7909190838090707
 40
0.8219158216197429
 40
0.8524312987109248
 40
0.8891148538901326
 40
0.9260116806744033
 40
0.9629733842997781
 40
1.0
 40
1.0
 40
1.0
 40
1.0
 10
4350.457776607654
 20
6871.121604419032
 30
0.0
 10
4350.45316434157
 20
6871.121604419032
 30
0.0
 10
4350.444335969533
 20
6871.121604419031
 30
0.0
 10
4350.365245473301
 20
6871.121604419031
 30
0.0
 10
4350.236749965794
 20
6871.121604419031
 30
0.0
 10
4350.055371830266
 20
6871.121604419031
 30
0.0
 10
4349.838573694785
 20
6871.121604419031
 30
0.0
 10
4349.600283429189
 20
6871.121604419031
 30
0.0
 10
4349.360795961224
 20
6871.121604419031
 30
0.0
 10
4349.098642096284
 20
6871.121604419031
 30
0.0
 10
4348.816236948139
 20
6871.121604419031
 30
0.0
 10
4348.519391502051
 20
6871.121604419031
 30
0.0
 10
4348.170167337643
 20
6871.121604419031
 30
0.0
 10
4347.751665912035
 20
6871.121604419031
 30
0.0
 10
4347.246436298306
 20
6871.121604419031
 30
0.0
 10
4346.703842398128
 20
6871.121604419031
 30
0.0
 10
4346.099680093866
 20
6871.121604419031
 30
0.0
 10
4345.417210306558
 20
6871.121604419031
 30
0.0
 10
4344.736374251705
 20
6871.121604419031
 30
0.0
 10
4343.926547962169
 20
6871.121604419031
 30
0.0
 10
4342.891571558447
 20
6871.121604419031
 30
0.0
 10
4340.893221334866
 20
6871.121604419031
 30
0.0
 10
4337.806668343856
 20
6871.121604419031
 30
0.0
 10
4333.793514342604
 20
6871.121604419031
 30
0.0
 10
4329.830810487118
 20
6871.121604419031
 30
0.0
 10
4324.963360022733
 20
6871.121604419031
 30
0.0
 10
4319.063068488918
 20
6871.121604419031
 30
0.0
 10
4311.985071333791
 20
6871.121604419031
 30
0.0
 10
4303.632583933835
 20
6871.121604419031
 30
0.0
 10
4293.793968974654
 20
6871.121604419031
 30
0.0
 10
4283.416621752891
 20
6871.121604419031
 30
0.0
 10
4272.405641352538
 20
6871.121604419031
 30
0.0
 10
4261.117652973971
 20
6871.121604419031
 30
0.0
 10
4248.594364236218
 20
6871.121604419031
 30
0.0
 10
4234.544272409848
 20
6871.121604419031
 30
0.0
 10
4222.549212528947
 20
6871.121604419031
 30
0.0
 10
4212.851883474757
 20
6871.121604419031
 30
0.0
 10
4207.063903416899
 20
6871.121604419031
 30
0.0
 10
4201.385222580586
 20
6871.121604419031
 30
0.0
 10
4195.401456239459
 20
6871.121604419031
 30
0.0
 10
4187.685020144864
 20
6871.121604419031
 30
0.0
 10
4178.44039932648
 20
6871.121604419031
 30
0.0
 10
4168.553609227005
 20
6871.121604419031
 30
0.0
 10
4158.082477868492
 20
6871.121604419031
 30
0.0
 10
4147.563389271383
 20
6871.121604419031
 30
0.0
 10
4137.023133742207
 20
6871.121604419031
 30
0.0
 10
4126.972917363182
 20
6871.121604419031
 30
0.0
 10
4116.038672881862
 20
6871.121604419031
 30
0.0
 10
4102.806372917056
 20
6871.121604419031
 30
0.0
 10
4087.426416697644
 20
6871.121604419031
 30
0.0
 10
4071.079518942735
 20
6871.121604419032
 30
0.0
 10
4053.817466469431
 20
6871.121604419032
 30
0.0
 10
4035.518158970825
 20
6871.121604419032
 30
0.0
 10
4016.085595527357
 20
6871.121604419032
 30
0.0
 10
3996.592687110891
 20
6871.121604419031
 30
0.0
 10
3983.585995534692
 20
6871.121604419032
 30
0.0
 10
3977.076944174788
 20
6871.121604419032
 30
0.0
  0
SPLINE
  5
9A
330
1F
100
AcDbEntity
  8
0
  6
Continuous
 62
     7
370
    25
100
AcDbSpline
210
0.0
220
0.0
230
1.0
 70
    24
 71
     3
 72
    41
 73
    37
 74
     0
 42
0.00000001
 43
0.00000001
 40
0.0
 40
0.0
 40
0.0
 40
0.0
 40
0.0591139937221899
 40
0.1158248068082488
 40
0.1701825332888097
 40
0.2222372666929171
 40
0.2720391001746026
 40
0.3196381266740213
 40
0.3729771507826158
 40
0.4234079953821052
 40
0.4710126678916637
 40
0.5158731778912269
 40
0.558905585343711
 40
0.5992532181257696
 40
0.6370032267301426
 40
0.672242772338282
 40
0.705059030673225
 40
0.7355391970277149
 40
0.7637704928716967
 40
0.7926697523799361
 40
0.8190087884492419
 40
0.8429082784633009
 40
0.8644890345559462
 40
0.8838720553254279
 40
0.9011785990339121
 40
0.9165302887895797
 40
0.9300492661612869
 40
0.9446336251896801
 40
0.956762504861392
 40
0.9666871086018357
 40
0.974666191433774
 40
0.9809713746768879
 40
0.9869968953271065
 40
0.9914903605898068
 40
0.9951967905164976
 40
1.0
 40
1.0
 40
1.0
 40
1.0
 10
3977.076944174788
 20
6871.121604419032
 30
0.0
 10
3977.076944174788
 20
6885.776483046213
 30
0.0
 10
3977.076944174788
 20
6914.490470698077
 30
0.0
 10
3977.076944174788
 20
6956.675556697112
 30
0.0
 10
3977.076944174788
 20
6997.108306899455
 30
0.0
 10
3977.076944174788
 20
7035.826582179917
 30
0.0
 10
3977.076944174788
 20
7072.86868837717
 30
0.0
 10
3977.076944174788
 20
7110.229000695582
 30
0.0
 10
3977.076944174788
 20
7147.74625690356
 30
0.0
 10
3977.076944174788
 20
7185.267758382915
 30
0.0
 10
3977.076944174788
 20
7220.69226567068
 30
0.0
 10
3977.076944174788
 20
7254.289143883196
 30
0.0
 10
3977.076944174787
 20
7286.095190162561
 30
0.0
 10
3977.076944174787
 20
7316.148608622368
 30
0.0
 10
3977.076944174787
 20
7344.281784930177
 30
0.0
 10
3977.076944174786
 20
7370.5611867841
 30
0.0
 10
3977.076944174786
 20
7395.053282778084
 30
0.0
 10
3977.076944174786
 20
7417.824536214882
 30
0.0
 10
3977.076944174786
 20
7439.646203175322
 30
0.0
 10
3977.076944174787
 20
7460.466997470166
 30
0.0
 10
3977.076944174787
 20
7480.245562988507
 30
0.0
 10
3977.076944174788
 20
7498.238380171594
 30
0.0
 10
3977.076944174788
 20
7514.537243370509
 30
0.0
 10
3977.076944174787
 20
7529.233946317527
 30
0.0
 10
3977.076944174787
 20
7542.420314024258
 30
0.0
 10
3977.076944174786
 20
7554.18811442736
 30
0.0
 10
3977.076944174786
 20
7565.341685856933
 30
0.0
 10
3977.076944174786
 20
7575.769943148532
 30
0.0
 10
3977.076944174786
 20
7585.406344067878
 30
0.0
 10
3977.076944174786
 20
7593.458034958316
 30
0.0
 10
3977.076944174786
 20
7600.11170163638
 30
0.0
 10
3977.076944174787
 20
7605.86528060625
 30
0.0
 10
3977.076944174787
 20
7610.818880806592
 30
0.0
 10
3977.076944174787
 20
7615.132420589998
 30
0.0
 10
3977.076944174788
 20
7618.860762043591
 30
0.0
 10
3977.076944174788
 20
7620.729419735421
 30
0.0
 10
3977.076944174788
 20
7621.784171166612
 30
0.0
  0
SPLINE
  5
9B
330
1F
100
AcDbEntity
  8
0
  6
Continuous
 62
     7
370
    25
100
AcDbSpline
210
0.0
220
0.0
230
1.0
 70
    24
 71
     3
 72
    61
 73
    57
 74
     0
 42
0.00000001
 43
0.00000001
 40
0.0
 40
0.0
 40
0.0
 40
0.0
 40
0.0418835411895113
 40
0.080169590641682
 40
0.1148584946668753
 40
0.1459507197724932
 40
0.173446915533037
 40
0.1916216710895146
 40
0.2079852936535743
 40
0.222538517253679
 40
0.2341480855244893
 40
0.2444274376778904
 40
0.2533781592315665
 40
0.2631645257102738
 40
0.2711081694017283
 40
0.2766698614152096
 40
0.2808876239534835
 40
0.2855807991332342
 40
0.2898945842179289
 40
0.2937568268407032
 40
0.299379016367029
 40
0.3047260207007404
 40
0.3157924418176164
 40
0.3223573354031234
 40
0.3301308003856879
 40
0.3395100253794986
 40
0.3506974336661148
 40
0.3640550557437449
 40
0.3799566156618568
 40
0.3983011742607362
 40
0.4200600077682159
 40
0.4390004302457212
 40
0.4609403328841445
 40
0.4842717927335233
 40
0.5102387311486293
 40
0.5408645837037276
 40
0.5525067886992364
 40
0.56540331761203
 40
0.5737903968223285
 40
0.5848109278810206
 40
0.5994430462345787
 40
0.6176867519551758
 40
0.6374006651396207
 40
0.6556858993625541
 40
0.6772536397827283
 40
0.6972402653321677
 40
0.7156457778195536
 40
0.7344257157044914
 40
0.7594410661422949
 40
0.7909190838090707
 40
0.8219158216197427
 40
0.8524312987109249
 40
0.8891148538901326
 40
0.9260116806744031
 40
0.962973384299778
 40
1.0
 40
1.0
 40
1.0
 40
1.0
 10
3603.696111741949
 20
6871.121604419032
 30
0.0
 10
3603.700724008032
 20
6871.121604419032
 30
0.0
 10
3603.709552380069
 20
6871.121604419032
 30
0.0
 10
3603.788642876301
 20
6871.121604419032
 30
0.0
 10
3603.917138383807
 20
6871.121604419032
 30
0.0
 10
3604.098516519336
 20
6871.121604419032
 30
0.0
 10
3604.315314654817
 20
6871.121604419032
 30
0.0
 10
3604.553604920413
 20
6871.121604419032
 30
0.0
 10
3604.793092388378
 20
6871.121604419032
 30
0.0
 10
3605.055246253319
 20
6871.121604419032
 30
0.0
 10
3605.337651401462
 20
6871.121604419032
 30
0.0
 10
3605.634496847551
 20
6871.121604419032
 30
0.0
 10
3605.983721011959
 20
6871.121604419032
 30
0.0
 10
3606.402222437567
 20
6871.121604419032
 30
0.0
 10
3606.907452051296
 20
6871.121604419032
 30
0.0
 10
3607.450045951474
 20
6871.121604419032
 30
0.0
 10
3608.054208255736
 20
6871.121604419032
 30
0.0
 10
3608.736678043043
 20
6871.121604419032
 30
0.0
 10
3609.417514097896
 20
6871.121604419032
 30
0.0
 10
3610.227340387433
 20
6871.121604419032
 30
0.0
 10
3611.262316791154
 20
6871.121604419032
 30
0.0
 10
3613.260667014735
 20
6871.121604419032
 30
0.0
 10
3616.347220005746
 20
6871.121604419032
 30
0.0
 10
3620.360374006998
 20
6871.121604419032
 30
0.0
 10
3624.323077862483
 20
6871.121604419032
 30
0.0
 10
3629.190528326869
 20
6871.121604419032
 30
0.0
 10
3635.090819860683
 20
6871.121604419032
 30
0.0
 10
3642.16881701581
 20
6871.121604419032
 30
0.0
 10
3650.521304415767
 20
6871.121604419032
 30
0.0
 10
3660.359919374948
 20
6871.121604419032
 30
0.0
 10
3670.73726659671
 20
6871.121604419032
 30
0.0
 10
3681.748246997065
 20
6871.121604419032
 30
0.0
 10
3693.036235375631
 20
6871.121604419032
 30
0.0
 10
3705.559524113384
 20
6871.121604419032
 30
0.0
 10
3719.609615939754
 20
6871.121604419032
 30
0.0
 10
3731.604675820654
 20
6871.121604419032
 30
0.0
 10
3741.302004874844
 20
6871.121604419032
 30
0.0
 10
3747.089984932702
 20
6871.121604419032
 30
0.0
 10
3752.768665769016
 20
6871.121604419032
 30
0.0
 10
3758.752432110142
 20
6871.121604419032
 30
0.0
 10
3766.468868204737
 20
6871.121604419032
 30
0.0
 10
3775.713489023121
 20
6871.121604419032
 30
0.0
 10
3785.600279122596
 20
6871.121604419032
 30
0.0
 10
3796.07141048111
 20
6871.121604419032
 30
0.0
 10
3806.590499078218
 20
6871.121604419032
 30
0.0
 10
3817.130754607394
 20
6871.121604419032
 30
0.0
 10
3827.180970986419
 20
6871.121604419032
 30
0.0
 10
3838.11521546774
 20
6871.121604419032
 30
0.0
 10
3851.347515432545
 20
6871.121604419032
 30
0.0
 10
3866.727471651958
 20
6871.121604419032
 30
0.0
 10
3883.074369406867
 20
6871.121604419032
 30
0.0
 10
3900.336421880171
 20
6871.121604419032
 30
0.0
 10
3918.635729378777
 20
6871.121604419032
 30
0.0
 10
3938.068292822244
 20
6871.121604419032
 30
0.0
 10
3957.56120123871
 20
6871.121604419032
 30
0.0
 10
3970.56789281491
 20
6871.121604419032
 30
0.0
 10
3977.076944174813
 20
6871.121604419032
 30
0.0
  0
LINE
  5
9C
330
1F
100
AcDbEntity
  8
0
  6
Continuous
 62
     7
370
    25
100
AcDbLine
 10
3603.6961117419
 20
8387.866480394
 30
0.0
 11
3603.6961117419
 21
8384.9871773999
 31
0.0
  0
LINE
  5
9D
330
1F
100
AcDbEntity
  8
0
  6
Continuous
 62
     7
370
    25
100
AcDbLine
 10
3603.696111742
 20
7644.3782551517
 30
0.0
 11
3603.696111742
 21
6871.121604419
 31
0.0
  0
LINE
  5
9E
330
1F
100
AcDbEntity
  8
0
  6
Continuous
 62
     7
370
    25
100
AcDbLine
 10
3603.6951246003
 20
8387.8833697693
 30
0.0
 11
3603.6961117419
 21
8387.866480394
 31
0.0
  0
LINE
  5
9F
330
1F
100
AcDbEntity
  8
0
  6
Continuous
 62
     7
370
    25
100
AcDbLine
 10
4249.2149215468
 20
8221.121604419
 30
0.0
 11
4249.2149215468
 21
8231.4213515128
 31
0.0
  0
LINE
  5
A0
330
1F
100
AcDbEntity
  8
0
  6
Continuous
 62
     7
370
    25
100
AcDbLine
 10
3704.9389668028
 20
8221.121604419
 30
0.0
 11
3704.9389668028
 21
8231.4213515128
 31
0.0
  0
LINE
  5
A1
330
1F
100
AcDbEntity
  8
0
  6
Continuous
 62
     7
370
    25
100
AcDbLine
 10
4249.2149215468
 20
8221.121604419
 30
0.0
 11
3704.9389668028
 21
8221.121604419
 31
0.0
  0
LINE
  5
A2
330
1F
100
AcDbEntity
  8
0
  6
Continuous
 62
     7
370
    25
100
AcDbLine
 10
4333.4206354442
 20
8388.12637739
 30
0.0
 11
4333.4206354442
 21
8397.866480394
 31
0.0
  0
ARC
  5
A3
330
1F
100
AcDbEntity
  8
0
  6
Continuous
 62
     7
370
    25
100
AcDbCircle
 10
4332.8039873996
 20
8388.4827547891
 30
0.0
 40
9.403965176303
100
AcDbArc
 50
358.391053252
 51
86.2402349728
  0
LINE
  5
A4
330
1F
100
AcDbEntity
  8
0
  6
Continuous
 62
     7
370
    25
100
AcDbLine
 10
3620.7332529054
 20
8388.12637739
 30
0.0
 11
3620.7332529054
 21
8397.866480394
 31
0.0
  0
LINE
  5
A5
330
1F
100
AcDbEntity
  8
0
  6
Continuous
 62
     7
370
    25
100
AcDbLine
 10
3620.7332529054
 20
8397.866480394
 30
0.0
 11
4333.4206354442
 21
8397.866480394
 31
0.0
  0
ARC
  5
A6
330
1F
100
AcDbEntity
  8
0
  6
Continuous
 62
     7
370
    25
100
AcDbCircle
 10
3621.34990095
 20
8388.4827547892
 30
0.0
 40
9.403965176303506
100
AcDbArc
 50
93.7597650272
 51
181.608946748
  0
SPLINE
  5
A7
330
1F
100
AcDbEntity
  8
0
  6
Continuous
 62
     7
370
    25
100
AcDbSpline
210
0.0
220
0.0
230
1.0
 70
    24
 71
     3
 72
    14
 73
    10
 74
     0
 42
0.00000001
 43
0.00000001
 40
0.0
 40
0.0
 40
0.0
 40
0.0
 40
0.2823114639595282
 40
0.6611157490773807
 40
0.7971028376406093
 40
0.8655019617560917
 40
0.9336621031070642
 40
0.9744967894673736
 40
1.0
 40
1.0
 40
1.0
 40
1.0
 10
4340.438467138387
 20
8397.86648039395
 30
0.0
 10
4340.432872001738
 20
8397.86648039395
 30
0.0
 10
4340.419769335255
 20
8397.86648039395
 30
0.0
 10
4340.141227192228
 20
8397.86648039395
 30
0.0
 10
4338.816914535331
 20
8397.86648039395
 30
0.0
 10
4338.107906955592
 20
8397.86648039395
 30
0.0
 10
4336.893273688825
 20
8397.86648039395
 30
0.0
 10
4335.125651263264
 20
8397.86648039395
 30
0.0
 10
4333.89409856564
 20
8397.86648039395
 30
0.0
 10
4333.420635444247
 20
8397.86648039395
 30
0.0
  0
SPLINE
  5
A8
330
1F
100
AcDbEntity
  8
0
  6
Continuous
 62
     7
370
    25
100
AcDbSpline
210
0.0
220
0.0
230
1.0
 70
    24
 71
     3
 72
    14
 73
    10
 74
     0
 42
0.00000001
 43
0.00000001
 40
0.0
 40
0.0
 40
0.0
 40
0.0
 40
0.2823114639604496
 40
0.6611157490778149
 40
0.797102837640867
 40
0.8655019617562661
 40
0.9336621031071493
 40
0.9744967894674063
 40
1.0
 40
1.0
 40
1.0
 40
1.0
 10
3613.715421211215
 20
8397.86648039395
 30
0.0
 10
3613.721016347864
 20
8397.86648039395
 30
0.0
 10
3613.734119014348
 20
8397.86648039395
 30
0.0
 10
3614.012661157371
 20
8397.86648039395
 30
0.0
 10
3615.336973814274
 20
8397.86648039395
 30
0.0
 10
3616.045981394005
 20
8397.86648039395
 30
0.0
 10
3617.260614660778
 20
8397.86648039395
 30
0.0
 10
3619.028237086337
 20
8397.86648039395
 30
0.0
 10
3620.259789783963
 20
8397.86648039395
 30
0.0
 10
3620.733252905355
 20
8397.86648039395
 30
0.0
  0
LINE
  5
A9
330
1F
100
AcDbEntity
  8
0
  6
Continuous
 62
     7
370
    25
100
AcDbLine
 10
3977.0769441748
 20
8221.121604419
 30
0.0
 11
3977.0769441748
 21
8184.9608996507
 31
0.0
  0
SPLINE
  5
AA
330
1F
100
AcDbEntity
  8
0
  6
Continuous
 62
     7
370
    25
100
AcDbSpline
210
0.0
220
0.0
230
1.0
 70
     8
 71
     3
 72
    15
 73
    11
 74
     0
 42
0.00000001
 43
0.00000001
 40
0.0
 40
0.0
 40
0.0
 40
0.0
 40
0.1258348826793997
 40
0.2503988530398051
 40
0.375675245347368
 40
0.5001709570990068
 40
0.625436270306766
 40
0.7500266561822979
 40
0.8751504042765619
 40
1.0
 40
1.0
 40
1.0
 40
1.0
 10
4273.00991564155
 20
8184.134035954251
 30
0.0
 10
4272.837511622345
 20
8186.625889200603
 30
0.0
 10
4272.494444837134
 20
8191.58442837149
 30
0.0
 10
4271.059672199253
 20
8198.628150037875
 30
0.0
 10
4269.015510997664
 20
8205.046965081992
 30
0.0
 10
4266.356515746113
 20
8210.640029466198
 30
0.0
 10
4263.202318979344
 20
8215.205328647698
 30
0.0
 10
4259.647467627176
 20
8218.564086072882
 30
0.0
 10
4255.826086882416
 20
8220.717768250857
 30
0.0
 10
4253.183931926242
 20
8220.987090820696
 30
0.0
 10
4251.86430330873
 20
8221.121604419028
 30
0.0
  0
ARC
  5
AB
330
1F
100
AcDbEntity
  8
0
  6
Continuous
 62
     8
370
    25
100
AcDbCircle
 10
3650.7062362377
 20
8107.9625025063
 30
0.0
 40
77.67588169506327
100
AcDbArc
 50
80.1248222273
 51
87.5258179663
  0
LINE
  5
AC
330
1F
100
AcDbEntity
  8
0
  6
Continuous
 62
     8
370
    25
100
AcDbLine
 10
3977.0769441748
 20
7630.4873731962
 30
0.0
 11
3977.0769441748
 21
7629.8776062222
 31
0.0
  0
ARC
  5
AD
330
1F
100
AcDbEntity
  8
0
  6
Continuous
 62
     8
370
    25
100
AcDbCircle
 10
4303.4661132339
 20
8107.7627609368
 30
0.0
 40
77.87623463173419
100
AcDbArc
 50
92.4814077927
 51
99.8633428349
  0
SPLINE
  5
AE
330
1F
100
AcDbEntity
  8
0
  6
Continuous
 62
     8
370
    25
100
AcDbSpline
210
0.0
220
0.0
230
1.0
 70
     8
 71
     3
 72
    11
 73
     7
 74
     0
 42
0.00000001
 43
0.00000001
 40
0.0
 40
0.0
 40
0.0
 40
0.0
 40
0.3206379841770718
 40
0.6405320967781374
 40
0.9605819091168651
 40
1.0
 40
1.0
 40
1.0
 40
1.0
 10
3681.143972708052
 20
8184.134035954251
 30
0.0
 10
3678.584354206807
 20
8184.213703539313
 30
0.0
 10
3673.471055451008
 20
8184.372853882769
 30
0.0
 10
3667.560096584786
 20
8184.40088805478
 30
0.0
 10
3664.612108205531
 20
8184.295901214471
 30
0.0
 10
3664.037184214414
 20
8184.16580171752
 30
0.0
 10
3663.974139903838
 20
8184.15153542629
 30
0.0
  0
SPLINE
  5
AF
330
1F
100
AcDbEntity
  8
0
  6
Continuous
 62
     8
370
    25
100
AcDbSpline
210
0.0
220
0.0
230
1.0
 70
    24
 71
     3
 72
    20
 73
    16
 74
     0
 42
0.00000001
 43
0.00000001
 40
0.0
 40
0.0
 40
0.0
 40
0.0
 40
0.1000342443936086
 40
0.1984580213150184
 40
0.2950859690804092
 40
0.3897247950818295
 40
0.4821878429857153
 40
0.5722868157824103
 40
0.6598706452256015
 40
0.7448112873724765
 40
0.8113431935032221
 40
0.8760037100201016
 40
0.9388416595964596
 40
0.9750771976623241
 40
1.0
 40
1.0
 40
1.0
 40
1.0
 10
3977.076944174788
 20
8184.960899650674
 30
0.0
 10
3977.076944174788
 20
8166.523351743974
 30
0.0
 10
3977.076944174789
 20
8129.945084994971
 30
0.0
 10
3977.07694417479
 20
8075.402383662736
 30
0.0
 10
3977.07694417479
 20
8021.823648494994
 30
0.0
 10
3977.076944174789
 20
7969.336332118835
 30
0.0
 10
3977.076944174788
 20
7918.070695980234
 30
0.0
 10
3977.076944174788
 20
7868.128869148924
 30
0.0
 10
3977.076944174789
 20
7819.593631625704
 30
0.0
 10
3977.076944174789
 20
7775.420881139004
 30
0.0
 10
3977.076944174788
 20
7735.481106970718
 30
0.0
 10
3977.076944174786
 20
7699.61908354632
 30
0.0
 10
3977.076944174788
 20
7669.347864303783
 30
0.0
 10
3977.076944174787
 20
7646.418331749089
 30
0.0
 10
3977.076944174788
 20
7635.106855919043
 30
0.0
 10
3977.076944174788
 20
7630.497285508868
 30
0.0
  0
SPLINE
  5
B0
330
1F
100
AcDbEntity
  8
0
  6
Continuous
 62
     8
370
    25
100
AcDbSpline
210
0.0
220
0.0
230
1.0
 70
     8
 71
     3
 72
    11
 73
     7
 74
     0
 42
0.00000001
 43
0.00000001
 40
0.0
 40
0.0
 40
0.0
 40
0.0
 40
0.3212886093528201
 40
0.6418318376965809
 40
0.9625310817173854
 40
0.9999999999999999
 40
0.9999999999999999
 40
0.9999999999999999
 40
0.9999999999999999
 10
4273.00991564155
 20
8184.134035954251
 30
0.0
 10
4275.569646064831
 20
8184.213712010548
 30
0.0
 10
4280.683168405047
 20
8184.372879276818
 30
0.0
 10
4286.592453099209
 20
8184.400786732912
 30
0.0
 10
4289.536142727601
 20
8184.296452577916
 30
0.0
 10
4290.109448532175
 20
8184.167208654722
 30
0.0
 10
4290.169423567935
 20
8184.153688106258
 30
0.0
  0
SPLINE
  5
B1
330
1F
100
AcDbEntity
  8
0
  6
Continuous
 62
     8
370
    25
100
AcDbSpline
210
0.0
220
0.0
230
1.0
 70
     8
 71
     3
 72
    15
 73
    11
 74
     0
 42
0.00000001
 43
0.00000001
 40
0.0
 40
0.0
 40
0.0
 40
0.0
 40
0.0364178453426324
 40
0.0814543579266803
 40
0.1869997677080601
 40
0.2930017651414709
 40
0.3995605582940088
 40
0.5058677729892682
 40
0.9343215037183216
 40
1.0
 40
1.0
 40
1.0
 40
1.0
 10
4342.204244995756
 20
8388.21871281552
 30
0.0
 10
4342.926758613682
 20
8388.117395137157
 30
0.0
 10
4344.542776318405
 20
8387.890781883127
 30
0.0
 10
4347.012620572562
 20
8387.82575824284
 30
0.0
 10
4349.076764674403
 20
8387.642111388996
 30
0.0
 10
4349.969824090516
 20
8387.765892173788
 30
0.0
 10
4349.965760283788
 20
8387.93540202198
 30
0.0
 10
4350.091862248587
 20
8388.096196074586
 30
0.0
 10
4350.477502352119
 20
8387.910775250839
 30
0.0
 10
4350.460962210873
 20
8387.886585026705
 30
0.0
 10
4350.458763747494
 20
8387.883369738449
 30
0.0
  0
SPLINE
  5
B2
330
1F
100
AcDbEntity
  8
0
  6
Continuous
 62
     8
370
    25
100
AcDbSpline
210
0.0
220
0.0
230
1.0
 70
     8
 71
     3
 72
    15
 73
    11
 74
     0
 42
0.00000001
 43
0.00000001
 40
0.0
 40
0.0
 40
0.0
 40
0.0
 40
0.0364178515333578
 40
0.081454371773231
 40
0.186999799496437
 40
0.2930018149492888
 40
0.3995606262159183
 40
0.5058678589825031
 40
0.9343216625450578
 40
1.0
 40
1.0
 40
1.0
 40
1.0
 10
3611.949643353847
 20
8388.21871281552
 30
0.0
 10
3611.227129735919
 20
8388.117395137157
 30
0.0
 10
3609.611112031197
 20
8387.890781883129
 30
0.0
 10
3607.141267777046
 20
8387.825758242841
 30
0.0
 10
3605.077123675147
 20
8387.642111388981
 30
0.0
 10
3604.184064259277
 20
8387.765892173864
 30
0.0
 10
3604.188128065098
 20
8387.935402021703
 30
0.0
 10
3604.062026107091
 20
8388.09619607692
 30
0.0
 10
3603.676386043423
 20
8387.910775279015
 30
0.0
 10
3603.692926146884
 20
8387.88658505086
 30
0.0
 10
3603.695124600306
 20
8387.883369769286
 30
0.0
  0
SPLINE
  5
B3
330
1F
100
AcDbEntity
  8
0
  6
Continuous
 62
     8
370
    25
100
AcDbSpline
210
0.0
220
0.0
230
1.0
 70
     8
 71
     3
 72
    15
 73
    11
 74
     0
 42
0.00000001
 43
0.00000001
 40
0.0
 40
0.0
 40
0.0
 40
0.0
 40
0.1316204232830028
 40
0.2619115012062807
 40
0.3929477562715791
 40
0.5231674372436527
 40
0.654192103822716
 40
0.7845108117736028
 40
0.9153874044659649
 40
0.9999999999999999
 40
0.9999999999999999
 40
0.9999999999999999
 40
0.9999999999999999
 10
3681.143972708052
 20
8184.134035954251
 30
0.0
 10
3681.316376110057
 20
8186.625897047134
 30
0.0
 10
3681.659441667101
 20
8191.584451831842
 30
0.0
 10
3683.094223462288
 20
8198.62805708038
 30
0.0
 10
3685.138349820272
 20
8205.04731509505
 30
0.0
 10
3687.797474925028
 20
8210.638728641346
 30
0.0
 10
3690.951185663057
 20
8215.210206759091
 30
0.0
 10
3694.507846455547
 20
8218.54596057263
 30
0.0
 10
3697.874802231005
 20
8220.522845612206
 30
0.0
 10
3700.049809900134
 20
8220.77711125297
 30
0.0
 10
3700.903834390672
 20
8220.876949560392
 30
0.0
  0
LINE
  5
B4
330
1F
100
AcDbEntity
  8
0
  6
Continuous
 62
     7
370
    25
100
AcDbLine
 10
5461.0191207399
 20
6951.121604419
 30
0.0
 11
5683.0191207399
 21
6951.121604419
 31
0.0
  0
LINE
  5
B5
330
1F
100
AcDbEntity
  8
0
  6
Continuous
 62
     7
370
    25
100
AcDbLine
 10
5683.0191207399
 20
7051.121604419
 30
0.0
 11
5461.0191207399
 21
7051.121604419
 31
0.0
  0
SPLINE
  5
B6
330
1F
100
AcDbEntity
  8
0
  6
Continuous
 62
     7
370
    25
100
AcDbSpline
210
0.0
220
0.0
230
1.0
 70
     8
 71
     3
 72
    22
 73
    18
 74
     0
 42
0.00000001
 43
0.00000001
 40
0.0
 40
0.0
 40
0.0
 40
0.0
 40
0.0409759771044944
 40
0.075771235185862
 40
0.1046419455994587
 40
0.131745043188935
 40
0.161734519660186
 40
0.1946178098359932
 40
0.2521364208834281
 40
0.3168165871842412
 40
0.3887137047382666
 40
0.4773195641699627
 40
0.5707779740839134
 40
0.6693490620228578
 40
0.7734055240625092
 40
0.8834277678354309
 40
1.0
 40
1.0
 40
1.0
 40
1.0
 10
5853.529880207539
 20
6871.121604419032
 30
0.0
 10
5853.751155006045
 20
6871.97581802892
 30
0.0
 10
5854.160328038222
 20
6873.555397697481
 30
0.0
 10
5854.666005467936
 20
6875.117136399243
 30
0.0
 10
5854.851793265409
 20
6875.548869655815
 30
0.0
 10
5854.773949922173
 20
6875.206623968228
 30
0.0
 10
5854.766657499752
 20
6875.123246498271
 30
0.0
 10
5854.738560331663
 20
6874.992100504012
 30
0.0
 10
5854.727435138983
 20
6874.943073944628
 30
0.0
 10
5854.74130648105
 20
6874.97756644239
 30
0.0
 10
5854.81263388184
 20
6875.140465496556
 30
0.0
 10
5854.94790179332
 20
6875.404859130599
 30
0.0
 10
5855.123081079931
 20
6875.702026547998
 30
0.0
 10
5855.342847743797
 20
6876.032025333319
 30
0.0
 10
5855.592884739946
 20
6876.373485999957
 30
0.0
 10
5855.85324066513
 20
6876.717773265747
 30
0.0
 10
5855.982288734621
 20
6876.906112515716
 30
0.0
 10
5856.048677914917
 20
6877.003004228023
 30
0.0
  0
ARC
  5
B7
330
1F
100
AcDbEntity
  8
0
  6
Continuous
 62
     7
370
    25
100
AcDbCircle
 10
5690.8522557913
 20
8073.9045959294
 30
0.0
 40
8.157812599975879
100
AcDbArc
 50
163.7808564055
 51
196.2191435945
  0
LINE
  5
B8
330
1F
100
AcDbEntity
  8
0
  6
Continuous
 62
     7
370
    25
100
AcDbLine
 10
5461.0191207399
 20
6951.121604419
 30
0.0
 11
5461.0191207399
 21
7051.121604419
 31
0.0
  0
SPLINE
  5
B9
330
1F
100
AcDbEntity
  8
0
  6
Continuous
 62
     7
370
    25
100
AcDbSpline
210
0.0
220
0.0
230
1.0
 70
     8
 71
     3
 72
    41
 73
    37
 74
     0
 42
0.00000001
 43
0.00000001
 40
0.0
 40
0.0
 40
0.0
 40
0.0
 40
0.0537872872875949
 40
0.1108191614277678
 40
0.1654846272619614
 40
0.2178340619173625
 40
0.2679178421440218
 40
0.315786344476903
 40
0.3694273406852404
 40
0.4201436930961306
 40
0.4680178734033199
 40
0.5131323554735477
 40
0.556408385426679
 40
0.5969844411991178
 40
0.6349481666750324
 40
0.6703872164878157
 40
0.7033892598947714
 40
0.7340419858337005
 40
0.7624331095678049
 40
0.7914959785574802
 40
0.8179841297289082
 40
0.8420189236654316
 40
0.8637218564634114
 40
0.8832146117392687
 40
0.900619134243396
 40
0.9160577356377295
 40
0.92965324898008
 40
0.9443201755018384
 40
0.9565177212828991
 40
0.9664985119049122
 40
0.9745227672992858
 40
0.9808636465352493
 40
0.9869232799041238
 40
0.9914421843487958
 40
0.9951695977570222
 40
1.0
 40
1.0
 40
1.0
 40
1.0
 10
5854.90174147259
 20
6875.308334887179
 30
0.0
 10
5863.878962687727
 20
6888.567599129813
 30
0.0
 10
5882.374934081367
 20
6915.885960374941
 30
0.0
 10
5910.001375078352
 20
6956.675546000241
 30
0.0
 10
5937.391337777406
 20
6997.108309585831
 30
0.0
 10
5963.624151527999
 20
7035.826581506472
 30
0.0
 10
5988.723458956258
 20
7072.868688544891
 30
0.0
 10
6014.038599040741
 20
7110.229000645445
 30
0.0
 10
6039.457830873562
 20
7147.746256916814
 30
0.0
 10
6064.873810302124
 20
7185.267758379658
 30
0.0
 10
6088.859456835771
 20
7220.692265671479
 30
0.0
 10
6111.593684108981
 20
7254.289143882997
 30
0.0
 10
6133.097640656486
 20
7286.09519016261
 30
0.0
 10
6153.393133141539
 20
7316.148608622356
 30
0.0
 10
6172.363311730886
 20
7344.281784930181
 30
0.0
 10
6190.049593247501
 20
7370.561186784099
 30
0.0
 10
6206.493394210927
 20
7395.053282778084
 30
0.0
 10
6221.736141715724
 20
7417.824536214882
 30
0.0
 10
6236.289264752681
 20
7439.646203175322
 30
0.0
 10
6250.108561512611
 20
7460.466997470166
 30
0.0
 10
6263.152813185337
 20
7480.245562988507
 30
0.0
 10
6274.924830140612
 20
7498.238380171594
 30
0.0
 10
6285.481874595163
 20
7514.537243370509
 30
0.0
 10
6294.881243157786
 20
7529.233946317526
 30
0.0
 10
6303.180203523542
 20
7542.420314024258
 30
0.0
 10
6310.436236816376
 20
7554.188114427359
 30
0.0
 10
6317.134065842538
 20
7565.341685856933
 30
0.0
 10
6323.163430967616
 20
7575.769943148533
 30
0.0
 10
6328.406985496445
 20
7585.406344067877
 30
0.0
 10
6332.41389546367
 20
7593.458034958316
 30
0.0
 10
6335.302276431388
 20
7600.11170163638
 30
0.0
 10
6337.286206641733
 20
7605.86528060625
 30
0.0
 10
6338.340403680309
 20
7610.818880806592
 30
0.0
 10
6338.232812846892
 20
7615.132420589998
 30
0.0
 10
6336.827832556701
 20
7618.860762043591
 30
0.0
 10
6335.060358288348
 20
7620.729419735421
 30
0.0
 10
6334.062719168948
 20
7621.784171166612
 30
0.0
  0
SPLINE
  5
BA
330
1F
100
AcDbEntity
  8
0
  6
Continuous
 62
     7
370
    25
100
AcDbSpline
210
0.0
220
0.0
230
1.0
 70
    24
 71
     3
 72
    39
 73
    35
 74
     0
 42
0.00000001
 43
0.00000001
 40
0.0
 40
0.0
 40
0.0
 40
0.0
 40
0.0883637406807049
 40
0.1691376783516551
 40
0.2423225436406402
 40
0.3079193207609794
 40
0.3659293801515411
 40
0.4042735445014737
 40
0.438796673630049
 40
0.4695003161527593
 40
0.493993586085573
 40
0.5156804344811965
 40
0.5345642063832795
 40
0.5552109789619887
 40
0.5719700697952008
 40
0.5837038415076147
 40
0.5926022599459811
 40
0.6025036795197507
 40
0.6116046813870836
 40
0.6197530421959413
 40
0.6316144484489169
 40
0.6428952831382483
 40
0.6662426491455904
 40
0.6800929239292192
 40
0.6964929804765362
 40
0.7162807868940753
 40
0.7398834054084641
 40
0.7680646293417009
 40
0.8016129224687063
 40
0.8403153285427017
 40
0.8862209961859874
 40
0.9261805252194204
 40
0.9724682032008384
 40
1.0
 40
1.0
 40
1.0
 40
1.0
 10
5683.019120739868
 20
6871.121604419032
 30
0.0
 10
5690.381991968819
 20
6871.121604419032
 30
0.0
 10
5704.475317308756
 20
6871.121604419032
 30
0.0
 10
5724.666617350831
 20
6871.121604419032
 30
0.0
 10
5742.960571522166
 20
6871.121604419032
 30
0.0
 10
5759.357199842056
 20
6871.121604419032
 30
0.0
 10
5772.850032023942
 20
6871.121604419032
 30
0.0
 10
5783.752775758938
 20
6871.121604419032
 30
0.0
 10
5792.379512653265
 20
6871.121604419032
 30
0.0
 10
5799.850886182267
 20
6871.121604419032
 30
0.0
 10
5806.251055506689
 20
6871.121604419032
 30
0.0
 10
5811.664479019425
 20
6871.121604419032
 30
0.0
 10
5816.753605084627
 20
6871.121604419032
 30
0.0
 10
5821.425796357493
 20
6871.121604419032
 30
0.0
 10
5825.490295289806
 20
6871.121604419032
 30
0.0
 10
5828.560175439383
 20
6871.121604419032
 30
0.0
 10
5831.033280936617
 20
6871.121604419032
 30
0.0
 10
5833.256212547941
 20
6871.121604419032
 30
0.0
 10
5835.413772607114
 20
6871.121604419032
 30
0.0
 10
5837.700710287244
 20
6871.121604419032
 30
0.0
 10
5840.099122697035
 20
6871.121604419032
 30
0.0
 10
5843.43535143284
 20
6871.121604419032
 30
0.0
 10
5846.216717533988
 20
6871.121604419032
 30
0.0
 10
5848.205790549516
 20
6871.121604419032
 30
0.0
 10
5849.537037473877
 20
6871.121604419032
 30
0.0
 10
5850.625782074278
 20
6871.121604419032
 30
0.0
 10
5851.516262135482
 20
6871.121604419032
 30
0.0
 10
5852.214609300264
 20
6871.121604419032
 30
0.0
 10
5852.749068025057
 20
6871.121604419032
 30
0.0
 10
5853.13064505795
 20
6871.121604419032
 30
0.0
 10
5853.360107574793
 20
6871.121604419032
 30
0.0
 10
5853.482733647347
 20
6871.121604419032
 30
0.0
 10
5853.531293845223
 20
6871.121604419032
 30
0.0
 10
5853.525112269189
 20
6871.121604419032
 30
0.0
 10
5853.522806781431
 20
6871.121604419032
 30
0.0
  0
LINE
  5
BB
330
1F
100
AcDbEntity
  8
0
  6
Continuous
 62
     7
370
    25
100
AcDbLine
 10
5683.0191207399
 20
8387.866480394
 30
0.0
 11
5683.0191207398
 21
6871.121604419
 31
0.0
  0
SPLINE
  5
BC
330
1F
100
AcDbEntity
  8
0
  6
Continuous
 62
     7
370
    25
100
AcDbSpline
210
0.0
220
0.0
230
1.0
 70
     8
 71
     3
 72
    16
 73
    12
 74
     0
 42
0.00000001
 43
0.00000001
 40
0.0
 40
0.0
 40
0.0
 40
0.0
 40
0.0332775731529389
 40
0.0744306350095237
 40
0.2036159109691399
 40
0.3329434908464936
 40
0.4630687880267539
 40
0.5938528316752675
 40
0.7247048594142598
 40
0.8549095278754064
 40
1.0
 40
1.0
 40
1.0
 40
1.0
 10
5841.93854106968
 20
8388.21871281552
 30
0.0
 10
5840.317659331427
 20
8388.117305713808
 30
0.0
 10
5836.692297094252
 20
8387.890492450102
 30
0.0
 10
5826.191001652486
 20
8387.816134039094
 30
0.0
 10
5810.428048202026
 20
8387.51256234328
 30
0.0
 10
5789.734122039837
 20
8387.509374563802
 30
0.0
 10
5768.904735131669
 20
8387.593414823688
 30
0.0
 10
5748.008752484342
 20
8387.746056565153
 30
0.0
 10
5727.119165141204
 20
8387.88677253101
 30
0.0
 10
5705.44933621496
 20
8387.90403581269
 30
0.0
 10
5690.76060963659
 20
8387.879442144475
 30
0.0
 10
5683.019120739873
 20
8387.866480393952
 30
0.0
  0
SPLINE
  5
BD
330
1F
100
AcDbEntity
  8
0
  6
Continuous
 62
     7
370
    25
100
AcDbSpline
210
0.0
220
0.0
230
1.0
 70
     8
 71
     3
 72
    53
 73
    49
 74
     0
 42
0.00000001
 43
0.00000001
 40
0.0
 40
0.0
 40
0.0
 40
0.0
 40
0.0169361579354751
 40
0.0322260709785204
 40
0.0374302260811368
 40
0.042711136162541
 40
0.0479221875623577
 40
0.0549078176827576
 40
0.0620033415780688
 40
0.0756881502638932
 40
0.0893838148197876
 40
0.1035020544688844
 40
0.1176243965894646
 40
0.1417777847930501
 40
0.1659745700701375
 40
0.1901597686281293
 40
0.2149641398725284
 40
0.239780630199794
 40
0.2645915592698578
 40
0.3041044360269548
 40
0.3436692886559395
 40
0.3832094354333989
 40
0.4227439417371543
 40
0.4428196544882581
 40
0.4629216944431277
 40
0.4829951558814282
 40
0.5030318366164062
 40
0.5167633857546202
 40
0.5304915472827612
 40
0.5445695349375094
 40
0.5586434237614055
 40
0.5689475300586535
 40
0.5792520668318533
 40
0.5897639017786185
 40
0.6002778470840231
 40
0.6152806628876909
 40
0.6303574815475812
 40
0.6453358497575076
 40
0.6603464013390706
 40
0.690285619821211
 40
0.7202324544714502
 40
0.7801214437902084
 40
0.8712297730483501
 40
0.9167857319827678
 40
0.962339715920341
 40
0.9811478932192516
 40
0.9905792694085135
 40
1.0
 40
1.0
 40
1.0
 40
1.0
 10
6334.062719168948
 20
7621.784171166612
 30
0.0
 10
6333.954718611028
 20
7621.748308712497
 30
0.0
 10
6333.74921547044
 20
7621.680069741406
 30
0.0
 10
6331.467198882608
 20
7622.957506339322
 30
0.0
 10
6330.245746114256
 20
7621.982459078612
 30
0.0
 10
6329.839250798799
 20
7620.109815124534
 30
0.0
 10
6328.31251336769
 20
7618.602989084814
 30
0.0
 10
6325.258258217939
 20
7618.867772226641
 30
0.0
 10
6320.535508927152
 20
7619.623293688548
 30
0.0
 10
6313.587124377003
 20
7621.339394454824
 30
0.0
 10
6304.096156922606
 20
7624.073081353014
 30
0.0
 10
6293.557638310459
 20
7627.304017661855
 30
0.0
 10
6279.460464913916
 20
7631.832379491049
 30
0.0
 10
6261.512330995963
 20
7637.819636527092
 30
0.0
 10
6239.517694573521
 20
7645.463291776008
 30
0.0
 10
6216.548230612066
 20
7653.738964241136
 30
0.0
 10
6192.856087120992
 20
7662.586684442229
 30
0.0
 10
6168.546076383759
 20
7672.050766569441
 30
0.0
 10
6139.134993546699
 20
7684.037312805347
 30
0.0
 10
6104.664733809373
 20
7699.016424378386
 30
0.0
 10
6065.575316056343
 20
7717.603648478384
 30
0.0
 10
6027.376930674516
 20
7737.705902478109
 30
0.0
 10
5996.557900360404
 20
7755.986706484553
 30
0.0
 10
5972.525461802082
 20
7771.761107401649
 30
0.0
 10
5954.687583054856
 20
7784.482864359985
 30
0.0
 10
5937.279999938627
 20
7798.223768530519
 30
0.0
 10
5922.172223317961
 20
7811.608548705723
 30
0.0
 10
5909.320291783427
 20
7824.356105322693
 30
0.0
 10
5898.583574480796
 20
7836.280000501828
 30
0.0
 10
5888.473529972457
 20
7849.178080931237
 30
0.0
 10
5880.098166841441
 20
7861.867035445563
 30
0.0
 10
5873.460925949228
 20
7873.949882485263
 30
0.0
 10
5868.244138789747
 20
7885.210040548787
 30
0.0
 10
5863.792428720571
 20
7896.908576712423
 30
0.0
 10
5859.505467891658
 20
7910.663446881278
 30
0.0
 10
5855.682841402971
 20
7926.462745505265
 30
0.0
 10
5852.618402233032
 20
7944.25117136358
 30
0.0
 10
5850.552727883917
 20
7962.188823968885
 30
0.0
 10
5848.848893113308
 20
7986.138991158559
 30
0.0
 10
5848.079214525601
 20
8016.141239809558
 30
0.0
 10
5847.636453115443
 20
8064.118869678344
 30
0.0
 10
5845.97732342062
 20
8136.587186612783
 30
0.0
 10
5843.96792409838
 20
8215.297881060054
 30
0.0
 10
5842.02225173126
 20
8288.263693790708
 30
0.0
 10
5841.08104125983
 20
8332.294520479349
 30
0.0
 10
5841.008768460771
 20
8361.84966484869
 30
0.0
 10
5841.121753304084
 20
8376.944331090759
 30
0.0
 10
5841.666380996435
 20
8384.46200062508
 30
0.0
 10
5841.93854106968
 20
8388.21871281552
 30
0.0
  0
ARC
  5
BE
330
1F
100
AcDbEntity
  8
0
  6
Continuous
 62
     7
370
    25
100
AcDbCircle
 10
5843.8677594841
 20
8349.341906542
 30
0.0
 40
38.92464450342061
100
AcDbArc
 50
85.1360520524
 51
92.8409091306
  0
SPLINE
  5
BF
330
1F
100
AcDbEntity
  8
0
  6
Continuous
 62
     7
370
    25
100
AcDbSpline
210
0.0
220
0.0
230
1.0
 70
     8
 71
     3
 72
    47
 73
    43
 74
     0
 42
0.00000001
 43
0.00000001
 40
0.0
 40
0.0
 40
0.0
 40
0.0
 40
0.0381679217939735
 40
0.1312005099180509
 40
0.2242334695188637
 40
0.2649407536606099
 40
0.3056490150396119
 40
0.346345640842361
 40
0.3612850240563031
 40
0.3762214916811442
 40
0.3909815987761131
 40
0.4057372450646095
 40
0.4191012580963377
 40
0.4324858900735717
 40
0.4458384767977016
 40
0.459131270482784
 40
0.4724766135650572
 40
0.4858447368069381
 40
0.4991687072051406
 40
0.5188849614648142
 40
0.5386387903316284
 40
0.5584224377792406
 40
0.578179419914065
 40
0.6051343965433024
 40
0.6320992835859442
 40
0.6590597042651868
 40
0.6990338565768771
 40
0.7390057878133147
 40
0.7635214395608939
 40
0.7881233992591397
 40
0.8127276340290988
 40
0.8372776803823855
 40
0.8617543972514069
 40
0.8861863301617735
 40
0.8997244047261469
 40
0.913300324313668
 40
0.9268498094874278
 40
0.9403517232555582
 40
0.9545570253895426
 40
0.9688372769752502
 40
0.9830692572568132
 40
1.0
 40
1.0
 40
1.0
 40
1.0
 10
5847.16817926993
 20
8388.126377389966
 30
0.0
 10
5847.570305728809
 20
8373.160461291136
 30
0.0
 10
5848.952597296614
 20
8321.715799615391
 30
0.0
 10
5851.618127720702
 20
8233.799812717025
 30
0.0
 10
5854.477392083442
 20
8144.895098284177
 30
0.0
 10
5855.420785406753
 20
8076.471959947977
 30
0.0
 10
5855.797966820541
 20
8028.576033999377
 30
0.0
 10
5856.832289576882
 20
7990.789599974366
 30
0.0
 10
5858.629657114505
 20
7963.162756718471
 30
0.0
 10
5860.57119102557
 20
7945.758339842543
 30
0.0
 10
5863.462802896353
 20
7928.563457930246
 30
0.0
 10
5867.367483358839
 20
7912.210729452253
 30
0.0
 10
5872.371182972906
 20
7896.744742937994
 30
0.0
 10
5878.3735137889
 20
7882.26437765204
 30
0.0
 10
5885.541781624108
 20
7868.415865716433
 30
0.0
 10
5893.905286625554
 20
7855.415360440921
 30
0.0
 10
5903.210742193482
 20
7843.283095567981
 30
0.0
 10
5913.228445576637
 20
7831.964731414423
 30
0.0
 10
5925.438175708855
 20
7819.749234782458
 30
0.0
 10
5939.875243975697
 20
7806.936890620706
 30
0.0
 10
5956.604089040449
 20
7793.774437597575
 30
0.0
 10
5973.767989704544
 20
7781.622578414669
 30
0.0
 10
5993.38335814978
 20
7768.861125362817
 30
0.0
 10
6015.657503054775
 20
7755.501361613251
 30
0.0
 10
6040.765739483355
 20
7741.710727778551
 30
0.0
 10
6070.526509700477
 20
7726.534992605604
 30
0.0
 10
6105.049886120867
 20
7710.304289301367
 30
0.0
 10
6138.974261038005
 20
7695.665742591105
 30
0.0
 10
6167.763485994417
 20
7683.960195412226
 30
0.0
 10
6191.379079776407
 20
7674.742573263594
 30
0.0
 10
6214.594742172806
 20
7665.980524668714
 30
0.0
 10
6237.148421646872
 20
7657.697659622811
 30
0.0
 10
6258.761791425931
 20
7649.919498755033
 30
0.0
 10
6276.149049057958
 20
7643.746480025973
 30
0.0
 10
6289.617819802805
 20
7638.971254543788
 30
0.0
 10
6299.53747057617
 20
7635.437903975358
 30
0.0
 10
6308.533877700847
 20
7632.210296013999
 30
0.0
 10
6316.580057781732
 20
7629.283901697618
 30
0.0
 10
6322.99211395812
 20
7626.900919576842
 30
0.0
 10
6327.421532318874
 20
7625.222907403525
 30
0.0
 10
6330.227382454936
 20
7624.139973825729
 30
0.0
 10
6330.525178538265
 20
7624.023974247861
 30
0.0
 10
6330.686971487899
 20
7623.960951545715
 30
0.0
  0
ARC
  5
C0
330
1F
100
AcDbEntity
  8
0
  6
Continuous
 62
     7
370
    25
100
AcDbCircle
 10
6327.0659668839
 20
7614.639560788
 30
0.0
 40
10.00000000000092
100
AcDbArc
 50
45.5990466577
 51
68.7707513555
  0
SPLINE
  5
C1
330
1F
100
AcDbEntity
  8
0
  6
Continuous
 62
     7
370
    25
100
AcDbSpline
210
0.0
220
0.0
230
1.0
 70
    24
 71
     3
 72
    14
 73
    10
 74
     0
 42
0.00000001
 43
0.00000001
 40
0.0
 40
0.0
 40
0.0
 40
0.0
 40
0.345439931529191
 40
0.6909242835180521
 40
0.8149498371268283
 40
0.8773325186329068
 40
0.9394972384928817
 40
0.9767400726162359
 40
1.0
 40
1.0
 40
1.0
 40
1.0
 10
5683.019120739868
 20
8397.86648039395
 30
0.0
 10
5700.846926986316
 20
8397.86648039395
 30
0.0
 10
5736.504831974308
 20
8397.86648039395
 30
0.0
 10
5778.577113082701
 20
8397.86648039395
 30
0.0
 10
5805.997977777268
 20
8397.86648039395
 30
0.0
 10
5818.809329817672
 20
8397.866480393948
 30
0.0
 10
5827.095339904929
 20
8397.86648039395
 30
0.0
 10
5833.196548295175
 20
8397.866480393948
 30
0.0
 10
5836.067743294942
 20
8397.86648039395
 30
0.0
 10
5837.171557162866
 20
8397.86648039395
 30
0.0
  0
LWPOLYLINE
  5
C2
330
1F
100
AcDbEntity
  8
0
  6
Continuous
 62
     7
370
    25
100
AcDbPolyline
 90
        9
 70
   128
 43
0.0
 10
5841.9385410697
 20
8388.2187128155
 10
5841.8189432853
 20
8390.118752714
 10
5841.5286461636
 20
8391.9360662407
 10
5841.0783123707
 20
8393.6039031393
 10
5840.4844827487
 20
8395.0610034572
 10
5839.7689687675
 20
8396.2538476349
 10
5838.9580513858
 20
8397.1386222887
 10
5838.0815157464
 20
8397.6828294848
 10
5837.1715571629
 20
8397.866480394
  0
LINE
  5
C3
330
1F
100
AcDbEntity
  8
0
  6
Continuous
 62
     7
370
    25
100
AcDbLine
 10
5683.0191207399
 20
8387.866480394
 30
0.0
 11
5683.0191207399
 21
8397.866480394
 31
0.0
  0
ARC
  5
C4
330
1F
100
AcDbEntity
  8
0
  6
Continuous
 62
     7
370
    25
100
AcDbCircle
 10
5837.1715571629
 20
8387.866480394
 30
0.0
 40
9.99999999999937
100
AcDbArc
 50
1.489267788
 51
90.0
  0
SPLINE
  5
C5
330
1F
100
AcDbEntity
  8
0
  6
Continuous
 62
     7
370
    25
100
AcDbSpline
210
0.0
220
0.0
230
1.0
 70
     8
 71
     3
 72
    12
 73
     8
 74
     0
 42
0.00000001
 43
0.00000001
 40
0.0
 40
0.0
 40
0.0
 40
0.0
 40
0.5524217910667003
 40
0.6476370248549499
 40
0.7351995029239378
 40
0.9043227133261164
 40
1.0
 40
1.0
 40
1.0
 40
1.0
 10
3831.519485385214
 20
5396.804095039148
 30
0.0
 10
3831.33177232635
 20
5396.83395151217
 30
0.0
 10
3831.111705107903
 20
5396.868954036823
 30
0.0
 10
3830.709679428501
 20
5396.88976701882
 30
0.0
 10
3830.478436329833
 20
5396.882670778962
 30
0.0
 10
3830.202746613174
 20
5396.85768724909
 30
0.0
 10
3829.998985922914
 20
5396.818319375473
 30
0.0
 10
3829.925363440366
 20
5396.804095039147
 30
0.0
  0
LINE
  5
C6
330
1F
100
AcDbEntity
  8
0
  6
Continuous
 62
     7
370
    25
100
AcDbLine
 10
4257.0147043791
 20
5396.8040950391
 30
0.0
 11
4255.4988678275
 21
5397.1283094531
 31
0.0
  0
LINE
  5
C7
330
1F
100
AcDbEntity
  8
0
  6
Continuous
 62
     7
370
    25
100
AcDbLine
 10
3927.0769441748
 20
5618.8040950391
 30
0.0
 11
3927.0769441748
 21
5396.8040950391
 31
0.0
  0
LINE
  5
C8
330
1F
100
AcDbEntity
  8
0
  6
Continuous
 62
     7
370
    25
100
AcDbLine
 10
4027.0769441748
 20
5396.8040950391
 30
0.0
 11
4027.0769441748
 21
5618.8040950391
 31
0.0
  0
SPLINE
  5
C9
330
1F
100
AcDbEntity
  8
0
  6
Continuous
 62
     7
370
    25
100
AcDbSpline
210
0.0
220
0.0
230
1.0
 70
     8
 71
     3
 72
    11
 73
     7
 74
     0
 42
0.00000001
 43
0.00000001
 40
0.0
 40
0.0
 40
0.0
 40
0.0
 40
0.104068811972518
 40
0.3945253185353292
 40
0.7084588606340293
 40
1.0
 40
1.0
 40
1.0
 40
1.0
 10
4343.296781039654
 20
5237.994710713565
 30
0.0
 10
4343.376644963992
 20
5238.356353142786
 30
0.0
 10
4343.679409448295
 20
5239.727341163887
 30
0.0
 10
4344.258448277116
 20
5242.07903862488
 30
0.0
 10
4345.006554085775
 20
5244.964392659069
 30
0.0
 10
4345.511066350507
 20
5246.768733814204
 30
0.0
 10
4345.75399323909
 20
5247.637539219742
 30
0.0
  0
SPLINE
  5
CA
330
1F
100
AcDbEntity
  8
0
  6
Continuous
 62
     7
370
    25
100
AcDbSpline
210
0.0
220
0.0
230
1.0
 70
     8
 71
     3
 72
    15
 73
    11
 74
     0
 42
0.00000001
 43
0.00000001
 40
0.0
 40
0.0
 40
0.0
 40
0.0
 40
0.2335060581898803
 40
0.4366022628155872
 40
0.6083827694377355
 40
0.7478839965142028
 40
0.8541792118657188
 40
0.9265516953395803
 40
0.9853779975126677
 40
1.0
 40
1.0
 40
1.0
 40
1.0
 10
3977.076944174787
 20
4741.581100429748
 30
0.0
 10
3982.37164097899
 20
4741.702244536548
 30
0.0
 10
3992.271498068598
 20
4741.928755966554
 30
0.0
 10
4005.942738679272
 20
4743.74296555197
 30
0.0
 10
4017.318040192448
 20
4746.131082797593
 30
0.0
 10
4026.366432245915
 20
4748.717949668498
 30
0.0
 10
4033.121969722911
 20
4751.056379145281
 30
0.0
 10
4038.068319929119
 20
4753.015035500702
 30
0.0
 10
4041.069835557159
 20
4754.270953009514
 30
0.0
 10
4042.552085681959
 20
4754.958039647781
 30
0.0
 10
4042.84717030116
 20
4755.094824051183
 30
0.0
  0
SPLINE
  5
CB
330
1F
100
AcDbEntity
  8
0
  6
Continuous
 62
     7
370
    25
100
AcDbSpline
210
0.0
220
0.0
230
1.0
 70
     8
 71
     3
 72
    25
 73
    21
 74
     0
 42
0.00000001
 43
0.00000001
 40
0.0
 40
0.0
 40
0.0
 40
0.0
 40
0.0372097012158547
 40
0.0944032935861223
 40
0.1494997419389744
 40
0.2231430593796064
 40
0.2910563672222954
 40
0.3537691896132094
 40
0.4110853633273095
 40
0.4627849486156946
 40
0.509008839589913
 40
0.5498506782126
 40
0.5859994066583953
 40
0.6211173441137988
 40
0.6556856181700195
 40
0.7219935134257107
 40
0.786197376291197
 40
0.8771212016506511
 40
0.9634821841366765
 40
1.0
 40
1.0
 40
1.0
 40
1.0
 10
4340.17456215433
 20
5226.587306140706
 30
0.0
 10
4340.175592339791
 20
5226.586732286471
 30
0.0
 10
4340.178205983477
 20
5226.585276383091
 30
0.0
 10
4340.19554248479
 20
5226.634890095303
 30
0.0
 10
4340.228039941695
 20
5226.738053526729
 30
0.0
 10
4340.279837679188
 20
5226.912542567959
 30
0.0
 10
4340.354005070583
 20
5227.169975883979
 30
0.0
 10
4340.439869299198
 20
5227.473012426869
 30
0.0
 10
4340.534526091604
 20
5227.810252874285
 30
0.0
 10
4340.63552592862
 20
5228.172036075291
 30
0.0
 10
4340.739842965956
 20
5228.547402631125
 30
0.0
 10
4340.844922937185
 20
5228.926855184473
 30
0.0
 10
4340.955352739669
 20
5229.326046788127
 30
0.0
 10
4341.060916669586
 20
5229.708897891233
 30
0.0
 10
4341.19984204798
 20
5230.214124030654
 30
0.0
 10
4341.373436042382
 20
5230.847888285835
 30
0.0
 10
4341.614669201421
 20
5231.732490854183
 30
0.0
 10
4341.888567688688
 20
5232.74220860345
 30
0.0
 10
4342.138804469489
 20
5233.669435327444
 30
0.0
 10
4342.287902539713
 20
5234.227159543118
 30
0.0
 10
4342.332212346997
 20
5234.392907178055
 30
0.0
  0
SPLINE
  5
CC
330
1F
100
AcDbEntity
  8
0
  6
Continuous
 62
     7
370
    25
100
AcDbSpline
210
0.0
220
0.0
230
1.0
 70
     8
 71
     3
 72
    17
 73
    13
 74
     0
 42
0.00000001
 43
0.00000001
 40
0.0
 40
0.0
 40
0.0
 40
0.0
 40
0.0843484631076772
 40
0.1531482285394614
 40
0.2298982008249047
 40
0.3147148385380101
 40
0.4077844975703139
 40
0.5093769280100714
 40
0.6178092866612682
 40
0.7352904132367467
 40
0.8624309736516406
 40
1.0
 40
1.0
 40
1.0
 40
1.0
 10
4343.356584526891
 20
5238.262915158133
 30
0.0
 10
4343.422864827443
 20
5238.515679028012
 30
0.0
 10
4343.543207394961
 20
5238.974612569707
 30
0.0
 10
4343.722179810758
 20
5239.669208213451
 30
0.0
 10
4343.901473680624
 20
5240.379661372142
 30
0.0
 10
4344.102637971548
 20
5241.186278568856
 30
0.0
 10
4344.330182074314
 20
5242.101071420541
 30
0.0
 10
4344.588385754199
 20
5243.130731705792
 30
0.0
 10
4344.884885366147
 20
5244.287727033722
 30
0.0
 10
4345.226108415162
 20
5245.591042196736
 30
0.0
 10
4345.616649966397
 20
5247.064961266798
 30
0.0
 10
4345.906242236162
 20
5248.15434445246
 30
0.0
 10
4346.056742741553
 20
5248.720494647489
 30
0.0
  0
SPLINE
  5
CD
330
1F
100
AcDbEntity
  8
0
  6
Continuous
 62
     7
370
    25
100
AcDbSpline
210
0.0
220
0.0
230
1.0
 70
     8
 71
     3
 72
    19
 73
    15
 74
     0
 42
0.00000001
 43
0.00000001
 40
0.0
 40
0.0
 40
0.0
 40
0.0
 40
0.1275939595431903
 40
0.246226748153319
 40
0.3565201264664984
 40
0.4589780566000086
 40
0.553999792044684
 40
0.6403836683223593
 40
0.7201116583538615
 40
0.7933468120654724
 40
0.8602036170767199
 40
0.931573844026333
 40
0.9982359645885617
 40
0.9999999999999999
 40
0.9999999999999999
 40
0.9999999999999999
 40
0.9999999999999999
 10
3608.097145608053
 20
5248.720494647479
 30
0.0
 10
3608.236702969857
 20
5248.195465108049
 30
0.0
 10
3608.506016309618
 20
5247.182279870744
 30
0.0
 10
3608.872295135314
 20
5245.800972854114
 30
0.0
 10
3609.195815427279
 20
5244.568448718729
 30
0.0
 10
3609.479083849506
 20
5243.470547712274
 30
0.0
 10
3609.725392479249
 20
5242.494288908705
 30
0.0
 10
3609.941751974407
 20
5241.626756152703
 30
0.0
 10
3610.13347625026
 20
5240.855997351244
 30
0.0
 10
3610.305834797141
 20
5240.167251435496
 30
0.0
 10
3610.470055526263
 20
5239.519148770434
 30
0.0
 10
3610.62960606765
 20
5238.90281998611
 30
0.0
 10
3610.73917396621
 20
5238.484036096244
 30
0.0
 10
3610.792920697939
 20
5238.279188601486
 30
0.0
 10
3610.794306295839
 20
5238.273907605797
 30
0.0
  0
SPLINE
  5
CE
330
1F
100
AcDbEntity
  8
0
  6
Continuous
 62
     7
370
    25
100
AcDbSpline
210
0.0
220
0.0
230
1.0
 70
     8
 71
     3
 72
    22
 73
    18
 74
     0
 42
0.00000001
 43
0.00000001
 40
0.0
 40
0.0
 40
0.0
 40
0.0
 40
0.0714936854906381
 40
0.1608993713781492
 40
0.2548460445540425
 40
0.3412847343889756
 40
0.4312700025495368
 40
0.4681115640661557
 40
0.5096888802759338
 40
0.5566483050653369
 40
0.6090763574185881
 40
0.6626169108980834
 40
0.7208200967538807
 40
0.783463559766056
 40
0.8508076400783267
 40
0.9233435407889251
 40
1.0
 40
1.0
 40
1.0
 40
1.0
 10
3611.818085256416
 20
5234.405866596795
 30
0.0
 10
3611.901094780249
 20
5234.096063794275
 30
0.0
 10
3612.087911002009
 20
5233.398840314543
 30
0.0
 10
3612.372746802011
 20
5232.345414662305
 30
0.0
 10
3612.663323628279
 20
5231.276547352526
 30
0.0
 10
3612.941568341966
 20
5230.258974508773
 30
0.0
 10
3613.149879218195
 20
5229.501929360767
 30
0.0
 10
3613.309551163655
 20
5228.924740669266
 30
0.0
 10
3613.412737634364
 20
5228.55212678417
 30
0.0
 10
3613.515231219906
 20
5228.183287119853
 30
0.0
 10
3613.611775780036
 20
5227.837405066462
 30
0.0
 10
3613.70055422043
 20
5227.520904584811
 30
0.0
 10
3613.78029992029
 20
5227.238871541392
 30
0.0
 10
3613.851064256586
 20
5226.991837407441
 30
0.0
 10
3613.909510744744
 20
5226.792474887257
 30
0.0
 10
3613.953728478308
 20
5226.647289219371
 30
0.0
 10
3613.967842973213
 20
5226.609664972506
 30
0.0
 10
3613.97509513548
 20
5226.590333275181
 30
0.0
  0
SPLINE
  5
CF
330
1F
100
AcDbEntity
  8
0
  6
Continuous
 62
     7
370
    25
100
AcDbSpline
210
0.0
220
0.0
230
1.0
 70
     8
 71
     3
 72
    23
 73
    19
 74
     0
 42
0.00000001
 43
0.00000001
 40
0.0
 40
0.0
 40
0.0
 40
0.0
 40
0.0550843497303809
 40
0.1478434378446923
 40
0.2302881617250225
 40
0.3038576914627173
 40
0.3701960555728522
 40
0.430244091006284
 40
0.4853799556308444
 40
0.5623309182089788
 40
0.6323018063432373
 40
0.6968592599424557
 40
0.757155460030174
 40
0.8147780012870219
 40
0.8705693731415802
 40
0.9248861675066451
 40
0.998446346852468
 40
1.0
 40
1.0
 40
1.0
 40
1.0
 10
3613.978296041795
 20
5226.591463197645
 30
0.0
 10
3613.979882734452
 20
5226.589992120432
 30
0.0
 10
3613.984141332374
 20
5226.586043828155
 30
0.0
 10
3613.975572247787
 20
5226.642900671996
 30
0.0
 10
3613.95950147602
 20
5226.740352142458
 30
0.0
 10
3613.937680550901
 20
5226.865617644844
 30
0.0
 10
3613.913423733673
 20
5227.004817741466
 30
0.0
 10
3613.886527092197
 20
5227.159184300068
 30
0.0
 10
3613.853911961924
 20
5227.348006849293
 30
0.0
 10
3613.814623765262
 20
5227.578311673744
 30
0.0
 10
3613.766658800939
 20
5227.860969580749
 30
0.0
 10
3613.716180318352
 20
5228.159511503928
 30
0.0
 10
3613.662978429963
 20
5228.475371162299
 30
0.0
 10
3613.608268464396
 20
5228.806844670108
 30
0.0
 10
3613.549724155735
 20
5229.154609118777
 30
0.0
 10
3613.474733119814
 20
5229.590142978765
 30
0.0
 10
3613.427913081091
 20
5229.867396678701
 30
0.0
 10
3613.382195414923
 20
5230.117535959416
 30
0.0
 10
3613.381249791545
 20
5230.122709835757
 30
0.0
  0
SPLINE
  5
D0
330
1F
100
AcDbEntity
  8
0
  6
Continuous
 62
     7
370
    25
100
AcDbSpline
210
0.0
220
0.0
230
1.0
 70
     8
 71
     3
 72
    14
 73
    10
 74
     0
 42
0.00000001
 43
0.00000001
 40
0.0
 40
0.0
 40
0.0
 40
0.0
 40
0.0033129112433235
 40
0.0884043286941669
 40
0.2071309486390994
 40
0.3586793370468011
 40
0.5420327047963336
 40
0.7561265655388559
 40
1.0
 40
1.0
 40
1.0
 40
1.0
 10
3911.481843018594
 20
4755.005541793252
 30
0.0
 10
3911.548719296055
 20
4754.974802999451
 30
0.0
 10
3913.333298471343
 20
4754.154544854489
 30
0.0
 10
3917.603476700935
 20
4752.37480805198
 30
0.0
 10
3925.045307359791
 20
4749.587652183774
 30
0.0
 10
3934.794436710839
 20
4746.634801896207
 30
0.0
 10
3946.861067543567
 20
4743.956475280315
 30
0.0
 10
3961.214148270535
 20
4741.960083824786
 30
0.0
 10
3971.564989177303
 20
4741.712788401456
 30
0.0
 10
3977.076944174813
 20
4741.581100429748
 30
0.0
  0
SPLINE
  5
D1
330
1F
100
AcDbEntity
  8
0
  6
Continuous
 62
     7
370
    25
100
AcDbSpline
210
0.0
220
0.0
230
1.0
 70
     8
 71
     3
 72
    11
 73
     7
 74
     0
 42
0.00000001
 43
0.00000001
 40
0.0
 40
0.0
 40
0.0
 40
0.0
 40
0.2921852253889085
 40
0.6018613126011768
 40
0.8840861911013238
 40
1.0
 40
1.0
 40
1.0
 40
1.0
 10
3608.396755433845
 20
5247.648774465288
 30
0.0
 10
3608.638374693089
 20
5246.784209597907
 30
0.0
 10
3609.136077081444
 20
5245.00332507434
 30
0.0
 10
3609.875846831962
 20
5242.154844887954
 30
0.0
 10
3610.458629657988
 20
5239.790303920116
 30
0.0
 10
3610.772720882216
 20
5238.374389215807
 30
0.0
 10
3610.8641651736
 20
5237.962160834979
 30
0.0
  0
SPLINE
  5
D2
330
1F
100
AcDbEntity
  8
0
  6
Continuous
 62
     7
370
    25
100
AcDbSpline
210
0.0
220
0.0
230
1.0
 70
     8
 71
     3
 72
    17
 73
    13
 74
     0
 42
0.00000001
 43
0.00000001
 40
0.0
 40
0.0
 40
0.0
 40
0.0
 40
0.0732637975849388
 40
0.1692271862272696
 40
0.2434545227872891
 40
0.3187371800706784
 40
0.3940303604183184
 40
0.4616940225925388
 40
0.5305025906273938
 40
0.7159607045482982
 40
0.9274567451353729
 40
1.0
 40
1.0
 40
1.0
 40
1.0
 10
4340.875754171771
 20
5230.592207600532
 30
0.0
 10
4340.87594621724
 20
5230.587116827335
 30
0.0
 10
4340.876389810328
 20
5230.575357988013
 30
0.0
 10
4340.648177630093
 20
5229.947398420092
 30
0.0
 10
4340.539749936369
 20
5229.740413145089
 30
0.0
 10
4340.764107713926
 20
5230.192372432729
 30
0.0
 10
4341.151956831286
 20
5231.11613059379
 30
0.0
 10
4341.324796930804
 20
5231.601160742219
 30
0.0
 10
4341.536311683994
 20
5232.150670162252
 30
0.0
 10
4341.992818117569
 20
5233.388463381551
 30
0.0
 10
4342.532291331227
 20
5234.818895953094
 30
0.0
 10
4342.823475600964
 20
5235.974229610043
 30
0.0
 10
4342.897843672672
 20
5236.269300275517
 30
0.0
  0
SPLINE
  5
D3
330
1F
100
AcDbEntity
  8
0
  6
Continuous
 62
     7
370
    25
100
AcDbSpline
210
0.0
220
0.0
230
1.0
 70
     8
 71
     3
 72
    42
 73
    38
 74
     0
 42
0.00000001
 43
0.00000001
 40
0.0
 40
0.0
 40
0.0
 40
0.0
 40
0.0014581368820557
 40
0.0175058089583258
 40
0.0342457988710463
 40
0.0517241485369091
 40
0.0699248642278683
 40
0.0892601652814042
 40
0.1104128734020694
 40
0.1323921691045541
 40
0.1554057486134224
 40
0.1796680129890683
 40
0.2054532373053587
 40
0.2331347722452946
 40
0.2632660696308597
 40
0.297046242918717
 40
0.3321490439021506
 40
0.3683848187732525
 40
0.4068295997564151
 40
0.4478815459463679
 40
0.4919859989350761
 40
0.5393941328211276
 40
0.5895500090047537
 40
0.634314188730043
 40
0.6747090108429767
 40
0.7165137080836299
 40
0.7548939647991905
 40
0.7896587074131166
 40
0.8214967055049585
 40
0.851087347516484
 40
0.8784564191284205
 40
0.9026098281928382
 40
0.9253462308276477
 40
0.9468034016142174
 40
0.9671801836433702
 40
0.9854939282897227
 40
1.0
 40
1.0
 40
1.0
 40
1.0
 10
4043.280208399141
 20
4755.385166036866
 30
0.0
 10
4043.535924146921
 20
4755.49170712675
 30
0.0
 10
4046.605945270016
 20
4756.770796894434
 30
0.0
 10
4052.37330308533
 20
4759.756908383097
 30
0.0
 10
4060.654508048856
 20
4764.410301039297
 30
0.0
 10
4068.953089985076
 20
4769.780202791227
 30
0.0
 10
4077.33058728455
 20
4775.843215733774
 30
0.0
 10
4085.938827287787
 20
4782.699125282407
 30
0.0
 10
4094.727935815533
 20
4790.397966163773
 30
0.0
 10
4103.628313753052
 20
4798.944099468033
 30
0.0
 10
4112.527999641743
 20
4808.261112427958
 30
0.0
 10
4121.487798474741
 20
4818.433652479507
 30
0.0
 10
4130.585836008336
 20
4829.572297299504
 30
0.0
 10
4139.935343474644
 20
4841.840415056377
 30
0.0
 10
4149.756334303182
 20
4855.529301364183
 30
0.0
 10
4159.962507299203
 20
4870.553633833188
 30
0.0
 10
4170.27859754156
 20
4886.761048610966
 30
0.0
 10
4180.573351383905
 20
4903.88994993596
 30
0.0
 10
4190.95970181466
 20
4922.111847473217
 30
0.0
 10
4201.61131265415
 20
4941.688260507752
 30
0.0
 10
4212.637084819249
 20
4962.737254818998
 30
0.0
 10
4224.099850547601
 20
4985.198462212774
 30
0.0
 10
4235.427652240353
 20
5007.624642633115
 30
0.0
 10
4246.188161128797
 20
5028.70943522621
 30
0.0
 10
4256.359388847856
 20
5048.221489877243
 30
0.0
 10
4266.304930478638
 20
5066.390028834564
 30
0.0
 10
4275.950969175181
 20
5083.40150547709
 30
0.0
 10
4284.719893594568
 20
5098.681504497878
 30
0.0
 10
4292.608661834403
 20
5112.469894806061
 30
0.0
 10
4299.667534736737
 20
5125.012928957995
 30
0.0
 10
4305.863681898431
 20
5136.30975619714
 30
0.0
 10
4311.231332660668
 20
5146.51356375106
 30
0.0
 10
4315.853838678592
 20
5155.728257716941
 30
0.0
 10
4319.905255992197
 20
5164.246900215316
 30
0.0
 10
4323.342527092267
 20
5171.956484933212
 30
0.0
 10
4326.125349143399
 20
5178.624509964262
 30
0.0
 10
4327.572087241786
 20
5182.490373347117
 30
0.0
 10
4328.211532824697
 20
5184.1990511424
 30
0.0
  0
SPLINE
  5
D4
330
1F
100
AcDbEntity
  8
0
  6
Continuous
 62
     7
370
    25
100
AcDbSpline
210
0.0
220
0.0
230
1.0
 70
     8
 71
     3
 72
    42
 73
    38
 74
     0
 42
0.00000001
 43
0.00000001
 40
0.0
 40
0.0
 40
0.0
 40
0.0
 40
0.012914074129027
 40
0.031746121389091
 40
0.051077345377719
 40
0.0725865811414068
 40
0.0951718259302587
 40
0.119051294948376
 40
0.1444418352024515
 40
0.1732940347042986
 40
0.2042870175128718
 40
0.2376266253054906
 40
0.2739798131246433
 40
0.3139073779101085
 40
0.3569620305855672
 40
0.3996376156549718
 40
0.4465670422287907
 40
0.4965418872560967
 40
0.5420185233378176
 40
0.5842450600707463
 40
0.6234890600985956
 40
0.660212430755258
 40
0.6948426796826555
 40
0.7277356687786777
 40
0.762681545823584
 40
0.7913640920176247
 40
0.8176984071541906
 40
0.8422110359228261
 40
0.8652739500385931
 40
0.8871605572884095
 40
0.9080838832419483
 40
0.930324132423097
 40
0.9485947258179016
 40
0.9659554174742508
 40
0.9825535858241239
 40
0.9984286845220351
 40
1.0
 40
1.0
 40
1.0
 40
1.0
 10
3625.921851201997
 20
5184.255178588779
 30
0.0
 10
3626.486871839058
 20
5182.738516507176
 30
0.0
 10
3627.875838136778
 20
5179.010170358023
 30
0.0
 10
3630.52634620286
 20
5172.62138791176
 30
0.0
 10
3633.907431936046
 20
5164.991788665613
 30
0.0
 10
3637.852874074838
 20
5156.644959468819
 30
0.0
 10
3642.417866897725
 20
5147.498883969386
 30
0.0
 10
3647.577497850452
 20
5137.642311931368
 30
0.0
 10
3653.507631062992
 20
5126.779391619287
 30
0.0
 10
3660.240911071279
 20
5114.768796112779
 30
0.0
 10
3667.846804292527
 20
5101.446458950829
 30
0.0
 10
3676.235437786418
 20
5086.83701800172
 30
0.0
 10
3685.434219557695
 20
5070.676092788085
 30
0.0
 10
3695.355051810392
 20
5052.781113725562
 30
0.0
 10
3705.466117053805
 20
5033.554362353639
 30
0.0
 10
3716.02949099816
 20
5012.939832112752
 30
0.0
 10
3727.122094745633
 20
4991.000716167107
 30
0.0
 10
3738.576828438598
 20
4968.45010626172
 30
0.0
 10
3749.941553976427
 20
4946.586513769686
 30
0.0
 10
3760.786262239735
 20
4926.460073313983
 30
0.0
 10
3771.295149285103
 20
4907.819366742492
 30
0.0
 10
3781.565712405089
 20
4890.523109466756
 30
0.0
 10
3791.690650870347
 20
4874.401962956879
 30
0.0
 10
3802.1218859568
 20
4858.782659642103
 30
0.0
 10
3812.390418644802
 20
4844.31054027153
 30
0.0
 10
3822.389146197511
 20
4831.067831231989
 30
0.0
 10
3831.649288391411
 20
4819.63604978233
 30
0.0
 10
3840.668343968239
 20
4809.30992963285
 30
0.0
 10
3849.551290129351
 20
4799.927629039759
 30
0.0
 10
3858.370565475138
 20
4791.374685004616
 30
0.0
 10
3867.473929158038
 20
4783.306879860449
 30
0.0
 10
3876.461972644941
 20
4776.100770164231
 30
0.0
 10
3885.278959717825
 20
4769.727196614634
 30
0.0
 10
3893.550762658319
 20
4764.379631337364
 30
0.0
 10
3901.764009698587
 20
4759.771096034802
 30
0.0
 10
3907.491963261194
 20
4756.790373497133
 30
0.0
 10
3910.555329262645
 20
4755.523025721786
 30
0.0
 10
3910.831232056436
 20
4755.408881740377
 30
0.0
  0
SPLINE
  5
D5
330
1F
100
AcDbEntity
  8
0
  6
Continuous
 62
     7
370
    25
100
AcDbSpline
210
0.0
220
0.0
230
1.0
 70
     8
 71
     3
 72
    19
 73
    15
 74
     0
 42
0.00000001
 43
0.00000001
 40
0.0
 40
0.0
 40
0.0
 40
0.0
 40
0.0314606106932811
 40
0.2473820951237312
 40
0.4469119994596137
 40
0.5301210501092052
 40
0.5748341478968035
 40
0.62615681194762
 40
0.6761418889724033
 40
0.7466632354179649
 40
0.8161273098067299
 40
0.8889190316443255
 40
0.9824104942309028
 40
1.0
 40
1.0
 40
1.0
 40
1.0
 10
3611.234389142768
 20
5236.301253998286
 30
0.0
 10
3611.26590489044
 20
5236.1706387619
 30
0.0
 10
3611.513720540447
 20
5235.143580795755
 30
0.0
 10
3612.048114987684
 20
5233.703852978215
 30
0.0
 10
3612.526884202421
 20
5232.390689511511
 30
0.0
 10
3612.804662025133
 20
5231.662405689455
 30
0.0
 10
3612.870639643365
 20
5231.48318391843
 30
0.0
 10
3613.099573229382
 20
5230.874218000326
 30
0.0
 10
3613.361646579854
 20
5230.26375420358
 30
0.0
 10
3613.590180669438
 20
5229.786235603128
 30
0.0
 10
3613.558747700331
 20
5229.843783693153
 30
0.0
 10
3613.345680339793
 20
5230.349679904378
 30
0.0
 10
3613.258533313545
 20
5230.664213271029
 30
0.0
 10
3613.268593859343
 20
5230.62493115963
 30
0.0
 10
3613.270186931775
 20
5230.618710895841
 30
0.0
  0
LINE
  5
D6
330
1F
100
AcDbEntity
  8
0
  6
Continuous
 62
     7
370
    25
100
AcDbLine
 10
3704.9389668028
 20
5228.1079698996
 30
0.0
 11
4249.2149215468
 21
5228.1079698996
 31
0.0
  0
SPLINE
  5
D7
330
1F
100
AcDbEntity
  8
0
  6
Continuous
 62
     7
370
    25
100
AcDbSpline
210
0.0
220
0.0
230
1.0
 70
     8
 71
     3
 72
    16
 73
    12
 74
     0
 42
0.00000001
 43
0.00000001
 40
0.0
 40
0.0
 40
0.0
 40
0.0
 40
0.0440932513041682
 40
0.283906225191539
 40
0.5053429091080596
 40
0.6996665583691417
 40
0.8672374966872874
 40
0.912674390163411
 40
0.9349396724069832
 40
0.9565984726797335
 40
1.0
 40
1.0
 40
1.0
 40
1.0
 10
4297.475639362921
 20
5227.107412620434
 30
0.0
 10
4297.704104235228
 20
5227.017925286605
 30
0.0
 10
4299.175136594309
 20
5226.441737085495
 30
0.0
 10
4301.888803682064
 20
5225.658877211461
 30
0.0
 10
4304.827855384134
 20
5224.832562396065
 30
0.0
 10
4307.029176515228
 20
5224.246239209577
 30
0.0
 10
4308.144470012819
 20
5223.92415908132
 30
0.0
 10
4308.676165685863
 20
5223.755993121906
 30
0.0
 10
4308.796199653484
 20
5223.715727821655
 30
0.0
 10
4308.210601900275
 20
5223.91736565198
 30
0.0
 10
4307.676188014368
 20
5224.217269085882
 30
0.0
 10
4307.319682295327
 20
5224.417333665348
 30
0.0
  0
SPLINE
  5
D8
330
1F
100
AcDbEntity
  8
0
  6
Continuous
 62
     7
370
    25
100
AcDbSpline
210
0.0
220
0.0
230
1.0
 70
     8
 71
     3
 72
    14
 73
    10
 74
     0
 42
0.00000001
 43
0.00000001
 40
0.0
 40
0.0
 40
0.0
 40
0.0
 40
0.0189753339538513
 40
0.0405093919627233
 40
0.2216675610988373
 40
0.4153334181973669
 40
0.6387465219653996
 40
0.8905485574604489
 40
1.0
 40
1.0
 40
1.0
 40
1.0
 10
3645.416285511096
 20
5223.735633613444
 30
0.0
 10
3645.426765875725
 20
5223.738989990692
 30
0.0
 10
3645.449139827072
 20
5223.746155335018
 30
0.0
 10
3645.91730008156
 20
5223.896775541161
 30
0.0
 10
3646.825821429609
 20
5224.162102706362
 30
0.0
 10
3648.82064659868
 20
5224.699949577924
 30
0.0
 10
3651.484891985696
 20
5225.431810250312
 30
0.0
 10
3654.202831371645
 20
5226.207743083398
 30
0.0
 10
3655.976503014715
 20
5226.85856794409
 30
0.0
 10
3656.513884470477
 20
5227.05575281337
 30
0.0
  0
SPLINE
  5
D9
330
1F
100
AcDbEntity
  8
0
  6
Continuous
 62
     7
370
    25
100
AcDbSpline
210
0.0
220
0.0
230
1.0
 70
     8
 71
     3
 72
    10
 73
     6
 74
     0
 42
0.00000001
 43
0.00000001
 40
0.0
 40
0.0
 40
0.0
 40
0.0
 40
0.1991277468053086
 40
0.578876003679696
 40
1.0
 40
1.0
 40
1.0
 40
1.0
 10
3656.286071326886
 20
5227.028993602466
 30
0.0
 10
3656.289437968951
 20
5227.029517865661
 30
0.0
 10
3656.299224994294
 20
5227.031041929424
 30
0.0
 10
3656.763688380647
 20
5227.09002257359
 30
0.0
 10
3657.391130713541
 20
5227.141745694581
 30
0.0
 10
3657.721059764816
 20
5227.168943349797
 30
0.0
  0
SPLINE
  5
DA
330
1F
100
AcDbEntity
  8
0
  6
Continuous
 62
     7
370
    25
100
AcDbSpline
210
0.0
220
0.0
230
1.0
 70
     8
 71
     3
 72
    11
 73
     7
 74
     0
 42
0.00000001
 43
0.00000001
 40
0.0
 40
0.0
 40
0.0
 40
0.0
 40
0.0225649304344137
 40
0.4548399488570937
 40
0.7829382075122989
 40
1.0
 40
1.0
 40
1.0
 40
1.0
 10
4295.255814470328
 20
5227.252912785977
 30
0.0
 10
4295.294821883605
 20
5227.250702051175
 30
0.0
 10
4296.081091972581
 20
5227.206140402411
 30
0.0
 10
4296.925007615523
 20
5227.132582582266
 30
0.0
 10
4297.779337871171
 20
5227.043172413869
 30
0.0
 10
4297.85429226757
 20
5227.031067722218
 30
0.0
 10
4297.884136229178
 20
5227.02624809895
 30
0.0
  0
LINE
  5
DB
330
1F
100
AcDbEntity
  8
0
  6
Continuous
 62
     7
370
    25
100
AcDbLine
 10
4096.4769441748
 20
5397.2618916949
 30
0.0
 11
4096.4769441748
 21
5396.941061119
 31
0.0
  0
LINE
  5
DC
330
1F
100
AcDbEntity
  8
0
  6
Continuous
 62
     7
370
    25
100
AcDbLine
 10
4096.4769441748
 20
5399.8018916949
 30
0.0
 11
4096.4769441748
 21
5399.4838848138
 31
0.0
  0
LINE
  5
DD
330
1F
100
AcDbEntity
  8
0
  6
Continuous
 62
     7
370
    25
100
AcDbLine
 10
4096.4769441748
 20
5402.3418916949
 30
0.0
 11
4096.4769441748
 21
5402.026634963
 31
0.0
  0
LINE
  5
DE
330
1F
100
AcDbEntity
  8
0
  6
Continuous
 62
     7
370
    25
100
AcDbLine
 10
4096.4769441748
 20
5404.8818916949
 30
0.0
 11
4096.4769441748
 21
5404.5646550063
 31
0.0
  0
LINE
  5
DF
330
1F
100
AcDbEntity
  8
0
  6
Continuous
 62
     7
370
    25
100
AcDbLine
 10
4096.4769441748
 20
5407.4218916949
 30
0.0
 11
4096.4769441748
 21
5407.1031335834
 31
0.0
  0
LINE
  5
E0
330
1F
100
AcDbEntity
  8
0
  6
Continuous
 62
     7
370
    25
100
AcDbLine
 10
4096.4769441748
 20
5409.9618916949
 30
0.0
 11
4096.4769441748
 21
5409.6435468016
 31
0.0
  0
LINE
  5
E1
330
1F
100
AcDbEntity
  8
0
  6
Continuous
 62
     7
370
    25
100
AcDbLine
 10
4096.4769441748
 20
5412.5018916949
 30
0.0
 11
4096.4769441748
 21
5412.1881839281
 31
0.0
  0
LINE
  5
E2
330
1F
100
AcDbEntity
  8
0
  6
Continuous
 62
     7
370
    25
100
AcDbLine
 10
4096.4769441748
 20
5415.0418916949
 30
0.0
 11
4096.4769441748
 21
5414.7287175485
 31
0.0
  0
LINE
  5
E3
330
1F
100
AcDbEntity
  8
0
  6
Continuous
 62
     7
370
    25
100
AcDbLine
 10
4137.6769441748
 20
5413.4540746457
 30
0.0
 11
4137.6769441748
 21
5413.771742214
 31
0.0
  0
LINE
  5
E4
330
1F
100
AcDbEntity
  8
0
  6
Continuous
 62
     7
370
    25
100
AcDbLine
 10
4137.6769441748
 20
5410.9141047558
 30
0.0
 11
4137.6769441748
 21
5411.231742214
 31
0.0
  0
LINE
  5
E5
330
1F
100
AcDbEntity
  8
0
  6
Continuous
 62
     7
370
    25
100
AcDbLine
 10
4137.6769441748
 20
5408.3741000906
 30
0.0
 11
4137.6769441748
 21
5408.691742214
 31
0.0
  0
LINE
  5
E6
330
1F
100
AcDbEntity
  8
0
  6
Continuous
 62
     7
370
    25
100
AcDbLine
 10
4137.6769441748
 20
5405.8341057589
 30
0.0
 11
4137.6769441748
 21
5406.151742214
 31
0.0
  0
LINE
  5
E7
330
1F
100
AcDbEntity
  8
0
  6
Continuous
 62
     7
370
    25
100
AcDbLine
 10
4137.6769441748
 20
5403.2940029606
 30
0.0
 11
4137.6769441748
 21
5403.611742214
 31
0.0
  0
LINE
  5
E8
330
1F
100
AcDbEntity
  8
0
  6
Continuous
 62
     7
370
    25
100
AcDbLine
 10
4137.6769441748
 20
5400.7540950392
 30
0.0
 11
4137.6769441748
 21
5401.071742214
 31
0.0
  0
LINE
  5
E9
330
1F
100
AcDbEntity
  8
0
  6
Continuous
 62
     7
370
    25
100
AcDbLine
 10
4137.6769441748
 20
5398.2141025103
 30
0.0
 11
4137.6769441748
 21
5398.531742214
 31
0.0
  0
SPLINE
  5
EA
330
1F
100
AcDbEntity
  8
0
  6
Continuous
 62
     7
370
    25
100
AcDbSpline
210
0.0
220
0.0
230
1.0
 70
     8
 71
     3
 72
     9
 73
     5
 74
     0
 42
0.00000001
 43
0.00000001
 40
0.0
 40
0.0
 40
0.0
 40
0.0
 40
0.4999924135913695
 40
1.0
 40
1.0
 40
1.0
 40
1.0
 10
4136.289861852451
 20
5397.406554833429
 30
0.0
 10
4136.522730703629
 20
5397.541082746288
 30
0.0
 10
4136.988475472646
 20
5397.810142654404
 30
0.0
 10
4137.454228033519
 20
5398.079190005375
 30
0.0
 10
4137.687107847344
 20
5398.213715721964
 30
0.0
  0
SPLINE
  5
EB
330
1F
100
AcDbEntity
  8
0
  6
Continuous
 62
     7
370
    25
100
AcDbSpline
210
0.0
220
0.0
230
1.0
 70
     8
 71
     3
 72
     9
 73
     5
 74
     0
 42
0.00000001
 43
0.00000001
 40
0.0
 40
0.0
 40
0.0
 40
0.0
 40
0.4999924859380081
 40
1.0
 40
1.0
 40
1.0
 40
1.0
 10
4136.29010228391
 20
5399.946691590634
 30
0.0
 10
4136.52296997132
 20
5400.081218728547
 30
0.0
 10
4136.988712345376
 20
5400.350277047816
 30
0.0
 10
4137.454462136843
 20
5400.61932292949
 30
0.0
 10
4137.68734053225
 20
5400.753847891955
 30
0.0
  0
SPLINE
  5
EC
330
1F
100
AcDbEntity
  8
0
  6
Continuous
 62
     7
370
    25
100
AcDbSpline
210
0.0
220
0.0
230
1.0
 70
     8
 71
     3
 72
     9
 73
     5
 74
     0
 42
0.00000001
 43
0.00000001
 40
0.0
 40
0.0
 40
0.0
 40
0.0
 40
0.4999925722782032
 40
1.0
 40
1.0
 40
1.0
 40
1.0
 10
4136.290333678337
 20
5402.486824486948
 30
0.0
 10
4136.52319993356
 20
5402.621350699839
 30
0.0
 10
4136.988939362771
 20
5402.890407122573
 30
0.0
 10
4137.454685896897
 20
5403.159451250454
 30
0.0
 10
4137.687562623394
 20
5403.293975312779
 30
0.0
  0
SPLINE
  5
ED
330
1F
100
AcDbEntity
  8
0
  6
Continuous
 62
     7
370
    25
100
AcDbSpline
210
0.0
220
0.0
230
1.0
 70
     8
 71
     3
 72
     9
 73
     5
 74
     0
 42
0.00000001
 43
0.00000001
 40
0.0
 40
0.0
 40
0.0
 40
0.0
 40
0.4999926352966878
 40
1.0
 40
1.0
 40
1.0
 40
1.0
 10
4136.29049105943
 20
5405.026915611449
 30
0.0
 10
4136.52335625988
 20
5405.161441146871
 30
0.0
 10
4136.989093520814
 20
5405.430496180735
 30
0.0
 10
4137.454837686305
 20
5405.699539023944
 30
0.0
 10
4137.687713199119
 20
5405.83406242697
 30
0.0
  0
SPLINE
  5
EE
330
1F
100
AcDbEntity
  8
0
  6
Continuous
 62
     7
370
    25
100
AcDbSpline
210
0.0
220
0.0
230
1.0
 70
     8
 71
     3
 72
     9
 73
     5
 74
     0
 42
0.00000001
 43
0.00000001
 40
0.0
 40
0.0
 40
0.0
 40
0.0
 40
0.4999925401683178
 40
1.0
 40
1.0
 40
1.0
 40
1.0
 10
4136.290404722584
 20
5407.566865547206
 30
0.0
 10
4136.523271605088
 20
5407.701392091903
 30
0.0
 10
4136.989012318792
 20
5407.970449195537
 30
0.0
 10
4137.454759867517
 20
5408.239493951045
 30
0.0
 10
4137.687637116279
 20
5408.374018335828
 30
0.0
  0
SPLINE
  5
EF
330
1F
100
AcDbEntity
  8
0
  6
Continuous
 62
     7
370
    25
100
AcDbSpline
210
0.0
220
0.0
230
1.0
 70
     8
 71
     3
 72
     9
 73
     5
 74
     0
 42
0.00000001
 43
0.00000001
 40
0.0
 40
0.0
 40
0.0
 40
0.0
 40
0.4999924475216574
 40
1.0
 40
1.0
 40
1.0
 40
1.0
 10
4136.290356699664
 20
5410.106837778805
 30
0.0
 10
4136.523225237355
 20
5410.241365297555
 30
0.0
 10
4136.988969347783
 20
5410.510424399182
 30
0.0
 10
4137.454720135836
 20
5410.779470999275
 30
0.0
 10
4137.687599047435
 20
5410.91399633129
 30
0.0
  0
SPLINE
  5
F0
330
1F
100
AcDbEntity
  8
0
  6
Continuous
 62
     7
370
    25
100
AcDbSpline
210
0.0
220
0.0
230
1.0
 70
     8
 71
     3
 72
     9
 73
     5
 74
     0
 42
0.00000001
 43
0.00000001
 40
0.0
 40
0.0
 40
0.0
 40
0.0
 40
0.4999923599567236
 40
1.0
 40
1.0
 40
1.0
 40
1.0
 10
4136.290344146591
 20
5412.64683052943
 30
0.0
 10
4136.523214259643
 20
5412.781358960802
 30
0.0
 10
4136.988961602409
 20
5413.05041993482
 30
0.0
 10
4137.454715391414
 20
5413.31946826227
 30
0.0
 10
4137.687595844295
 20
5413.453994481535
 30
0.0
  0
SPLINE
  5
F1
330
1F
100
AcDbEntity
  8
0
  6
Continuous
 62
     7
370
    25
100
AcDbSpline
210
0.0
220
0.0
230
1.0
 70
     8
 71
     3
 72
     9
 73
     5
 74
     0
 42
0.00000001
 43
0.00000001
 40
0.0
 40
0.0
 40
0.0
 40
0.0
 40
0.6729601031056492
 40
1.0
 40
1.0
 40
1.0
 40
1.0
 10
4136.290362807024
 20
5415.186841307173
 30
0.0
 10
4136.523234183278
 20
5415.321370931571
 30
0.0
 10
4136.869274572861
 20
5415.521278212519
 30
0.0
 10
4137.215319538171
 20
5415.721175999174
 30
0.0
 10
4137.328490047946
 20
5415.786550550711
 30
0.0
  0
SPLINE
  5
F2
330
1F
100
AcDbEntity
  8
0
  6
Continuous
 62
     7
370
    25
100
AcDbSpline
210
0.0
220
0.0
230
1.0
 70
     8
 71
     3
 72
     9
 73
     5
 74
     0
 42
0.00000001
 43
0.00000001
 40
0.0
 40
0.0
 40
0.0
 40
0.0
 40
0.5000074164544478
 40
1.0
 40
1.0
 40
1.0
 40
1.0
 10
4096.467395118849
 20
5414.723372848473
 30
0.0
 10
4096.700271987954
 20
5414.588848816242
 30
0.0
 10
4097.166018817785
 20
5414.319804742485
 30
0.0
 10
4097.631755951264
 20
5414.050748393774
 30
0.0
 10
4097.864621063887
 20
5413.916222214862
 30
0.0
  0
SPLINE
  5
F3
330
1F
100
AcDbEntity
  8
0
  6
Continuous
 62
     7
370
    25
100
AcDbSpline
210
0.0
220
0.0
230
1.0
 70
     8
 71
     3
 72
     9
 73
     5
 74
     0
 42
0.00000001
 43
0.00000001
 40
0.0
 40
0.0
 40
0.0
 40
0.0
 40
0.5000072799771877
 40
0.9999999999999999
 40
0.9999999999999999
 40
0.9999999999999999
 40
0.9999999999999999
 10
4096.467098923529
 20
5412.183536981858
 30
0.0
 10
4096.699973229145
 20
5412.049014379108
 30
0.0
 10
4097.165715059197
 20
5411.779973090838
 30
0.0
 10
4097.63144754381
 20
5411.510919753305
 30
0.0
 10
4097.864310395596
 20
5411.37639504324
 30
0.0
  0
SPLINE
  5
F4
330
1F
100
AcDbEntity
  8
0
  6
Continuous
 62
     7
370
    25
100
AcDbSpline
210
0.0
220
0.0
230
1.0
 70
     8
 71
     3
 72
     9
 73
     5
 74
     0
 42
0.00000001
 43
0.00000001
 40
0.0
 40
0.0
 40
0.0
 40
0.0
 40
0.500007278455032
 40
1.0
 40
1.0
 40
1.0
 40
1.0
 10
4096.466689378887
 20
5409.643767322617
 30
0.0
 10
4096.699563577332
 20
5409.509244767964
 30
0.0
 10
4097.165305194463
 20
5409.240203575065
 30
0.0
 10
4097.631038432342
 20
5408.97115033496
 30
0.0
 10
4097.863901661464
 20
5408.8366256732
 30
0.0
  0
SPLINE
  5
F5
330
1F
100
AcDbEntity
  8
0
  6
Continuous
 62
     7
370
    25
100
AcDbSpline
210
0.0
220
0.0
230
1.0
 70
     8
 71
     3
 72
     9
 73
     5
 74
     0
 42
0.00000001
 43
0.00000001
 40
0.0
 40
0.0
 40
0.0
 40
0.0
 40
0.5000074465496798
 40
0.9999999999999999
 40
0.9999999999999999
 40
0.9999999999999999
 40
0.9999999999999999
 10
4096.466351210079
 20
5407.103960627745
 30
0.0
 10
4096.699228287105
 20
5406.969436370574
 30
0.0
 10
4097.164975504737
 20
5406.700391863136
 30
0.0
 10
4097.630715605509
 20
5406.431335029692
 30
0.0
 10
4097.863582187738
 20
5406.296808616514
 30
0.0
  0
SPLINE
  5
F6
330
1F
100
AcDbEntity
  8
0
  6
Continuous
 62
     7
370
    25
100
AcDbSpline
210
0.0
220
0.0
230
1.0
 70
     8
 71
     3
 72
     9
 73
     5
 74
     0
 42
0.00000001
 43
0.00000001
 40
0.0
 40
0.0
 40
0.0
 40
0.0
 40
0.5000075889803329
 40
1.0
 40
1.0
 40
1.0
 40
1.0
 10
4096.46611693325
 20
5404.564096267978
 30
0.0
 10
4096.69899634895
 20
5404.42957057996
 30
0.0
 10
4097.164748111189
 20
5404.160523287514
 30
0.0
 10
4097.630493725297
 20
5403.891463432867
 30
0.0
 10
4097.863362997817
 20
5403.756935547432
 30
0.0
  0
SPLINE
  5
F7
330
1F
100
AcDbEntity
  8
0
  6
Continuous
 62
     7
370
    25
100
AcDbSpline
210
0.0
220
0.0
230
1.0
 70
     8
 71
     3
 72
     9
 73
     5
 74
     0
 42
0.00000001
 43
0.00000001
 40
0.0
 40
0.0
 40
0.0
 40
0.0
 40
0.5000077050185605
 40
0.9999999999999999
 40
0.9999999999999999
 40
0.9999999999999999
 40
0.9999999999999999
 10
4096.465969206857
 20
5402.024182546576
 30
0.0
 10
4096.698850493368
 20
5401.889655699684
 30
0.0
 10
4097.164605889084
 20
5401.620606151966
 30
0.0
 10
4097.630355832602
 20
5401.351543849657
 30
0.0
 10
4097.863227215748
 20
5401.217014771632
 30
0.0
  0
SPLINE
  5
F8
330
1F
100
AcDbEntity
  8
0
  6
Continuous
 62
     7
370
    25
100
AcDbSpline
210
0.0
220
0.0
230
1.0
 70
     8
 71
     3
 72
     9
 73
     5
 74
     0
 42
0.00000001
 43
0.00000001
 40
0.0
 40
0.0
 40
0.0
 40
0.0
 40
0.5000077944882307
 40
1.0
 40
1.0
 40
1.0
 40
1.0
 10
4096.465892263587
 20
5399.4842277191
 30
0.0
 10
4096.698774997772
 20
5399.349699981725
 30
0.0
 10
4097.164533205449
 20
5399.08064870121
 30
0.0
 10
4097.630286410411
 20
5398.811584517807
 30
0.0
 10
4097.863159382584
 20
5398.677054523323
 30
0.0
  0
LINE
  5
F9
330
1F
100
AcDbEntity
  8
0
  6
Continuous
 62
     7
370
    25
100
AcDbLine
 10
4096.4658715904
 20
5396.9442398837
 30
0.0
 11
4096.4933524259
 21
5396.9283650644
 31
0.0
  0
SPLINE
  5
FA
330
1F
100
AcDbEntity
  8
0
  6
Continuous
 62
     7
370
    25
100
AcDbSpline
210
0.0
220
0.0
230
1.0
 70
     8
 71
     3
 72
     9
 73
     5
 74
     0
 42
0.00000001
 43
0.00000001
 40
0.0
 40
0.0
 40
0.0
 40
0.0
 40
0.5002566894239514
 40
1.0
 40
1.0
 40
1.0
 40
1.0
 10
4097.868903454499
 20
5413.311668445209
 30
0.0
 10
4097.639481072119
 20
5413.179148659157
 30
0.0
 10
4097.180871747684
 20
5412.914245082949
 30
0.0
 10
4096.72236223203
 20
5412.649339638957
 30
0.0
 10
4096.493225168747
 20
5412.516954915387
 30
0.0
  0
SPLINE
  5
FB
330
1F
100
AcDbEntity
  8
0
  6
Continuous
 62
     7
370
    25
100
AcDbSpline
210
0.0
220
0.0
230
1.0
 70
     8
 71
     3
 72
     9
 73
     5
 74
     0
 42
0.00000001
 43
0.00000001
 40
0.0
 40
0.0
 40
0.0
 40
0.0
 40
0.5005183416857849
 40
1.0
 40
1.0
 40
1.0
 40
1.0
 10
4097.868903454499
 20
5410.771668445208
 30
0.0
 10
4097.63933248272
 20
5410.639081897162
 30
0.0
 10
4097.180666031045
 20
5410.374183416921
 30
0.0
 10
4096.722213699543
 20
5410.109272873114
 30
0.0
 10
4096.493225168747
 20
5409.976954915386
 30
0.0
  0
SPLINE
  5
FC
330
1F
100
AcDbEntity
  8
0
  6
Continuous
 62
     7
370
    25
100
AcDbSpline
210
0.0
220
0.0
230
1.0
 70
     8
 71
     3
 72
     9
 73
     5
 74
     0
 42
0.00000001
 43
0.00000001
 40
0.0
 40
0.0
 40
0.0
 40
0.0
 40
0.5007765001670871
 40
1.0
 40
1.0
 40
1.0
 40
1.0
 10
4097.868903454499
 20
5408.231668445208
 30
0.0
 10
4097.639185792363
 20
5408.099014701621
 30
0.0
 10
4097.180462864952
 20
5407.834118598184
 30
0.0
 10
4096.722067104558
 20
5407.569205673032
 30
0.0
 10
4096.493225168747
 20
5407.436954915386
 30
0.0
  0
SPLINE
  5
FD
330
1F
100
AcDbEntity
  8
0
  6
Continuous
 62
     7
370
    25
100
AcDbSpline
210
0.0
220
0.0
230
1.0
 70
     8
 71
     3
 72
     9
 73
     5
 74
     0
 42
0.00000001
 43
0.00000001
 40
0.0
 40
0.0
 40
0.0
 40
0.0
 40
0.5010309111522674
 40
1.0
 40
1.0
 40
1.0
 40
1.0
 10
4097.868903454499
 20
5405.691668445209
 30
0.0
 10
4097.639040942696
 20
5405.558947037399
 30
0.0
 10
4097.180261840075
 20
5405.294050391591
 30
0.0
 10
4096.721922387687
 20
5405.0291380067
 30
0.0
 10
4096.493225168747
 20
5404.896954915386
 30
0.0
  0
SPLINE
  5
FE
330
1F
100
AcDbEntity
  8
0
  6
Continuous
 62
     7
370
    25
100
AcDbSpline
210
0.0
220
0.0
230
1.0
 70
     8
 71
     3
 72
     9
 73
     5
 74
     0
 42
0.00000001
 43
0.00000001
 40
0.0
 40
0.0
 40
0.0
 40
0.0
 40
0.5012813296337906
 40
1.0
 40
1.0
 40
1.0
 40
1.0
 10
4097.868903454499
 20
5403.151668445208
 30
0.0
 10
4097.638897877163
 20
5403.018878870423
 30
0.0
 10
4097.180062561066
 20
5402.753978570061
 30
0.0
 10
4096.721779491735
 20
5402.489069843345
 30
0.0
 10
4096.493225168747
 20
5402.356954915387
 30
0.0
  0
SPLINE
  5
FF
330
1F
100
AcDbEntity
  8
0
  6
Continuous
 62
     7
370
    25
100
AcDbSpline
210
0.0
220
0.0
230
1.0
 70
     8
 71
     3
 72
     9
 73
     5
 74
     0
 42
0.00000001
 43
0.00000001
 40
0.0
 40
0.0
 40
0.0
 40
0.0
 40
0.5015275200882804
 40
1.0
 40
1.0
 40
1.0
 40
1.0
 10
4097.868903454499
 20
5400.611668445208
 30
0.0
 10
4097.638756541206
 20
5400.478810167802
 30
0.0
 10
4097.17986464779
 20
5400.213902915291
 30
0.0
 10
4096.721638361856
 20
5399.949001153514
 30
0.0
 10
4096.493225168747
 20
5399.816954915386
 30
0.0
  0
SPLINE
  5
100
330
1F
100
AcDbEntity
  8
0
  6
Continuous
 62
     7
370
    25
100
AcDbSpline
210
0.0
220
0.0
230
1.0
 70
     8
 71
     3
 72
     9
 73
     5
 74
     0
 42
0.00000001
 43
0.00000001
 40
0.0
 40
0.0
 40
0.0
 40
0.0
 40
0.5017692571976717
 40
1.0
 40
1.0
 40
1.0
 40
1.0
 10
4097.868903454499
 20
5398.071668445208
 30
0.0
 10
4097.638616882444
 20
5397.938740897939
 30
0.0
 10
4097.179667736493
 20
5397.673823218424
 30
0.0
 10
4096.721498945708
 20
5397.408931909162
 30
0.0
 10
4096.493225168747
 20
5397.276954915386
 30
0.0
  0
SPLINE
  5
101
330
1F
100
AcDbEntity
  8
0
  6
Continuous
 62
     7
370
    25
100
AcDbSpline
210
0.0
220
0.0
230
1.0
 70
     8
 71
     3
 72
     9
 73
     5
 74
     0
 42
0.00000001
 43
0.00000001
 40
0.0
 40
0.0
 40
0.0
 40
0.0
 40
0.4997788980356293
 40
1.0
 40
1.0
 40
1.0
 40
1.0
 10
4137.675958311034
 20
5411.235352149574
 30
0.0
 10
4137.446768242468
 20
5411.367703568274
 30
0.0
 10
4136.988185318168
 20
5411.632523510092
 30
0.0
 10
4136.52998753741
 20
5411.897391212928
 30
0.0
 10
4136.300787338601
 20
5412.029883627115
 30
0.0
  0
SPLINE
  5
102
330
1F
100
AcDbEntity
  8
0
  6
Continuous
 62
     7
370
    25
100
AcDbSpline
210
0.0
220
0.0
230
1.0
 70
     8
 71
     3
 72
     9
 73
     5
 74
     0
 42
0.00000001
 43
0.00000001
 40
0.0
 40
0.0
 40
0.0
 40
0.0
 40
0.4995554387513107
 40
1.0
 40
1.0
 40
1.0
 40
1.0
 10
4137.675958311034
 20
5408.695352149574
 30
0.0
 10
4137.446768806277
 20
5408.827633482475
 30
0.0
 10
4136.987981878983
 20
5409.092431586229
 30
0.0
 10
4136.529987922972
 20
5409.357321107075
 30
0.0
 10
4136.300787338601
 20
5409.489883627115
 30
0.0
  0
SPLINE
  5
103
330
1F
100
AcDbEntity
  8
0
  6
Continuous
 62
     7
370
    25
100
AcDbSpline
210
0.0
220
0.0
230
1.0
 70
     8
 71
     3
 72
     9
 73
     5
 74
     0
 42
0.00000001
 43
0.00000001
 40
0.0
 40
0.0
 40
0.0
 40
0.0
 40
0.499335363253714
 40
1.0
 40
1.0
 40
1.0
 40
1.0
 10
4137.675958311034
 20
5406.155352149573
 30
0.0
 10
4137.446767528139
 20
5406.287562986895
 30
0.0
 10
4136.987775836863
 20
5406.552336618106
 30
0.0
 10
4136.529986347167
 20
5406.817250576411
 30
0.0
 10
4136.300787338601
 20
5406.949883627115
 30
0.0
  0
SPLINE
  5
104
330
1F
100
AcDbEntity
  8
0
  6
Continuous
 62
     7
370
    25
100
AcDbSpline
210
0.0
220
0.0
230
1.0
 70
     8
 71
     3
 72
     9
 73
     5
 74
     0
 42
0.00000001
 43
0.00000001
 40
0.0
 40
0.0
 40
0.0
 40
0.0
 40
0.4991188843570598
 40
1.0
 40
1.0
 40
1.0
 40
1.0
 10
4137.675958311034
 20
5403.615352149573
 30
0.0
 10
4137.446764456185
 20
5403.747492054448
 30
0.0
 10
4136.987567535304
 20
5404.012238408505
 30
0.0
 10
4136.529982860846
 20
5404.277179591698
 30
0.0
 10
4136.300787338601
 20
5404.409883627115
 30
0.0
  0
SPLINE
  5
105
330
1F
100
AcDbEntity
  8
0
  6
Continuous
 62
     7
370
    25
100
AcDbSpline
210
0.0
220
0.0
230
1.0
 70
     8
 71
     3
 72
     9
 73
     5
 74
     0
 42
0.00000001
 43
0.00000001
 40
0.0
 40
0.0
 40
0.0
 40
0.0
 40
0.4989062067187134
 40
1.0
 40
1.0
 40
1.0
 40
1.0
 10
4137.675958311034
 20
5401.075352149574
 30
0.0
 10
4137.446759636396
 20
5401.207420659169
 30
0.0
 10
4136.987357304749
 20
5401.472136767763
 30
0.0
 10
4136.52997751328
 20
5401.737108124737
 30
0.0
 10
4136.300787338601
 20
5401.869883627114
 30
0.0
  0
SPLINE
  5
106
330
1F
100
AcDbEntity
  8
0
  6
Continuous
 62
     7
370
    25
100
AcDbSpline
210
0.0
220
0.0
230
1.0
 70
     8
 71
     3
 72
     9
 73
     5
 74
     0
 42
0.00000001
 43
0.00000001
 40
0.0
 40
0.0
 40
0.0
 40
0.0
 40
0.498697526204015
 40
1.0
 40
1.0
 40
1.0
 40
1.0
 10
4137.675958311034
 20
5398.535352149574
 30
0.0
 10
4137.446753112491
 20
5398.667348776283
 30
0.0
 10
4136.987145461562
 20
5398.932031514361
 30
0.0
 10
4136.52997035199
 20
5399.197036148469
 30
0.0
 10
4136.300787338601
 20
5399.329883627114
 30
0.0
  0
SPLINE
  5
107
330
1F
100
AcDbEntity
  8
0
  6
Continuous
 62
     7
370
    25
100
AcDbSpline
210
0.0
220
0.0
230
1.0
 70
     8
 71
     3
 72
     9
 73
     5
 74
     0
 42
0.00000001
 43
0.00000001
 40
0.0
 40
0.0
 40
0.0
 40
0.0
 40
0.5000055208166365
 40
1.0
 40
1.0
 40
1.0
 40
1.0
 10
4137.675958311034
 20
5413.775352149573
 30
0.0
 10
4137.446765786584
 20
5413.907773272414
 30
0.0
 10
4136.988385798949
 20
5414.172612593836
 30
0.0
 10
4136.529985138221
 20
5414.437460924141
 30
0.0
 10
4136.300787338601
 20
5414.569883627115
 30
0.0
  0
SPLINE
  5
108
330
1F
100
AcDbEntity
  8
0
  6
Continuous
 62
     7
370
    25
100
AcDbSpline
210
0.0
220
0.0
230
1.0
 70
     8
 71
     3
 72
     9
 73
     5
 74
     0
 42
0.00000001
 43
0.00000001
 40
0.0
 40
0.0
 40
0.0
 40
0.0
 40
0.4999918049806453
 40
1.0
 40
1.0
 40
1.0
 40
1.0
 10
4097.868903454499
 20
5415.851668445209
 30
0.0
 10
4097.639631620507
 20
5415.719215023676
 30
0.0
 10
4097.181080436851
 20
5415.454303838707
 30
0.0
 10
4096.722512763429
 20
5415.189406003723
 30
0.0
 10
4096.493225168747
 20
5415.056954915387
 30
0.0
  0
SPLINE
  5
109
330
1F
100
AcDbEntity
  8
0
  6
Continuous
 62
     7
370
    25
100
AcDbSpline
210
0.0
220
0.0
230
1.0
 70
     8
 71
     3
 72
     9
 73
     5
 74
     0
 42
0.00000001
 43
0.00000001
 40
0.0
 40
0.0
 40
0.0
 40
0.0
 40
0.5240077128667678
 40
1.0
 40
1.0
 40
1.0
 40
1.0
 10
4097.865256639586
 20
5413.915874933991
 30
0.0
 10
4097.865448554034
 20
5413.809974043791
 30
0.0
 10
4097.865814797588
 20
5413.607876083018
 30
0.0
 10
4097.865459791273
 20
5413.405778506497
 30
0.0
 10
4097.865290811005
 20
5413.309581618825
 30
0.0
  0
SPLINE
  5
10A
330
1F
100
AcDbEntity
  8
0
  6
Continuous
 62
     7
370
    25
100
AcDbSpline
210
0.0
220
0.0
230
1.0
 70
     8
 71
     3
 72
     9
 73
     5
 74
     0
 42
0.00000001
 43
0.00000001
 40
0.0
 40
0.0
 40
0.0
 40
0.0
 40
0.5243572326368667
 40
1.0
 40
1.0
 40
1.0
 40
1.0
 10
4097.865256639586
 20
5411.375874933991
 30
0.0
 10
4097.865643307203
 20
5411.26990625698
 30
0.0
 10
4097.866380719776
 20
5411.067813732235
 30
0.0
 10
4097.865665661796
 20
5410.865724273009
 30
0.0
 10
4097.865325549638
 20
5410.769601883369
 30
0.0
  0
SPLINE
  5
10B
330
1F
100
AcDbEntity
  8
0
  6
Continuous
 62
     7
370
    25
100
AcDbSpline
210
0.0
220
0.0
230
1.0
 70
     8
 71
     3
 72
     9
 73
     5
 74
     0
 42
0.00000001
 43
0.00000001
 40
0.0
 40
0.0
 40
0.0
 40
0.0
 40
0.5247033957757136
 40
1.0
 40
1.0
 40
1.0
 40
1.0
 10
4097.865256639586
 20
5408.835874933991
 30
0.0
 10
4097.865840900907
 20
5408.729838032611
 30
0.0
 10
4097.866954408701
 20
5408.527748809948
 30
0.0
 10
4097.86587425312
 20
5408.325669884536
 30
0.0
 10
4097.865360858839
 20
5408.229622457502
 30
0.0
  0
SPLINE
  5
10C
330
1F
100
AcDbEntity
  8
0
  6
Continuous
 62
     7
370
    25
100
AcDbSpline
210
0.0
220
0.0
230
1.0
 70
     8
 71
     3
 72
     9
 73
     5
 74
     0
 42
0.00000001
 43
0.00000001
 40
0.0
 40
0.0
 40
0.0
 40
0.0
 40
0.5250444227906589
 40
1.0
 40
1.0
 40
1.0
 40
1.0
 10
4097.865256639586
 20
5406.295874933991
 30
0.0
 10
4097.866041334991
 20
5406.189769170009
 30
0.0
 10
4097.867535866444
 20
5405.987680052637
 30
0.0
 10
4097.866085568915
 20
5405.785615181248
 30
0.0
 10
4097.865396742016
 20
5405.689643343623
 30
0.0
  0
SPLINE
  5
10D
330
1F
100
AcDbEntity
  8
0
  6
Continuous
 62
     7
370
    25
100
AcDbSpline
210
0.0
220
0.0
230
1.0
 70
     8
 71
     3
 72
     9
 73
     5
 74
     0
 42
0.00000001
 43
0.00000001
 40
0.0
 40
0.0
 40
0.0
 40
0.0
 40
0.525378638842856
 40
0.9999999999999999
 40
0.9999999999999999
 40
0.9999999999999999
 40
0.9999999999999999
 10
4097.865256639586
 20
5403.755874933991
 30
0.0
 10
4097.866244607395
 20
5403.649699479228
 30
0.0
 10
4097.868125094599
 20
5403.4476062708
 30
0.0
 10
4097.866299614482
 20
5403.245560013725
 30
0.0
 10
4097.865433202624
 20
5403.149664544175
 30
0.0
  0
SPLINE
  5
10E
330
1F
100
AcDbEntity
  8
0
  6
Continuous
 62
     7
370
    25
100
AcDbSpline
210
0.0
220
0.0
230
1.0
 70
     8
 71
     3
 72
     9
 73
     5
 74
     0
 42
0.00000001
 43
0.00000001
 40
0.0
 40
0.0
 40
0.0
 40
0.0
 40
0.5257045024800223
 40
1.0
 40
1.0
 40
1.0
 40
1.0
 10
4097.865256639586
 20
5401.215874933991
 30
0.0
 10
4097.866450714268
 20
5401.109628784438
 30
0.0
 10
4097.868722094249
 20
5400.907526369389
 30
0.0
 10
4097.866516396629
 20
5400.705504245433
 30
0.0
 10
4097.865470244178
 20
5400.609686061642
 30
0.0
  0
SPLINE
  5
10F
330
1F
100
AcDbEntity
  8
0
  6
Continuous
 62
     7
370
    25
100
AcDbSpline
210
0.0
220
0.0
230
1.0
 70
     8
 71
     3
 72
     9
 73
     5
 74
     0
 42
0.00000001
 43
0.00000001
 40
0.0
 40
0.0
 40
0.0
 40
0.0
 40
0.5260206292838001
 40
1.0
 40
1.0
 40
1.0
 40
1.0
 10
4097.865256639586
 20
5398.675874933991
 30
0.0
 10
4097.866659650138
 20
5398.569556926768
 30
0.0
 10
4097.869326865972
 20
5398.367439364634
 30
0.0
 10
4097.866735923518
 20
5398.165447754711
 30
0.0
 10
4097.865507870244
 20
5398.06970789855
 30
0.0
  0
SPLINE
  5
110
330
1F
100
AcDbEntity
  8
0
  6
Continuous
 62
     7
370
    25
100
AcDbSpline
210
0.0
220
0.0
230
1.0
 70
     8
 71
     3
 72
     9
 73
     5
 74
     0
 42
0.00000001
 43
0.00000001
 40
0.0
 40
0.0
 40
0.0
 40
0.0
 40
0.5047740530331467
 40
0.9999999999999999
 40
0.9999999999999999
 40
0.9999999999999999
 40
0.9999999999999999
 10
4136.302122474718
 20
5412.025032815316
 30
0.0
 10
4136.302117123939
 20
5412.130800016223
 30
0.0
 10
4136.302106523593
 20
5412.340333767555
 30
0.0
 10
4136.302117047918
 20
5412.549867903533
 30
0.0
 10
4136.302122259836
 20
5412.653634644444
 30
0.0
  0
SPLINE
  5
111
330
1F
100
AcDbEntity
  8
0
  6
Continuous
 62
     7
370
    25
100
AcDbSpline
210
0.0
220
0.0
230
1.0
 70
     8
 71
     3
 72
     9
 73
     5
 74
     0
 42
0.00000001
 43
0.00000001
 40
0.0
 40
0.0
 40
0.0
 40
0.0
 40
0.5044607769726255
 40
1.0
 40
1.0
 40
1.0
 40
1.0
 10
4136.302122474718
 20
5409.485032815315
 30
0.0
 10
4136.302109198997
 20
5409.590733667919
 30
0.0
 10
4136.302082882342
 20
5409.800266018951
 30
0.0
 10
4136.302108999566
 20
5410.009801438925
 30
0.0
 10
4136.302121941675
 20
5410.113634458135
 30
0.0
  0
SPLINE
  5
112
330
1F
100
AcDbEntity
  8
0
  6
Continuous
 62
     7
370
    25
100
AcDbSpline
210
0.0
220
0.0
230
1.0
 70
     8
 71
     3
 72
     9
 73
     5
 74
     0
 42
0.00000001
 43
0.00000001
 40
0.0
 40
0.0
 40
0.0
 40
0.0
 40
0.504151050940829
 40
1.0
 40
1.0
 40
1.0
 40
1.0
 10
4136.302122474718
 20
5406.945032815315
 30
0.0
 10
4136.302098702199
 20
5407.050666913242
 30
0.0
 10
4136.302051548636
 20
5407.26019558075
 30
0.0
 10
4136.302098325917
 20
5407.469734558293
 30
0.0
 10
4136.302121520382
 20
5407.573634240093
 30
0.0
  0
SPLINE
  5
113
330
1F
100
AcDbEntity
  8
0
  6
Continuous
 62
     7
370
    25
100
AcDbSpline
210
0.0
220
0.0
230
1.0
 70
     8
 71
     3
 72
     9
 73
     5
 74
     0
 42
0.00000001
 43
0.00000001
 40
0.0
 40
0.0
 40
0.0
 40
0.0
 40
0.5038464953456517
 40
1.0
 40
1.0
 40
1.0
 40
1.0
 10
4136.302122474718
 20
5404.405032815315
 30
0.0
 10
4136.30208563569
 20
5404.510599569815
 30
0.0
 10
4136.302012520111
 20
5404.720121230628
 30
0.0
 10
4136.302085023381
 20
5404.929667171228
 30
0.0
 10
4136.302120996132
 20
5405.033634124044
 30
0.0
  0
SPLINE
  5
114
330
1F
100
AcDbEntity
  8
0
  6
Continuous
 62
     7
370
    25
100
AcDbSpline
210
0.0
220
0.0
230
1.0
 70
     8
 71
     3
 72
     9
 73
     5
 74
     0
 42
0.00000001
 43
0.00000001
 40
0.0
 40
0.0
 40
0.0
 40
0.0
 40
0.5035491813257276
 40
1.0
 40
1.0
 40
1.0
 40
1.0
 10
4136.302122474718
 20
5401.865032815315
 30
0.0
 10
4136.302070001386
 20
5401.970531466606
 30
0.0
 10
4136.301965794419
 20
5402.180041590351
 30
0.0
 10
4136.302069088496
 20
5402.38959873927
 30
0.0
 10
4136.302120368925
 20
5402.49363355741
 30
0.0
  0
SPLINE
  5
115
330
1F
100
AcDbEntity
  8
0
  6
Continuous
 62
     7
370
    25
100
AcDbSpline
210
0.0
220
0.0
230
1.0
 70
     8
 71
     3
 72
     9
 73
     5
 74
     0
 42
0.00000001
 43
0.00000001
 40
0.0
 40
0.0
 40
0.0
 40
0.0
 40
0.5032595068545462
 40
1.0
 40
1.0
 40
1.0
 40
1.0
 10
4136.302122474718
 20
5399.325032815316
 30
0.0
 10
4136.302051801
 20
5399.430462446732
 30
0.0
 10
4136.301911369041
 20
5399.639956018101
 30
0.0
 10
4136.3020505183
 20
5399.84953002322
 30
0.0
 10
4136.302119639372
 20
5399.953633917873
 30
0.0
  0
SPLINE
  5
116
330
1F
100
AcDbEntity
  8
0
  6
Continuous
 62
     7
370
    25
100
AcDbSpline
210
0.0
220
0.0
230
1.0
 70
     8
 71
     3
 72
     9
 73
     5
 74
     0
 42
0.00000001
 43
0.00000001
 40
0.0
 40
0.0
 40
0.0
 40
0.0
 40
0.5029785256908278
 40
0.9999999999999999
 40
0.9999999999999999
 40
0.9999999999999999
 40
0.9999999999999999
 10
4136.302122474718
 20
5396.785032815315
 30
0.0
 10
4136.302031035963
 20
5396.890392369701
 30
0.0
 10
4136.301849241411
 20
5397.099863647309
 30
0.0
 10
4136.302029310153
 20
5397.309461129894
 30
0.0
 10
4136.302118808184
 20
5397.413635579699
 30
0.0
  0
LINE
  5
117
330
1F
100
AcDbEntity
  8
0
  6
Continuous
 62
     7
370
    25
100
AcDbLine
 10
4136.3021224747
 20
5414.5650328153
 30
0.0
 11
4136.3021224747
 21
5415.1936347661
 31
0.0
  0
LINE
  5
118
330
1F
100
AcDbEntity
  8
0
  6
Continuous
 62
     7
370
    25
100
AcDbLine
 10
3997.7944916856
 20
5618.8040950391
 30
0.0
 11
4027.0769441748
 21
5618.8040950391
 31
0.0
  0
LINE
  5
119
330
1F
100
AcDbEntity
  8
0
  6
Continuous
 62
     7
370
    25
100
AcDbLine
 10
3927.0769441748
 20
5618.8040950391
 30
0.0
 11
3997.7944916856
 21
5618.8040950391
 31
0.0
  0
ARC
  5
11A
330
1F
100
AcDbEntity
  8
0
  6
Continuous
 62
     7
370
    25
100
AcDbCircle
 10
3977.0769441748
 20
5166.8040950391
 30
0.0
 40
106.0000000000008
100
AcDbArc
 50
144.666237832
 51
180.1772847213
  0
ARC
  5
11B
330
1F
100
AcDbEntity
  8
0
  6
Continuous
 62
     7
370
    25
100
AcDbCircle
 10
3977.0769441748
 20
5166.8040950391
 30
0.0
 40
106.0000000000003
100
AcDbArc
 50
180.1772847213
 51
35.333762168
  0
ARC
  5
11C
330
1F
100
AcDbEntity
  8
0
  6
Continuous
 62
     7
370
    25
100
AcDbCircle
 10
3977.0769441748
 20
5166.8040950391
 30
0.0
 40
136.0000000000005
100
AcDbArc
 50
153.207301784
 51
180.1772847213
  0
ARC
  5
11D
330
1F
100
AcDbEntity
  8
0
  6
Continuous
 62
     7
370
    25
100
AcDbCircle
 10
3977.0769441748
 20
5166.8040950391
 30
0.0
 40
136.0000000000001
100
AcDbArc
 50
180.1772847213
 51
26.792698216
  0
SPLINE
  5
11E
330
1F
100
AcDbEntity
  8
0
  6
Continuous
 62
     7
370
    25
100
AcDbSpline
210
0.0
220
0.0
230
1.0
 70
     8
 71
     3
 72
    14
 73
    10
 74
     0
 42
0.00000001
 43
0.00000001
 40
0.0
 40
0.0
 40
0.0
 40
0.0
 40
0.1335584683703123
 40
0.2670881847048008
 40
0.400819543348312
 40
0.5345414487290385
 40
0.6653843467933946
 40
0.7962412909300846
 40
1.0
 40
1.0
 40
1.0
 40
1.0
 10
3971.139361209291
 20
5129.270841669269
 30
0.0
 10
3972.193315022953
 20
5131.256216096529
 30
0.0
 10
3974.300995758503
 20
5135.226537546053
 30
0.0
 10
3978.649162374978
 20
5140.523810947809
 30
0.0
 10
3983.77456771865
 20
5145.099450704448
 30
0.0
 10
3989.554476713743
 20
5148.789001486878
 30
0.0
 10
3995.799739744692
 20
5151.438967538222
 30
0.0
 10
4003.528279090075
 20
5153.476325096764
 30
0.0
 10
4009.187830151922
 20
5153.428482875978
 30
0.0
 10
4012.63412086554
 20
5153.399350140995
 30
0.0
  0
ARC
  5
11F
330
1F
100
AcDbEntity
  8
0
  6
Continuous
 62
     7
370
    25
100
AcDbCircle
 10
3977.0769441748
 20
5166.8040950391
 30
0.0
 40
37.99999999999964
100
AcDbArc
 50
339.3439954374
 51
354.1349563023
  0
LINE
  5
120
330
1F
100
AcDbEntity
  8
0
  6
Continuous
 62
     7
370
    25
100
AcDbLine
 10
4014.878027322
 20
5162.921040455
 30
0.0
 11
3985.1515401174
 21
5162.8290604024
 31
0.0
  0
ARC
  5
121
330
1F
100
AcDbEntity
  8
0
  6
Continuous
 62
     7
370
    25
100
AcDbCircle
 10
3977.0769441748
 20
5166.8040950391
 30
0.0
 40
8.999999999999446
100
AcDbArc
 50
266.5650846825
 51
333.7894847601
  0
LINE
  5
122
330
1F
100
AcDbEntity
  8
0
  6
Continuous
 62
     7
370
    25
100
AcDbLine
 10
3976.5377120805
 20
5157.8202635209
 30
0.0
 11
3961.7541255405
 21
5132.0303804101
 31
0.0
  0
ARC
  5
123
330
1F
100
AcDbEntity
  8
0
  6
Continuous
 62
     7
370
    25
100
AcDbCircle
 10
3977.0769441748
 20
5166.8040950391
 30
0.0
 40
38.00000000000011
100
AcDbArc
 50
246.2196131404
 51
261.0105740052
  0
SPLINE
  5
124
330
1F
100
AcDbEntity
  8
0
  6
Continuous
 62
     7
370
    25
100
AcDbSpline
210
0.0
220
0.0
230
1.0
 70
     8
 71
     3
 72
    14
 73
    10
 74
     0
 42
0.00000001
 43
0.00000001
 40
0.0
 40
0.0
 40
0.0
 40
0.0
 40
0.1335580619326663
 40
0.2670873721571878
 40
0.4008187475010537
 40
0.5345406695038293
 40
0.6653835742247255
 40
0.7962405249601491
 40
1.0
 40
1.0
 40
1.0
 40
1.0
 10
3947.540984752583
 20
5190.712819409308
 30
0.0
 10
3948.733389159042
 20
5188.807387441582
 30
0.0
 10
3951.117941277131
 20
5184.996933697947
 30
0.0
 10
3953.53143112156
 20
5178.582689335813
 30
0.0
 10
3954.931353970367
 20
5171.856146009953
 30
0.0
 10
3955.236650803651
 20
5165.00582225788
 30
0.0
 10
3954.408963497444
 20
5158.272281436551
 30
0.0
 10
3952.30910093162
 20
5150.560476016538
 30
0.0
 10
3949.437887213108
 20
5145.683069889724
 30
0.0
 10
3947.689506216402
 20
5142.713049187204
 30
0.0
  0
ARC
  5
125
330
1F
100
AcDbEntity
  8
0
  6
Continuous
 62
     7
370
    25
100
AcDbCircle
 10
3977.0769441748
 20
5166.8040950391
 30
0.0
 40
37.99999999999958
100
AcDbArc
 50
219.3439954374
 51
234.1349563022
  0
LINE
  5
126
330
1F
100
AcDbEntity
  8
0
  6
Continuous
 62
     7
370
    25
100
AcDbLine
 10
3954.8135786871
 20
5136.0089240352
 30
0.0
 11
3969.5971652271
 21
5161.798807146
 31
0.0
  0
ARC
  5
127
330
1F
100
AcDbEntity
  8
0
  6
Continuous
 62
     7
370
    25
100
AcDbCircle
 10
3977.0769441748
 20
5166.8040950391
 30
0.0
 40
9.000000000000695
100
AcDbArc
 50
146.5650846825
 51
213.7894847601
  0
LINE
  5
128
330
1F
100
AcDbEntity
  8
0
  6
Continuous
 62
     7
370
    25
100
AcDbLine
 10
3969.5663339039
 20
5171.7629994905
 30
0.0
 11
3954.6234332393
 21
5197.4609025486
 31
0.0
  0
ARC
  5
129
330
1F
100
AcDbEntity
  8
0
  6
Continuous
 62
     7
370
    25
100
AcDbCircle
 10
3977.0769441748
 20
5166.8040950391
 30
0.0
 40
38.0000000000007
100
AcDbArc
 50
126.2196131404
 51
141.0105740052
  0
SPLINE
  5
12A
330
1F
100
AcDbEntity
  8
0
  6
Continuous
 62
     7
370
    25
100
AcDbSpline
210
0.0
220
0.0
230
1.0
 70
     8
 71
     3
 72
    14
 73
    10
 74
     0
 42
0.00000001
 43
0.00000001
 40
0.0
 40
0.0
 40
0.0
 40
0.0
 40
0.1335588668093162
 40
0.2670889812615814
 40
0.4008203235334464
 40
0.5345422126192957
 40
0.6653851041581649
 40
0.7962420418260369
 40
1.0
 40
1.0
 40
1.0
 40
1.0
 10
4012.55048656257
 20
5180.428624038866
 30
0.0
 10
4010.304118197184
 20
5180.348687687701
 30
0.0
 10
4005.811865061302
 20
5180.188832193952
 30
0.0
 10
3999.050195516281
 20
5181.305825482375
 30
0.0
 10
3992.52486854223
 20
5183.45674511172
 30
0.0
 10
3986.43967287398
 20
5186.617523199631
 30
0.0
 10
3981.022107674335
 20
5190.701101286452
 30
0.0
 10
3975.393449348143
 20
5196.375529592679
 30
0.0
 10
3972.605114041098
 20
5201.300754933349
 30
0.0
 10
3970.907205442502
 20
5204.299885789244
 30
0.0
  0
ARC
  5
12B
330
1F
100
AcDbEntity
  8
0
  6
Continuous
 62
     7
370
    25
100
AcDbCircle
 10
3977.0769441748
 20
5166.8040950391
 30
0.0
 40
38.00000000000095
100
AcDbArc
 50
99.3439954374
 51
114.1349563022
  0
LINE
  5
12C
330
1F
100
AcDbEntity
  8
0
  6
Continuous
 62
     7
370
    25
100
AcDbLine
 10
3961.5392265154
 20
5201.4823206272
 30
0.0
 11
3976.4821271799
 21
5175.7844175691
 31
0.0
  0
ARC
  5
12D
330
1F
100
AcDbEntity
  8
0
  6
Continuous
 62
     7
370
    25
100
AcDbCircle
 10
3977.0769441748
 20
5166.8040950391
 30
0.0
 40
9.000000000000604
100
AcDbArc
 50
26.5650846826
 51
93.7894847601
  0
LINE
  5
12E
330
1F
100
AcDbEntity
  8
0
  6
Continuous
 62
     7
370
    25
100
AcDbLine
 10
3985.1267865401
 20
5170.829022106
 30
0.0
 11
4014.8532737446
 21
5170.9210021587
 31
0.0
  0
ARC
  5
12F
330
1F
100
AcDbEntity
  8
0
  6
Continuous
 62
     7
370
    25
100
AcDbCircle
 10
3977.0769441748
 20
5166.8040950391
 30
0.0
 40
38.0000000000004
100
AcDbArc
 50
6.2196131404
 51
21.0105740052
  0
ARC
  5
130
330
1F
100
AcDbEntity
  8
0
  6
Continuous
 62
     7
370
    25
100
AcDbCircle
 10
3959.0770303415
 20
5166.7483994902
 30
0.0
 40
28.00000000000059
100
AcDbArc
 50
95.7288909403
 51
109.6485053558
  0
ARC
  5
131
330
1F
100
AcDbEntity
  8
0
  6
Continuous
 62
     7
370
    25
100
AcDbCircle
 10
3959.0770303415
 20
5166.7483994902
 30
0.0
 40
27.99999999999958
100
AcDbArc
 50
250.7060640868
 51
264.6256785023
  0
LINE
  5
132
330
1F
100
AcDbEntity
  8
0
  6
Continuous
 62
     7
370
    25
100
AcDbLine
 10
3965.4433565464
 20
5194.7682322907
 30
0.0
 11
3977.1569648525
 21
5194.8044766778
 31
0.0
  0
LINE
  5
133
330
1F
100
AcDbEntity
  8
0
  6
Continuous
 62
     7
370
    25
100
AcDbLine
 10
3977.3302398936
 20
5138.804744752
 30
0.0
 11
3965.6166315876
 21
5138.768500365
 31
0.0
  0
LINE
  5
134
330
1F
100
AcDbEntity
  8
0
  6
Continuous
 62
     7
370
    25
100
AcDbLine
 10
4333.4206354442
 20
5232.6550365091
 30
0.0
 11
3620.7332529054
 21
5232.6550365091
 31
0.0
  0
SPLINE
  5
135
330
1F
100
AcDbEntity
  8
0
  6
Continuous
 62
     7
370
    25
100
AcDbSpline
210
0.0
220
0.0
230
1.0
 70
     8
 71
     3
 72
    47
 73
    43
 74
     0
 42
0.00000001
 43
0.00000001
 40
0.0
 40
0.0
 40
0.0
 40
0.0
 40
0.0381679217939725
 40
0.131200509918048
 40
0.2242334695188587
 40
0.2649407536606044
 40
0.3056490150396055
 40
0.3463456408423538
 40
0.3612850240562955
 40
0.3762214916811365
 40
0.3909815987761049
 40
0.4057372450646009
 40
0.4191012580963288
 40
0.4324858900735625
 40
0.4458384767976922
 40
0.4591312704827744
 40
0.4724766135650473
 40
0.4858447368069277
 40
0.4991687072051302
 40
0.5188849614648036
 40
0.5386387903316178
 40
0.5584224377792295
 40
0.5781794199140536
 40
0.6051343965432903
 40
0.6320992835859314
 40
0.6590597042651732
 40
0.6990338565768628
 40
0.7390057878132996
 40
0.7635214395608779
 40
0.7881233992591234
 40
0.8127276340290821
 40
0.8372776803823679
 40
0.8617543972513887
 40
0.886186330161755
 40
0.8997244047261279
 40
0.9133003243136487
 40
0.9268498094874084
 40
0.9403517232555384
 40
0.9545570253895225
 40
0.9688372769752299
 40
0.9830692572567926
 40
1.0
 40
1.0
 40
1.0
 40
1.0
 10
4333.420635444247
 20
5232.655036509084
 30
0.0
 10
4333.552493695634
 20
5232.252910050206
 30
0.0
 10
4334.005750488399
 20
5230.870618482401
 30
0.0
 10
4333.034771376346
 20
5228.205088058314
 30
0.0
 10
4332.089044707483
 20
5225.345823695573
 30
0.0
 10
4331.643225046222
 20
5224.402430372262
 30
0.0
 10
4331.422596741651
 20
5224.025248958475
 30
0.0
 10
4331.15217670309
 20
5222.990926202133
 30
0.0
 10
4330.778429560128
 20
5221.19355866451
 30
0.0
 10
4330.36717877372
 20
5219.252024753445
 30
0.0
 10
4329.733317327698
 20
5216.360412882661
 30
0.0
 10
4328.819659298312
 20
5212.455732420177
 30
0.0
 10
4327.64130025524
 20
5207.452032806109
 30
0.0
 10
4326.115840627378
 20
5201.449701990115
 30
0.0
 10
4324.063788897759
 20
5194.281434154906
 30
0.0
 10
4321.236043661832
 20
5185.91792915346
 30
0.0
 10
4317.614589263504
 20
5176.612473585533
 30
0.0
 10
4313.291732272363
 20
5166.594770202379
 30
0.0
 10
4307.497475746598
 20
5154.385040070161
 30
0.0
 10
4299.932734789806
 20
5139.947971803318
 30
0.0
 10
4290.565833786557
 20
5123.219126738565
 30
0.0
 10
4280.611239964252
 20
5106.05522607447
 30
0.0
 10
4269.081703200506
 20
5086.439857629234
 30
0.0
 10
4256.392987167722
 20
5064.16571272424
 30
0.0
 10
4242.744097444741
 20
5039.05747629566
 30
0.0
 10
4227.221489483463
 20
5009.296706078539
 30
0.0
 10
4209.7894791895
 20
4974.773329658148
 30
0.0
 10
4192.048764645369
 20
4940.848954741011
 30
0.0
 10
4176.059204581346
 20
4912.059729784598
 30
0.0
 10
4162.133769294087
 20
4888.444136002609
 30
0.0
 10
4147.240008503788
 20
4865.22847360621
 30
0.0
 10
4131.185036982886
 20
4842.674794132146
 30
0.0
 10
4113.756421040689
 20
4821.061424353085
 30
0.0
 10
4097.603516699332
 20
4803.674166721059
 30
0.0
 10
4083.286242928765
 20
4790.205395976212
 30
0.0
 10
4071.286327684158
 20
4780.285745202847
 30
0.0
 10
4058.51423208184
 20
4771.289338078168
 30
0.0
 10
4044.746658296899
 20
4763.243157997284
 30
0.0
 10
4029.700158016959
 20
4756.831101820895
 30
0.0
 10
4013.582938804983
 20
4752.401683460143
 30
0.0
 10
3995.957726469475
 20
4749.595833324079
 30
0.0
 10
3983.723702995706
 20
4749.29803724075
 30
0.0
 10
3977.076944174788
 20
4749.136244291118
 30
0.0
  0
SPLINE
  5
136
330
1F
100
AcDbEntity
  8
0
  6
Continuous
 62
     7
370
    25
100
AcDbSpline
210
0.0
220
0.0
230
1.0
 70
     8
 71
     3
 72
    47
 73
    43
 74
     0
 42
0.00000001
 43
0.00000001
 40
0.0
 40
0.0
 40
0.0
 40
0.0
 40
0.0381679217939735
 40
0.1312005099180509
 40
0.2242334695188637
 40
0.2649407536606099
 40
0.3056490150396119
 40
0.346345640842361
 40
0.3612850240563031
 40
0.3762214916811442
 40
0.3909815987761131
 40
0.4057372450646095
 40
0.4191012580963377
 40
0.4324858900735717
 40
0.4458384767977016
 40
0.459131270482784
 40
0.4724766135650572
 40
0.4858447368069381
 40
0.4991687072051406
 40
0.5188849614648142
 40
0.5386387903316284
 40
0.5584224377792406
 40
0.578179419914065
 40
0.6051343965433024
 40
0.6320992835859442
 40
0.6590597042651868
 40
0.6990338565768771
 40
0.7390057878133147
 40
0.7635214395608939
 40
0.7881233992591397
 40
0.8127276340290988
 40
0.8372776803823855
 40
0.8617543972514069
 40
0.8861863301617735
 40
0.8997244047261469
 40
0.913300324313668
 40
0.9268498094874278
 40
0.9403517232555582
 40
0.9545570253895426
 40
0.9688372769752502
 40
0.9830692572568132
 40
1.0
 40
1.0
 40
1.0
 40
1.0
 10
3620.733252905355
 20
5232.655036509086
 30
0.0
 10
3620.601394653968
 20
5232.252910050207
 30
0.0
 10
3620.148137861203
 20
5230.870618482402
 30
0.0
 10
3621.119116973256
 20
5228.205088058315
 30
0.0
 10
3622.064843642117
 20
5225.345823695575
 30
0.0
 10
3622.51066330338
 20
5224.402430372264
 30
0.0
 10
3622.73129160795
 20
5224.025248958475
 30
0.0
 10
3623.001711646512
 20
5222.990926202135
 30
0.0
 10
3623.375458789474
 20
5221.193558664511
 30
0.0
 10
3623.786709575882
 20
5219.252024753446
 30
0.0
 10
3624.420571021903
 20
5216.360412882663
 30
0.0
 10
3625.33422905129
 20
5212.455732420177
 30
0.0
 10
3626.512588094361
 20
5207.45203280611
 30
0.0
 10
3628.038047722223
 20
5201.449701990116
 30
0.0
 10
3630.090099451842
 20
5194.281434154908
 30
0.0
 10
3632.917844687771
 20
5185.917929153462
 30
0.0
 10
3636.5392990861
 20
5176.612473585534
 30
0.0
 10
3640.86215607724
 20
5166.59477020238
 30
0.0
 10
3646.656412603003
 20
5154.385040070161
 30
0.0
 10
3654.221153559794
 20
5139.947971803319
 30
0.0
 10
3663.588054563045
 20
5123.219126738567
 30
0.0
 10
3673.54264838535
 20
5106.055226074473
 30
0.0
 10
3685.072185149096
 20
5086.439857629235
 30
0.0
 10
3697.760901181878
 20
5064.165712724242
 30
0.0
 10
3711.40979090486
 20
5039.05747629566
 30
0.0
 10
3726.932398866138
 20
5009.29670607854
 30
0.0
 10
3744.364409160101
 20
4974.773329658148
 30
0.0
 10
3762.105123704232
 20
4940.848954741011
 30
0.0
 10
3778.094683768255
 20
4912.059729784599
 30
0.0
 10
3792.020119055513
 20
4888.444136002609
 30
0.0
 10
3806.913879845812
 20
4865.22847360621
 30
0.0
 10
3822.968851366713
 20
4842.674794132145
 30
0.0
 10
3840.397467308911
 20
4821.061424353085
 30
0.0
 10
3856.550371650269
 20
4803.674166721059
 30
0.0
 10
3870.867645420836
 20
4790.205395976212
 30
0.0
 10
3882.867560665442
 20
4780.285745202847
 30
0.0
 10
3895.639656267761
 20
4771.289338078169
 30
0.0
 10
3909.407230052702
 20
4763.243157997284
 30
0.0
 10
3924.453730332641
 20
4756.831101820896
 30
0.0
 10
3940.570949544617
 20
4752.401683460143
 30
0.0
 10
3958.196161880117
 20
4749.595833324081
 30
0.0
 10
3970.430185353877
 20
4749.29803724075
 30
0.0
 10
3977.076944174788
 20
4749.136244291118
 30
0.0
  0
SPLINE
  5
137
330
1F
100
AcDbEntity
  8
0
  6
Continuous
 62
     7
370
    25
100
AcDbSpline
210
0.0
220
0.0
230
1.0
 70
     8
 71
     3
 72
    14
 73
    10
 74
     0
 42
0.00000001
 43
0.00000001
 40
0.0
 40
0.0
 40
0.0
 40
0.0
 40
0.1364125235046961
 40
0.2786035569658868
 40
0.4213324416097127
 40
0.5640759630091134
 40
0.7090023448294993
 40
0.8539542032620829
 40
0.9999999999999999
 40
0.9999999999999999
 40
0.9999999999999999
 40
0.9999999999999999
 10
4295.86910838944
 20
5227.237435954697
 30
0.0
 10
4294.670997789064
 20
5227.30679489772
 30
0.0
 10
4292.224023960508
 20
5227.448450866959
 30
0.0
 10
4287.047563350166
 20
5227.638363761591
 30
0.0
 10
4280.856291075676
 20
5227.804456220747
 30
0.0
 10
4273.770718377097
 20
5227.93977897098
 30
0.0
 10
4265.991901526319
 20
5228.037876569779
 30
0.0
 10
4257.723398075002
 20
5228.10091122324
 30
0.0
 10
4252.058179415471
 20
5228.108602986033
 30
0.0
 10
4249.21492154681
 20
5228.11246332513
 30
0.0
  0
LINE
  5
138
330
1F
100
AcDbEntity
  8
0
  6
Continuous
 62
     7
370
    25
100
AcDbLine
 10
3704.9389668028
 20
5228.1124633251
 30
0.0
 11
4249.2149215468
 21
5228.1124633251
 31
0.0
  0
SPLINE
  5
139
330
1F
100
AcDbEntity
  8
0
  6
Continuous
 62
     7
370
    25
100
AcDbSpline
210
0.0
220
0.0
230
1.0
 70
     8
 71
     3
 72
    15
 73
    11
 74
     0
 42
0.00000001
 43
0.00000001
 40
0.0
 40
0.0
 40
0.0
 40
0.0
 40
0.0526296903010424
 40
0.1865582540037951
 40
0.3204927142313486
 40
0.4549337943636581
 40
0.5893886613425062
 40
0.7258996371006465
 40
0.8624346101265525
 40
1.0
 40
1.0
 40
1.0
 40
1.0
 10
3657.060161666855
 20
5227.139504006333
 30
0.0
 10
3657.393160234304
 20
5227.16947718761
 30
0.0
 10
3658.573551587047
 20
5227.27572414316
 30
0.0
 10
3661.974874370187
 20
5227.444666294924
 30
0.0
 10
3667.075132220245
 20
5227.638682010698
 30
0.0
 10
3673.305965186657
 20
5227.804370845836
 30
0.0
 10
3680.380890324561
 20
5227.939802229438
 30
0.0
 10
3688.162598586617
 20
5228.037870328171
 30
0.0
 10
3696.43033597515
 20
5228.100912797505
 30
0.0
 10
3702.095657372241
 20
5228.108603512102
 30
0.0
 10
3704.938966802793
 20
5228.112463325131
 30
0.0
  0
SPLINE
  5
13A
330
1F
100
AcDbEntity
  8
0
  6
Continuous
 62
     7
370
    25
100
AcDbSpline
210
0.0
220
0.0
230
1.0
 70
     8
 71
     3
 72
    43
 73
    39
 74
     0
 42
0.00000001
 43
0.00000001
 40
0.0
 40
0.0
 40
0.0
 40
0.0
 40
0.0125730873511307
 40
0.0251534871052999
 40
0.0443107443401536
 40
0.0635263969796622
 40
0.0827173872200072
 40
0.1028463077330785
 40
0.123045684967098
 40
0.143249744359047
 40
0.163385071704298
 40
0.1868526610862321
 40
0.2103742305436043
 40
0.2339610811038947
 40
0.2575682407949084
 40
0.2811078011998437
 40
0.3270640517875046
 40
0.3730338612986841
 40
0.418989005114778
 40
0.4540141537789456
 40
0.4890758781847014
 40
0.5241024236176807
 40
0.5590795420191419
 40
0.5811487493975465
 40
0.6032785269327211
 40
0.6253538950503278
 40
0.6473486700786137
 40
0.6646287114394751
 40
0.6819947830014566
 40
0.6993751140929152
 40
0.716674694051181
 40
0.7417168448883117
 40
0.7668160341717439
 40
0.7920298580028388
 40
0.8172958529985579
 40
0.8424782970153529
 40
0.9212376416761607
 40
0.9999999999999999
 40
0.9999999999999999
 40
0.9999999999999999
 40
0.9999999999999999
 10
3977.076944174788
 20
4764.887225711613
 30
0.0
 10
3973.082254133632
 20
4765.021924085655
 30
0.0
 10
3965.090550772817
 20
4765.291399173193
 30
0.0
 10
3951.206868299701
 20
4767.6446673779
 30
0.0
 10
3935.609757349335
 20
4771.780831807928
 30
0.0
 10
3918.5752460088
 20
4778.08757186916
 30
0.0
 10
3901.863410581494
 20
4785.78697525457
 30
0.0
 10
3885.566190350236
 20
4794.85051623332
 30
0.0
 10
3869.896091552001
 20
4805.381537690539
 30
0.0
 10
3855.181257425684
 20
4817.069411402662
 30
0.0
 10
3840.793353724603
 20
4830.533998742599
 30
0.0
 10
3826.992981648556
 20
4845.84442523266
 30
0.0
 10
3813.804504054106
 20
4862.871722505251
 30
0.0
 10
3801.750146370775
 20
4880.622928527991
 30
0.0
 10
3790.63041542872
 20
4898.846249442003
 30
0.0
 10
3777.00063429364
 20
4923.243445360728
 30
0.0
 10
3761.00554973489
 20
4953.723603629493
 30
0.0
 10
3742.777793598532
 20
4990.080124261209
 30
0.0
 10
3726.644325591005
 20
5023.298989619468
 30
0.0
 10
3712.250602929712
 20
5053.305614782005
 30
0.0
 10
3699.593047350844
 20
5080.09224596341
 30
0.0
 10
3687.404331312702
 20
5106.248704362217
 30
0.0
 10
3677.240519480556
 20
5128.413300126614
 30
0.0
 10
3668.926886319639
 20
5146.742598048728
 30
0.0
 10
3662.311196135229
 20
5161.39860822966
 30
0.0
 10
3656.20233625482
 20
5175.068096387387
 30
0.0
 10
3651.079666842154
 20
5186.551848654187
 30
0.0
 10
3647.159693351034
 20
5195.755850535515
 30
0.0
 10
3644.401273198494
 20
5202.963643864859
 30
0.0
 10
3642.377505650684
 20
5208.957543766725
 30
0.0
 10
3640.932425272895
 20
5214.382278651206
 30
0.0
 10
3640.252402301111
 20
5218.592281316613
 30
0.0
 10
3640.325145743874
 20
5221.382135964779
 30
0.0
 10
3641.053572700022
 20
5222.770969907923
 30
0.0
 10
3642.207795443446
 20
5223.294659942789
 30
0.0
 10
3644.480411658708
 20
5223.64937054627
 30
0.0
 10
3648.198253959696
 20
5224.731961043973
 30
0.0
 10
3652.105687846048
 20
5226.08877108221
 30
0.0
 10
3654.059442167213
 20
5226.767189080391
 30
0.0
  0
SPLINE
  5
13B
330
1F
100
AcDbEntity
  8
0
  6
Continuous
 62
     7
370
    25
100
AcDbSpline
210
0.0
220
0.0
230
1.0
 70
     8
 71
     3
 72
    43
 73
    39
 74
     0
 42
0.00000001
 43
0.00000001
 40
0.0
 40
0.0
 40
0.0
 40
0.0
 40
0.0125730873511562
 40
0.025153487105325
 40
0.0443107443401784
 40
0.0635263969796866
 40
0.0827173872200308
 40
0.1028463077331014
 40
0.1230456849671206
 40
0.143249744359069
 40
0.1633850717043195
 40
0.1868526610862531
 40
0.2103742305436244
 40
0.2339610811039144
 40
0.2575682407949275
 40
0.2811078011998622
 40
0.327064051787522
 40
0.3730338612987003
 40
0.418989005114793
 40
0.4540141537789595
 40
0.4890758781847145
 40
0.5241024236176929
 40
0.5590795420191532
 40
0.5811487493975572
 40
0.6032785269327312
 40
0.6253538950503374
 40
0.6473486700786228
 40
0.6646287114394834
 40
0.6819947830014649
 40
0.6993751140929232
 40
0.7166746940511883
 40
0.7417168448883183
 40
0.7668160341717497
 40
0.7920298580028439
 40
0.8172958529985627
 40
0.842478297015357
 40
0.921237641676163
 40
1.0
 40
1.0
 40
1.0
 40
1.0
 10
3977.076944174788
 20
4764.887225711613
 30
0.0
 10
3981.071634215951
 20
4765.021924085655
 30
0.0
 10
3989.063337576776
 20
4765.291399173191
 30
0.0
 10
4002.947020049899
 20
4767.6446673779
 30
0.0
 10
4018.544131000266
 20
4771.780831807929
 30
0.0
 10
4035.578642340801
 20
4778.08757186916
 30
0.0
 10
4052.290477768106
 20
4785.78697525457
 30
0.0
 10
4068.587697999364
 20
4794.85051623332
 30
0.0
 10
4084.257796797599
 20
4805.381537690539
 30
0.0
 10
4098.972630923917
 20
4817.069411402662
 30
0.0
 10
4113.360534624998
 20
4830.533998742599
 30
0.0
 10
4127.160906701046
 20
4845.844425232659
 30
0.0
 10
4140.349384295495
 20
4862.87172250525
 30
0.0
 10
4152.403741978826
 20
4880.622928527991
 30
0.0
 10
4163.52347292088
 20
4898.846249442002
 30
0.0
 10
4177.153254055961
 20
4923.243445360727
 30
0.0
 10
4193.148338614713
 20
4953.723603629491
 30
0.0
 10
4211.376094751071
 20
4990.080124261207
 30
0.0
 10
4227.509562758596
 20
5023.298989619467
 30
0.0
 10
4241.903285419889
 20
5053.305614782005
 30
0.0
 10
4254.560840998755
 20
5080.09224596341
 30
0.0
 10
4266.749557036899
 20
5106.248704362216
 30
0.0
 10
4276.913368869045
 20
5128.413300126612
 30
0.0
 10
4285.227002029963
 20
5146.742598048727
 30
0.0
 10
4291.842692214372
 20
5161.398608229659
 30
0.0
 10
4297.951552094781
 20
5175.068096387387
 30
0.0
 10
4303.074221507449
 20
5186.551848654186
 30
0.0
 10
4306.994194998569
 20
5195.755850535515
 30
0.0
 10
4309.752615151108
 20
5202.963643864857
 30
0.0
 10
4311.776382698918
 20
5208.957543766724
 30
0.0
 10
4313.221463076707
 20
5214.382278651206
 30
0.0
 10
4313.901486048492
 20
5218.592281316613
 30
0.0
 10
4313.828742605728
 20
5221.382135964777
 30
0.0
 10
4313.100315649581
 20
5222.770969907922
 30
0.0
 10
4311.946092906156
 20
5223.294659942788
 30
0.0
 10
4309.673476690893
 20
5223.649370546269
 30
0.0
 10
4305.955634389907
 20
5224.731961043972
 30
0.0
 10
4302.048200503555
 20
5226.088771082209
 30
0.0
 10
4300.094446182389
 20
5226.76718908039
 30
0.0
  0
LINE
  5
13C
330
1F
100
AcDbEntity
  8
0
  6
Continuous
 62
     7
370
    25
100
AcDbLine
 10
3977.0769441748
 20
5396.8040950391
 30
0.0
 11
4340.4577766077
 21
5396.8040950391
 31
0.0
  0
SPLINE
  5
13D
330
1F
100
AcDbEntity
  8
0
  6
Continuous
 62
     7
370
    25
100
AcDbSpline
210
0.0
220
0.0
230
1.0
 70
     8
 71
     3
 72
    14
 73
    10
 74
     0
 42
0.00000001
 43
0.00000001
 40
0.0
 40
0.0
 40
0.0
 40
0.0
 40
0.3454249578518704
 40
0.6908048586799485
 40
0.7738942453181383
 40
0.8569380237425132
 40
0.9395081528725673
 40
0.976744268584694
 40
1.0
 40
1.0
 40
1.0
 40
1.0
 10
4340.457776607654
 20
5396.804095039147
 30
0.0
 10
4340.525028545766
 20
5378.97252181264
 30
0.0
 10
4340.65952364969
 20
5343.311701299318
 30
0.0
 10
4339.797423104998
 20
5303.366339218704
 30
0.0
 10
4339.256232921114
 20
5276.9706303826
 30
0.0
 10
4338.762875800033
 20
5264.132606509024
 30
0.0
 10
4337.149337913685
 20
5253.750640501885
 30
0.0
 10
4335.129246589379
 20
5246.62599870058
 30
0.0
 10
4333.895096946009
 20
5243.755286770716
 30
0.0
 10
4333.420635444247
 20
5242.65165861615
 30
0.0
  0
LINE
  5
13E
330
1F
100
AcDbEntity
  8
0
  6
Continuous
 62
     7
370
    25
100
AcDbLine
 10
3620.7332529054
 20
5242.6516586162
 30
0.0
 11
4333.4206354442
 21
5242.6516586161
 31
0.0
  0
SPLINE
  5
13F
330
1F
100
AcDbEntity
  8
0
  6
Continuous
 62
     7
370
    25
100
AcDbSpline
210
0.0
220
0.0
230
1.0
 70
     8
 71
     3
 72
    14
 73
    10
 74
     0
 42
0.00000001
 43
0.00000001
 40
0.0
 40
0.0
 40
0.0
 40
0.0
 40
0.3454249578518668
 40
0.690804858679944
 40
0.7738942453181383
 40
0.8569380237425186
 40
0.9395081528725675
 40
0.9767442685846942
 40
1.0
 40
1.0
 40
1.0
 40
1.0
 10
3613.696111741949
 20
5396.804095039148
 30
0.0
 10
3613.628859803836
 20
5378.972521812642
 30
0.0
 10
3613.494364699914
 20
5343.311701299319
 30
0.0
 10
3614.35646524461
 20
5303.366339218705
 30
0.0
 10
3614.897655428484
 20
5276.9706303826
 30
0.0
 10
3615.391012549558
 20
5264.132606509024
 30
0.0
 10
3617.004550435918
 20
5253.750640501885
 30
0.0
 10
3619.024641760223
 20
5246.625998700581
 30
0.0
 10
3620.258791403592
 20
5243.755286770718
 30
0.0
 10
3620.733252905355
 20
5242.651658616151
 30
0.0
  0
LINE
  5
140
330
1F
100
AcDbEntity
  8
0
  6
Continuous
 62
     7
370
    25
100
AcDbLine
 10
3977.0769441748
 20
5396.8040950391
 30
0.0
 11
3613.6961117419
 21
5396.8040950391
 31
0.0
  0
LINE
  5
141
330
1F
100
AcDbEntity
  8
0
  6
Continuous
 62
     7
370
    25
100
AcDbLine
 10
3620.7332529054
 20
5232.6550365091
 30
0.0
 11
3620.7332529054
 21
5242.6516586162
 31
0.0
  0
LINE
  5
142
330
1F
100
AcDbEntity
  8
0
  6
Continuous
 62
     7
370
    25
100
AcDbLine
 10
4333.4206354442
 20
5232.6550365091
 30
0.0
 11
4333.4206354442
 21
5242.6516586161
 31
0.0
  0
SPLINE
  5
143
330
1F
100
AcDbEntity
  8
0
  6
Continuous
 62
     7
370
    25
100
AcDbSpline
210
0.0
220
0.0
230
1.0
 70
     8
 71
     3
 72
    15
 73
    11
 74
     0
 42
0.00000001
 43
0.00000001
 40
0.0
 40
0.0
 40
0.0
 40
0.0
 40
0.0333160057226227
 40
0.0745165956219001
 40
0.1710723210688586
 40
0.2680457449459363
 40
0.3655285402366779
 40
0.4627811849173677
 40
0.8547419615791864
 40
1.0
 40
1.0
 40
1.0
 40
1.0
 10
4342.204244995756
 20
5237.884674709335
 30
0.0
 10
4342.926758520487
 20
5239.505849032596
 30
0.0
 10
4344.542776016761
 20
5243.131865683116
 30
0.0
 10
4347.012623003398
 20
5251.936000242608
 30
0.0
 10
4349.076741391969
 20
5264.303364743632
 30
0.0
 10
4349.969909299705
 20
5279.806236240499
 30
0.0
 10
4349.965441402537
 20
5295.352164047295
 30
0.0
 10
4350.094568294458
 20
5326.619292107314
 30
0.0
 10
4350.504336189011
 20
5360.431724030509
 30
0.0
 10
4350.467686326091
 20
5389.062617451578
 30
0.0
 10
4350.457776607655
 20
5396.804095039142
 30
0.0
  0
SPLINE
  5
144
330
1F
100
AcDbEntity
  8
0
  6
Continuous
 62
     7
370
    25
100
AcDbSpline
210
0.0
220
0.0
230
1.0
 70
     8
 71
     3
 72
    11
 73
     7
 74
     0
 42
0.00000001
 43
0.00000001
 40
0.0
 40
0.0
 40
0.0
 40
0.0
 40
0.4126317209084464
 40
0.735398673525611
 40
0.9801720910470467
 40
1.0
 40
1.0
 40
1.0
 40
1.0
 10
4347.633950607339
 20
5257.642105038247
 30
0.0
 10
4347.488578268595
 20
5256.400272046911
 30
0.0
 10
4347.229493424503
 20
5254.187057966912
 30
0.0
 10
4346.694683872405
 20
5251.265485616633
 30
0.0
 10
4346.295370992877
 20
5249.5295071746
 30
0.0
 10
4346.065699945307
 20
5248.761580443215
 30
0.0
 10
4346.048489537932
 20
5248.704035828775
 30
0.0
  0
LINE
  5
145
330
1F
100
AcDbEntity
  8
0
  6
Continuous
 62
     7
370
    25
100
AcDbLine
 10
4042.8383546769
 20
4755.1130425223
 30
0.0
 11
4043.3067604589
 21
4755.3358819194
 31
0.0
  0
SPLINE
  5
146
330
1F
100
AcDbEntity
  8
0
  6
Continuous
 62
     7
370
    25
100
AcDbSpline
210
0.0
220
0.0
230
1.0
 70
     8
 71
     3
 72
    18
 73
    14
 74
     0
 42
0.00000001
 43
0.00000001
 40
0.0
 40
0.0
 40
0.0
 40
0.0
 40
0.0704259898819348
 40
0.1809741652596167
 40
0.2619112938892112
 40
0.3428518038394704
 40
0.4254206082244481
 40
0.5080059891434558
 40
0.6258507393312521
 40
0.7442767702745281
 40
0.861929488472136
 40
0.979835001974334
 40
0.9999999999999999
 40
0.9999999999999999
 40
0.9999999999999999
 40
0.9999999999999999
 10
4328.352510969852
 20
5184.719533061743
 30
0.0
 10
4329.17260210731
 20
5186.908023040673
 30
0.0
 10
4331.27999611465
 20
5192.53180124783
 30
0.0
 10
4333.492426138307
 20
5199.709589119694
 30
0.0
 10
4335.337911434358
 20
5206.365865956987
 30
0.0
 10
4336.636615404096
 20
5211.578133709357
 30
0.0
 10
4337.691399292315
 20
5216.03090266128
 30
0.0
 10
4338.672263211227
 20
5220.318289130308
 30
0.0
 10
4339.523523067195
 20
5224.136820521301
 30
0.0
 10
4340.175779460395
 20
5227.2180685209
 30
0.0
 10
4340.589351761883
 20
5229.221354237678
 30
0.0
 10
4340.80626383019
 20
5230.31552052813
 30
0.0
 10
4340.858405405926
 20
5230.529387375957
 30
0.0
 10
4340.866020607464
 20
5230.560622319004
 30
0.0
  0
LINE
  5
147
330
1F
100
AcDbEntity
  8
0
  6
Continuous
 62
     7
370
    25
100
AcDbLine
 10
4343.008998502
 20
5236.9601886786
 30
0.0
 11
4343.2507385928
 21
5237.7528116472
 31
0.0
  0
LINE
  5
148
330
1F
100
AcDbEntity
  8
0
  6
Continuous
 62
     7
370
    25
100
AcDbLine
 10
4343.2777268857
 20
5237.9993313673
 30
0.0
 11
4343.287764519
 21
5238.0910183275
 31
0.0
  0
SPLINE
  5
149
330
1F
100
AcDbEntity
  8
0
  6
Continuous
 62
     7
370
    25
100
AcDbSpline
210
0.0
220
0.0
230
1.0
 70
     8
 71
     3
 72
    11
 73
     7
 74
     0
 42
0.00000001
 43
0.00000001
 40
0.0
 40
0.0
 40
0.0
 40
0.0
 40
0.4126301419461827
 40
0.7353958594733605
 40
0.9801683403524478
 40
1.0
 40
1.0
 40
1.0
 40
1.0
 10
3606.519937742262
 20
5257.642105038261
 30
0.0
 10
3606.66531011397
 20
5256.400272056261
 30
0.0
 10
3606.924395016812
 20
5254.187057992905
 30
0.0
 10
3607.45920422855
 20
5251.265485546178
 30
0.0
 10
3607.858520387853
 20
5249.529495986822
 30
0.0
 10
3608.088194976726
 20
5248.761558212223
 30
0.0
 10
3608.10540872201
 20
5248.704002496935
 30
0.0
  0
SPLINE
  5
14A
330
1F
100
AcDbEntity
  8
0
  6
Continuous
 62
     7
370
    25
100
AcDbSpline
210
0.0
220
0.0
230
1.0
 70
     8
 71
     3
 72
    15
 73
    11
 74
     0
 42
0.00000001
 43
0.00000001
 40
0.0
 40
0.0
 40
0.0
 40
0.0
 40
0.033316005722623
 40
0.0745165956219004
 40
0.1710723210688599
 40
0.2680457449459376
 40
0.3655285402366791
 40
0.462781184917369
 40
0.8547419615791865
 40
1.0
 40
1.0
 40
1.0
 40
1.0
 10
3611.949643353847
 20
5237.884674709337
 30
0.0
 10
3611.227129829115
 20
5239.505849032597
 30
0.0
 10
3609.61111233284
 20
5243.131865683118
 30
0.0
 10
3607.141265346203
 20
5251.93600024261
 30
0.0
 10
3605.077146957633
 20
5264.303364743634
 30
0.0
 10
3604.183979049897
 20
5279.806236240501
 30
0.0
 10
3604.188446947065
 20
5295.352164047296
 30
0.0
 10
3604.059320055146
 20
5326.619292107317
 30
0.0
 10
3603.649552160592
 20
5360.43172403051
 30
0.0
 10
3603.686202023511
 20
5389.062617451579
 30
0.0
 10
3603.696111741947
 20
5396.804095039143
 30
0.0
  0
LINE
  5
14B
330
1F
100
AcDbEntity
  8
0
  6
Continuous
 62
     7
370
    25
100
AcDbLine
 10
3911.4930337973
 20
4755.0285986015
 30
0.0
 11
3910.8030164023
 21
4755.3568675217
 31
0.0
  0
SPLINE
  5
14C
330
1F
100
AcDbEntity
  8
0
  6
Continuous
 62
     7
370
    25
100
AcDbSpline
210
0.0
220
0.0
230
1.0
 70
     8
 71
     3
 72
    18
 73
    14
 74
     0
 42
0.00000001
 43
0.00000001
 40
0.0
 40
0.0
 40
0.0
 40
0.0
 40
0.0689625126152755
 40
0.1781610611107293
 40
0.258110069183883
 40
0.3380624172968568
 40
0.4196231808195556
 40
0.5012003185017426
 40
0.6176063616078612
 40
0.7345865889060774
 40
0.850802944443666
 40
0.9672690090355455
 40
1.0
 40
1.0
 40
1.0
 40
1.0
 10
3625.780788048023
 20
5184.775634201914
 30
0.0
 10
3624.967957448565
 20
5186.944967709056
 30
0.0
 10
3622.868051911325
 20
5192.549327887921
 30
0.0
 10
3620.661615189614
 20
5199.709413108464
 30
0.0
 10
3618.815941210022
 20
5206.365908096292
 30
0.0
 10
3617.517283599686
 20
5211.57811706682
 30
0.0
 10
3616.462482841732
 20
5216.030926654777
 30
0.0
 10
3615.481642126588
 20
5220.318195383673
 30
0.0
 10
3614.630276319918
 20
5224.13733508972
 30
0.0
 10
3613.978436841203
 20
5227.216166550871
 30
0.0
 10
3613.563321952812
 20
5229.22839991414
 30
0.0
 10
3613.339785844869
 20
5230.352668125856
 30
0.0
 10
3613.284426367054
 20
5230.576878642521
 30
0.0
 10
3613.272281552524
 20
5230.626066157434
 30
0.0
  0
LINE
  5
14D
330
1F
100
AcDbEntity
  8
0
  6
Continuous
 62
     7
370
    25
100
AcDbLine
 10
3611.1346148251
 20
5236.9938786588
 30
0.0
 11
3610.9031497568
 21
5237.7528116472
 31
0.0
  0
LINE
  5
14E
330
1F
100
AcDbEntity
  8
0
  6
Continuous
 62
     7
370
    25
100
AcDbLine
 10
3610.8798131223
 20
5237.9659759481
 30
0.0
 11
3610.8669361686
 21
5238.0835981724
 31
0.0
  0
ARC
  5
14F
330
1F
100
AcDbEntity
  8
0
  6
Continuous
 62
     7
370
    25
100
AcDbCircle
 10
4333.4126850443
 20
5242.6596080368
 30
0.0
 40
10.00457468670665
100
AcDbArc
 50
270.0455316118
 51
331.4924216722
  0
LINE
  5
150
330
1F
100
AcDbEntity
  8
0
  6
Continuous
 62
     7
370
    25
100
AcDbLine
 10
3977.0769441748
 20
4749.1362442911
 30
0.0
 11
3977.0769441748
 21
4745.7604966101
 31
0.0
  0
ARC
  5
151
330
1F
100
AcDbEntity
  8
0
  6
Continuous
 62
     7
370
    25
100
AcDbCircle
 10
3620.7412033053
 20
5242.6596080368
 30
0.0
 40
10.00457468670007
100
AcDbArc
 50
208.5075783278
 51
269.9544683882
  0
LINE
  5
152
330
1F
100
AcDbEntity
  8
0
  6
Continuous
 62
     7
370
    25
100
AcDbLine
 10
3611.9496433538
 20
5237.8846747093
 30
0.0
 11
3620.7332529054
 21
5242.6516586162
 31
0.0
  0
LINE
  5
153
330
1F
100
AcDbEntity
  8
0
  6
Continuous
 62
     7
370
    25
100
AcDbLine
 10
3603.6961117419
 20
5396.8040950391
 30
0.0
 11
3613.6961117419
 21
5396.8040950391
 31
0.0
  0
LINE
  5
154
330
1F
100
AcDbEntity
  8
0
  6
Continuous
 62
     7
370
    25
100
AcDbLine
 10
4342.2042449958
 20
5237.8846747093
 30
0.0
 11
4333.4206354442
 21
5242.6516586161
 31
0.0
  0
LINE
  5
155
330
1F
100
AcDbEntity
  8
0
  6
Continuous
 62
     7
370
    25
100
AcDbLine
 10
4350.4577766077
 20
5396.8040950391
 30
0.0
 11
4340.4577766077
 21
5396.8040950391
 31
0.0
  0
LINE
  5
156
330
1F
100
AcDbEntity
  8
0
  6
Continuous
 62
     7
370
    25
100
AcDbLine
 10
3704.9389668028
 20
5228.1079698996
 30
0.0
 11
3704.9389668028
 21
5228.1124633251
 31
0.0
  0
SPLINE
  5
157
330
1F
100
AcDbEntity
  8
0
  6
Continuous
 62
     7
370
    25
100
AcDbSpline
210
0.0
220
0.0
230
1.0
 70
     8
 71
     3
 72
    19
 73
    15
 74
     0
 42
0.00000001
 43
0.00000001
 40
0.0
 40
0.0
 40
0.0
 40
0.0
 40
0.0639346620506223
 40
0.13043386729936
 40
0.1995829264022615
 40
0.2687301134074376
 40
0.352976519035073
 40
0.4372988267122708
 40
0.5239237345213285
 40
0.6105709704049038
 40
0.7401168967817411
 40
0.8698457129878575
 40
0.9997001637332945
 40
1.0
 40
1.0
 40
1.0
 40
1.0
 10
3650.853166698929
 20
5225.817395138629
 30
0.0
 10
3651.17754939205
 20
5224.431810055281
 30
0.0
 10
3651.839326396755
 20
5221.605061385673
 30
0.0
 10
3653.693223001176
 20
5215.690370669079
 30
0.0
 10
3656.399778629626
 20
5208.282951051203
 30
0.0
 10
3660.279641345291
 20
5198.695559279239
 30
0.0
 10
3665.340398729053
 20
5186.79474960096
 30
0.0
 10
3671.418139867258
 20
5172.685044265355
 30
0.0
 10
3678.020347095771
 20
5157.494941289245
 30
0.0
 10
3686.277113987499
 20
5138.763303181647
 30
0.0
 10
3696.26004528947
 20
5116.514537053677
 30
0.0
 10
3708.138885547836
 20
5090.611116739129
 30
0.0
 10
3716.285748780845
 20
5073.017655528943
 30
0.0
 10
3720.535156213979
 20
5064.037383201642
 30
0.0
 10
3720.544945568519
 20
5064.016695359616
 30
0.0
  0
SPLINE
  5
158
330
1F
100
AcDbEntity
  8
0
  6
Continuous
 62
     7
370
    25
100
AcDbSpline
210
0.0
220
0.0
230
1.0
 70
    24
 71
     3
 72
    18
 73
    14
 74
     0
 42
0.00000001
 43
0.00000001
 40
0.0
 40
0.0
 40
0.0
 40
0.0
 40
0.1250983290392245
 40
0.2424318838629783
 40
0.3517308201314607
 40
0.4530609002586079
 40
0.5466861378357619
 40
0.6317403959973809
 40
0.710814707761164
 40
0.7849968137727588
 40
0.8555758636343105
 40
0.9283573995977799
 40
1.0
 40
1.0
 40
1.0
 40
1.0
 10
3977.076944174787
 20
5030.565796146986
 30
0.0
 10
3977.076944174787
 20
5018.894643080046
 30
0.0
 10
3977.076944174788
 20
4996.276758040316
 30
0.0
 10
3977.076944174788
 20
4963.558923327383
 30
0.0
 10
3977.076944174788
 20
4933.216566859802
 30
0.0
 10
3977.076944174788
 20
4905.326814043752
 30
0.0
 10
3977.076944174787
 20
4880.058087398485
 30
0.0
 10
3977.076944174786
 20
4857.359393892035
 30
0.0
 10
3977.076944174786
 20
4837.142230065609
 30
0.0
 10
3977.076944174786
 20
4819.168385101922
 30
0.0
 10
3977.076944174786
 20
4803.051028365353
 30
0.0
 10
3977.076944174788
 20
4788.631648692619
 30
0.0
 10
3977.076944174787
 20
4780.621540409065
 30
0.0
 10
3977.076944174787
 20
4776.648070313429
 30
0.0
  0
SPLINE
  5
159
330
1F
100
AcDbEntity
  8
0
  6
Continuous
 62
     7
370
    25
100
AcDbSpline
210
0.0
220
0.0
230
1.0
 70
     8
 71
     3
 72
    19
 73
    15
 74
     0
 42
0.00000001
 43
0.00000001
 40
0.0
 40
0.0
 40
0.0
 40
0.0
 40
0.0637343960215929
 40
0.1300802276631813
 40
0.1990698015423749
 40
0.2680575076416465
 40
0.3521096075618358
 40
0.4362374344712841
 40
0.5226625508011823
 40
0.6091099437081802
 40
0.7383570856717993
 40
0.867786695648032
 40
0.9973416504003876
 40
1.0
 40
1.0
 40
1.0
 40
1.0
 10
4303.299806653711
 20
5225.813747296737
 30
0.0
 10
4302.975675210915
 20
5224.42927661911
 30
0.0
 10
4302.314131452699
 20
5221.603608342946
 30
0.0
 10
4300.460647962045
 20
5215.690337814718
 30
0.0
 10
4297.754114391489
 20
5208.282959907711
 30
0.0
 10
4293.874245575632
 20
5198.695556453657
 30
0.0
 10
4288.813489414892
 20
5186.794749800894
 30
0.0
 10
4282.735750838483
 20
5172.685046507301
 30
0.0
 10
4276.133531747032
 20
5157.494931821739
 30
0.0
 10
4267.876817377645
 20
5138.763346142247
 30
0.0
 10
4257.893591705588
 20
5116.514285950838
 30
0.0
 10
4246.015930473476
 20
5090.61204349525
 30
0.0
 10
4237.791983205037
 20
5072.855547211113
 30
0.0
 10
4233.464352237025
 20
5063.711101432716
 30
0.0
 10
4233.377338633458
 20
5063.527238440312
 30
0.0
  0
LINE
  5
15A
330
1F
100
AcDbEntity
  8
0
  6
Continuous
 62
     7
370
    25
100
AcDbLine
 10
3977.0769441748
 20
4776.6480703134
 30
0.0
 11
3977.0769441748
 21
4764.8872257116
 31
0.0
  0
SPLINE
  5
15B
330
1F
100
AcDbEntity
  8
0
  6
Continuous
 62
     7
370
    25
100
AcDbSpline
210
0.0
220
0.0
230
1.0
 70
     8
 71
     3
 72
    14
 73
    10
 74
     0
 42
0.00000001
 43
0.00000001
 40
0.0
 40
0.0
 40
0.0
 40
0.0
 40
0.0916728134678469
 40
0.2507906876208819
 40
0.4134398391262857
 40
0.5743735086455019
 40
0.7346206015895622
 40
0.8974666057914965
 40
1.0
 40
1.0
 40
1.0
 40
1.0
 10
4123.504448223645
 20
5415.804101936389
 30
0.0
 10
4122.359256992264
 20
5415.780339921311
 30
0.0
 10
4119.226340203621
 20
5415.715333821079
 30
0.0
 10
4113.776609558655
 20
5415.616442278223
 30
0.0
 10
4107.755030381891
 20
5415.487991769724
 30
0.0
 10
4102.552432007376
 20
5415.365918633671
 30
0.0
 10
4098.758687439776
 20
5415.246224431839
 30
0.0
 10
4096.65665475679
 20
5415.132150071201
 30
0.0
 10
4096.680725294839
 20
5415.067045747373
 30
0.0
 10
4096.690025315796
 20
5415.041891694948
 30
0.0
  0
SPLINE
  5
15C
330
1F
100
AcDbEntity
  8
0
  6
Continuous
 62
     7
370
    25
100
AcDbSpline
210
0.0
220
0.0
230
1.0
 70
     8
 71
     3
 72
    19
 73
    15
 74
     0
 42
0.00000001
 43
0.00000001
 40
0.0
 40
0.0
 40
0.0
 40
0.0
 40
0.0034786179104815
 40
0.1001400181881846
 40
0.1979433633315855
 40
0.2974173768948441
 40
0.3988645546994333
 40
0.4539723322453832
 40
0.5496237263796474
 40
0.6473978964976078
 40
0.744140829587896
 40
0.8404710371629449
 40
0.9383635424142927
 40
1.0
 40
1.0
 40
1.0
 40
1.0
 10
4137.644301041468
 20
5413.771742213955
 30
0.0
 10
4137.655123570417
 20
5413.770283982228
 30
0.0
 10
4137.966674960581
 20
5413.728305427702
 30
0.0
 10
4136.826866498689
 20
5413.646054280438
 30
0.0
 10
4134.105283099164
 20
5413.515586131272
 30
0.0
 10
4129.47837278004
 20
5413.396675026593
 30
0.0
 10
4124.508771029882
 20
5413.283790020312
 30
0.0
 10
4119.211062442415
 20
5413.175442115268
 30
0.0
 10
4113.781719526848
 20
5413.076406056957
 30
0.0
 10
4107.753664474472
 20
5412.948001451759
 30
0.0
 10
4102.552794708959
 20
5412.825916062713
 30
0.0
 10
4098.758587649236
 20
5412.706225139189
 30
0.0
 10
4096.656669376332
 20
5412.592149967572
 30
0.0
 10
4096.680729369151
 20
5412.527045718492
 30
0.0
 10
4096.690025315796
 20
5412.501891694948
 30
0.0
  0
SPLINE
  5
15D
330
1F
100
AcDbEntity
  8
0
  6
Continuous
 62
     7
370
    25
100
AcDbSpline
210
0.0
220
0.0
230
1.0
 70
     8
 71
     3
 72
    19
 73
    15
 74
     0
 42
0.00000001
 43
0.00000001
 40
0.0
 40
0.0
 40
0.0
 40
0.0
 40
0.0034786179104815
 40
0.1001400181881845
 40
0.1979433633315855
 40
0.297417376894844
 40
0.3988645546994333
 40
0.4539723322453831
 40
0.5496237263796472
 40
0.6473978964976075
 40
0.7441408295878956
 40
0.8404710371629447
 40
0.9383635424142922
 40
1.0
 40
1.0
 40
1.0
 40
1.0
 10
4137.644301041468
 20
5411.231742213955
 30
0.0
 10
4137.655123570417
 20
5411.230283982228
 30
0.0
 10
4137.966674960581
 20
5411.188305427699
 30
0.0
 10
4136.826866498689
 20
5411.10605428044
 30
0.0
 10
4134.105283099164
 20
5410.975586131272
 30
0.0
 10
4129.47837278004
 20
5410.856675026593
 30
0.0
 10
4124.508771029882
 20
5410.743790020312
 30
0.0
 10
4119.211062442415
 20
5410.635442115268
 30
0.0
 10
4113.781719526848
 20
5410.536406056956
 30
0.0
 10
4107.753664474472
 20
5410.40800145176
 30
0.0
 10
4102.552794708959
 20
5410.285916062714
 30
0.0
 10
4098.758587649236
 20
5410.166225139187
 30
0.0
 10
4096.656669376332
 20
5410.052149967573
 30
0.0
 10
4096.680729369151
 20
5409.987045718492
 30
0.0
 10
4096.690025315796
 20
5409.961891694949
 30
0.0
  0
SPLINE
  5
15E
330
1F
100
AcDbEntity
  8
0
  6
Continuous
 62
     7
370
    25
100
AcDbSpline
210
0.0
220
0.0
230
1.0
 70
     8
 71
     3
 72
    19
 73
    15
 74
     0
 42
0.00000001
 43
0.00000001
 40
0.0
 40
0.0
 40
0.0
 40
0.0
 40
0.0034786179104806
 40
0.1001400181881838
 40
0.1979433633315849
 40
0.2974173768948435
 40
0.398864554699433
 40
0.4539723322453829
 40
0.5496237263796473
 40
0.6473978964976077
 40
0.7441408295878961
 40
0.8404710371629452
 40
0.938363542414293
 40
1.0
 40
1.0
 40
1.0
 40
1.0
 10
4137.644301041468
 20
5408.691742213954
 30
0.0
 10
4137.655123570417
 20
5408.690283982228
 30
0.0
 10
4137.966674960581
 20
5408.648305427704
 30
0.0
 10
4136.826866498689
 20
5408.566054280436
 30
0.0
 10
4134.105283099164
 20
5408.435586131273
 30
0.0
 10
4129.47837278004
 20
5408.316675026592
 30
0.0
 10
4124.508771029882
 20
5408.203790020311
 30
0.0
 10
4119.211062442415
 20
5408.095442115268
 30
0.0
 10
4113.781719526848
 20
5407.996406056956
 30
0.0
 10
4107.753664474472
 20
5407.86800145176
 30
0.0
 10
4102.552794708959
 20
5407.745916062714
 30
0.0
 10
4098.758587649236
 20
5407.626225139189
 30
0.0
 10
4096.656669376332
 20
5407.512149967572
 30
0.0
 10
4096.680729369151
 20
5407.447045718493
 30
0.0
 10
4096.690025315796
 20
5407.421891694948
 30
0.0
  0
SPLINE
  5
15F
330
1F
100
AcDbEntity
  8
0
  6
Continuous
 62
     7
370
    25
100
AcDbSpline
210
0.0
220
0.0
230
1.0
 70
     8
 71
     3
 72
    19
 73
    15
 74
     0
 42
0.00000001
 43
0.00000001
 40
0.0
 40
0.0
 40
0.0
 40
0.0
 40
0.0034786179104806
 40
0.1001400181881838
 40
0.1979433633315849
 40
0.2974173768948435
 40
0.398864554699433
 40
0.4539723322453829
 40
0.5496237263796473
 40
0.6473978964976077
 40
0.7441408295878961
 40
0.8404710371629452
 40
0.938363542414293
 40
1.0
 40
1.0
 40
1.0
 40
1.0
 10
4137.644301041468
 20
5406.151742213955
 30
0.0
 10
4137.655123570417
 20
5406.150283982228
 30
0.0
 10
4137.966674960581
 20
5406.108305427704
 30
0.0
 10
4136.826866498689
 20
5406.026054280437
 30
0.0
 10
4134.105283099164
 20
5405.895586131273
 30
0.0
 10
4129.47837278004
 20
5405.776675026592
 30
0.0
 10
4124.508771029882
 20
5405.663790020312
 30
0.0
 10
4119.211062442415
 20
5405.555442115267
 30
0.0
 10
4113.781719526848
 20
5405.456406056957
 30
0.0
 10
4107.753664474472
 20
5405.32800145176
 30
0.0
 10
4102.552794708959
 20
5405.205916062714
 30
0.0
 10
4098.758587649236
 20
5405.086225139189
 30
0.0
 10
4096.656669376332
 20
5404.972149967572
 30
0.0
 10
4096.680729369151
 20
5404.907045718492
 30
0.0
 10
4096.690025315796
 20
5404.881891694949
 30
0.0
  0
SPLINE
  5
160
330
1F
100
AcDbEntity
  8
0
  6
Continuous
 62
     7
370
    25
100
AcDbSpline
210
0.0
220
0.0
230
1.0
 70
     8
 71
     3
 72
    19
 73
    15
 74
     0
 42
0.00000001
 43
0.00000001
 40
0.0
 40
0.0
 40
0.0
 40
0.0
 40
0.0034786179104806
 40
0.1001400181881838
 40
0.197943363331585
 40
0.2974173768948437
 40
0.3988645546994332
 40
0.4539723322453831
 40
0.5496237263796475
 40
0.647397896497608
 40
0.7441408295878964
 40
0.8404710371629456
 40
0.9383635424142934
 40
1.0
 40
1.0
 40
1.0
 40
1.0
 10
4137.644301041468
 20
5403.611742213954
 30
0.0
 10
4137.655123570417
 20
5403.610283982228
 30
0.0
 10
4137.966674960581
 20
5403.568305427699
 30
0.0
 10
4136.826866498689
 20
5403.486054280439
 30
0.0
 10
4134.105283099164
 20
5403.355586131273
 30
0.0
 10
4129.47837278004
 20
5403.236675026593
 30
0.0
 10
4124.508771029882
 20
5403.123790020311
 30
0.0
 10
4119.211062442415
 20
5403.015442115267
 30
0.0
 10
4113.781719526848
 20
5402.916406056956
 30
0.0
 10
4107.753664474472
 20
5402.78800145176
 30
0.0
 10
4102.552794708959
 20
5402.665916062713
 30
0.0
 10
4098.758587649236
 20
5402.546225139188
 30
0.0
 10
4096.656669376332
 20
5402.432149967573
 30
0.0
 10
4096.680729369151
 20
5402.367045718492
 30
0.0
 10
4096.690025315796
 20
5402.341891694949
 30
0.0
  0
SPLINE
  5
161
330
1F
100
AcDbEntity
  8
0
  6
Continuous
 62
     7
370
    25
100
AcDbSpline
210
0.0
220
0.0
230
1.0
 70
     8
 71
     3
 72
    19
 73
    15
 74
     0
 42
0.00000001
 43
0.00000001
 40
0.0
 40
0.0
 40
0.0
 40
0.0
 40
0.0034786179104806
 40
0.1001400181881839
 40
0.1979433633315851
 40
0.2974173768948438
 40
0.3988645546994334
 40
0.4539723322453834
 40
0.5496237263796477
 40
0.6473978964976084
 40
0.7441408295878967
 40
0.840471037162946
 40
0.9383635424142939
 40
1.0
 40
1.0
 40
1.0
 40
1.0
 10
4137.644301041468
 20
5401.071742213954
 30
0.0
 10
4137.655123570417
 20
5401.070283982228
 30
0.0
 10
4137.966674960581
 20
5401.028305427701
 30
0.0
 10
4136.826866498689
 20
5400.946054280437
 30
0.0
 10
4134.105283099164
 20
5400.815586131273
 30
0.0
 10
4129.47837278004
 20
5400.696675026593
 30
0.0
 10
4124.508771029882
 20
5400.583790020311
 30
0.0
 10
4119.211062442415
 20
5400.475442115267
 30
0.0
 10
4113.781719526848
 20
5400.376406056957
 30
0.0
 10
4107.753664474472
 20
5400.24800145176
 30
0.0
 10
4102.552794708959
 20
5400.125916062714
 30
0.0
 10
4098.758587649236
 20
5400.006225139188
 30
0.0
 10
4096.656669376332
 20
5399.892149967573
 30
0.0
 10
4096.680729369151
 20
5399.827045718493
 30
0.0
 10
4096.690025315796
 20
5399.80189169495
 30
0.0
  0
SPLINE
  5
162
330
1F
100
AcDbEntity
  8
0
  6
Continuous
 62
     7
370
    25
100
AcDbSpline
210
0.0
220
0.0
230
1.0
 70
     8
 71
     3
 72
    19
 73
    15
 74
     0
 42
0.00000001
 43
0.00000001
 40
0.0
 40
0.0
 40
0.0
 40
0.0
 40
0.0034786179104806
 40
0.1001400181881839
 40
0.1979433633315851
 40
0.2974173768948438
 40
0.3988645546994334
 40
0.4539723322453834
 40
0.5496237263796477
 40
0.6473978964976084
 40
0.7441408295878967
 40
0.840471037162946
 40
0.9383635424142939
 40
1.0
 40
1.0
 40
1.0
 40
1.0
 10
4137.644301041468
 20
5398.531742213954
 30
0.0
 10
4137.655123570417
 20
5398.530283982227
 30
0.0
 10
4137.966674960581
 20
5398.488305427702
 30
0.0
 10
4136.826866498689
 20
5398.406054280437
 30
0.0
 10
4134.105283099164
 20
5398.275586131273
 30
0.0
 10
4129.47837278004
 20
5398.156675026593
 30
0.0
 10
4124.508771029882
 20
5398.043790020311
 30
0.0
 10
4119.211062442415
 20
5397.935442115268
 30
0.0
 10
4113.781719526848
 20
5397.836406056957
 30
0.0
 10
4107.753664474472
 20
5397.708001451761
 30
0.0
 10
4102.552794708959
 20
5397.585916062714
 30
0.0
 10
4098.758587649236
 20
5397.466225139188
 30
0.0
 10
4096.656669376332
 20
5397.352149967573
 30
0.0
 10
4096.680729369151
 20
5397.287045718493
 30
0.0
 10
4096.690025315796
 20
5397.26189169495
 30
0.0
  0
SPLINE
  5
163
330
1F
100
AcDbEntity
  8
0
  6
Continuous
 62
     7
370
    25
100
AcDbSpline
210
0.0
220
0.0
230
1.0
 70
     8
 71
     3
 72
    20
 73
    16
 74
     0
 42
0.00000001
 43
0.00000001
 40
0.0
 40
0.0
 40
0.0
 40
0.0
 40
0.0031757919404861
 40
0.113940550799041
 40
0.2401965284069173
 40
0.2749391820605668
 40
0.3090355398214222
 40
0.3431318321406182
 40
0.445142732294664
 40
0.5471530532805969
 40
0.6489945024924861
 40
0.7508040732728918
 40
0.852613838979951
 40
0.9544238006004973
 40
1.0
 40
1.0
 40
1.0
 40
1.0
 10
4135.285070530845
 20
5415.801508094473
 30
0.0
 10
4135.257935296981
 20
5415.800375655484
 30
0.0
 10
4134.284381754946
 20
5415.75974619214
 30
0.0
 10
4131.627924620268
 20
5415.672940219377
 30
0.0
 10
4127.503136233049
 20
5415.573238602767
 30
0.0
 10
4124.233995155793
 20
5415.501992200635
 30
0.0
 10
4122.44865233338
 20
5415.464605606294
 30
0.0
 10
4119.426203556484
 20
5415.403113766958
 30
0.0
 10
4115.042422859063
 20
5415.31749061636
 30
0.0
 10
4109.567957006348
 20
5415.209474736036
 30
0.0
 10
4104.647140770138
 20
5415.102540177258
 30
0.0
 10
4100.610305193062
 20
5414.994764757566
 30
0.0
 10
4097.85469446802
 20
5414.886522498658
 30
0.0
 10
4096.485747791133
 20
5414.797836478999
 30
0.0
 10
4096.620920281284
 20
5414.745042898978
 30
0.0
 10
4096.662719649162
 20
5414.728717548528
 30
0.0
  0
SPLINE
  5
164
330
1F
100
AcDbEntity
  8
0
  6
Continuous
 62
     7
370
    25
100
AcDbSpline
210
0.0
220
0.0
230
1.0
 70
     8
 71
     3
 72
    21
 73
    17
 74
     0
 42
0.00000001
 43
0.00000001
 40
0.0
 40
0.0
 40
0.0
 40
0.0
 40
0.0170801802074744
 40
0.0513126320423559
 40
0.1296603055681627
 40
0.2212836356944424
 40
0.3261431650135831
 40
0.3761365919657355
 40
0.4197834975469432
 40
0.5068769946251911
 40
0.5939699955967446
 40
0.680981537591983
 40
0.76794308476666
 40
0.8549048139660742
 40
0.9418667261983911
 40
1.0
 40
1.0
 40
1.0
 40
1.0
 10
4137.640653680655
 20
5413.441452590504
 30
0.0
 10
4137.632815754814
 20
5413.434650750184
 30
0.0
 10
4137.609268895249
 20
5413.414216520256
 30
0.0
 10
4137.1909944156
 20
5413.361547410655
 30
0.0
 10
4135.859941627093
 20
5413.276988485406
 30
0.0
 10
4132.615631997457
 20
5413.161200320114
 30
0.0
 10
4128.480423315897
 20
5413.055734062042
 30
0.0
 10
4124.654612992901
 20
5412.970624991978
 30
0.0
 10
4120.97095981558
 20
5412.893775098129
 30
0.0
 10
4116.294744268764
 20
5412.80179352127
 30
0.0
 10
4110.750489372887
 20
5412.693266813732
 30
0.0
 10
4105.67206881196
 20
5412.586365136969
 30
0.0
 10
4101.410669470532
 20
5412.478603872789
 30
0.0
 10
4098.34635238408
 20
5412.370327965586
 30
0.0
 10
4096.639998054539
 20
5412.273541366753
 30
0.0
 10
4096.642516337973
 20
5412.212600328029
 30
0.0
 10
4096.643525303633
 20
5412.1881839281
 30
0.0
  0
SPLINE
  5
165
330
1F
100
AcDbEntity
  8
0
  6
Continuous
 62
     7
370
    25
100
AcDbSpline
210
0.0
220
0.0
230
1.0
 70
     8
 71
     3
 72
    22
 73
    18
 74
     0
 42
0.00000001
 43
0.00000001
 40
0.0
 40
0.0
 40
0.0
 40
0.0
 40
0.0152303105207452
 40
0.0660262848206412
 40
0.1343634455535431
 40
0.2201908225897492
 40
0.323444399315825
 40
0.3818206557691572
 40
0.4445817012138805
 40
0.5117246097317796
 40
0.5469909906184712
 40
0.5741493036845619
 40
0.6612318608952862
 40
0.74831436105336
 40
0.8353968042541258
 40
0.922479190592926
 40
1.0
 40
1.0
 40
1.0
 40
1.0
 10
4137.652569027913
 20
5410.901415343826
 30
0.0
 10
4137.642222301915
 20
5410.895302059064
 30
0.0
 10
4137.597367282263
 20
5410.868799810122
 30
0.0
 10
4137.11138993991
 20
5410.813395241188
 30
0.0
 10
4135.64464892747
 20
5410.728358963365
 30
0.0
 10
4132.58671706761
 20
5410.620688041046
 30
0.0
 10
4128.455958510537
 20
5410.516417909434
 30
0.0
 10
4124.114726636666
 20
5410.422190935024
 30
0.0
 10
4120.208879539673
 20
5410.342932616446
 30
0.0
 10
4116.668617662977
 20
5410.273274703238
 30
0.0
 10
4113.920294020659
 20
5410.218702202917
 30
0.0
 10
4110.800008946217
 20
5410.155734634771
 30
0.0
 10
4106.767726702831
 20
5410.070641029508
 30
0.0
 10
4102.287259310856
 20
5409.960611983419
 30
0.0
 10
4098.920004610112
 20
5409.850715439806
 30
0.0
 10
4096.818568291954
 20
5409.745016477799
 30
0.0
 10
4096.636329969278
 20
5409.676034333856
 30
0.0
 10
4096.55050379674
 20
5409.64354680159
 30
0.0
  0
SPLINE
  5
166
330
1F
100
AcDbEntity
  8
0
  6
Continuous
 62
     7
370
    25
100
AcDbSpline
210
0.0
220
0.0
230
1.0
 70
     8
 71
     3
 72
    26
 73
    22
 74
     0
 42
0.00000001
 43
0.00000001
 40
0.0
 40
0.0
 40
0.0
 40
0.0
 40
0.014530002331395
 40
0.0609336082240343
 40
0.1213512020706082
 40
0.1708177780538241
 40
0.2196938419205782
 40
0.2490668808828178
 40
0.2788412678113149
 40
0.3404364372042649
 40
0.4129321768015611
 40
0.4963075426453282
 40
0.590538446479241
 40
0.6955976630953953
 40
0.7523988555840246
 40
0.8119289060216486
 40
0.844817626115097
 40
0.8739165799982529
 40
0.9030155203103436
 40
0.9900751853196013
 40
1.0
 40
1.0
 40
1.0
 40
1.0
 10
4137.629890751307
 20
5408.360870546468
 30
0.0
 10
4137.629041473956
 20
5408.354775964739
 30
0.0
 10
4137.625479909946
 20
5408.329217479135
 30
0.0
 10
4137.176629500481
 20
5408.278343012545
 30
0.0
 10
4136.162078203012
 20
5408.212803353152
 30
0.0
 10
4134.569035405882
 20
5408.146404978645
 30
0.0
 10
4132.940827930734
 20
5408.093150134688
 30
0.0
 10
4131.352144865478
 20
5408.048322215052
 30
0.0
 10
4129.413483414767
 20
5407.999916411253
 30
0.0
 10
4126.468075561123
 20
5407.932576836473
 30
0.0
 10
4122.109558854726
 20
5407.842540817916
 30
0.0
 10
4116.763414498735
 20
5407.737936056855
 30
0.0
 10
4110.725519161732
 20
5407.618989655934
 30
0.0
 10
4105.743669816676
 20
5407.510328737317
 30
0.0
 10
4102.162313458382
 20
5407.416688677413
 30
0.0
 10
4100.156565382704
 20
5407.353336002293
 30
0.0
 10
4098.840138992377
 20
5407.301785775649
 30
0.0
 10
4098.01126693708
 20
5407.263187875358
 30
0.0
 10
4096.991714963145
 20
5407.201759713793
 30
0.0
 10
4096.286006026484
 20
5407.148220084953
 30
0.0
 10
4096.528200237273
 20
5407.107319142568
 30
0.0
 10
4096.552984951966
 20
5407.10313358345
 30
0.0
  0
SPLINE
  5
167
330
1F
100
AcDbEntity
  8
0
  6
Continuous
 62
     7
370
    25
100
AcDbSpline
210
0.0
220
0.0
230
1.0
 70
     8
 71
     3
 72
    23
 73
    19
 74
     0
 42
0.00000001
 43
0.00000001
 40
0.0
 40
0.0
 40
0.0
 40
0.0
 40
0.0238866439930655
 40
0.0832733260153925
 40
0.1395116625240743
 40
0.2422090963063157
 40
0.3324046336811864
 40
0.4100636067524674
 40
0.4751561665479711
 40
0.5249409907547657
 40
0.5670128956217596
 40
0.6235310646612088
 40
0.6944669739569187
 40
0.779784822519147
 40
0.8794415506695799
 40
0.9348353992760756
 40
0.9938372098104735
 40
1.0
 40
1.0
 40
1.0
 40
1.0
 10
4137.595294364759
 20
5405.820832688128
 30
0.0
 10
4137.594454745026
 20
5405.81076466424
 30
0.0
 10
4137.59152767299
 20
5405.775665642551
 30
0.0
 10
4136.912840267921
 20
5405.716878353722
 30
0.0
 10
4135.221500360904
 20
5405.625123024184
 30
0.0
 10
4132.041928943317
 20
5405.520035919334
 30
0.0
 10
4127.379000991788
 20
5405.406656607648
 30
0.0
 10
4122.73198797032
 20
5405.309567707597
 30
0.0
 10
4118.656950082233
 20
5405.229733031097
 30
0.0
 10
4115.301342703307
 20
5405.165709652832
 30
0.0
 10
4112.172737321637
 20
5405.104563919004
 30
0.0
 10
4108.71900241278
 20
5405.033942081735
 30
0.0
 10
4104.73061790808
 20
5404.944858335559
 30
0.0
 10
4100.714544844639
 20
5404.837296098441
 30
0.0
 10
4098.055475461631
 20
5404.735708556776
 30
0.0
 10
4096.819656843742
 20
5404.645600366471
 30
0.0
 10
4096.380666201345
 20
5404.594760278972
 30
0.0
 10
4096.500144777608
 20
5404.567256145576
 30
0.0
 10
4096.511444185408
 20
5404.564655006283
 30
0.0
  0
SPLINE
  5
168
330
1F
100
AcDbEntity
  8
0
  6
Continuous
 62
     7
370
    25
100
AcDbSpline
210
0.0
220
0.0
230
1.0
 70
     8
 71
     3
 72
    20
 73
    16
 74
     0
 42
0.00000001
 43
0.00000001
 40
0.0
 40
0.0
 40
0.0
 40
0.0
 40
0.0811867699855602
 40
0.1681178558644074
 40
0.2550486536778241
 40
0.3419791658455942
 40
0.4289093947875238
 40
0.5158393429234499
 40
0.5594036217255985
 40
0.5946317678382335
 40
0.662990272905474
 40
0.7388651899151352
 40
0.8222460960170597
 40
0.9131215364305894
 40
1.0
 40
1.0
 40
1.0
 40
1.0
 10
4137.619730732593
 20
5403.280484423093
 30
0.0
 10
4137.454541035248
 20
5403.24566242164
 30
0.0
 10
4137.11247375343
 20
5403.17355461119
 30
0.0
 10
4134.770901140189
 20
5403.0653118153
 30
0.0
 10
4131.217068093456
 20
5402.955482366289
 30
0.0
 10
4126.602077087264
 20
5402.846589986232
 30
0.0
 10
4121.306215642892
 20
5402.738657677759
 30
0.0
 10
4116.626815951328
 20
5402.649325133897
 30
0.0
 10
4113.121285660707
 20
5402.581936347034
 30
0.0
 10
4110.085218111391
 20
5402.522318391459
 30
0.0
 10
4106.564974881228
 20
5402.44854300624
 30
0.0
 10
4102.63794182013
 20
5402.354086596079
 30
0.0
 10
4099.271437369829
 20
5402.249303912503
 30
0.0
 10
4096.893452996393
 20
5402.139155125562
 30
0.0
 10
4096.680159241384
 20
5402.063575186654
 30
0.0
 10
4096.575910427102
 20
5402.026634962997
 30
0.0
  0
SPLINE
  5
169
330
1F
100
AcDbEntity
  8
0
  6
Continuous
 62
     7
370
    25
100
AcDbSpline
210
0.0
220
0.0
230
1.0
 70
     8
 71
     3
 72
    24
 73
    20
 74
     0
 42
0.00000001
 43
0.00000001
 40
0.0
 40
0.0
 40
0.0
 40
0.0
 40
0.0000003643340437
 40
0.0213340152497581
 40
0.0725168126449493
 40
0.1515156859637783
 40
0.2015518879445605
 40
0.2585544804466001
 40
0.3225166219361224
 40
0.3934306355817994
 40
0.444633312165273
 40
0.47462052207964
 40
0.5033562861363841
 40
0.5893304832358002
 40
0.6753046580539381
 40
0.7612788106057436
 40
0.8472529409061529
 40
0.9332267320294332
 40
1.0
 40
1.0
 40
1.0
 40
1.0
 10
4137.676944174807
 20
5400.754095039155
 30
0.0
 10
4137.676944174807
 20
5400.75409487984
 30
0.0
 10
4137.676944134051
 20
5400.744765984713
 30
0.0
 10
4137.624708338716
 20
5400.71384968608
 30
0.0
 10
4137.145447289625
 20
5400.64932849328
 30
0.0
 10
4135.793474686301
 20
5400.57271192918
 30
0.0
 10
4133.67771366874
 20
5400.493938897726
 30
0.0
 10
4131.231259560216
 20
5400.421505791417
 30
0.0
 10
4127.943658679763
 20
5400.340269714141
 30
0.0
 10
4124.299783261431
 20
5400.261439991555
 30
0.0
 10
4121.118152164056
 20
5400.197121257199
 30
0.0
 10
4118.767764317085
 20
5400.15067492112
 30
0.0
 10
4115.652398436113
 20
5400.089583715834
 30
0.0
 10
4111.318322691046
 20
5400.004497175258
 30
0.0
 10
4106.180025346058
 20
5399.895419672035
 30
0.0
 10
4101.817885364098
 20
5399.786361853126
 30
0.0
 10
4098.611737651713
 20
5399.677387594445
 30
0.0
 10
4096.723358478051
 20
5399.57660535885
 30
0.0
 10
4096.642477422146
 20
5399.512088369631
 30
0.0
 10
4096.607120326227
 20
5399.483884813796
 30
0.0
  0
SPLINE
  5
16A
330
1F
100
AcDbEntity
  8
0
  6
Continuous
 62
     7
370
    25
100
AcDbSpline
210
0.0
220
0.0
230
1.0
 70
     8
 71
     3
 72
    23
 73
    19
 74
     0
 42
0.00000001
 43
0.00000001
 40
0.0
 40
0.0
 40
0.0
 40
0.0
 40
0.0275110204039754
 40
0.0715968105883976
 40
0.1338978644540648
 40
0.1916802855895315
 40
0.2933593688667846
 40
0.3770741192450376
 40
0.442758244284672
 40
0.4765230456299225
 40
0.5044677957718805
 40
0.5476833355299785
 40
0.6228775379465704
 40
0.7105631660603126
 40
0.8107068167282657
 40
0.8656375324657923
 40
0.916811267041055
 40
1.0
 40
1.0
 40
1.0
 40
1.0
 10
4137.622830962409
 20
5398.200434118172
 30
0.0
 10
4137.605378965694
 20
5398.188808521542
 30
0.0
 10
4137.559960537557
 20
5398.15855316832
 30
0.0
 10
4136.983630283183
 20
5398.102043691882
 30
0.0
 10
4135.786427309031
 20
5398.032707861656
 30
0.0
 10
4133.347980044659
 20
5397.939374443964
 30
0.0
 10
4129.616141413379
 20
5397.836712977694
 30
0.0
 10
4124.859191421194
 20
5397.73163294919
 30
0.0
 10
4121.065659102645
 20
5397.655642054542
 30
0.0
 10
4118.364553379674
 20
5397.603366750515
 30
0.0
 10
4116.127686580047
 20
5397.561359418207
 30
0.0
 10
4113.017255848649
 20
5397.502352602289
 30
0.0
 10
4108.759885315699
 20
5397.417061175021
 30
0.0
 10
4103.883089540152
 20
5397.306573850489
 30
0.0
 10
4100.312652778789
 20
5397.202974836747
 30
0.0
 10
4098.205978619912
 20
5397.114807910828
 30
0.0
 10
4096.801755210286
 20
5397.033550330905
 30
0.0
 10
4096.655377003342
 20
5396.976427783615
 30
0.0
 10
4096.564748885297
 20
5396.941061118953
 30
0.0
  0
SPLINE
  5
16B
330
1F
100
AcDbEntity
  8
0
  6
Continuous
 62
     7
370
    25
100
AcDbSpline
210
0.0
220
0.0
230
1.0
 70
    24
 71
     3
 72
    11
 73
     7
 74
     0
 42
0.00000001
 43
0.00000001
 40
0.0
 40
0.0
 40
0.0
 40
0.0
 40
0.3890468487494769
 40
0.64531379227538
 40
0.9015807358012836
 40
1.0
 40
1.0
 40
1.0
 40
1.0
 10
4135.285058665882
 20
5415.804095039148
 30
0.0
 10
4134.171882805154
 20
5415.804095039148
 30
0.0
 10
4132.325452899695
 20
5415.804095039148
 30
0.0
 10
4128.584192347555
 20
5415.804095039148
 30
0.0
 10
4125.750926958663
 20
5415.804095039148
 30
0.0
 10
4123.993654714648
 20
5415.804095039148
 30
0.0
 10
4123.506042178592
 20
5415.804095039148
 30
0.0
  0
SPLINE
  5
16C
330
1F
100
AcDbEntity
  8
0
  6
Continuous
 62
     7
370
    25
100
AcDbSpline
210
0.0
220
0.0
230
1.0
 70
     8
 71
     3
 72
    18
 73
    14
 74
     0
 42
0.00000001
 43
0.00000001
 40
0.0
 40
0.0
 40
0.0
 40
0.0
 40
0.0893821599096442
 40
0.1871175235888099
 40
0.2827075911956838
 40
0.3803287556759292
 40
0.4771969248323232
 40
0.5732826594137267
 40
0.6711402333730717
 40
0.7668709579092451
 40
0.8641909200368558
 40
0.9614828342810288
 40
1.0
 40
1.0
 40
1.0
 40
1.0
 10
4136.230556961477
 20
5415.186994199575
 30
0.0
 10
4136.047517330829
 20
5415.149685638245
 30
0.0
 10
4135.664332113106
 20
5415.071581846482
 30
0.0
 10
4132.943419524645
 20
5414.945956696371
 30
0.0
 10
4128.839443817643
 20
5414.830183969774
 30
0.0
 10
4123.62534486501
 20
5414.702291423106
 30
0.0
 10
4117.810548494754
 20
5414.57908280374
 30
0.0
 10
4111.920913518121
 20
5414.460437124085
 30
0.0
 10
4106.531691237691
 20
5414.330828916422
 30
0.0
 10
4102.066550054492
 20
5414.214244534693
 30
0.0
 10
4099.090275497707
 20
5414.088242478362
 30
0.0
 10
4097.712036593704
 20
5413.987412260265
 30
0.0
 10
4097.993310481415
 20
5413.931433061347
 30
0.0
 10
4098.073083298877
 20
5413.915556655425
 30
0.0
  0
SPLINE
  5
16D
330
1F
100
AcDbEntity
  8
0
  6
Continuous
 62
     7
370
    25
100
AcDbSpline
210
0.0
220
0.0
230
1.0
 70
     8
 71
     3
 72
    18
 73
    14
 74
     0
 42
0.00000001
 43
0.00000001
 40
0.0
 40
0.0
 40
0.0
 40
0.0
 40
0.0893863879848415
 40
0.187136557460642
 40
0.2827411058761813
 40
0.3803770588531808
 40
0.4772599024360968
 40
0.573360192914078
 40
0.6712325911835261
 40
0.7669778178362908
 40
0.864312522831923
 40
0.9616191756951818
 40
1.0
 40
1.0
 40
1.0
 40
1.0
 10
4136.230466061983
 20
5412.646982420427
 30
0.0
 10
4136.047440040851
 20
5412.60967772609
 30
0.0
 10
4135.664262464347
 20
5412.531577780083
 30
0.0
 10
4132.943414097454
 20
5412.405956677077
 30
0.0
 10
4128.839445350874
 20
5412.290183975167
 30
0.0
 10
4123.625344231556
 20
5412.162291421092
 30
0.0
 10
4117.810549480747
 20
5412.039082806356
 30
0.0
 10
4111.920910202541
 20
5411.920437115617
 30
0.0
 10
4106.531703653468
 20
5411.790828948028
 30
0.0
 10
4102.066504573031
 20
5411.674244418935
 30
0.0
 10
4099.090448469345
 20
5411.548242918598
 30
0.0
 10
4097.712397090885
 20
5411.447472521944
 30
0.0
 10
4097.993116936798
 20
5411.391551257088
 30
0.0
 10
4098.072521899658
 20
5411.375733259096
 30
0.0
  0
SPLINE
  5
16E
330
1F
100
AcDbEntity
  8
0
  6
Continuous
 62
     7
370
    25
100
AcDbSpline
210
0.0
220
0.0
230
1.0
 70
     8
 71
     3
 72
    18
 73
    14
 74
     0
 42
0.00000001
 43
0.00000001
 40
0.0
 40
0.0
 40
0.0
 40
0.0
 40
0.0894084698249444
 40
0.1871766927729565
 40
0.2827988983860986
 40
0.3804528837406723
 40
0.4773536206094391
 40
0.5734716598435913
 40
0.6713621341596786
 40
0.7671250439919001
 40
0.8644777257276371
 40
0.9618023501500544
 40
1.0
 40
1.0
 40
1.0
 40
1.0
 10
4136.230520451956
 20
5410.106989468513
 30
0.0
 10
4136.047486289896
 20
5410.069682460356
 30
0.0
 10
4135.664304146349
 20
5409.991580213245
 30
0.0
 10
4132.943417311805
 20
5409.865956688538
 30
0.0
 10
4128.839444555229
 20
5409.75018397225
 30
0.0
 10
4123.625344146418
 20
5409.622291421116
 30
0.0
 10
4117.810550601276
 20
5409.499082809143
 30
0.0
 10
4111.920905809508
 20
5409.380437104454
 30
0.0
 10
4106.531720295987
 20
5409.250828990381
 30
0.0
 10
4102.066443558884
 20
5409.134244263648
 30
0.0
 10
4099.090680527595
 20
5409.008243509214
 30
0.0
 10
4097.712878930975
 20
5408.907553149094
 30
0.0
 10
4097.992857394053
 20
5408.851709398129
 30
0.0
 10
4098.071770763502
 20
5408.835969549776
 30
0.0
  0
SPLINE
  5
16F
330
1F
100
AcDbEntity
  8
0
  6
Continuous
 62
     7
370
    25
100
AcDbSpline
210
0.0
220
0.0
230
1.0
 70
     8
 71
     3
 72
    18
 73
    14
 74
     0
 42
0.00000001
 43
0.00000001
 40
0.0
 40
0.0
 40
0.0
 40
0.0
 40
0.0894425310052278
 40
0.1872233534321834
 40
0.2828578819650822
 40
0.3805244520766979
 40
0.4774376766306959
 40
0.5735681026831302
 40
0.6714711922328049
 40
0.7672464431174626
 40
0.8646116707809728
 40
0.9619488375153922
 40
1.0
 40
1.0
 40
1.0
 40
1.0
 10
4136.230740391482
 20
5407.567017969224
 30
0.0
 10
4136.047673306097
 20
5407.529701604543
 30
0.0
 10
4135.664472682816
 20
5407.4515900523
 30
0.0
 10
4132.943430382018
 20
5407.325956735064
 30
0.0
 10
4128.83944106504
 20
5407.210183959762
 30
0.0
 10
4123.625344843914
 20
5407.082291423857
 30
0.0
 10
4117.810551292888
 20
5406.959082810647
 30
0.0
 10
4111.92090235947
 20
5406.840437095742
 30
0.0
 10
4106.53173356072
 20
5406.710829024122
 30
0.0
 10
4102.066394878868
 20
5406.594244139755
 30
0.0
 10
4099.090865688704
 20
5406.468243980473
 30
0.0
 10
4097.713261920214
 20
5406.367617302298
 30
0.0
 10
4097.992650397724
 20
5406.311835228192
 30
0.0
 10
4098.071173091779
 20
5406.296157563967
 30
0.0
  0
SPLINE
  5
170
330
1F
100
AcDbEntity
  8
0
  6
Continuous
 62
     7
370
    25
100
AcDbSpline
210
0.0
220
0.0
230
1.0
 70
     8
 71
     3
 72
    18
 73
    14
 74
     0
 42
0.00000001
 43
0.00000001
 40
0.0
 40
0.0
 40
0.0
 40
0.0
 40
0.0894892603063496
 40
0.1872763551501342
 40
0.2829170184200022
 40
0.3805898536194214
 40
0.4775092949358229
 40
0.5736458875359215
 40
0.6715552573455825
 40
0.7673366519942272
 40
0.86470812541511
 40
0.9620515361068572
 40
1.0
 40
1.0
 40
1.0
 40
1.0
 10
4136.231140370156
 20
5405.027069800184
 30
0.0
 10
4136.048013417696
 20
5404.989736419899
 30
0.0
 10
4135.664779183007
 20
5404.911607945472
 30
0.0
 10
4132.943454163123
 20
5404.785956819694
 30
0.0
 10
4128.839434644741
 20
5404.670183936871
 30
0.0
 10
4123.625346399316
 20
5404.542291429571
 30
0.0
 10
4117.810551491065
 20
5404.419082810688
 30
0.0
 10
4111.920900036072
 20
5404.300437089955
 30
0.0
 10
4106.531742770196
 20
5404.170829047528
 30
0.0
 10
4102.066361012062
 20
5404.054244053569
 30
0.0
 10
4099.090994525163
 20
5403.928244308375
 30
0.0
 10
4097.713527639505
 20
5403.827661847067
 30
0.0
 10
4097.992506416611
 20
5403.771922598701
 30
0.0
 10
4098.070758093456
 20
5403.756288113182
 30
0.0
  0
SPLINE
  5
171
330
1F
100
AcDbEntity
  8
0
  6
Continuous
 62
     7
370
    25
100
AcDbSpline
210
0.0
220
0.0
230
1.0
 70
     8
 71
     3
 72
    18
 73
    14
 74
     0
 42
0.00000001
 43
0.00000001
 40
0.0
 40
0.0
 40
0.0
 40
0.0
 40
0.0894266994421371
 40
0.1872275699575941
 40
0.2828817065224592
 40
0.3805683012973229
 40
0.4775013960554633
 40
0.5736515318141705
 40
0.671574694520883
 40
0.767369582289935
 40
0.8647547728321848
 40
0.9621118966919866
 40
1.0
 40
1.0
 40
1.0
 40
1.0
 10
4136.230407022978
 20
5402.486974769899
 30
0.0
 10
4136.047389845217
 20
5402.449672587175
 30
0.0
 10
4135.664217239422
 20
5402.371575138998
 30
0.0
 10
4132.94341052147
 20
5402.245956664416
 30
0.0
 10
4128.839446533462
 20
5402.130183979144
 30
0.0
 10
4123.625343108632
 20
5402.002291417975
 30
0.0
 10
4117.810552742979
 20
5401.879082814727
 30
0.0
 10
4111.920898274657
 20
5401.76043708524
 30
0.0
 10
4106.531748613875
 20
5401.630829062463
 30
0.0
 10
4102.066339798572
 20
5401.514243999561
 30
0.0
 10
4099.091075148333
 20
5401.388244513576
 30
0.0
 10
4097.713693587232
 20
5401.287689681012
 30
0.0
 10
4097.99241634377
 20
5401.231977192627
 30
0.0
 10
4098.070498778286
 20
5401.216369687951
 30
0.0
  0
SPLINE
  5
172
330
1F
100
AcDbEntity
  8
0
  6
Continuous
 62
     7
370
    25
100
AcDbSpline
210
0.0
220
0.0
230
1.0
 70
     8
 71
     3
 72
    18
 73
    14
 74
     0
 42
0.00000001
 43
0.00000001
 40
0.0
 40
0.0
 40
0.0
 40
0.0
 40
0.0893298024210635
 40
0.1871446303852893
 40
0.2828124180322315
 40
0.3805129539472383
 40
0.4774598823113266
 40
0.5736237399376093
 40
0.6715608775457674
 40
0.7673694364839134
 40
0.8647685251520252
 40
0.9621395431322104
 40
1.0
 40
1.0
 40
1.0
 40
1.0
 10
4136.229337321037
 20
5399.946836153314
 30
0.0
 10
4136.046480330883
 20
5399.909579477359
 30
0.0
 10
4135.663397609234
 20
5399.831527285797
 30
0.0
 10
4132.943346803221
 20
5399.705956437698
 30
0.0
 10
4128.83946386546
 20
5399.590184040799
 30
0.0
 10
4123.625338410255
 20
5399.462291401315
 30
0.0
 10
4117.810554177821
 20
5399.339082819622
 30
0.0
 10
4111.920897168557
 20
5399.220437082086
 30
0.0
 10
4106.531751613278
 20
5399.090829070186
 30
0.0
 10
4102.066329104406
 20
5398.974243972319
 30
0.0
 10
4099.091115737004
 20
5398.848244616886
 30
0.0
 10
4097.713777028852
 20
5398.747703680763
 30
0.0
 10
4097.992371008615
 20
5398.692004652009
 30
0.0
 10
4098.070368348852
 20
5398.676410718141
 30
0.0
  0
SPLINE
  5
173
330
1F
100
AcDbEntity
  8
0
  6
Continuous
 62
     7
370
    25
100
AcDbSpline
210
0.0
220
0.0
230
1.0
 70
    24
 71
     3
 72
     9
 73
     5
 74
     0
 42
0.00000001
 43
0.00000001
 40
0.0
 40
0.0
 40
0.0
 40
0.0
 40
0.8175886588715866
 40
1.0
 40
1.0
 40
1.0
 40
1.0
 10
4137.318352162066
 20
5415.804095039148
 30
0.0
 10
4137.181784703802
 20
5415.804095039148
 30
0.0
 10
4137.014747824336
 20
5415.804095039149
 30
0.0
 10
4135.999300812618
 20
5415.804095039148
 30
0.0
 10
4135.814071761367
 20
5415.804095039148
 30
0.0
  0
SPLINE
  5
174
330
1F
100
AcDbEntity
  8
0
  6
Continuous
 62
     7
370
    25
100
AcDbSpline
210
0.0
220
0.0
230
1.0
 70
     8
 71
     3
 72
    19
 73
    15
 74
     0
 42
0.00000001
 43
0.00000001
 40
0.0
 40
0.0
 40
0.0
 40
0.0
 40
0.006922629393317
 40
0.1045477604672789
 40
0.2033263587246409
 40
0.2999367617715635
 40
0.398599941570881
 40
0.496502089032561
 40
0.5936134494942883
 40
0.692515562442708
 40
0.789268123949109
 40
0.8729951382457429
 40
0.9571980218696506
 40
1.0
 40
1.0
 40
1.0
 40
1.0
 10
4136.243230860873
 20
5414.569737014878
 30
0.0
 10
4136.263721918535
 20
5414.566863425026
 30
0.0
 10
4136.573184417014
 20
5414.523465553139
 30
0.0
 10
4135.516397116297
 20
5414.439824635569
 30
0.0
 10
4133.000480449037
 20
5414.310946655589
 30
0.0
 10
4128.823930679554
 20
5414.195186945252
 30
0.0
 10
4123.629522718567
 20
5414.067289764516
 30
0.0
 10
4117.809376211349
 20
5413.944086494042
 30
0.0
 10
4111.921487216393
 20
5413.825424095151
 30
0.0
 10
4106.530581895702
 20
5413.695877986324
 30
0.0
 10
4102.29231664327
 20
5413.584878074492
 30
0.0
 10
4099.492779176184
 20
5413.4725823549
 30
0.0
 10
4098.057811832105
 20
5413.380710167853
 30
0.0
 10
4098.032886935584
 20
5413.329432966589
 30
0.0
 10
4098.024486982535
 20
5413.312152008862
 30
0.0
  0
SPLINE
  5
175
330
1F
100
AcDbEntity
  8
0
  6
Continuous
 62
     7
370
    25
100
AcDbSpline
210
0.0
220
0.0
230
1.0
 70
     8
 71
     3
 72
    19
 73
    15
 74
     0
 42
0.00000001
 43
0.00000001
 40
0.0
 40
0.0
 40
0.0
 40
0.0
 40
0.0068897364068182
 40
0.1045158746100688
 40
0.2032954918962228
 40
0.2999068916042041
 40
0.3985710892416232
 40
0.4964742466903736
 40
0.5935866089811823
 40
0.6924897422326075
 40
0.7892433018666153
 40
0.8729711799155169
 40
0.9571749322008989
 40
1.0
 40
1.0
 40
1.0
 40
1.0
 10
4136.243505777305
 20
5412.0296959728
 30
0.0
 10
4136.263893798863
 20
5412.026836068863
 30
0.0
 10
4136.573175864071
 20
5411.983451918356
 30
0.0
 10
4135.516324333534
 20
5411.899824668918
 30
0.0
 10
4133.000499558722
 20
5411.770946646844
 30
0.0
 10
4128.823925477424
 20
5411.65518694759
 30
0.0
 10
4123.62952414446
 20
5411.527289764043
 30
0.0
 10
4117.809375718793
 20
5411.404086493606
 30
0.0
 10
4111.921487780214
 20
5411.285424097364
 30
0.0
 10
4106.530580120037
 20
5411.155877977814
 30
0.0
 10
4102.292322653951
 20
5411.044878103748
 30
0.0
 10
4099.492760038337
 20
5410.932582261653
 30
0.0
 10
4098.057714841812
 20
5410.84070057299
 30
0.0
 10
4098.032816963489
 20
5410.78941438114
 30
0.0
 10
4098.0244231728
 20
5410.7721243312
 30
0.0
  0
SPLINE
  5
176
330
1F
100
AcDbEntity
  8
0
  6
Continuous
 62
     7
370
    25
100
AcDbSpline
210
0.0
220
0.0
230
1.0
 70
     8
 71
     3
 72
    19
 73
    15
 74
     0
 42
0.00000001
 43
0.00000001
 40
0.0
 40
0.0
 40
0.0
 40
0.0
 40
0.0068567438194361
 40
0.104483898595212
 40
0.2032645444649691
 40
0.2998769501790918
 40
0.3985421751982591
 40
0.4964463521041123
 40
0.5935597256175422
 40
0.6924638887387317
 40
0.7892184558591797
 40
0.8729472057592269
 40
0.9571518348509916
 40
1.0
 40
1.0
 40
1.0
 40
1.0
 10
4136.243781524239
 20
5409.489654806735
 30
0.0
 10
4136.264066246998
 20
5409.486808630037
 30
0.0
 10
4136.573167326386
 20
5409.443438242368
 30
0.0
 10
4135.516251278202
 20
5409.359824702388
 30
0.0
 10
4133.000518739964
 20
5409.230946638068
 30
0.0
 10
4128.823920255847
 20
5409.115186949934
 30
0.0
 10
4123.629525575558
 20
5408.987289763567
 30
0.0
 10
4117.809375224891
 20
5408.864086493169
 30
0.0
 10
4111.921488344293
 20
5408.745424099575
 30
0.0
 10
4106.530578344719
 20
5408.615877969305
 30
0.0
 10
4102.292328663121
 20
5408.504878132999
 30
0.0
 10
4099.492740905379
 20
5408.392582168428
 30
0.0
 10
4098.057617832398
 20
5408.300690976799
 30
0.0
 10
4098.032746974843
 20
5408.24939579314
 30
0.0
 10
4098.024359354418
 20
5408.232096649788
 30
0.0
  0
SPLINE
  5
177
330
1F
100
AcDbEntity
  8
0
  6
Continuous
 62
     7
370
    25
100
AcDbSpline
210
0.0
220
0.0
230
1.0
 70
     8
 71
     3
 72
    19
 73
    15
 74
     0
 42
0.00000001
 43
0.00000001
 40
0.0
 40
0.0
 40
0.0
 40
0.0
 40
0.0068236506362197
 40
0.10445183148112
 40
0.2032335155432843
 40
0.2998469366614384
 40
0.3985131986599306
 40
0.4964184045464327
 40
0.5935327987291054
 40
0.692438001340878
 40
0.7891935853594851
 40
0.8729232152553215
 40
0.9571287293444032
 40
1.0
 40
1.0
 40
1.0
 40
1.0
 10
4136.244058109898
 20
5406.94961351546
 30
0.0
 10
4136.264239268576
 20
5406.946781107728
 30
0.0
 10
4136.573158804123
 20
5406.903424524759
 30
0.0
 10
4135.516177947587
 20
5406.81982473599
 30
0.0
 10
4133.000537993474
 20
5406.690946629259
 30
0.0
 10
4128.82391501463
 20
5406.575186952289
 30
0.0
 10
4123.629527011913
 20
5406.447289763089
 30
0.0
 10
4117.809374729624
 20
5406.324086492735
 30
0.0
 10
4111.921488908642
 20
5406.205424101785
 30
0.0
 10
4106.530576569714
 20
5406.075877960799
 30
0.0
 10
4102.292334670895
 20
5405.964878162241
 30
0.0
 10
4099.49272177693
 20
5405.852582075227
 30
0.0
 10
4098.057520801957
 20
5405.760681379089
 30
0.0
 10
4098.032676968269
 20
5405.70937720222
 30
0.0
 10
4098.024295526133
 20
5405.692068964081
 30
0.0
  0
SPLINE
  5
178
330
1F
100
AcDbEntity
  8
0
  6
Continuous
 62
     7
370
    25
100
AcDbSpline
210
0.0
220
0.0
230
1.0
 70
     8
 71
     3
 72
    19
 73
    15
 74
     0
 42
0.00000001
 43
0.00000001
 40
0.0
 40
0.0
 40
0.0
 40
0.0
 40
0.0067904558543299
 40
0.1044196723190715
 40
0.2032024042372041
 40
0.2998168502108351
 40
0.3984841588409219
 40
0.4963904032858903
 40
0.5935058276382601
 40
0.6924120794162605
 40
0.7891686897983796
 40
0.8728992078810619
 40
0.9571056152050722
 40
1.0
 40
1.0
 40
1.0
 40
1.0
 10
4136.244335542568
 20
5404.409572097733
 30
0.0
 10
4136.264412869283
 20
5404.406753501114
 30
0.0
 10
4136.573150297452
 20
5404.363410765125
 30
0.0
 10
4135.516104338946
 20
5404.279824769715
 30
0.0
 10
4133.000557319973
 20
5404.150946620415
 30
0.0
 10
4128.823909753577
 20
5404.035186954652
 30
0.0
 10
4123.629528453579
 20
5403.907289762607
 30
0.0
 10
4117.809374232978
 20
5403.7840864923
 30
0.0
 10
4111.921489473274
 20
5403.665424103995
 30
0.0
 10
4106.530574794985
 20
5403.535877952294
 30
0.0
 10
4102.292340677393
 20
5403.424878191478
 30
0.0
 10
4099.492702652617
 20
5403.312581982044
 30
0.0
 10
4098.057423748578
 20
5403.220671779671
 30
0.0
 10
4098.032606942393
 20
5403.169358608016
 30
0.0
 10
4098.024231686691
 20
5403.152041273534
 30
0.0
  0
SPLINE
  5
179
330
1F
100
AcDbEntity
  8
0
  6
Continuous
 62
     7
370
    25
100
AcDbSpline
210
0.0
220
0.0
230
1.0
 70
     8
 71
     3
 72
    19
 73
    15
 74
     0
 42
0.00000001
 43
0.00000001
 40
0.0
 40
0.0
 40
0.0
 40
0.0
 40
0.0067571584629584
 40
0.1043874201531367
 40
0.2031712096463258
 40
0.2997866899811875
 40
0.3984550549506006
 40
0.4963623475868875
 40
0.5934788116639985
 40
0.692386122339468
 40
0.7891437686048403
 40
0.8728751831124913
 40
0.9570824919563752
 40
1.0
 40
1.0
 40
1.0
 40
1.0
 10
4136.244613830604
 20
5401.86953055231
 30
0.0
 10
4136.264587054854
 20
5401.866725809362
 30
0.0
 10
4136.573141806547
 20
5401.823396963049
 30
0.0
 10
4135.516030449512
 20
5401.73982480357
 30
0.0
 10
4133.000576720187
 20
5401.610946611539
 30
0.0
 10
4128.82390447249
 20
5401.495186957026
 30
0.0
 10
4123.629529900609
 20
5401.367289762125
 30
0.0
 10
4117.809373734935
 20
5401.244086491867
 30
0.0
 10
4111.921490038203
 20
5401.125424106204
 30
0.0
 10
4106.530573020498
 20
5400.995877943791
 30
0.0
 10
4102.292346682734
 20
5400.884878220708
 30
0.0
 10
4099.492683532059
 20
5400.772581888881
 30
0.0
 10
4098.057326670356
 20
5400.680662178358
 30
0.0
 10
4098.032536895837
 20
5400.629340010162
 30
0.0
 10
4098.024167834836
 20
5400.612013577603
 30
0.0
  0
SPLINE
  5
17A
330
1F
100
AcDbEntity
  8
0
  6
Continuous
 62
     7
370
    25
100
AcDbSpline
210
0.0
220
0.0
230
1.0
 70
     8
 71
     3
 72
    19
 73
    15
 74
     0
 42
0.00000001
 43
0.00000001
 40
0.0
 40
0.0
 40
0.0
 40
0.0
 40
0.0067237574432298
 40
0.1043550740200861
 40
0.2031399308637228
 40
0.2997564551206361
 40
0.398425886193345
 40
0.4963342367096055
 40
0.5934517501218549
 40
0.6923601294824081
 40
0.7891188212059228
 40
0.8728511404243896
 40
0.9570593591210869
 40
1.0
 40
1.0
 40
1.0
 40
1.0
 10
4136.244892982422
 20
5399.329488877933
 30
0.0
 10
4136.264761831075
 20
5399.326698031633
 30
0.0
 10
4136.573133331586
 20
5399.283383118112
 30
0.0
 10
4135.515956276492
 20
5399.199824837554
 30
0.0
 10
4133.000596194851
 20
5399.070946602627
 30
0.0
 10
4128.82389917117
 20
5398.955186959408
 30
0.0
 10
4123.629531353058
 20
5398.827289761638
 30
0.0
 10
4117.80937323548
 20
5398.704086491433
 30
0.0
 10
4111.921490603441
 20
5398.585424108413
 30
0.0
 10
4106.530571246216
 20
5398.455877935291
 30
0.0
 10
4102.292352687035
 20
5398.344878249933
 30
0.0
 10
4099.492664414884
 20
5398.232581795735
 30
0.0
 10
4098.057229565378
 20
5398.140652574961
 30
0.0
 10
4098.032466827222
 20
5398.089321408292
 30
0.0
 10
4098.02410396931
 20
5398.071985875742
 30
0.0
  0
SPLINE
  5
17B
330
1F
100
AcDbEntity
  8
0
  6
Continuous
 62
     7
370
    25
100
AcDbSpline
210
0.0
220
0.0
230
1.0
 70
    24
 71
     3
 72
    13
 73
     9
 74
     0
 42
0.00000001
 43
0.00000001
 40
0.0
 40
0.0
 40
0.0
 40
0.0
 40
0.0922444458565935
 40
0.278733736959382
 40
0.4649865121663214
 40
0.648865431738874
 40
0.8316906698899262
 40
1.0
 40
1.0
 40
1.0
 40
1.0
 10
4123.504121888277
 20
5415.804095039148
 30
0.0
 10
4122.404544615444
 20
5415.804095039148
 30
0.0
 10
4119.081967527077
 20
5415.804095039148
 30
0.0
 10
4113.265234280645
 20
5415.804095039148
 30
0.0
 10
4106.845815738332
 20
5415.804095039148
 30
0.0
 10
4101.741280407575
 20
5415.804095039148
 30
0.0
 10
4098.408187917919
 20
5415.804095039148
 30
0.0
 10
4098.029309927276
 20
5415.804095039148
 30
0.0
 10
4097.847702342713
 20
5415.804095039148
 30
0.0
  0
LINE
  5
17C
330
1F
100
AcDbEntity
  8
0
  6
Continuous
 62
     8
370
    25
100
AcDbLine
 10
3975.0524382565
 20
5135.8008791438
 30
0.0
 11
3963.8957074007
 21
5135.7663578536
 31
0.0
  0
SPLINE
  5
17D
330
1F
100
AcDbEntity
  8
0
  6
Continuous
 62
     8
370
    25
100
AcDbSpline
210
0.0
220
0.0
230
1.0
 70
     8
 71
     3
 72
    10
 73
     6
 74
     0
 42
0.00000001
 43
0.00000001
 40
0.0
 40
0.0
 40
0.0
 40
0.0
 40
0.4900549459368712
 40
0.9801126602775393
 40
1.0
 40
1.0
 40
1.0
 40
1.0
 10
4300.094446182389
 20
5226.76718908039
 30
0.0
 10
4299.710709064261
 20
5226.845298127564
 30
0.0
 10
4298.943232660209
 20
5227.001516663166
 30
0.0
 10
4297.315286101011
 20
5227.160794337649
 30
0.0
 10
4295.923390890446
 20
5227.234559199909
 30
0.0
 10
4295.86910838944
 20
5227.237435954697
 30
0.0
  0
SPLINE
  5
17E
330
1F
100
AcDbEntity
  8
0
  6
Continuous
 62
     8
370
    25
100
AcDbSpline
210
0.0
220
0.0
230
1.0
 70
     8
 71
     3
 72
     9
 73
     5
 74
     0
 42
0.00000001
 43
0.00000001
 40
0.0
 40
0.0
 40
0.0
 40
0.0
 40
0.6222070176603732
 40
1.0
 40
1.0
 40
1.0
 40
1.0
 10
3654.059442167213
 20
5226.767189080391
 30
0.0
 10
3654.37251565035
 20
5226.846014588581
 30
0.0
 10
3654.875681757852
 20
5226.972701536739
 30
0.0
 10
3656.461173872417
 20
5227.093766509293
 30
0.0
 10
3657.060161666855
 20
5227.139504006333
 30
0.0
  0
SPLINE
  5
17F
330
1F
100
AcDbEntity
  8
0
  6
Continuous
 62
     8
370
    25
100
AcDbSpline
210
0.0
220
0.0
230
1.0
 70
    24
 71
     3
 72
    10
 73
     6
 74
     0
 42
0.00000001
 43
0.00000001
 40
0.0
 40
0.0
 40
0.0
 40
0.0
 40
0.2867144045810894
 40
0.597390680002501
 40
1.0
 40
1.0
 40
1.0
 40
1.0
 10
3977.076944174787
 20
4741.680432269824
 30
0.0
 10
3977.076944174787
 20
4741.670763973778
 30
0.0
 10
3977.076944174787
 20
4741.650619363472
 30
0.0
 10
3977.076944174788
 20
4743.014816059904
 30
0.0
 10
3977.076944174788
 20
4744.769868761549
 30
0.0
 10
3977.076944174788
 20
4745.760496610068
 30
0.0
  0
SPLINE
  5
180
330
1F
100
AcDbEntity
  8
0
  6
Continuous
 62
     8
370
    25
100
AcDbSpline
210
0.0
220
0.0
230
1.0
 70
     8
 71
     3
 72
    14
 73
    10
 74
     0
 42
0.00000001
 43
0.00000001
 40
0.0
 40
0.0
 40
0.0
 40
0.0
 40
0.3028291602867693
 40
0.5762224260627621
 40
0.6692759938040255
 40
0.7637019888610169
 40
0.856878866735436
 40
0.9817863287165867
 40
1.0
 40
1.0
 40
1.0
 40
1.0
 10
3977.076944174788
 20
4745.760496610068
 30
0.0
 10
3983.870528294507
 20
4745.868597266605
 30
0.0
 10
3996.797339964223
 20
4746.074290874545
 30
0.0
 10
4011.626546729731
 20
4748.355265845128
 30
0.0
 10
4021.889529507365
 20
4749.578332534975
 30
0.0
 10
4027.900703747713
 20
4749.980596536283
 30
0.0
 10
4034.628214488205
 20
4751.524895030195
 30
0.0
 10
4039.587777722197
 20
4753.556702623749
 30
0.0
 10
4042.471385253876
 20
4754.937341665935
 30
0.0
 10
4042.83835467687
 20
4755.113042522279
 30
0.0
  0
SPLINE
  5
181
330
1F
100
AcDbEntity
  8
0
  6
Continuous
 62
     8
370
    25
100
AcDbSpline
210
0.0
220
0.0
230
1.0
 70
     8
 71
     3
 72
    11
 73
     7
 74
     0
 42
0.00000001
 43
0.00000001
 40
0.0
 40
0.0
 40
0.0
 40
0.0
 40
0.4411952191960873
 40
0.7202716959058242
 40
0.8602148278527769
 40
1.0
 40
1.0
 40
1.0
 40
1.0
 10
4343.287764518981
 20
5238.0910183275
 30
0.0
 10
4343.348494965871
 20
5238.353206816456
 30
0.0
 10
4343.447640242322
 20
5238.781241707522
 30
0.0
 10
4343.207639081347
 20
5238.812136759025
 30
0.0
 10
4342.995509048956
 20
5238.701870364501
 30
0.0
 10
4342.467900368359
 20
5238.156970694577
 30
0.0
 10
4342.204244995756
 20
5237.884674709335
 30
0.0
  0
SPLINE
  5
182
330
1F
100
AcDbEntity
  8
0
  6
Continuous
 62
     8
370
    25
100
AcDbSpline
210
0.0
220
0.0
230
1.0
 70
     8
 71
     3
 72
    14
 73
    10
 74
     0
 42
0.00000001
 43
0.00000001
 40
0.0
 40
0.0
 40
0.0
 40
0.0
 40
0.3037194877302386
 40
0.5779165384761139
 40
0.6712436866910334
 40
0.7659472972020052
 40
0.859398118085832
 40
0.9846728120113442
 40
1.0
 40
1.0
 40
1.0
 40
1.0
 10
3977.076944174788
 20
4745.760496610068
 30
0.0
 10
3970.283363074713
 20
4745.868601031926
 30
0.0
 10
3957.356557150757
 20
4746.074301804509
 30
0.0
 10
3942.527318963202
 20
4748.355237593497
 30
0.0
 10
3932.264384872101
 20
4749.578364992803
 30
0.0
 10
3926.253082987368
 20
4749.980469828504
 30
0.0
 10
3919.526102004527
 20
4751.525428901406
 30
0.0
 10
3914.626266148172
 20
4753.529787645695
 30
0.0
 10
3911.801017685639
 20
4754.881271632305
 30
0.0
 10
3911.493033797299
 20
4755.028598601505
 30
0.0
  0
SPLINE
  5
183
330
1F
100
AcDbEntity
  8
0
  6
Continuous
 62
     8
370
    25
100
AcDbSpline
210
0.0
220
0.0
230
1.0
 70
     8
 71
     3
 72
    11
 73
     7
 74
     0
 42
0.00000001
 43
0.00000001
 40
0.0
 40
0.0
 40
0.0
 40
0.0
 40
0.444058347508786
 40
0.7217049299346393
 40
0.8609310402006662
 40
1.0
 40
1.0
 40
1.0
 40
1.0
 10
3610.866936168557
 20
5238.083598172364
 30
0.0
 10
3610.805345836894
 20
5238.349049504899
 30
0.0
 10
3610.7052462751
 20
5238.780473745483
 30
0.0
 10
3610.94620690589
 20
5238.812193528707
 30
0.0
 10
3611.158386778994
 20
5238.701860342788
 30
0.0
 10
3611.685990473087
 20
5238.156967355264
 30
0.0
 10
3611.949643353847
 20
5237.884674709337
 30
0.0
  0
LINE
  5
184
330
1F
100
AcDbEntity
  8
0
  6
Continuous
 62
     8
370
    25
100
AcDbLine
 10
4249.2149215468
 20
5228.1079698996
 30
0.0
 11
4249.2149215468
 21
5228.1124633251
 31
0.0
  0
SPLINE
  5
185
330
1F
100
AcDbEntity
  8
0
  6
Continuous
 62
     8
370
    25
100
AcDbSpline
210
0.0
220
0.0
230
1.0
 70
     8
 71
     3
 72
    26
 73
    22
 74
     0
 42
0.00000001
 43
0.00000001
 40
0.0
 40
0.0
 40
0.0
 40
0.0
 40
0.0773016249782353
 40
0.1830456478163587
 40
0.2888288042191838
 40
0.3945780191617634
 40
0.4585571386952784
 40
0.5225161752020703
 40
0.5658961700042977
 40
0.6093033137046218
 40
0.6526545728295554
 40
0.6953498158647384
 40
0.7380379520426226
 40
0.7819391422972868
 40
0.8258419532334991
 40
0.8562613504228352
 40
0.8866804598444183
 40
0.9176151388222153
 40
0.9485293895600518
 40
0.9741209912535015
 40
1.0
 40
1.0
 40
1.0
 40
1.0
 10
3720.544945568519
 20
5064.016695359616
 30
0.0
 10
3724.749530589461
 20
5055.108412322563
 30
0.0
 10
3734.70573770896
 20
5034.014128212648
 30
0.0
 10
3750.963581453957
 20
5000.171080122971
 30
0.0
 10
3769.52997266686
 20
4962.726146260225
 30
0.0
 10
3786.462911999057
 20
4930.146310805748
 30
0.0
 10
3801.713702755426
 20
4902.728983506115
 30
0.0
 10
3813.970910822326
 20
4883.078888341847
 30
0.0
 10
3825.794407633263
 20
4866.345291515334
 30
0.0
 10
3836.850609002897
 20
4852.42641815612
 30
0.0
 10
3848.786765309055
 20
4839.258287327537
 30
0.0
 10
3861.664319296705
 20
4827.018559738581
 30
0.0
 10
3875.6016508526
 20
4815.734490287115
 30
0.0
 10
3890.665741726761
 20
4805.541896205659
 30
0.0
 10
3905.091972899909
 20
4797.43788398196
 30
0.0
 10
3918.375027731449
 20
4791.151205760861
 30
0.0
 10
3930.343207261034
 20
4786.323153010217
 30
0.0
 10
3942.647445983621
 20
4782.114691009027
 30
0.0
 10
3954.60300302213
 20
4779.008036972156
 30
0.0
 10
3966.116058674163
 20
4777.024686841697
 30
0.0
 10
3973.409739930946
 20
4776.774075619358
 30
0.0
 10
3977.076944174787
 20
4776.648070313429
 30
0.0
  0
SPLINE
  5
186
330
1F
100
AcDbEntity
  8
0
  6
Continuous
 62
     8
370
    25
100
AcDbSpline
210
0.0
220
0.0
230
1.0
 70
     8
 71
     3
 72
     9
 73
     5
 74
     0
 42
0.00000001
 43
0.00000001
 40
0.0
 40
0.0
 40
0.0
 40
0.0
 40
0.7076819358697913
 40
1.0
 40
1.0
 40
1.0
 40
1.0
 10
3977.076944174787
 20
5030.565796146986
 30
0.0
 10
3971.975063544
 20
5030.661872411254
 30
0.0
 10
3964.765778733703
 20
5030.797634339599
 30
0.0
 10
3957.700219941117
 20
5032.160762721286
 30
0.0
 10
3955.63482947287
 20
5032.559229770983
 30
0.0
  0
SPLINE
  5
187
330
1F
100
AcDbEntity
  8
0
  6
Continuous
 62
     8
370
    25
100
AcDbSpline
210
0.0
220
0.0
230
1.0
 70
     8
 71
     3
 72
    19
 73
    15
 74
     0
 42
0.00000001
 43
0.00000001
 40
0.0
 40
0.0
 40
0.0
 40
0.0
 40
0.0176856759031291
 40
0.1151921071074936
 40
0.2127376154429278
 40
0.3105620581434793
 40
0.408079563340751
 40
0.5060375244927356
 40
0.6043209223184144
 40
0.7022590080116428
 40
0.80051937500751
 40
0.8991253159068723
 40
0.9973569121025615
 40
0.9999999999999999
 40
0.9999999999999999
 40
0.9999999999999999
 40
0.9999999999999999
 10
3872.094458316458
 20
5080.351234047285
 30
0.0
 10
3871.463326707245
 20
5081.036408776651
 30
0.0
 10
3867.352577402238
 20
5085.499157118569
 30
0.0
 10
3860.956240234921
 20
5094.761390599807
 30
0.0
 10
3853.135306819458
 20
5108.059201061739
 30
0.0
 10
3846.895724905551
 20
5122.202144410401
 30
0.0
 10
3842.189832950511
 20
5136.93956971735
 30
0.0
 10
3839.227993509607
 20
5152.155463655128
 30
0.0
 10
3838.015376881758
 20
5167.631784857469
 30
0.0
 10
3838.610751039112
 20
5183.159613707521
 30
0.0
 10
3841.042998427426
 20
5198.541604035595
 30
0.0
 10
3845.404678779817
 20
5213.466263380198
 30
0.0
 10
3849.185216958286
 20
5223.33644030627
 30
0.0
 10
3851.754961220364
 20
5227.986139880654
 30
0.0
 10
3851.822292880628
 20
5228.107969899575
 30
0.0
  0
SPLINE
  5
188
330
1F
100
AcDbEntity
  8
0
  6
Continuous
 62
     8
370
    25
100
AcDbSpline
210
0.0
220
0.0
230
1.0
 70
     8
 71
     3
 72
    26
 73
    22
 74
     0
 42
0.00000001
 43
0.00000001
 40
0.0
 40
0.0
 40
0.0
 40
0.0
 40
0.0759965445552794
 40
0.1818901335547612
 40
0.287822911470131
 40
0.3937216999178708
 40
0.4577913126164728
 40
0.5218408138825741
 40
0.5652821660942154
 40
0.6087507056038216
 40
0.6521632814939335
 40
0.6949189134138749
 40
0.7376674284244568
 40
0.7816307132763309
 40
0.8255956211020721
 40
0.856058044009046
 40
0.8865201787412426
 40
0.9174986122600851
 40
0.9484565886449133
 40
0.9740843875391655
 40
1.0
 40
1.0
 40
1.0
 40
1.0
 10
4233.377338633458
 20
5063.527238440312
 30
0.0
 10
4229.24937537803
 20
5054.78151712509
 30
0.0
 10
4219.369507915204
 20
5033.849507290074
 30
0.0
 10
4203.190044579666
 20
5000.170812843424
 30
0.0
 10
4184.623987111721
 20
4962.726219040791
 30
0.0
 10
4167.69096539291
 20
4930.146299640774
 30
0.0
 10
4152.44018792249
 20
4902.728985878484
 30
0.0
 10
4140.182977122326
 20
4883.078887929235
 30
0.0
 10
4128.359480806792
 20
4866.3452916075
 30
0.0
 10
4117.303279322482
 20
4852.42641813144
 30
0.0
 10
4105.367123046923
 20
4839.258287334034
 30
0.0
 10
4092.489569051199
 20
4827.018559736852
 30
0.0
 10
4078.55223749747
 20
4815.734490287593
 30
0.0
 10
4063.488146622711
 20
4805.541896205526
 30
0.0
 10
4049.061915449714
 20
4797.437883981982
 30
0.0
 10
4035.778860618146
 20
4791.151205760855
 30
0.0
 10
4023.810681088567
 20
4786.323153010218
 30
0.0
 10
4011.506442365979
 20
4782.114691009026
 30
0.0
 10
3999.55088532747
 20
4779.008036972156
 30
0.0
 10
3988.037829675428
 20
4777.024686841695
 30
0.0
 10
3980.744148418636
 20
4776.774075619358
 30
0.0
 10
3977.076944174787
 20
4776.648070313429
 30
0.0
  0
SPLINE
  5
189
330
1F
100
AcDbEntity
  8
0
  6
Continuous
 62
     8
370
    25
100
AcDbSpline
210
0.0
220
0.0
230
1.0
 70
     8
 71
     3
 72
    19
 73
    15
 74
     0
 42
0.00000001
 43
0.00000001
 40
0.0
 40
0.0
 40
0.0
 40
0.0
 40
0.0025837766510789
 40
0.0986110426667986
 40
0.1950042530408908
 40
0.2910596442361799
 40
0.3867999861644451
 40
0.4828778913746466
 40
0.5786376627537112
 40
0.6739668620687006
 40
0.769596111168274
 40
0.8649526852272542
 40
0.9602710590512196
 40
1.0
 40
1.0
 40
1.0
 40
1.0
 10
4102.331595468999
 20
5228.107969899575
 30
0.0
 10
4102.398927129191
 20
5227.98613988071
 30
0.0
 10
4104.968671388343
 20
5223.336440308827
 30
0.0
 10
4108.749210225088
 20
5213.466262820845
 30
0.0
 10
4113.110887614253
 20
5198.541606005608
 30
0.0
 10
4115.54314583912
 20
5183.159606427598
 30
0.0
 10
4116.138479714456
 20
5167.631811961713
 30
0.0
 10
4114.92601365526
 20
5152.155362236061
 30
0.0
 10
4111.963614496755
 20
5136.939946065449
 30
0.0
 10
4107.259803024345
 20
5122.200744887428
 30
0.0
 10
4101.012447522211
 20
5108.064436965672
 30
0.0
 10
4093.220461899639
 20
5094.74191706992
 30
0.0
 10
4086.046986254706
 20
5084.554468328599
 30
0.0
 10
4081.082243223553
 20
5079.232107298934
 30
0.0
 10
4079.621688579853
 20
5077.666346680803
 30
0.0
  0
SPLINE
  5
18A
330
1F
100
AcDbEntity
  8
0
  6
Continuous
 62
     8
370
    25
100
AcDbSpline
210
0.0
220
0.0
230
1.0
 70
     8
 71
     3
 72
    10
 73
     6
 74
     0
 42
0.00000001
 43
0.00000001
 40
0.0
 40
0.0
 40
0.0
 40
0.0
 40
0.1240137528558213
 40
0.5627622802312433
 40
1.0
 40
1.0
 40
1.0
 40
1.0
 10
4011.545294903611
 20
5035.338859966855
 30
0.0
 10
4010.165032406712
 20
5034.917682117607
 30
0.0
 10
4003.901536204194
 20
5033.006418234629
 30
0.0
 10
3992.34242304659
 20
5031.168421416187
 30
0.0
 10
3982.159583040095
 20
5030.766440138582
 30
0.0
 10
3977.076944174787
 20
5030.565796146986
 30
0.0
  0
LWPOLYLINE
  5
18B
330
1F
100
AcDbEntity
  8
0
  6
Continuous
 62
     8
370
    25
100
AcDbPolyline
 90
        3
 70
   128
 43
0.0
 10
4296.6949956518
 20
5227.3586968503
 10
4297.9215957927
 20
5227.0026270391
 10
4300.0944461824
 20
5226.7671890804
  0
LWPOLYLINE
  5
18C
330
1F
100
AcDbEntity
  8
0
  6
Continuous
 62
     8
370
    25
100
AcDbPolyline
 90
        3
 70
   128
 43
0.0
 10
3657.4805139087
 20
5227.3665413211
 10
3656.2322925569
 20
5227.0026270391
 10
3654.0594421672
 20
5226.7671890804
  0
CIRCLE
  5
18D
330
1F
100
AcDbEntity
  8
0
  6
Continuous
 62
     7
100
AcDbCircle
 10
7924.4694474547
 20
7481.121604419
 30
0.0
 40
9.000000000000034
  0
CIRCLE
  5
18E
330
1F
100
AcDbEntity
  8
0
  6
Continuous
 62
     7
100
AcDbCircle
 10
7364.4694474547
 20
7481.121604419
 30
0.0
 40
9.000000000000574
  0
ARC
  5
18F
330
1F
100
AcDbEntity
  8
0
  6
Continuous
 62
     7
370
    25
100
AcDbCircle
 10
7281.0858818282
 20
8387.8664804639
 30
0.0
 40
9.999999930283481
100
AcDbArc
 50
90.1905929673
 51
179.8852041438
  0
ARC
  5
190
330
1F
100
AcDbEntity
  8
0
  6
Continuous
 62
     7
370
    25
100
AcDbCircle
 10
8007.8530130811
 20
8387.8664804638
 30
0.0
 40
9.999999930396426
100
AcDbArc
 50
0.0773915542
 51
89.8094070324
  0
SPLINE
  5
191
330
1F
100
AcDbEntity
  8
0
  6
Continuous
 62
     7
370
    25
100
AcDbSpline
210
0.0
220
0.0
230
1.0
 70
     8
 71
     3
 72
    62
 73
    58
 74
     0
 42
0.00000001
 43
0.00000001
 40
0.0
 40
0.0
 40
0.0
 40
0.0
 40
0.016490433720148
 40
0.0311168123346385
 40
0.0437164876817149
 40
0.0542307019640318
 40
0.0626772665989796
 40
0.0691313233701048
 40
0.0737581960123829
 40
0.0774137535301706
 40
0.0859874634477307
 40
0.0964806922206265
 40
0.1089424155996746
 40
0.1233778439276662
 40
0.1410577989396086
 40
0.1608667550883861
 40
0.1816609407128747
 40
0.2007027736842793
 40
0.2179186425089277
 40
0.2335717024368583
 40
0.2478671598600729
 40
0.2655225632674649
 40
0.2809728590222559
 40
0.2957423993571223
 40
0.3116000328904614
 40
0.3322511546627148
 40
0.3552990198556065
 40
0.3812969657292275
 40
0.4101313845483887
 40
0.4404331137692902
 40
0.4714780872775177
 40
0.4979083953899252
 40
0.5239924962996404
 40
0.5493281143222809
 40
0.5734975315689901
 40
0.5960401155378533
 40
0.6151784299727764
 40
0.6327336287795277
 40
0.6525553009458055
 40
0.6742118429662753
 40
0.6953889562071174
 40
0.7136949003589163
 40
0.7381183792894376
 40
0.7604398788315309
 40
0.7829975021380178
 40
0.8057823619197833
 40
0.8149016302276928
 40
0.8252627279379086
 40
0.8375173092000981
 40
0.8519438578403774
 40
0.8688399646897459
 40
0.8850316760781115
 40
0.9033365187725569
 40
0.9238965168768457
 40
0.94680697089641
 40
0.97213761468213
 40
1.0
 40
1.0
 40
1.0
 40
1.0
 10
7271.088615021846
 20
8384.98717739986
 30
0.0
 10
7271.087050725413
 20
8383.377673104744
 30
0.0
 10
7271.084098958386
 20
8380.34060058422
 30
0.0
 10
7271.059197459776
 20
8375.800444770217
 30
0.0
 10
7271.027839100168
 20
8371.669782541829
 30
0.0
 10
7270.995093566994
 20
8367.947291118904
 30
0.0
 10
7270.965212216935
 20
8364.6133129933
 30
0.0
 10
7270.939818172655
 20
8361.658731521142
 30
0.0
 10
7270.917298016368
 20
8358.8800020952
 30
0.0
 10
7270.886736885221
 20
8354.800676655901
 30
0.0
 10
7270.844994432521
 20
8349.228974292646
 30
0.0
 10
7270.786942680754
 20
8341.225566693376
 30
0.0
 10
7270.721073769418
 20
8331.6458160333
 30
0.0
 10
7270.648465698128
 20
8320.139232695741
 30
0.0
 10
7270.573955643471
 20
8306.688029153722
 30
0.0
 10
7270.505123002667
 20
8291.555729309182
 30
0.0
 10
7270.452161809034
 20
8276.054343767159
 30
0.0
 10
7270.418006799196
 20
8261.224192314141
 30
0.0
 10
7270.402068994667
 20
8247.72551860043
 30
0.0
 10
7270.399657205634
 20
8235.457001872235
 30
0.0
 10
7270.407462684157
 20
8223.071419112432
 30
0.0
 10
7270.42459270692
 20
8210.735924486033
 30
0.0
 10
7270.450322486996
 20
8198.287901704027
 30
0.0
 10
7270.479069128937
 20
8186.314053292199
 30
0.0
 10
7270.51030006425
 20
8172.97425056591
 30
0.0
 10
7270.544067022992
 20
8157.478246078117
 30
0.0
 10
7270.577324856297
 20
8139.343191576742
 30
0.0
 10
7270.606004370999
 20
8119.082057813863
 30
0.0
 10
7270.628773448776
 20
8096.936395050747
 30
0.0
 10
7270.645282792181
 20
8073.472218845021
 30
0.0
 10
7270.654317468122
 20
8050.632876928685
 30
0.0
 10
7270.658153441469
 20
8028.891576366549
 30
0.0
 10
7270.658839358822
 20
8008.638001800949
 30
0.0
 10
7270.659096505534
 20
7988.976264377212
 30
0.0
 10
7270.661222300419
 20
7970.242808220593
 30
0.0
 10
7270.671099155924
 20
7953.127287325093
 30
0.0
 10
7270.695497526906
 20
7937.752823639222
 30
0.0
 10
7270.729755880226
 20
7923.099939847434
 30
0.0
 10
7270.764637097435
 20
7907.785767511916
 30
0.0
 10
7270.798118558238
 20
7891.531045604729
 30
0.0
 10
7270.831293982021
 20
7875.672316375704
 30
0.0
 10
7270.86464510281
 20
7859.132822989875
 30
0.0
 10
7270.8950610907
 20
7842.320690723243
 30
0.0
 10
7270.923785884454
 20
7824.506253183278
 30
0.0
 10
7270.94871648779
 20
7807.101664963628
 30
0.0
 10
7270.966598577739
 20
7793.109306208422
 30
0.0
 10
7270.979373680556
 20
7782.236629389336
 30
0.0
 10
7270.988578780557
 20
7774.165043565666
 30
0.0
 10
7270.99897705361
 20
7764.846482937788
 30
0.0
 10
7271.010944926799
 20
7753.965036715632
 30
0.0
 10
7271.023694865009
 20
7742.15527894622
 30
0.0
 10
7271.036987778374
 20
7729.406997796971
 30
0.0
 10
7271.050452929982
 20
7715.757521839833
 30
0.0
 10
7271.064314783039
 20
7700.440027663026
 30
0.0
 10
7271.076844824804
 20
7683.375557199759
 30
0.0
 10
7271.086557032885
 20
7664.496889565929
 30
0.0
 10
7271.087907598637
 20
7651.293933125286
 30
0.0
 10
7271.088615021846
 20
7644.378255152374
 30
0.0
  0
SPLINE
  5
192
330
1F
100
AcDbEntity
  8
0
  6
Continuous
 62
     7
370
    25
100
AcDbSpline
210
0.0
220
0.0
230
1.0
 70
     8
 71
     3
 72
    69
 73
    65
 74
     0
 42
0.00000001
 43
0.00000001
 40
0.0
 40
0.0
 40
0.0
 40
0.0
 40
0.0255150889789027
 40
0.0482318216378057
 40
0.0683262898887018
 40
0.0859143697653374
 40
0.1011450129397968
 40
0.114219405479249
 40
0.1436391488571896
 40
0.1746194955575107
 40
0.2027689543922687
 40
0.231779281859231
 40
0.2606361787156982
 40
0.2880355895301361
 40
0.3019352614991517
 40
0.3141367645492627
 40
0.3249134091613434
 40
0.3346552150029126
 40
0.3458747264162447
 40
0.3624534255147729
 40
0.3791075713816443
 40
0.3953259257081645
 40
0.4087408717228885
 40
0.4245804322339665
 40
0.4430413980333484
 40
0.4642228820707178
 40
0.4893343359132116
 40
0.5172487238139761
 40
0.5449843510777648
 40
0.5697166900901692
 40
0.5920666521051187
 40
0.6118878028206629
 40
0.6291494764393002
 40
0.6439194935095546
 40
0.65640530453082
 40
0.6668635253875765
 40
0.6754986032219865
 40
0.6824697731507241
 40
0.687902034418785
 40
0.6919002422513102
 40
0.695120879583769
 40
0.7003017062270149
 40
0.7077644021302354
 40
0.7174116455984126
 40
0.7291413473858345
 40
0.7428833371998749
 40
0.7586349118933343
 40
0.7764860645187046
 40
0.7946353290940389
 40
0.81184304472961
 40
0.8281542543549432
 40
0.8434455546078297
 40
0.8576158454458911
 40
0.8706070118250481
 40
0.8823947714694469
 40
0.8879346752330105
 40
0.8939172950918457
 40
0.9005638691062671
 40
0.907976510723972
 40
0.9216287781013578
 40
0.9377000647013942
 40
0.9562905870053257
 40
0.9772514381309835
 40
1.0
 40
1.0
 40
1.0
 40
1.0
 10
8017.850279887551
 20
7644.378255152164
 30
0.0
 10
8017.851484455267
 20
7650.334297199548
 30
0.0
 10
8017.853761480259
 20
7661.593154965404
 30
0.0
 10
8017.86652064169
 20
7677.721562566547
 30
0.0
 10
8017.879200845485
 20
7692.12685916217
 30
0.0
 10
8017.890134663156
 20
7704.909466609723
 30
0.0
 10
8017.899122618152
 20
7716.155720625047
 30
0.0
 10
8017.910195866994
 20
7730.606464941096
 30
0.0
 10
8017.925403691171
 20
7749.283803957441
 30
0.0
 10
8017.947469198578
 20
7771.816631795263
 30
0.0
 10
8017.973332007482
 20
7794.330353188055
 30
0.0
 10
8018.002542861032
 20
7816.31746004697
 30
0.0
 10
8018.036122154939
 20
7838.116296590021
 30
0.0
 10
8018.068271857766
 20
7856.026970098057
 30
0.0
 10
8018.095352196733
 20
7869.687292961287
 30
0.0
 10
8018.115244021163
 20
7879.125862250666
 30
0.0
 10
8018.133120168004
 20
7887.521035868725
 30
0.0
 10
8018.149508167785
 20
7895.689782952039
 30
0.0
 10
8018.169811587328
 20
7905.366397809402
 30
0.0
 10
8018.194695460126
 20
7916.829409429005
 30
0.0
 10
8018.223215810336
 20
7929.584861691016
 30
0.0
 10
8018.247920789491
 20
7941.526890967779
 30
0.0
 10
8018.263318364672
 20
7953.261452306232
 30
0.0
 10
8018.271579225223
 20
7965.575666895058
 30
0.0
 10
8018.274782267101
 20
7979.894336736335
 30
0.0
 10
8018.274828139184
 20
7996.605308962965
 30
0.0
 10
8018.274072251002
 20
8015.754809713617
 30
0.0
 10
8018.273723857561
 20
8036.593340888807
 30
0.0
 10
8018.276238786209
 20
8057.333358127398
 30
0.0
 10
8018.281749005401
 20
8076.63805730782
 30
0.0
 10
8018.289965297683
 20
8093.901026512584
 30
0.0
 10
8018.300380368315
 20
8109.237008937333
 30
0.0
 10
8018.312293816453
 20
8122.61785811722
 30
0.0
 10
8018.325298679267
 20
8134.106586294031
 30
0.0
 10
8018.33884953108
 20
8143.839817824567
 30
0.0
 10
8018.35236797893
 20
8151.989101597408
 30
0.0
 10
8018.36552265815
 20
8158.711395550423
 30
0.0
 10
8018.378044182473
 20
8164.130970666943
 30
0.0
 10
8018.389704277782
 20
8168.335447540089
 30
0.0
 10
8018.400696032435
 20
8171.553270279569
 30
0.0
 10
8018.414939059669
 20
8174.561066895453
 30
0.0
 10
8018.42736522983
 20
8178.630440995491
 30
0.0
 10
8018.444226203545
 20
8184.32768143051
 30
0.0
 10
8018.464041650153
 20
8191.745524796339
 30
0.0
 10
8018.486406654981
 20
8200.783157604996
 30
0.0
 10
8018.508991206195
 20
8211.404140185445
 30
0.0
 10
8018.528841527953
 20
8223.608275702174
 30
0.0
 10
8018.541023812762
 20
8236.952545367478
 30
0.0
 10
8018.539833947495
 20
8250.679992831674
 30
0.0
 10
8018.52330815721
 20
8264.015462002106
 30
0.0
 10
8018.49345592493
 20
8276.611130967973
 30
0.0
 10
8018.453430467389
 20
8288.412975010346
 30
0.0
 10
8018.406283637755
 20
8299.335660003404
 30
0.0
 10
8018.354960256518
 20
8309.321732398083
 30
0.0
 10
8018.309630760772
 20
8317.031791200206
 30
0.0
 10
8018.272237092146
 20
8322.925158461647
 30
0.0
 10
8018.240690618652
 20
8327.315501690384
 30
0.0
 10
8018.204313186387
 20
8331.904075583017
 30
0.0
 10
8018.152368701083
 20
8337.901679357445
 30
0.0
 10
8018.081538146621
 20
8345.377570337569
 30
0.0
 10
8017.994906049159
 20
8354.40803976692
 30
0.0
 10
8017.914712201758
 20
8364.177053503037
 30
0.0
 10
8017.857753433912
 20
8374.598284106785
 30
0.0
 10
8017.85283808214
 20
8381.431059683164
 30
0.0
 10
8017.850279887551
 20
8384.987177399851
 30
0.0
  0
LINE
  5
193
330
1F
100
AcDbEntity
  8
0
  6
Continuous
 62
     7
370
    25
100
AcDbLine
 10
7491.6694474547
 20
6984.9818188884
 30
0.0
 11
7491.6694474547
 21
6984.4734814017
 31
0.0
  0
LINE
  5
194
330
1F
100
AcDbEntity
  8
0
  6
Continuous
 62
     7
370
    25
100
AcDbLine
 10
7517.2694474547
 20
6984.4734814017
 30
0.0
 11
7517.2694474547
 21
6985.2738436699
 31
0.0
  0
LINE
  5
195
330
1F
100
AcDbEntity
  8
0
  6
Continuous
 62
     7
370
    25
100
AcDbLine
 10
7517.9694474547
 20
7016.5156423973
 30
0.0
 11
7517.9694474547
 21
7017.2073123612
 31
0.0
  0
CIRCLE
  5
196
330
1F
100
AcDbEntity
  8
0
  6
Continuous
 62
     7
370
    25
100
AcDbCircle
 10
7364.4694474547
 20
7481.121604419
 30
0.0
 40
16.0
  0
CIRCLE
  5
197
330
1F
100
AcDbEntity
  8
0
  6
Continuous
 62
     7
370
    25
100
AcDbCircle
 10
7364.4694474547
 20
7481.121604419
 30
0.0
 40
6.800000000000182
  0
CIRCLE
  5
198
330
1F
100
AcDbEntity
  8
0
  6
Continuous
 62
     7
370
    25
100
AcDbCircle
 10
7924.4694474547
 20
7481.121604419
 30
0.0
 40
16.0
  0
CIRCLE
  5
199
330
1F
100
AcDbEntity
  8
0
  6
Continuous
 62
     7
370
    25
100
AcDbCircle
 10
7924.4694474547
 20
7481.121604419
 30
0.0
 40
6.800000000000182
  0
CIRCLE
  5
19A
330
1F
100
AcDbEntity
  8
0
  6
Continuous
 62
     7
370
    25
100
AcDbCircle
 10
7644.4694474547
 20
7001.121604419
 30
0.0
 40
43.00000000000004
  0
CIRCLE
  5
19B
330
1F
100
AcDbEntity
  8
0
  6
Continuous
 62
     7
370
    25
100
AcDbCircle
 10
7644.4694474547
 20
7001.121604419
 30
0.0
 40
50.00000000000055
  0
CIRCLE
  5
19C
330
1F
100
AcDbEntity
  8
0
  6
Continuous
 62
     7
370
    25
100
AcDbCircle
 10
7644.4694474547
 20
7001.121604419
 30
0.0
 40
59.32729655077113
  0
CIRCLE
  5
19D
330
1F
100
AcDbEntity
  8
0
  6
Continuous
 62
     7
370
    25
100
AcDbCircle
 10
7644.4694474547
 20
7001.121604419
 30
0.0
 40
40.00000000000079
  0
CIRCLE
  5
19E
330
1F
100
AcDbEntity
  8
0
  6
Continuous
 62
     7
370
    25
100
AcDbCircle
 10
7644.4694474547
 20
7001.121604419
 30
0.0
 40
75.05963669714401
  0
CIRCLE
  5
19F
330
1F
100
AcDbEntity
  8
0
  6
Continuous
 62
     7
370
    25
100
AcDbCircle
 10
7644.4694474547
 20
7001.121604419
 30
0.0
 40
76.00000000000075
  0
CIRCLE
  5
1A0
330
1F
100
AcDbEntity
  8
0
  6
Continuous
 62
     7
370
    25
100
AcDbCircle
 10
7364.4694474547
 20
7481.121604419
 30
0.0
 40
33.0
  0
ARC
  5
1A1
330
1F
100
AcDbEntity
  8
0
  6
Continuous
 62
     7
370
    25
100
AcDbCircle
 10
7364.4694474547
 20
7481.121604419
 30
0.0
 40
39.9999999999997
100
AcDbArc
 50
231.3178125465
 51
308.6821874535
  0
LINE
  5
1A2
330
1F
100
AcDbEntity
  8
0
  6
Continuous
 62
     7
370
    25
100
AcDbLine
 10
7389.4694474547
 20
7459.5809451905
 30
0.0
 11
7389.4694474547
 21
7449.896614427
 31
0.0
  0
LINE
  5
1A3
330
1F
100
AcDbEntity
  8
0
  6
Continuous
 62
     7
370
    25
100
AcDbLine
 10
7339.4694474547
 20
7449.896614427
 30
0.0
 11
7339.4694474547
 21
7459.5809451905
 31
0.0
  0
ARC
  5
1A4
330
1F
100
AcDbEntity
  8
0
  6
Continuous
 62
     7
370
    25
100
AcDbCircle
 10
7364.4694474547
 20
7481.121604419
 30
0.0
 40
39.9999999999997
100
AcDbArc
 50
308.6821874535
 51
231.3178125465
  0
CIRCLE
  5
1A5
330
1F
100
AcDbEntity
  8
0
  6
Continuous
 62
     7
370
    25
100
AcDbCircle
 10
7924.4694474547
 20
7481.121604419
 30
0.0
 40
32.99999999999909
  0
ARC
  5
1A6
330
1F
100
AcDbEntity
  8
0
  6
Continuous
 62
     7
370
    25
100
AcDbCircle
 10
7924.4694474547
 20
7481.121604419
 30
0.0
 40
40.00000000000041
100
AcDbArc
 50
231.3178125465
 51
308.6821874535
  0
LINE
  5
1A7
330
1F
100
AcDbEntity
  8
0
  6
Continuous
 62
     7
370
    25
100
AcDbLine
 10
7899.4694474547
 20
7449.896614427
 30
0.0
 11
7899.4694474547
 21
7459.5809451905
 31
0.0
  0
LINE
  5
1A8
330
1F
100
AcDbEntity
  8
0
  6
Continuous
 62
     7
370
    25
100
AcDbLine
 10
7949.4694474547
 20
7459.5809451905
 30
0.0
 11
7949.4694474547
 21
7449.896614427
 31
0.0
  0
ARC
  5
1A9
330
1F
100
AcDbEntity
  8
0
  6
Continuous
 62
     7
370
    25
100
AcDbCircle
 10
7924.4694474547
 20
7481.121604419
 30
0.0
 40
40.00000000000041
100
AcDbArc
 50
308.6821874535
 51
231.3178125465
  0
CIRCLE
  5
1AA
330
1F
100
AcDbEntity
  8
0
  6
Continuous
 62
     7
370
    25
100
AcDbCircle
 10
7364.4694474547
 20
7481.121604419
 30
0.0
 40
46.0
  0
CIRCLE
  5
1AB
330
1F
100
AcDbEntity
  8
0
  6
Continuous
 62
     7
370
    25
100
AcDbCircle
 10
7924.4694474547
 20
7481.121604419
 30
0.0
 40
46.0
  0
LINE
  5
1AC
330
1F
100
AcDbEntity
  8
0
  6
Continuous
 62
     7
370
    25
100
AcDbLine
 10
7324.4694474547
 20
6871.121604419
 30
0.0
 11
7271.0886150218
 21
6871.121604419
 31
0.0
  0
LINE
  5
1AD
330
1F
100
AcDbEntity
  8
0
  6
Continuous
 62
     7
370
    25
100
AcDbLine
 10
7271.0886150218
 20
8387.866480394
 30
0.0
 11
7271.0886150219
 21
6871.121604419
 31
0.0
  0
ARC
  5
1AE
330
1F
100
AcDbEntity
  8
0
  6
Continuous
 62
     7
370
    25
100
AcDbCircle
 10
7281.0886150218
 20
8387.866480394
 30
0.0
 40
10.0
100
AcDbArc
 50
90.0
 51
180.0
  0
LINE
  5
1AF
330
1F
100
AcDbEntity
  8
0
  6
Continuous
 62
     7
370
    25
100
AcDbLine
 10
7644.4694474547
 20
8397.866480394
 30
0.0
 11
7281.0886150218
 21
8397.866480394
 31
0.0
  0
LINE
  5
1B0
330
1F
100
AcDbEntity
  8
0
  6
Continuous
 62
     7
370
    25
100
AcDbLine
 10
7644.4694474547
 20
8397.866480394
 30
0.0
 11
8007.8502798876
 21
8397.866480394
 31
0.0
  0
ARC
  5
1B1
330
1F
100
AcDbEntity
  8
0
  6
Continuous
 62
     7
370
    25
100
AcDbCircle
 10
8007.8502798876
 20
8387.866480394
 30
0.0
 40
10.0
100
AcDbArc
 50
0.0
 51
90.0
  0
LINE
  5
1B2
330
1F
100
AcDbEntity
  8
0
  6
Continuous
 62
     7
370
    25
100
AcDbLine
 10
8017.8502798876
 20
8387.866480394
 30
0.0
 11
8017.8502798875
 21
6871.121604419
 31
0.0
  0
LINE
  5
1B3
330
1F
100
AcDbEntity
  8
0
  6
Continuous
 62
     7
370
    25
100
AcDbLine
 10
7964.4694474547
 20
6871.121604419
 30
0.0
 11
8017.8502798876
 21
6871.121604419
 31
0.0
  0
LINE
  5
1B4
330
1F
100
AcDbEntity
  8
0
  6
Continuous
 62
     7
370
    25
100
AcDbLine
 10
7964.4694474547
 20
6871.121604419
 30
0.0
 11
7964.4694474547
 21
6891.121604419
 31
0.0
  0
LINE
  5
1B5
330
1F
100
AcDbEntity
  8
0
  6
Continuous
 62
     7
370
    25
100
AcDbLine
 10
7964.4694474547
 20
6891.121604419
 30
0.0
 11
7967.8502798876
 21
6891.121604419
 31
0.0
  0
ARC
  5
1B6
330
1F
100
AcDbEntity
  8
0
  6
Continuous
 62
     7
370
    25
100
AcDbCircle
 10
7967.8502798876
 20
6921.121604419
 30
0.0
 40
30.0
100
AcDbArc
 50
270.0
 51
0.0
  0
LINE
  5
1B7
330
1F
100
AcDbEntity
  8
0
  6
Continuous
 62
     7
370
    25
100
AcDbLine
 10
7997.8502798876
 20
6921.121604419
 30
0.0
 11
7997.8502798876
 21
8166.7251148083
 31
0.0
  0
LINE
  5
1B8
330
1F
100
AcDbEntity
  8
0
  6
Continuous
 62
     7
370
    25
100
AcDbLine
 10
7997.5630492947
 20
8105.3206244853
 30
0.0
 11
7997.8502798876
 21
8166.7251148083
 31
0.0
  0
LINE
  5
1B9
330
1F
100
AcDbEntity
  8
0
  6
Continuous
 62
     7
370
    25
100
AcDbLine
 10
7997.5630492947
 20
8105.3206244853
 30
0.0
 11
7997.5630492947
 21
8377.866480394
 31
0.0
  0
LINE
  5
1BA
330
1F
100
AcDbEntity
  8
0
  6
Continuous
 62
     7
370
    25
100
AcDbLine
 10
7997.5630492947
 20
8377.866480394
 30
0.0
 11
7291.3758456147
 21
8377.866480394
 31
0.0
  0
LINE
  5
1BB
330
1F
100
AcDbEntity
  8
0
  6
Continuous
 62
     7
370
    25
100
AcDbLine
 10
7291.3758456147
 20
8105.3206244853
 30
0.0
 11
7291.3758456147
 21
8377.866480394
 31
0.0
  0
LINE
  5
1BC
330
1F
100
AcDbEntity
  8
0
  6
Continuous
 62
     7
370
    25
100
AcDbLine
 10
7291.3758456147
 20
8105.3206244853
 30
0.0
 11
7291.0886150218
 21
8166.7251148083
 31
0.0
  0
LINE
  5
1BD
330
1F
100
AcDbEntity
  8
0
  6
Continuous
 62
     7
370
    25
100
AcDbLine
 10
7291.0886150218
 20
6921.121604419
 30
0.0
 11
7291.0886150218
 21
8166.7251148083
 31
0.0
  0
ARC
  5
1BE
330
1F
100
AcDbEntity
  8
0
  6
Continuous
 62
     7
370
    25
100
AcDbCircle
 10
7321.0886150218
 20
6921.121604419
 30
0.0
 40
30.00000000000091
100
AcDbArc
 50
180.0
 51
270.0
  0
LINE
  5
1BF
330
1F
100
AcDbEntity
  8
0
  6
Continuous
 62
     7
370
    25
100
AcDbLine
 10
7321.0886150218
 20
6891.121604419
 30
0.0
 11
7324.4694474547
 21
6891.121604419
 31
0.0
  0
LINE
  5
1C0
330
1F
100
AcDbEntity
  8
0
  6
Continuous
 62
     7
370
    25
100
AcDbLine
 10
7324.4694474547
 20
6871.121604419
 30
0.0
 11
7324.4694474547
 21
6891.121604419
 31
0.0
  0
LINE
  5
1C1
330
1F
100
AcDbEntity
  8
0
  6
Continuous
 62
     7
370
    25
100
AcDbLine
 10
7504.2027844373
 20
7611.412316066
 30
0.0
 11
7504.2027844373
 21
7831.5206356979
 31
0.0
  0
LINE
  5
1C2
330
1F
100
AcDbEntity
  8
0
  6
Continuous
 62
     7
370
    25
100
AcDbLine
 10
7504.2027844373
 20
7831.5206356979
 30
0.0
 11
7534.2027844373
 21
7801.5206356979
 31
0.0
  0
LINE
  5
1C3
330
1F
100
AcDbEntity
  8
0
  6
Continuous
 62
     7
370
    25
100
AcDbLine
 10
7534.2027844373
 20
7801.5206356979
 30
0.0
 11
7534.2027844373
 21
7641.412316066
 31
0.0
  0
LINE
  5
1C4
330
1F
100
AcDbEntity
  8
0
  6
Continuous
 62
     7
370
    25
100
AcDbLine
 10
7504.2027844373
 20
7611.412316066
 30
0.0
 11
7534.2027844373
 21
7641.412316066
 31
0.0
  0
LINE
  5
1C5
330
1F
100
AcDbEntity
  8
0
  6
Continuous
 62
     7
370
    25
100
AcDbLine
 10
7574.4402557866
 20
7611.412316066
 30
0.0
 11
7504.2027844373
 21
7611.412316066
 31
0.0
  0
LINE
  5
1C6
330
1F
100
AcDbEntity
  8
0
  6
Continuous
 62
     7
370
    25
100
AcDbLine
 10
7534.2027844373
 20
7641.412316066
 30
0.0
 11
7574.4402557866
 21
7641.412316066
 31
0.0
  0
LINE
  5
1C7
330
1F
100
AcDbEntity
  8
0
  6
Continuous
 62
     7
370
    25
100
AcDbLine
 10
7574.4402557866
 20
7611.412316066
 30
0.0
 11
7574.4402557866
 21
7641.412316066
 31
0.0
  0
LINE
  5
1C8
330
1F
100
AcDbEntity
  8
0
  6
Continuous
 62
     7
370
    25
100
AcDbLine
 10
7604.4402557866
 20
7472.318038559
 30
0.0
 11
7604.4402557866
 21
7581.412316066
 31
0.0
  0
LINE
  5
1C9
330
1F
100
AcDbEntity
  8
0
  6
Continuous
 62
     7
370
    25
100
AcDbLine
 10
7604.4402557866
 20
7581.412316066
 30
0.0
 11
7634.4402557866
 21
7581.412316066
 31
0.0
  0
LINE
  5
1CA
330
1F
100
AcDbEntity
  8
0
  6
Continuous
 62
     7
370
    25
100
AcDbLine
 10
7634.4402557866
 20
7581.412316066
 30
0.0
 11
7634.4402557866
 21
7472.318038559
 31
0.0
  0
LINE
  5
1CB
330
1F
100
AcDbEntity
  8
0
  6
Continuous
 62
     7
370
    25
100
AcDbLine
 10
7604.4402557866
 20
7472.318038559
 30
0.0
 11
7634.4402557866
 21
7472.318038559
 31
0.0
  0
ARC
  5
1CC
330
1F
100
AcDbEntity
  8
0
  6
Continuous
 62
     7
370
    25
100
AcDbCircle
 10
7574.4402557866
 20
7581.412316066
 30
0.0
 40
30.0
100
AcDbArc
 50
360.0
 51
90.0
  0
ARC
  5
1CD
330
1F
100
AcDbEntity
  8
0
  6
Continuous
 62
     7
370
    25
100
AcDbCircle
 10
7574.4402557866
 20
7581.412316066
 30
0.0
 40
60.0
100
AcDbArc
 50
360.0
 51
90.0
  0
LINE
  5
1CE
330
1F
100
AcDbEntity
  8
0
  6
Continuous
 62
     7
370
    25
100
AcDbLine
 10
7504.2027844373
 20
7831.5206356979
 30
0.0
 11
7784.7361104721
 21
7831.5206356979
 31
0.0
  0
LINE
  5
1CF
330
1F
100
AcDbEntity
  8
0
  6
Continuous
 62
     7
370
    25
100
AcDbLine
 10
7784.7361104721
 20
7831.5206356979
 30
0.0
 11
7754.7361104721
 21
7801.5206356979
 31
0.0
  0
LINE
  5
1D0
330
1F
100
AcDbEntity
  8
0
  6
Continuous
 62
     7
370
    25
100
AcDbLine
 10
7754.7361104721
 20
7801.5206356979
 30
0.0
 11
7534.2027844373
 21
7801.5206356979
 31
0.0
  0
LINE
  5
1D1
330
1F
100
AcDbEntity
  8
0
  6
Continuous
 62
     7
370
    25
100
AcDbLine
 10
7654.4986391228
 20
7472.318038559
 30
0.0
 11
7654.4986391228
 21
7581.412316066
 31
0.0
  0
LINE
  5
1D2
330
1F
100
AcDbEntity
  8
0
  6
Continuous
 62
     7
370
    25
100
AcDbLine
 10
7634.4402557866
 20
7472.318038559
 30
0.0
 11
7654.4986391228
 21
7472.318038559
 31
0.0
  0
LINE
  5
1D3
330
1F
100
AcDbEntity
  8
0
  6
Continuous
 62
     7
370
    25
100
AcDbLine
 10
7754.7361104721
 20
7641.412316066
 30
0.0
 11
7754.7361104721
 21
7801.5206356979
 31
0.0
  0
LINE
  5
1D4
330
1F
100
AcDbEntity
  8
0
  6
Continuous
 62
     7
370
    25
100
AcDbLine
 10
7714.4986391228
 20
7641.412316066
 30
0.0
 11
7754.7361104721
 21
7641.412316066
 31
0.0
  0
ARC
  5
1D5
330
1F
100
AcDbEntity
  8
0
  6
Continuous
 62
     7
370
    25
100
AcDbCircle
 10
7714.4986391228
 20
7581.412316066
 30
0.0
 40
59.99999999999909
100
AcDbArc
 50
90.0
 51
180.0
  0
LINE
  5
1D6
330
1F
100
AcDbEntity
  8
0
  6
Continuous
 62
     7
370
    25
100
AcDbLine
 10
7654.4986391228
 20
7581.412316066
 30
0.0
 11
7684.4986391228
 21
7581.412316066
 31
0.0
  0
LINE
  5
1D7
330
1F
100
AcDbEntity
  8
0
  6
Continuous
 62
     7
370
    25
100
AcDbLine
 10
7684.4986391228
 20
7581.412316066
 30
0.0
 11
7684.4986391228
 21
7472.318038559
 31
0.0
  0
LINE
  5
1D8
330
1F
100
AcDbEntity
  8
0
  6
Continuous
 62
     7
370
    25
100
AcDbLine
 10
7654.4986391228
 20
7472.318038559
 30
0.0
 11
7684.4986391228
 21
7472.318038559
 31
0.0
  0
LINE
  5
1D9
330
1F
100
AcDbEntity
  8
0
  6
Continuous
 62
     7
370
    25
100
AcDbLine
 10
7654.4986391228
 20
7472.318038559
 30
0.0
 11
7654.4986391228
 21
7442.318038559
 31
0.0
  0
LINE
  5
1DA
330
1F
100
AcDbEntity
  8
0
  6
Continuous
 62
     7
370
    25
100
AcDbLine
 10
7654.4986391228
 20
7442.318038559
 30
0.0
 11
7634.4402557866
 21
7442.318038559
 31
0.0
  0
LINE
  5
1DB
330
1F
100
AcDbEntity
  8
0
  6
Continuous
 62
     7
370
    25
100
AcDbLine
 10
7634.4402557866
 20
7472.318038559
 30
0.0
 11
7634.4402557866
 21
7442.318038559
 31
0.0
  0
ARC
  5
1DC
330
1F
100
AcDbEntity
  8
0
  6
Continuous
 62
     7
370
    25
100
AcDbCircle
 10
7634.4402557866
 20
7472.318038559
 30
0.0
 40
30.0
100
AcDbArc
 50
180.0
 51
270.0
  0
LINE
  5
1DD
330
1F
100
AcDbEntity
  8
0
  6
Continuous
 62
     7
370
    25
100
AcDbLine
 10
7714.4986391228
 20
7641.412316066
 30
0.0
 11
7714.4986391228
 21
7611.412316066
 31
0.0
  0
ARC
  5
1DE
330
1F
100
AcDbEntity
  8
0
  6
Continuous
 62
     7
370
    25
100
AcDbCircle
 10
7714.4986391228
 20
7581.412316066
 30
0.0
 40
30.0
100
AcDbArc
 50
90.0
 51
180.0
  0
ARC
  5
1DF
330
1F
100
AcDbEntity
  8
0
  6
Continuous
 62
     7
370
    25
100
AcDbCircle
 10
7654.4986391228
 20
7472.318038559
 30
0.0
 40
30.0
100
AcDbArc
 50
270.0
 51
0.0
  0
LINE
  5
1E0
330
1F
100
AcDbEntity
  8
0
  6
Continuous
 62
     7
370
    25
100
AcDbLine
 10
7784.7361104721
 20
7831.5206356979
 30
0.0
 11
7784.7361104721
 21
7611.412316066
 31
0.0
  0
LINE
  5
1E1
330
1F
100
AcDbEntity
  8
0
  6
Continuous
 62
     7
370
    25
100
AcDbLine
 10
7754.7361104721
 20
7641.412316066
 30
0.0
 11
7784.7361104721
 21
7611.412316066
 31
0.0
  0
LINE
  5
1E2
330
1F
100
AcDbEntity
  8
0
  6
Continuous
 62
     7
370
    25
100
AcDbLine
 10
7784.7361104721
 20
7611.412316066
 30
0.0
 11
7714.4986391228
 21
7611.412316066
 31
0.0
  0
CIRCLE
  5
1E3
330
1F
100
AcDbEntity
  8
0
  6
Continuous
 62
     7
370
    25
100
AcDbCircle
 10
7644.4694474547
 20
8301.121604419
 30
0.0
 40
34.99999999999981
  0
ARC
  5
1E4
330
1F
100
AcDbEntity
  8
0
  6
Continuous
 62
     7
370
    25
100
AcDbCircle
 10
7644.4694474547
 20
8301.121604419
 30
0.0
 40
50.00000000000163
100
AcDbArc
 50
249.7836781828
 51
290.2163218172
  0
LINE
  5
1E5
330
1F
100
AcDbEntity
  8
0
  6
Continuous
 62
     7
370
    25
100
AcDbLine
 10
7661.7477241035
 20
8254.2018734304
 30
0.0
 11
7997.5630492947
 21
8377.866480394
 31
0.0
  0
LINE
  5
1E6
330
1F
100
AcDbEntity
  8
0
  6
Continuous
 62
     7
370
    25
100
AcDbLine
 10
7291.3758456147
 20
8377.866480394
 30
0.0
 11
7627.1911708059
 21
8254.2018734304
 31
0.0
  0
LINE
  5
1E7
330
1F
100
AcDbEntity
  8
0
  6
Continuous
 62
     7
370
    25
100
AcDbLine
 10
7420.2068444427
 20
7511.121604419
 30
0.0
 11
7420.2068444427
 21
8330.4242297292
 31
0.0
  0
LINE
  5
1E8
330
1F
100
AcDbEntity
  8
0
  6
Continuous
 62
     7
370
    25
100
AcDbLine
 10
7406.4916854214
 20
7511.121604419
 30
0.0
 11
7420.2068444427
 21
7511.121604419
 31
0.0
  0
SPLINE
  5
1E9
330
1F
100
AcDbEntity
  8
0
  6
Continuous
 62
     7
370
    25
100
AcDbSpline
210
0.0
220
0.0
230
1.0
 70
     8
 71
     3
 72
    16
 73
    12
 74
     0
 42
0.00000001
 43
0.00000001
 40
0.0
 40
0.0
 40
0.0
 40
0.0
 40
0.0619252920523964
 40
0.1238527190798662
 40
0.2494689318336703
 40
0.3553883283069411
 40
0.4613367785884291
 40
0.5702269927484513
 40
0.6791431489218744
 40
0.8390953238955426
 40
1.0
 40
1.0
 40
1.0
 40
1.0
 10
7406.49168542143
 20
7511.121604419032
 30
0.0
 10
7403.588643276561
 20
7513.479053624695
 30
0.0
 10
7397.782458899728
 20
7518.194033312911
 30
0.0
 10
7386.611573877492
 20
7528.116659299882
 30
0.0
 10
7374.302873603675
 20
7540.379718195709
 30
0.0
 10
7361.726525200329
 20
7555.438561228038
 30
0.0
 10
7351.1753233166
 20
7570.516397307269
 30
0.0
 10
7341.892723091682
 20
7586.397923648089
 30
0.0
 10
7332.513274307595
 20
7605.523588243595
 30
0.0
 10
7323.532545058845
 20
7627.92876948847
 30
0.0
 10
7318.522423051207
 20
7645.200683915812
 30
0.0
 10
7316.009925480485
 20
7653.862277979635
 30
0.0
  0
SPLINE
  5
1EA
330
1F
100
AcDbEntity
  8
0
  6
Continuous
 62
     7
370
    25
100
AcDbSpline
210
0.0
220
0.0
230
1.0
 70
     8
 71
     3
 72
    16
 73
    12
 74
     0
 42
0.00000001
 43
0.00000001
 40
0.0
 40
0.0
 40
0.0
 40
0.0
 40
0.0619252920523955
 40
0.1238527190798655
 40
0.2494689318336699
 40
0.3553883283069428
 40
0.4613367785884301
 40
0.5702269927484513
 40
0.6791431489218749
 40
0.8390953238955423
 40
1.0
 40
1.0
 40
1.0
 40
1.0
 10
7882.447209487967
 20
7511.121604419032
 30
0.0
 10
7885.350251632836
 20
7513.479053624695
 30
0.0
 10
7891.156436009669
 20
7518.194033312911
 30
0.0
 10
7902.327321031905
 20
7528.116659299882
 30
0.0
 10
7914.636021305722
 20
7540.379718195708
 30
0.0
 10
7927.212369709068
 20
7555.438561228038
 30
0.0
 10
7937.763571592797
 20
7570.516397307269
 30
0.0
 10
7947.046171817715
 20
7586.397923648089
 30
0.0
 10
7956.425620601803
 20
7605.523588243596
 30
0.0
 10
7965.406349850553
 20
7627.92876948847
 30
0.0
 10
7970.416471858191
 20
7645.200683915812
 30
0.0
 10
7972.928969428912
 20
7653.862277979636
 30
0.0
  0
LINE
  5
1EB
330
1F
100
AcDbEntity
  8
0
  6
Continuous
 62
     7
370
    25
100
AcDbLine
 10
7882.447209488
 20
7511.121604419
 30
0.0
 11
7868.7320504667
 21
7511.121604419
 31
0.0
  0
LINE
  5
1EC
330
1F
100
AcDbEntity
  8
0
  6
Continuous
 62
     7
370
    25
100
AcDbLine
 10
7868.7320504667
 20
7511.121604419
 30
0.0
 11
7868.7320504667
 21
8330.4242297292
 31
0.0
  0
LINE
  5
1ED
330
1F
100
AcDbEntity
  8
0
  6
Continuous
 62
     7
370
    25
100
AcDbLine
 10
7574.4402557866
 20
7472.318038559
 30
0.0
 11
7574.4402557866
 21
7511.121604419
 31
0.0
  0
LINE
  5
1EE
330
1F
100
AcDbEntity
  8
0
  6
Continuous
 62
     7
370
    25
100
AcDbLine
 10
7601.8020036812
 20
7511.121604419
 30
0.0
 11
7601.8020036812
 21
7593.7141351247
 31
0.0
  0
LINE
  5
1EF
330
1F
100
AcDbEntity
  8
0
  6
Continuous
 62
     7
370
    25
100
AcDbLine
 10
7574.4402557866
 20
7472.318038559
 30
0.0
 11
7604.4402557866
 21
7472.318038559
 31
0.0
  0
LINE
  5
1F0
330
1F
100
AcDbEntity
  8
0
  6
Continuous
 62
     7
370
    25
100
AcDbLine
 10
7634.4402557866
 20
7442.318038559
 30
0.0
 11
7634.4402557866
 21
7412.318038559
 31
0.0
  0
ARC
  5
1F1
330
1F
100
AcDbEntity
  8
0
  6
Continuous
 62
     7
370
    25
100
AcDbCircle
 10
7634.4402557866
 20
7472.318038559
 30
0.0
 40
60.0
100
AcDbArc
 50
180.0
 51
270.0
  0
LINE
  5
1F2
330
1F
100
AcDbEntity
  8
0
  6
Continuous
 62
     7
370
    25
100
AcDbLine
 10
7654.4986391228
 20
7442.318038559
 30
0.0
 11
7654.4986391228
 21
7412.318038559
 31
0.0
  0
LINE
  5
1F3
330
1F
100
AcDbEntity
  8
0
  6
Continuous
 62
     7
370
    25
100
AcDbLine
 10
7654.4986391228
 20
7412.318038559
 30
0.0
 11
7634.4402557866
 21
7412.318038559
 31
0.0
  0
ARC
  5
1F4
330
1F
100
AcDbEntity
  8
0
  6
Continuous
 62
     7
370
    25
100
AcDbCircle
 10
7654.4986391228
 20
7472.318038559
 30
0.0
 40
60.0
100
AcDbArc
 50
270.0
 51
0.0
  0
LINE
  5
1F5
330
1F
100
AcDbEntity
  8
0
  6
Continuous
 62
     7
370
    25
100
AcDbLine
 10
7684.4986391228
 20
7472.318038559
 30
0.0
 11
7714.4986391228
 21
7472.318038559
 31
0.0
  0
LINE
  5
1F6
330
1F
100
AcDbEntity
  8
0
  6
Continuous
 62
     7
370
    25
100
AcDbLine
 10
7714.4986391228
 20
7511.121604419
 30
0.0
 11
7714.4986391228
 21
7472.318038559
 31
0.0
  0
LINE
  5
1F7
330
1F
100
AcDbEntity
  8
0
  6
Continuous
 62
     7
370
    25
100
AcDbLine
 10
7687.1368912282
 20
7593.7141351248
 30
0.0
 11
7687.1368912282
 21
7511.121604419
 31
0.0
  0
LINE
  5
1F8
330
1F
100
AcDbEntity
  8
0
  6
Continuous
 62
     7
370
    25
100
AcDbLine
 10
7868.7320504667
 20
7511.121604419
 30
0.0
 11
7687.1368912282
 21
7511.121604419
 31
0.0
  0
LINE
  5
1F9
330
1F
100
AcDbEntity
  8
0
  6
Continuous
 62
     7
370
    25
100
AcDbLine
 10
7420.2068444427
 20
7511.121604419
 30
0.0
 11
7601.8020036812
 21
7511.121604419
 31
0.0
  0
SPLINE
  5
1FA
330
1F
100
AcDbEntity
  8
0
  6
Continuous
 62
     7
370
    25
100
AcDbSpline
210
0.0
220
0.0
230
1.0
 70
     8
 71
     3
 72
     9
 73
     5
 74
     0
 42
0.00000001
 43
0.00000001
 40
0.0
 40
0.0
 40
0.0
 40
0.0
 40
0.4995632303926663
 40
1.0
 40
1.0
 40
1.0
 40
1.0
 10
7882.447209487967
 20
7511.121604419032
 30
0.0
 10
7877.891037854554
 20
7507.587581765273
 30
0.0
 10
7868.770727639104
 20
7500.513356844874
 30
0.0
 10
7859.239316203382
 20
7494.003590744781
 30
0.0
 10
7854.469447454691
 20
7490.745864426752
 30
0.0
  0
SPLINE
  5
1FB
330
1F
100
AcDbEntity
  8
0
  6
Continuous
 62
     7
370
    25
100
AcDbSpline
210
0.0
220
0.0
230
1.0
 70
     8
 71
     3
 72
     9
 73
     5
 74
     0
 42
0.00000001
 43
0.00000001
 40
0.0
 40
0.0
 40
0.0
 40
0.0
 40
0.4105107186886516
 40
1.0
 40
1.0
 40
1.0
 40
1.0
 10
7854.469447454691
 20
7490.745864426752
 30
0.0
 10
7847.71479189718
 20
7486.32997992213
 30
0.0
 10
7831.260518598085
 20
7475.572929488156
 30
0.0
 10
7814.293772530807
 20
7465.641008299643
 30
0.0
 10
7804.292057585415
 20
7459.786247216185
 30
0.0
  0
SPLINE
  5
1FC
330
1F
100
AcDbEntity
  8
0
  6
Continuous
 62
     7
370
    25
100
AcDbSpline
210
0.0
220
0.0
230
1.0
 70
     8
 71
     3
 72
    19
 73
    15
 74
     0
 42
0.00000001
 43
0.00000001
 40
0.0
 40
0.0
 40
0.0
 40
0.0
 40
0.0010376502433628
 40
0.1681889286658401
 40
0.3352293257248034
 40
0.4545113894129704
 40
0.5736437029735313
 40
0.6305568746837297
 40
0.7191012755441271
 40
0.8074705888028998
 40
0.8480636744989732
 40
0.9098309023440725
 40
0.9715513476198147
 40
1.0
 40
1.0
 40
1.0
 40
1.0
 10
7744.46944745478
 20
7471.175688783523
 30
0.0
 10
7744.496643580844
 20
7471.17052311405
 30
0.0
 10
7748.904764077728
 20
7470.333238663085
 30
0.0
 10
7757.703935552627
 20
7468.663444495186
 30
0.0
 10
7769.343705512406
 20
7466.446353976045
 30
0.0
 10
7779.292135765111
 20
7464.573428576778
 30
0.0
 10
7786.093730959368
 20
7463.297373663741
 30
0.0
 10
7791.686562706266
 20
7462.23048296687
 30
0.0
 10
7796.174335376726
 20
7461.368014597405
 30
0.0
 10
7799.619867964641
 20
7460.69959874536
 30
0.0
 10
7801.973235733337
 20
7460.240631513095
 30
0.0
 10
7803.462545472197
 20
7459.949136688209
 30
0.0
 10
7804.211601661115
 20
7459.802041063243
 30
0.0
 10
7804.272761463025
 20
7459.790035128741
 30
0.0
 10
7804.292057585415
 20
7459.786247216185
 30
0.0
  0
SPLINE
  5
1FD
330
1F
100
AcDbEntity
  8
0
  6
Continuous
 62
     7
370
    25
100
AcDbSpline
210
0.0
220
0.0
230
1.0
 70
     8
 71
     3
 72
     9
 73
     5
 74
     0
 42
0.00000001
 43
0.00000001
 40
0.0
 40
0.0
 40
0.0
 40
0.0
 40
0.4999926623137479
 40
1.0
 40
1.0
 40
1.0
 40
1.0
 10
7744.46944745478
 20
7471.175688783523
 30
0.0
 10
7755.802019561119
 20
7477.762386627042
 30
0.0
 10
7778.467496398112
 20
7490.935975641409
 30
0.0
 10
7800.965849680131
 20
7504.392995664231
 30
0.0
 10
7812.215191407
 20
7511.121604419032
 30
0.0
  0
SPLINE
  5
1FE
330
1F
100
AcDbEntity
  8
0
  6
Continuous
 62
     7
370
    25
100
AcDbSpline
210
0.0
220
0.0
230
1.0
 70
     8
 71
     3
 72
     9
 73
     5
 74
     0
 42
0.00000001
 43
0.00000001
 40
0.0
 40
0.0
 40
0.0
 40
0.0
 40
0.4995632303926681
 40
1.0
 40
1.0
 40
1.0
 40
1.0
 10
7406.49168542143
 20
7511.121604419032
 30
0.0
 10
7411.047857054843
 20
7507.587581765273
 30
0.0
 10
7420.168167270293
 20
7500.513356844874
 30
0.0
 10
7429.699578706015
 20
7494.003590744781
 30
0.0
 10
7434.469447454706
 20
7490.745864426752
 30
0.0
  0
SPLINE
  5
1FF
330
1F
100
AcDbEntity
  8
0
  6
Continuous
 62
     7
370
    25
100
AcDbSpline
210
0.0
220
0.0
230
1.0
 70
     8
 71
     3
 72
     9
 73
     5
 74
     0
 42
0.00000001
 43
0.00000001
 40
0.0
 40
0.0
 40
0.0
 40
0.0
 40
0.4999558030612073
 40
1.0
 40
1.0
 40
1.0
 40
1.0
 10
7476.723703502397
 20
7511.121604419032
 30
0.0
 10
7487.97187871506
 20
7504.393677246279
 30
0.0
 10
7510.470217855823
 20
7490.936633380486
 30
0.0
 10
7533.135703091642
 20
7477.763058470299
 30
0.0
 10
7544.469447454616
 20
7471.175688783523
 30
0.0
  0
SPLINE
  5
200
330
1F
100
AcDbEntity
  8
0
  6
Continuous
 62
     7
370
    25
100
AcDbSpline
210
0.0
220
0.0
230
1.0
 70
     8
 71
     3
 72
    19
 73
    15
 74
     0
 42
0.00000001
 43
0.00000001
 40
0.0
 40
0.0
 40
0.0
 40
0.0
 40
0.0284486523801925
 40
0.0901690976559291
 40
0.1519363255010294
 40
0.1925294111971058
 40
0.2808987244558753
 40
0.3694431253162724
 40
0.4263562970264704
 40
0.5454886105870296
 40
0.6647706742751949
 40
0.831811071334158
 40
0.9989623497566359
 40
1.0
 40
1.0
 40
1.0
 40
1.0
 10
7484.646837323971
 20
7459.786247216191
 30
0.0
 10
7484.666133446366
 20
7459.790035128744
 30
0.0
 10
7484.727293248288
 20
7459.80204106324
 30
0.0
 10
7485.476349437197
 20
7459.94913668821
 30
0.0
 10
7486.965659176061
 20
7460.240631513095
 30
0.0
 10
7489.319026944756
 20
7460.699598745361
 30
0.0
 10
7492.76455953267
 20
7461.368014597405
 30
0.0
 10
7497.25233220313
 20
7462.23048296687
 30
0.0
 10
7502.845163950029
 20
7463.297373663741
 30
0.0
 10
7509.646759144285
 20
7464.573428576779
 30
0.0
 10
7519.595189396993
 20
7466.446353976036
 30
0.0
 10
7531.234959356761
 20
7468.663444495231
 30
0.0
 10
7540.034130831674
 20
7470.333238663067
 30
0.0
 10
7544.442251328554
 20
7471.17052311405
 30
0.0
 10
7544.469447454616
 20
7471.175688783523
 30
0.0
  0
SPLINE
  5
201
330
1F
100
AcDbEntity
  8
0
  6
Continuous
 62
     7
370
    25
100
AcDbSpline
210
0.0
220
0.0
230
1.0
 70
     8
 71
     3
 72
     9
 73
     5
 74
     0
 42
0.00000001
 43
0.00000001
 40
0.0
 40
0.0
 40
0.0
 40
0.0
 40
0.5894892813112709
 40
0.9999999999999999
 40
0.9999999999999999
 40
0.9999999999999999
 40
0.9999999999999999
 10
7484.646837323971
 20
7459.786247216191
 30
0.0
 10
7474.645122378583
 20
7465.641008299646
 30
0.0
 10
7457.678376311309
 20
7475.572929488158
 30
0.0
 10
7441.224103012218
 20
7486.32997992213
 30
0.0
 10
7434.469447454706
 20
7490.745864426752
 30
0.0
  0
LINE
  5
202
330
1F
100
AcDbEntity
  8
0
  6
Continuous
 62
     7
370
    25
100
AcDbLine
 10
7784.4694474547
 20
7091.1216044191
 30
0.0
 11
7744.4694474547
 21
7131.1216044191
 31
0.0
  0
LINE
  5
203
330
1F
100
AcDbEntity
  8
0
  6
Continuous
 62
     7
370
    25
100
AcDbLine
 10
7744.4694474547
 20
7131.1216044191
 30
0.0
 11
7744.4694474548
 21
7471.1756887835
 31
0.0
  0
SPLINE
  5
204
330
1F
100
AcDbEntity
  8
0
  6
Continuous
 62
     7
370
    25
100
AcDbSpline
210
0.0
220
0.0
230
1.0
 70
     8
 71
     3
 72
    19
 73
    15
 74
     0
 42
0.00000001
 43
0.00000001
 40
0.0
 40
0.0
 40
0.0
 40
0.0
 40
0.0284531606427469
 40
0.0890605390807729
 40
0.1516332470743687
 40
0.1926692409474008
 40
0.279773517129363
 40
0.369790355304883
 40
0.4266978948750687
 40
0.5444270023258915
 40
0.664725105612914
 40
0.8298361246931159
 40
0.9989621983936583
 40
1.0
 40
1.0
 40
1.0
 40
1.0
 10
7784.46944745477
 20
7425.24825454059
 30
0.0
 10
7784.456321476968
 20
7425.263321518549
 30
0.0
 10
7784.415236176331
 20
7425.310482296086
 30
0.0
 10
7783.922326764981
 20
7425.876294309647
 30
0.0
 10
7782.919096665039
 20
7427.02829151424
 30
0.0
 10
7781.341195193396
 20
7428.840918190741
 30
0.0
 10
7779.033514073215
 20
7431.493154086111
 30
0.0
 10
7776.03085027967
 20
7434.946210432063
 30
0.0
 10
7772.295898090139
 20
7439.241665733653
 30
0.0
 10
7767.766395019266
 20
7444.450212748488
 30
0.0
 10
7761.157124628222
 20
7452.03228711367
 30
0.0
 10
7753.35519511544
 20
7460.982289942782
 30
0.0
 10
7747.470196553801
 20
7467.733346690591
 30
0.0
 10
7744.487637593402
 20
7471.154821767393
 30
0.0
 10
7744.46944745478
 20
7471.175688783523
 30
0.0
  0
LINE
  5
205
330
1F
100
AcDbEntity
  8
0
  6
Continuous
 62
     7
370
    25
100
AcDbLine
 10
7784.4694474548
 20
7425.2482545406
 30
0.0
 11
7784.4694474547
 21
7091.1216044191
 31
0.0
  0
ARC
  5
206
330
1F
100
AcDbEntity
  8
0
  6
Continuous
 62
     7
370
    25
100
AcDbCircle
 10
7824.4694474548
 20
7425.2482545406
 30
0.0
 40
40.00000000000061
100
AcDbArc
 50
120.2938367791
 51
180.0
  0
LINE
  5
207
330
1F
100
AcDbEntity
  8
0
  6
Continuous
 62
     7
370
    25
100
AcDbLine
 10
7504.4694474547
 20
7091.1216044191
 30
0.0
 11
7544.4694474547
 21
7131.1216044191
 31
0.0
  0
LINE
  5
208
330
1F
100
AcDbEntity
  8
0
  6
Continuous
 62
     7
370
    25
100
AcDbLine
 10
7504.4694474547
 20
7091.1216044191
 30
0.0
 11
7504.4694474546
 21
7425.2482545406
 31
0.0
  0
SPLINE
  5
209
330
1F
100
AcDbEntity
  8
0
  6
Continuous
 62
     7
370
    25
100
AcDbSpline
210
0.0
220
0.0
230
1.0
 70
     8
 71
     3
 72
    19
 73
    15
 74
     0
 42
0.00000001
 43
0.00000001
 40
0.0
 40
0.0
 40
0.0
 40
0.0
 40
0.0010378079908671
 40
0.1662637669823217
 40
0.3352756936219597
 40
0.4531484536880593
 40
0.5733029621831738
 40
0.6302108517971025
 40
0.7174988853091955
 40
0.8073303462491301
 40
0.8483665925385023
 40
0.9090254659679899
 40
0.9715466643391261
 40
1.0
 40
1.0
 40
1.0
 40
1.0
 10
7544.469447454616
 20
7471.175688783523
 30
0.0
 10
7544.451257311498
 20
7471.154821762264
 30
0.0
 10
7541.537074973887
 20
7467.811785679863
 30
0.0
 10
7535.652978903921
 20
7461.061775295804
 30
0.0
 10
7527.887123904639
 20
7452.153111815353
 30
0.0
 10
7521.211937345378
 20
7444.495540474505
 30
0.0
 10
7516.677239591983
 20
7439.281048888496
 30
0.0
 10
7512.946484202811
 20
7434.990419098705
 30
0.0
 10
7509.938884685203
 20
7431.531675023659
 30
0.0
 10
7507.620229544425
 20
7428.86679883831
 30
0.0
 10
7506.035641927297
 20
7427.04649223134
 30
0.0
 10
7505.025855761266
 20
7425.886954935316
 30
0.0
 10
7504.524610025592
 20
7425.311574330402
 30
0.0
 10
7504.482589773514
 20
7425.263340292669
 30
0.0
 10
7504.469447454627
 20
7425.24825454059
 30
0.0
  0
LINE
  5
20A
330
1F
100
AcDbEntity
  8
0
  6
Continuous
 62
     7
370
    25
100
AcDbLine
 10
7544.4694474546
 20
7471.1756887835
 30
0.0
 11
7544.4694474547
 21
7131.1216044191
 31
0.0
  0
ARC
  5
20B
330
1F
100
AcDbEntity
  8
0
  6
Continuous
 62
     7
370
    25
100
AcDbCircle
 10
7464.4694474546
 20
7425.2482545406
 30
0.0
 40
40.0
100
AcDbArc
 50
0.0
 51
59.7061632209
  0
LINE
  5
20C
330
1F
100
AcDbEntity
  8
0
  6
Continuous
 62
     7
370
    25
100
AcDbLine
 10
7544.4694474547
 20
7131.1216044191
 30
0.0
 11
7744.4694474547
 21
7131.1216044191
 31
0.0
  0
LINE
  5
20D
330
1F
100
AcDbEntity
  8
0
  6
Continuous
 62
     7
370
    25
100
AcDbLine
 10
7404.4694474547
 20
6871.121604419
 30
0.0
 11
7404.4694474547
 21
6891.121604419
 31
0.0
  0
LINE
  5
20E
330
1F
100
AcDbEntity
  8
0
  6
Continuous
 62
     7
370
    25
100
AcDbLine
 10
7404.4694474547
 20
6891.121604419
 30
0.0
 11
7324.4694474547
 21
6891.121604419
 31
0.0
  0
LINE
  5
20F
330
1F
100
AcDbEntity
  8
0
  6
Continuous
 62
     7
370
    25
100
AcDbLine
 10
7324.4694474547
 20
6871.121604419
 30
0.0
 11
7404.4694474547
 21
6871.121604419
 31
0.0
  0
LINE
  5
210
330
1F
100
AcDbEntity
  8
0
  6
Continuous
 62
     7
370
    25
100
AcDbLine
 10
7584.4361233755
 20
7091.1216044191
 30
0.0
 11
7504.4694474547
 21
7091.1216044191
 31
0.0
  0
LINE
  5
211
330
1F
100
AcDbEntity
  8
0
  6
Continuous
 62
     7
370
    25
100
AcDbLine
 10
7784.4694474547
 20
7091.1216044191
 30
0.0
 11
7704.5027715339
 21
7091.1216044191
 31
0.0
  0
SPLINE
  5
212
330
1F
100
AcDbEntity
  8
0
  6
Continuous
 62
     7
370
    25
100
AcDbSpline
210
0.0
220
0.0
230
1.0
 70
     8
 71
     3
 72
    14
 73
    10
 74
     0
 42
0.00000001
 43
0.00000001
 40
0.0
 40
0.0
 40
0.0
 40
0.0
 40
0.0566925739396691
 40
0.2389983479149542
 40
0.4235730693499713
 40
0.5763550310616723
 40
0.7308963731863791
 40
0.8639061629340509
 40
1.0
 40
1.0
 40
1.0
 40
1.0
 10
7644.469447454698
 20
7096.156899183045
 30
0.0
 10
7645.692027801338
 20
7096.15059790403
 30
0.0
 10
7650.84604820886
 20
7096.124033661662
 30
0.0
 10
7659.964841505075
 20
7095.712769930161
 30
0.0
 10
7670.969556051218
 20
7094.715403943609
 30
0.0
 10
7681.110972753414
 20
7093.485805330832
 30
0.0
 10
7689.827589060413
 20
7092.354288552256
 30
0.0
 10
7697.825928896042
 20
7091.380548164523
 30
0.0
 10
7702.260217680358
 20
7091.208575960236
 30
0.0
 10
7704.502771533912
 20
7091.121604419097
 30
0.0
  0
SPLINE
  5
213
330
1F
100
AcDbEntity
  8
0
  6
Continuous
 62
     7
370
    25
100
AcDbSpline
210
0.0
220
0.0
230
1.0
 70
     8
 71
     3
 72
    14
 73
    10
 74
     0
 42
0.00000001
 43
0.00000001
 40
0.0
 40
0.0
 40
0.0
 40
0.0
 40
0.041186956246007
 40
0.1890221945311626
 40
0.3409975235221142
 40
0.4983026497187238
 40
0.6574463634469994
 40
0.8278016065612501
 40
1.0
 40
1.0
 40
1.0
 40
1.0
 10
7584.436123375498
 20
7091.121604419124
 30
0.0
 10
7585.090871256101
 20
7091.130469282669
 30
0.0
 10
7588.095751745858
 20
7091.171153424303
 30
0.0
 10
7594.195238011542
 20
7091.740543786906
 30
0.0
 10
7602.995239636249
 20
7092.851563082696
 30
0.0
 10
7612.482548423736
 20
7094.078455325392
 30
0.0
 10
7622.655012289989
 20
7095.178036831424
 30
0.0
 10
7633.363490716962
 20
7095.992702426566
 30
0.0
 10
7640.754206335845
 20
7096.101970953478
 30
0.0
 10
7644.469447454698
 20
7096.156899183045
 30
0.0
  0
CIRCLE
  5
214
330
1F
100
AcDbEntity
  8
0
  6
Continuous
 62
     7
370
    25
100
AcDbCircle
 10
7644.4694474547
 20
7001.121604419
 30
0.0
 40
36.00000000000013
  0
LINE
  5
215
330
1F
100
AcDbEntity
  8
0
  6
Continuous
 62
     7
370
    25
100
AcDbLine
 10
7347.4694474547
 20
7429.121604419
 30
0.0
 11
7347.4694474547
 21
7438.3781838727
 31
0.0
  0
LINE
  5
216
330
1F
100
AcDbEntity
  8
0
  6
Continuous
 62
     7
370
    25
100
AcDbLine
 10
7381.4694474547
 20
7429.121604419
 30
0.0
 11
7347.4694474547
 21
7429.121604419
 31
0.0
  0
LINE
  5
217
330
1F
100
AcDbEntity
  8
0
  6
Continuous
 62
     7
370
    25
100
AcDbLine
 10
7381.4694474547
 20
7438.3781838727
 30
0.0
 11
7381.4694474547
 21
7429.121604419
 31
0.0
  0
LINE
  5
218
330
1F
100
AcDbEntity
  8
0
  6
Continuous
 62
     7
370
    25
100
AcDbLine
 10
7381.4694474547
 20
7533.121604419
 30
0.0
 11
7381.4694474547
 21
7523.8650249654
 31
0.0
  0
LINE
  5
219
330
1F
100
AcDbEntity
  8
0
  6
Continuous
 62
     7
370
    25
100
AcDbLine
 10
7347.4694474547
 20
7533.121604419
 30
0.0
 11
7381.4694474547
 21
7533.121604419
 31
0.0
  0
LINE
  5
21A
330
1F
100
AcDbEntity
  8
0
  6
Continuous
 62
     7
370
    25
100
AcDbLine
 10
7347.4694474547
 20
7523.8650249654
 30
0.0
 11
7347.4694474547
 21
7533.121604419
 31
0.0
  0
ARC
  5
21B
330
1F
100
AcDbEntity
  8
0
  6
Continuous
 62
     7
370
    25
100
AcDbCircle
 10
7414.4694474547
 20
7441.121604419
 30
0.0
 40
20.0
100
AcDbArc
 50
270.0
 51
0.0
  0
LINE
  5
21C
330
1F
100
AcDbEntity
  8
0
  6
Continuous
 62
     7
370
    25
100
AcDbLine
 10
7414.4694474547
 20
7421.121604419
 30
0.0
 11
7321.0886150218
 21
7421.121604419
 31
0.0
  0
ARC
  5
21D
330
1F
100
AcDbEntity
  8
0
  6
Continuous
 62
     7
370
    25
100
AcDbCircle
 10
7321.0886150218
 20
7391.121604419
 30
0.0
 40
30.0
100
AcDbArc
 50
90.0
 51
180.0
  0
SPLINE
  5
21E
330
1F
100
AcDbEntity
  8
0
  6
Continuous
 62
     7
370
    25
100
AcDbSpline
210
0.0
220
0.0
230
1.0
 70
     8
 71
     3
 72
    16
 73
    12
 74
     0
 42
0.00000001
 43
0.00000001
 40
0.0
 40
0.0
 40
0.0
 40
0.0
 40
0.1704975974062248
 40
0.3410054505154707
 40
0.596722025601858
 40
0.6820629033936811
 40
0.7673999027742058
 40
0.8526708710620332
 40
0.9261570104157266
 40
0.9630793585820907
 40
1.0
 40
1.0
 40
1.0
 40
1.0
 10
7291.375845614727
 20
8105.320624485326
 30
0.0
 10
7291.685994495538
 20
8079.57944671737
 30
0.0
 10
7292.30631091311
 20
8028.095542808465
 30
0.0
 10
7294.290862049848
 20
7938.019057149191
 30
0.0
 10
7296.345592925534
 20
7860.80720058762
 30
0.0
 10
7297.989267797297
 20
7796.447656380182
 30
0.0
 10
7299.766007939349
 20
7757.838341637873
 30
0.0
 10
7303.026641262156
 20
7721.108574855999
 30
0.0
 10
7307.446161669988
 20
7691.876229255309
 30
0.0
 10
7311.86926872789
 20
7670.06785347215
 30
0.0
 10
7314.629727830643
 20
7659.264053240309
 30
0.0
 10
7316.009925480485
 20
7653.862277979635
 30
0.0
  0
LINE
  5
21F
330
1F
100
AcDbEntity
  8
0
  6
Continuous
 62
     7
370
    25
100
AcDbLine
 10
7434.4694474547
 20
7490.7458644268
 30
0.0
 11
7434.4694474547
 21
7441.121604419
 31
0.0
  0
SPLINE
  5
220
330
1F
100
AcDbEntity
  8
0
  6
Continuous
 62
     7
370
    25
100
AcDbSpline
210
0.0
220
0.0
230
1.0
 70
     8
 71
     3
 72
    14
 73
    10
 74
     0
 42
0.00000001
 43
0.00000001
 40
0.0
 40
0.0
 40
0.0
 40
0.0
 40
0.0013449660588883
 40
0.060263100978984
 40
0.3178213691577231
 40
0.4860325748966636
 40
0.6577377070021841
 40
0.8264627271739472
 40
1.0
 40
1.0
 40
1.0
 40
1.0
 10
7579.477140217625
 20
7091.121604419125
 30
0.0
 10
7579.486642081076
 20
7091.12159788309
 30
0.0
 10
7579.912386472762
 20
7091.121305026831
 30
0.0
 10
7582.172493709523
 20
7091.014624352567
 30
0.0
 10
7585.733887452945
 20
7090.027800414825
 30
0.0
 10
7590.13331276455
 20
7087.560969198634
 30
0.0
 10
7593.805349921923
 20
7084.620708949361
 30
0.0
 10
7597.383556187404
 20
7080.891848529456
 30
0.0
 10
7599.431220224118
 20
7077.704377573627
 30
0.0
 10
7600.46944745471
 20
7076.088233966215
 30
0.0
  0
ARC
  5
221
330
1F
100
AcDbEntity
  8
0
  6
Continuous
 62
     7
370
    25
100
AcDbCircle
 10
7574.4694474547
 20
7061.1216044191
 30
0.0
 40
30.00000000000014
100
AcDbArc
 50
8.4691986956
 51
29.9264348666
  0
LINE
  5
222
330
1F
100
AcDbEntity
  8
0
  6
Continuous
 62
     7
370
    25
100
AcDbLine
 10
7941.4694474547
 20
7533.121604419
 30
0.0
 11
7907.4694474547
 21
7533.121604419
 31
0.0
  0
LINE
  5
223
330
1F
100
AcDbEntity
  8
0
  6
Continuous
 62
     7
370
    25
100
AcDbLine
 10
7907.4694474547
 20
7533.121604419
 30
0.0
 11
7907.4694474547
 21
7523.8650249654
 31
0.0
  0
LINE
  5
224
330
1F
100
AcDbEntity
  8
0
  6
Continuous
 62
     7
370
    25
100
AcDbLine
 10
7907.4694474547
 20
7438.3781838727
 30
0.0
 11
7907.4694474547
 21
7429.121604419
 31
0.0
  0
LINE
  5
225
330
1F
100
AcDbEntity
  8
0
  6
Continuous
 62
     7
370
    25
100
AcDbLine
 10
7907.4694474547
 20
7429.121604419
 30
0.0
 11
7941.4694474547
 21
7429.121604419
 31
0.0
  0
LINE
  5
226
330
1F
100
AcDbEntity
  8
0
  6
Continuous
 62
     7
370
    25
100
AcDbLine
 10
7941.4694474547
 20
7429.121604419
 30
0.0
 11
7941.4694474547
 21
7438.3781838727
 31
0.0
  0
LINE
  5
227
330
1F
100
AcDbEntity
  8
0
  6
Continuous
 62
     7
370
    25
100
AcDbLine
 10
7941.4694474547
 20
7523.8650249654
 30
0.0
 11
7941.4694474547
 21
7533.121604419
 31
0.0
  0
SPLINE
  5
228
330
1F
100
AcDbEntity
  8
0
  6
Continuous
 62
     7
370
    25
100
AcDbSpline
210
0.0
220
0.0
230
1.0
 70
     8
 71
     3
 72
    16
 73
    12
 74
     0
 42
0.00000001
 43
0.00000001
 40
0.0
 40
0.0
 40
0.0
 40
0.0
 40
0.1704975974062249
 40
0.3410054505154708
 40
0.5967220256018579
 40
0.682062903393681
 40
0.767399902774206
 40
0.8526708710620334
 40
0.9261570104157267
 40
0.9630793585820904
 40
1.0
 40
1.0
 40
1.0
 40
1.0
 10
7997.56304929467
 20
8105.320624485326
 30
0.0
 10
7997.25290041386
 20
8079.57944671737
 30
0.0
 10
7996.632583996287
 20
8028.095542808465
 30
0.0
 10
7994.648032859548
 20
7938.019057149191
 30
0.0
 10
7992.593301983863
 20
7860.80720058762
 30
0.0
 10
7990.9496271121
 20
7796.447656380182
 30
0.0
 10
7989.172886970048
 20
7757.838341637874
 30
0.0
 10
7985.91225364724
 20
7721.108574855999
 30
0.0
 10
7981.492733239409
 20
7691.87622925531
 30
0.0
 10
7977.069626181506
 20
7670.067853472151
 30
0.0
 10
7974.309167078754
 20
7659.264053240309
 30
0.0
 10
7972.928969428912
 20
7653.862277979636
 30
0.0
  0
ARC
  5
229
330
1F
100
AcDbEntity
  8
0
  6
Continuous
 62
     7
370
    25
100
AcDbCircle
 10
7967.8502798876
 20
7391.121604419
 30
0.0
 40
30.0
100
AcDbArc
 50
0.0
 51
90.0
  0
LINE
  5
22A
330
1F
100
AcDbEntity
  8
0
  6
Continuous
 62
     7
370
    25
100
AcDbLine
 10
7874.4694474547
 20
7421.121604419
 30
0.0
 11
7967.8502798876
 21
7421.121604419
 31
0.0
  0
ARC
  5
22B
330
1F
100
AcDbEntity
  8
0
  6
Continuous
 62
     7
370
    25
100
AcDbCircle
 10
7874.4694474547
 20
7441.121604419
 30
0.0
 40
20.0
100
AcDbArc
 50
180.0
 51
270.0
  0
LINE
  5
22C
330
1F
100
AcDbEntity
  8
0
  6
Continuous
 62
     7
370
    25
100
AcDbLine
 10
7854.4694474547
 20
7490.7458644268
 30
0.0
 11
7854.4694474547
 21
7441.121604419
 31
0.0
  0
SPLINE
  5
22D
330
1F
100
AcDbEntity
  8
0
  6
Continuous
 62
     7
370
    25
100
AcDbSpline
210
0.0
220
0.0
230
1.0
 70
     8
 71
     3
 72
    14
 73
    10
 74
     0
 42
0.00000001
 43
0.00000001
 40
0.0
 40
0.0
 40
0.0
 40
0.0
 40
0.1684683797645772
 40
0.3422645298577603
 40
0.5104379386542072
 40
0.6821798876539088
 40
0.9397371373289966
 40
0.9986550392597219
 40
1.0
 40
1.0
 40
1.0
 40
1.0
 10
7688.469447454694
 20
7076.088233966196
 30
0.0
 10
7689.475811140539
 20
7077.659031216142
 30
0.0
 10
7691.520364511816
 20
7080.850301785763
 30
0.0
 10
7695.072547562788
 20
7084.565896763433
 30
0.0
 10
7698.779206894084
 20
7087.543210840604
 30
0.0
 10
7703.179211269645
 20
7090.020696262611
 30
0.0
 10
7706.766390425953
 20
7091.014618271007
 30
0.0
 10
7709.026508452328
 20
7091.12130503565
 30
0.0
 10
7709.452252828677
 20
7091.121597883254
 30
0.0
 10
7709.461754691784
 20
7091.121604419096
 30
0.0
  0
ARC
  5
22E
330
1F
100
AcDbEntity
  8
0
  6
Continuous
 62
     7
370
    25
100
AcDbCircle
 10
7714.4694474547
 20
7061.1216044191
 30
0.0
 40
29.99999999999928
100
AcDbArc
 50
150.0735651334
 51
171.5308013044
  0
SPLINE
  5
22F
330
1F
100
AcDbEntity
  8
0
  6
Continuous
 62
     7
370
    25
100
AcDbSpline
210
0.0
220
0.0
230
1.0
 70
     8
 71
     3
 72
    15
 73
    11
 74
     0
 42
0.00000001
 43
0.00000001
 40
0.0
 40
0.0
 40
0.0
 40
0.0
 40
0.0742196753548428
 40
0.1663275402307685
 40
0.2389565586960667
 40
0.3134622236663951
 40
0.4518212556161922
 40
0.5935375595632857
 40
0.7950037350710889
 40
1.0
 40
1.0
 40
1.0
 40
1.0
 10
7434.469447454706
 20
7490.745864426752
 30
0.0
 10
7434.558920627606
 20
7490.577729118757
 30
0.0
 10
7434.759431512273
 20
7490.200935066895
 30
0.0
 10
7436.189475206984
 20
7487.524105819461
 30
0.0
 10
7438.003272237658
 20
7484.154337536354
 30
0.0
 10
7440.505615347226
 20
7479.535979439386
 30
0.0
 10
7443.974035262393
 20
7473.197721596212
 30
0.0
 10
7449.025742223369
 20
7464.083873677481
 30
0.0
 10
7455.066884723574
 20
7453.325027801109
 30
0.0
 10
7459.688500633817
 20
7445.212896587611
 30
0.0
 10
7462.019377746393
 20
7441.121604419031
 30
0.0
  0
LINE
  5
230
330
1F
100
AcDbEntity
  8
0
  6
Continuous
 62
     7
370
    25
100
AcDbLine
 10
7484.646837324
 20
7459.7862472162
 30
0.0
 11
7469.513794922
 21
7433.8827527095
 31
0.0
  0
SPLINE
  5
231
330
1F
100
AcDbEntity
  8
0
  6
Continuous
 62
     7
370
    25
100
AcDbSpline
210
0.0
220
0.0
230
1.0
 70
     8
 71
     3
 72
     9
 73
     5
 74
     0
 42
0.00000001
 43
0.00000001
 40
0.0
 40
0.0
 40
0.0
 40
0.0
 40
0.9664097878185016
 40
1.0
 40
1.0
 40
1.0
 40
1.0
 10
7469.513794921963
 20
7433.882752709484
 30
0.0
 10
7467.831765340721
 20
7434.866392418159
 30
0.0
 10
7466.091272226472
 20
7435.884221211983
 30
0.0
 10
7464.352643537968
 20
7436.905229436104
 30
0.0
 10
7464.294242631415
 20
7436.939525318991
 30
0.0
  0
SPLINE
  5
232
330
1F
100
AcDbEntity
  8
0
  6
Continuous
 62
     7
370
    25
100
AcDbSpline
210
0.0
220
0.0
230
1.0
 70
     8
 71
     3
 72
     9
 73
     5
 74
     0
 42
0.00000001
 43
0.00000001
 40
0.0
 40
0.0
 40
0.0
 40
0.0
 40
0.9891652755312575
 40
1.0
 40
1.0
 40
1.0
 40
1.0
 10
7462.019377746393
 20
7441.121604419031
 30
0.0
 10
7462.783503325031
 20
7439.750350752002
 30
0.0
 10
7463.555998677971
 20
7438.364077192923
 30
0.0
 10
7464.286329696064
 20
7436.954794508574
 30
0.0
 10
7464.294242631415
 20
7436.939525318991
 30
0.0
  0
LINE
  5
233
330
1F
100
AcDbEntity
  8
0
  6
Continuous
 62
     7
370
    25
100
AcDbLine
 10
7434.4694474547
 20
7441.121604419
 30
0.0
 11
7462.0193777464
 21
7441.121604419
 31
0.0
  0
SPLINE
  5
234
330
1F
100
AcDbEntity
  8
0
  6
Continuous
 62
     7
370
    25
100
AcDbSpline
210
0.0
220
0.0
230
1.0
 70
     8
 71
     3
 72
    15
 73
    11
 74
     0
 42
0.00000001
 43
0.00000001
 40
0.0
 40
0.0
 40
0.0
 40
0.0
 40
0.2016409425038395
 40
0.406463863112016
 40
0.5451707261548907
 40
0.6865376168267928
 40
0.7593460303283013
 40
0.8336713265805408
 40
0.9257798189868771
 40
1.0
 40
1.0
 40
1.0
 40
1.0
 10
7826.919517163004
 20
7441.12160441903
 30
0.0
 10
7829.212212565349
 20
7445.145735113158
 30
0.0
 10
7833.833783058942
 20
7453.257498960782
 30
0.0
 10
7839.844981089836
 20
7463.961672337052
 30
0.0
 10
7844.933404958095
 20
7473.140607085587
 30
0.0
 10
7848.390418670815
 20
7479.457180155058
 30
0.0
 10
7850.921086651264
 20
7484.1273981739
 30
0.0
 10
7852.739432854678
 20
7487.505408914405
 30
0.0
 10
7854.179429209735
 20
7490.200871710244
 30
0.0
 10
7854.379963733438
 20
7490.57770957037
 30
0.0
 10
7854.469447454691
 20
7490.745864426752
 30
0.0
  0
LINE
  5
235
330
1F
100
AcDbEntity
  8
0
  6
Continuous
 62
     7
370
    25
100
AcDbLine
 10
7854.4694474547
 20
7441.121604419
 30
0.0
 11
7826.919517163
 21
7441.121604419
 31
0.0
  0
SPLINE
  5
236
330
1F
100
AcDbEntity
  8
0
  6
Continuous
 62
     7
370
    25
100
AcDbSpline
210
0.0
220
0.0
230
1.0
 70
     8
 71
     3
 72
     9
 73
     5
 74
     0
 42
0.00000001
 43
0.00000001
 40
0.0
 40
0.0
 40
0.0
 40
0.0
 40
0.0108347244642573
 40
0.9999999999999999
 40
0.9999999999999999
 40
0.9999999999999999
 40
0.9999999999999999
 10
7824.64465227798
 20
7436.939525319018
 30
0.0
 10
7824.652565213331
 20
7436.954794508591
 30
0.0
 10
7825.382896231794
 20
7438.364077192734
 30
0.0
 10
7826.155391584548
 20
7439.750350751905
 30
0.0
 10
7826.919517163004
 20
7441.12160441903
 30
0.0
  0
SPLINE
  5
237
330
1F
100
AcDbEntity
  8
0
  6
Continuous
 62
     7
370
    25
100
AcDbSpline
210
0.0
220
0.0
230
1.0
 70
     8
 71
     3
 72
     9
 73
     5
 74
     0
 42
0.00000001
 43
0.00000001
 40
0.0
 40
0.0
 40
0.0
 40
0.0
 40
0.0335902121832523
 40
1.0
 40
1.0
 40
1.0
 40
1.0
 10
7824.64465227798
 20
7436.939525319018
 30
0.0
 10
7824.586251371428
 20
7436.905229436121
 30
0.0
 10
7822.847622683041
 20
7435.884221211795
 30
0.0
 10
7821.107129568731
 20
7434.866392418066
 30
0.0
 10
7819.425099987434
 20
7433.882752709484
 30
0.0
  0
LINE
  5
238
330
1F
100
AcDbEntity
  8
0
  6
Continuous
 62
     7
370
    25
100
AcDbLine
 10
7819.4250999874
 20
7433.8827527095
 30
0.0
 11
7804.2920575854
 21
7459.7862472162
 31
0.0
  0
LINE
  5
239
330
1F
100
AcDbEntity
  8
0
  6
Continuous
 62
     7
370
    25
100
AcDbLine
 10
7321.0886150218
 20
7391.121604419
 30
0.0
 11
7321.0886150218
 21
6921.121604419
 31
0.0
  0
LINE
  5
23A
330
1F
100
AcDbEntity
  8
0
  6
Continuous
 62
     7
370
    25
100
AcDbLine
 10
7321.0886150218
 20
6921.121604419
 30
0.0
 11
7291.0886150218
 21
6921.121604419
 31
0.0
  0
LINE
  5
23B
330
1F
100
AcDbEntity
  8
0
  6
Continuous
 62
     7
370
    25
100
AcDbLine
 10
7321.0886150218
 20
7391.121604419
 30
0.0
 11
7291.0886150218
 21
7391.121604419
 31
0.0
  0
LINE
  5
23C
330
1F
100
AcDbEntity
  8
0
  6
Continuous
 62
     7
370
    25
100
AcDbLine
 10
7321.0886150218
 20
6921.121604419
 30
0.0
 11
7321.0886150218
 21
6891.121604419
 31
0.0
  0
LINE
  5
23D
330
1F
100
AcDbEntity
  8
0
  6
Continuous
 62
     7
370
    25
100
AcDbLine
 10
7321.0886150218
 20
7421.121604419
 30
0.0
 11
7321.0886150218
 21
7391.121604419
 31
0.0
  0
LINE
  5
23E
330
1F
100
AcDbEntity
  8
0
  6
Continuous
 62
     7
370
    25
100
AcDbLine
 10
7321.0886150218
 20
6921.121604419
 30
0.0
 11
7967.8502798876
 21
6921.121604419
 31
0.0
  0
LINE
  5
23F
330
1F
100
AcDbEntity
  8
0
  6
Continuous
 62
     7
370
    25
100
AcDbLine
 10
7967.8502798876
 20
6921.121604419
 30
0.0
 11
7967.8502798876
 21
6891.121604419
 31
0.0
  0
LINE
  5
240
330
1F
100
AcDbEntity
  8
0
  6
Continuous
 62
     7
370
    25
100
AcDbLine
 10
7964.4694474547
 20
6891.121604419
 30
0.0
 11
7404.4694474547
 21
6891.121604419
 31
0.0
  0
LINE
  5
241
330
1F
100
AcDbEntity
  8
0
  6
Continuous
 62
     7
370
    25
100
AcDbLine
 10
7414.4694474547
 20
7421.121604419
 30
0.0
 11
7414.4694474547
 21
7391.121604419
 31
0.0
  0
LINE
  5
242
330
1F
100
AcDbEntity
  8
0
  6
Continuous
 62
     7
370
    25
100
AcDbLine
 10
7414.4694474547
 20
7391.121604419
 30
0.0
 11
7321.0886150218
 21
7391.121604419
 31
0.0
  0
LINE
  5
243
330
1F
100
AcDbEntity
  8
0
  6
Continuous
 62
     7
370
    25
100
AcDbLine
 10
7504.4694474547
 20
7091.1216044191
 30
0.0
 11
7474.4694474547
 21
7061.1216044191
 31
0.0
  0
LINE
  5
244
330
1F
100
AcDbEntity
  8
0
  6
Continuous
 62
     7
370
    25
100
AcDbLine
 10
7474.4694474547
 20
7061.1216044191
 30
0.0
 11
7474.4694474546
 21
7425.2482545406
 31
0.0
  0
LINE
  5
245
330
1F
100
AcDbEntity
  8
0
  6
Continuous
 62
     7
370
    25
100
AcDbLine
 10
7504.4694474546
 20
7425.2482545406
 30
0.0
 11
7474.4694474546
 21
7425.2482545406
 31
0.0
  0
ARC
  5
246
330
1F
100
AcDbEntity
  8
0
  6
Continuous
 62
     7
370
    25
100
AcDbCircle
 10
7414.4694474547
 20
7441.121604419
 30
0.0
 40
50.0
100
AcDbArc
 50
270.0
 51
355.2020849302
  0
ARC
  5
247
330
1F
100
AcDbEntity
  8
0
  6
Continuous
 62
     7
370
    25
100
AcDbCircle
 10
7464.4694474546
 20
7425.2482545406
 30
0.0
 40
10.00000000000038
100
AcDbArc
 50
0.0
 51
59.7061632209
  0
LINE
  5
248
330
1F
100
AcDbEntity
  8
0
  6
Continuous
 62
     7
370
    25
100
AcDbLine
 10
7404.4694474547
 20
6871.121604419
 30
0.0
 11
7964.4694474547
 21
6871.121604419
 31
0.0
  0
LINE
  5
249
330
1F
100
AcDbEntity
  8
0
  6
Continuous
 62
     7
370
    25
100
AcDbLine
 10
7814.4694474548
 20
7425.2482545406
 30
0.0
 11
7814.4694474547
 21
7061.1216044191
 31
0.0
  0
LINE
  5
24A
330
1F
100
AcDbEntity
  8
0
  6
Continuous
 62
     7
370
    25
100
AcDbLine
 10
7814.4694474547
 20
7061.1216044191
 30
0.0
 11
7784.4694474547
 21
7091.1216044191
 31
0.0
  0
LINE
  5
24B
330
1F
100
AcDbEntity
  8
0
  6
Continuous
 62
     7
370
    25
100
AcDbLine
 10
7814.4694474548
 20
7425.2482545406
 30
0.0
 11
7784.4694474548
 21
7425.2482545406
 31
0.0
  0
ARC
  5
24C
330
1F
100
AcDbEntity
  8
0
  6
Continuous
 62
     7
370
    25
100
AcDbCircle
 10
7824.4694474548
 20
7425.2482545406
 30
0.0
 40
10.00000000000038
100
AcDbArc
 50
120.2938367791
 51
180.0
  0
LINE
  5
24D
330
1F
100
AcDbEntity
  8
0
  6
Continuous
 62
     7
370
    25
100
AcDbLine
 10
7874.4694474547
 20
7391.121604419
 30
0.0
 11
7874.4694474547
 21
7421.121604419
 31
0.0
  0
ARC
  5
24E
330
1F
100
AcDbEntity
  8
0
  6
Continuous
 62
     7
370
    25
100
AcDbCircle
 10
7874.4694474547
 20
7441.121604419
 30
0.0
 40
50.0
100
AcDbArc
 50
184.7979150697
 51
270.0
  0
LINE
  5
24F
330
1F
100
AcDbEntity
  8
0
  6
Continuous
 62
     7
370
    25
100
AcDbLine
 10
7967.8502798876
 20
6921.121604419
 30
0.0
 11
7997.8502798876
 21
6921.121604419
 31
0.0
  0
LINE
  5
250
330
1F
100
AcDbEntity
  8
0
  6
Continuous
 62
     7
370
    25
100
AcDbLine
 10
7967.8502798876
 20
6921.121604419
 30
0.0
 11
7967.8502798876
 21
7391.121604419
 31
0.0
  0
LINE
  5
251
330
1F
100
AcDbEntity
  8
0
  6
Continuous
 62
     7
370
    25
100
AcDbLine
 10
7967.8502798876
 20
7391.121604419
 30
0.0
 11
7997.8502798876
 21
7391.121604419
 31
0.0
  0
LINE
  5
252
330
1F
100
AcDbEntity
  8
0
  6
Continuous
 62
     7
370
    25
100
AcDbLine
 10
7967.8502798876
 20
7391.121604419
 30
0.0
 11
7967.8502798876
 21
7421.121604419
 31
0.0
  0
LINE
  5
253
330
1F
100
AcDbEntity
  8
0
  6
Continuous
 62
     7
370
    25
100
AcDbLine
 10
7967.8502798876
 20
7391.121604419
 30
0.0
 11
7874.4694474547
 21
7391.121604419
 31
0.0
  0
SPLINE
  5
254
330
1F
100
AcDbEntity
  8
0
  6
Continuous
 62
     7
370
    25
100
AcDbSpline
210
0.0
220
0.0
230
1.0
 70
     8
 71
     3
 72
    26
 73
    22
 74
     0
 42
0.00000001
 43
0.00000001
 40
0.0
 40
0.0
 40
0.0
 40
0.0
 40
0.0321897161049154
 40
0.0880618880438764
 40
0.1451740220954908
 40
0.2016837869601069
 40
0.2579524693903292
 40
0.3151337257059618
 40
0.371047023822321
 40
0.4280090620174787
 40
0.4847915987210039
 40
0.5408230580735269
 40
0.5980334477112518
 40
0.654094507934606
 40
0.710839374349314
 40
0.767828865326507
 40
0.8237288959268964
 40
0.880899582803757
 40
0.9372139891183171
 40
0.9936761287981185
 40
0.9999999999999999
 40
0.9999999999999999
 40
0.9999999999999999
 40
0.9999999999999999
 10
7498.041943405854
 20
7020.693195864345
 30
0.0
 10
7499.187166745878
 20
7021.004774692061
 30
0.0
 10
7502.320171374618
 20
7021.857165553592
 30
0.0
 10
7507.768858364554
 20
7021.764770172174
 30
0.0
 10
7513.794830872865
 20
7019.854995991066
 30
0.0
 10
7518.981207231818
 20
7016.18677663358
 30
0.0
 10
7522.835406330291
 20
7011.143152891402
 30
0.0
 10
7524.990196142869
 20
7005.189765031664
 30
0.0
 10
7525.263893816045
 20
6998.844499055117
 30
0.0
 10
7523.631379525875
 20
6992.717321364387
 30
0.0
 10
7520.226876243532
 20
6987.363607468156
 30
0.0
 10
7515.37404581283
 20
6983.267292881814
 30
0.0
 10
7509.536224021615
 20
6980.823244531497
 30
0.0
 10
7503.212386556375
 20
6980.241130049257
 30
0.0
 10
7497.009406909653
 20
6981.572734305596
 30
0.0
 10
7491.496648234391
 20
6984.710371686699
 30
0.0
 10
7487.178433955461
 20
6989.354025247462
 30
0.0
 10
7484.411019183376
 20
6995.084403453118
 30
0.0
 10
7483.663021905267
 20
7001.307247693397
 30
0.0
 10
7484.015640158602
 20
7005.865022663913
 30
0.0
 10
7485.088217003439
 20
7007.914437071076
 30
0.0
 10
7485.196248039741
 20
7008.120856185273
 30
0.0
  0
SPLINE
  5
255
330
1F
100
AcDbEntity
  8
0
  6
Continuous
 62
     7
370
    25
100
AcDbSpline
210
0.0
220
0.0
230
1.0
 70
     8
 71
     3
 72
    14
 73
    10
 74
     0
 42
0.00000001
 43
0.00000001
 40
0.0
 40
0.0
 40
0.0
 40
0.0
 40
0.0866692022880377
 40
0.2618871023474917
 40
0.4368827815043068
 40
0.6096480805849153
 40
0.7814233826264702
 40
0.9494581431993266
 40
1.0
 40
1.0
 40
1.0
 40
1.0
 10
7498.042269741223
 20
7020.693303033093
 30
0.0
 10
7499.141774138434
 20
7020.954220638118
 30
0.0
 10
7502.464131019566
 20
7021.742631673732
 30
0.0
 10
7508.283826980979
 20
7021.400028157617
 30
0.0
 10
7514.690856928068
 20
7018.77626381245
 30
0.0
 10
7519.840737500241
 20
7014.178414787443
 30
0.0
 10
7523.072894380409
 20
7008.204754731195
 30
0.0
 10
7523.924225250186
 20
7003.07203650718
 30
0.0
 10
7523.687448388933
 20
7000.235557205882
 30
0.0
 10
7523.632698057636
 20
6999.579673093543
 30
0.0
  0
LINE
  5
256
330
1F
100
AcDbEntity
  8
0
  6
Continuous
 62
     7
370
    25
100
AcDbLine
 10
7486.0858671546
 20
7010.4170519595
 30
0.0
 11
7486.249362805
 21
7010.7619400612
 31
0.0
  0
SPLINE
  5
257
330
1F
100
AcDbEntity
  8
0
  6
Continuous
 62
     7
370
    25
100
AcDbSpline
210
0.0
220
0.0
230
1.0
 70
     8
 71
     3
 72
    11
 73
     7
 74
     0
 42
0.00000001
 43
0.00000001
 40
0.0
 40
0.0
 40
0.0
 40
0.0
 40
0.3890468487494769
 40
0.64531379227538
 40
0.9015807358012836
 40
1.0
 40
1.0
 40
1.0
 40
1.0
 10
7486.261332963617
 20
7010.756155092527
 30
0.0
 10
7487.374508824344
 20
7012.489729725321
 30
0.0
 10
7489.220938729804
 20
7015.365217919291
 30
0.0
 10
7492.962199281944
 20
7018.349092272192
 30
0.0
 10
7495.795464670837
 20
7019.898043218633
 30
0.0
 10
7497.55273691485
 20
7020.520070540399
 30
0.0
 10
7498.040349450907
 20
7020.692672321878
 30
0.0
  0
SPLINE
  5
258
330
1F
100
AcDbEntity
  8
0
  6
Continuous
 62
     7
370
    25
100
AcDbSpline
210
0.0
220
0.0
230
1.0
 70
     8
 71
     3
 72
    14
 73
    10
 74
     0
 42
0.00000001
 43
0.00000001
 40
0.0
 40
0.0
 40
0.0
 40
0.0
 40
0.0871196235315313
 40
0.2550050082533643
 40
0.4228687178069231
 40
0.5926407733251091
 40
0.7652824106552281
 40
0.938095506189059
 40
1.0
 40
1.0
 40
1.0
 40
1.0
 10
7502.927516129195
 20
6981.958353816082
 30
0.0
 10
7501.801927901832
 20
6982.068115998973
 30
0.0
 10
7498.507255317472
 20
6982.389397304139
 30
0.0
 10
7493.33124597163
 20
6984.573652714173
 30
0.0
 10
7488.346187721384
 20
6988.979289203683
 30
0.0
 10
7485.023243463157
 20
6994.846564598422
 30
0.0
 10
7483.82406657678
 20
7001.527156272526
 30
0.0
 10
7484.597692492922
 20
7006.870330998729
 30
0.0
 10
7485.774969991676
 20
7009.676170853614
 30
0.0
 10
7486.08546554439
 20
7010.416183974984
 30
0.0
  0
CIRCLE
  5
259
330
1F
100
AcDbEntity
  8
0
  6
Continuous
 62
     7
370
    25
100
AcDbCircle
 10
7504.4694474547
 20
7001.121604419
 30
0.0
 40
15.0
  0
SPLINE
  5
25A
330
1F
100
AcDbEntity
  8
0
  6
Continuous
 62
     7
370
    25
100
AcDbSpline
210
0.0
220
0.0
230
1.0
 70
     8
 71
     3
 72
    13
 73
     9
 74
     0
 42
0.00000001
 43
0.00000001
 40
0.0
 40
0.0
 40
0.0
 40
0.0
 40
0.0422409713087904
 40
0.2126333796187596
 40
0.4272221910938044
 40
0.6418110025688509
 40
0.8563998140438965
 40
1.0
 40
1.0
 40
1.0
 40
1.0
 10
7523.632698057636
 20
6999.579673093543
 30
0.0
 10
7523.589966334208
 20
6999.158202199746
 30
0.0
 10
7523.37486259753
 20
6997.036594249398
 30
0.0
 10
7522.152440283636
 20
6992.869175496206
 30
0.0
 10
7518.791505050602
 20
6987.742853466505
 30
0.0
 10
7513.558857709255
 20
6983.783937612221
 30
0.0
 10
7507.978080657031
 20
6981.889942502065
 30
0.0
 10
7504.372868140342
 20
6981.938776117441
 30
0.0
 10
7502.927516129195
 20
6981.958353816082
 30
0.0
  0
LINE
  5
25B
330
1F
100
AcDbEntity
  8
0
  6
Continuous
 62
     7
370
    25
100
AcDbLine
 10
7524.8429667133
 20
6998.0753422801
 30
0.0
 11
7524.8429597286
 21
6998.0752955669
 31
0.0
  0
CIRCLE
  5
25C
330
1F
100
AcDbEntity
  8
0
  6
Continuous
 62
     7
370
    25
100
AcDbCircle
 10
7504.4694474547
 20
7001.121604419
 30
0.0
 40
8.0
  0
LINE
  5
25D
330
1F
100
AcDbEntity
  8
0
  6
Continuous
 62
     7
370
    25
100
AcDbLine
 10
7494.6694474547
 20
6945.521604419
 30
0.0
 11
7494.6694474547
 21
6948.0183088528
 31
0.0
  0
LINE
  5
25E
330
1F
100
AcDbEntity
  8
0
  6
Continuous
 62
     7
370
    25
100
AcDbLine
 10
7495.6694474547
 20
6945.521604419
 30
0.0
 11
7494.6694474547
 21
6945.521604419
 31
0.0
  0
LINE
  5
25F
330
1F
100
AcDbEntity
  8
0
  6
Continuous
 62
     7
370
    25
100
AcDbLine
 10
7495.6694474547
 20
6945.521604419
 30
0.0
 11
7513.2694474547
 21
6945.521604419
 31
0.0
  0
LINE
  5
260
330
1F
100
AcDbEntity
  8
0
  6
Continuous
 62
     7
370
    25
100
AcDbLine
 10
7514.2694474547
 20
6948.0183088528
 30
0.0
 11
7514.2694474547
 21
6945.521604419
 31
0.0
  0
LINE
  5
261
330
1F
100
AcDbEntity
  8
0
  6
Continuous
 62
     7
370
    25
100
AcDbLine
 10
7513.2694474547
 20
6945.521604419
 30
0.0
 11
7514.2694474547
 21
6945.521604419
 31
0.0
  0
LINE
  5
262
330
1F
100
AcDbEntity
  8
0
  6
Continuous
 62
     7
370
    25
100
AcDbLine
 10
7513.2694474547
 20
6944.521604419
 30
0.0
 11
7495.6694474547
 21
6944.521604419
 31
0.0
  0
LINE
  5
263
330
1F
100
AcDbEntity
  8
0
  6
Continuous
 62
     7
370
    25
100
AcDbLine
 10
7495.6694474547
 20
6944.521604419
 30
0.0
 11
7495.6694474547
 21
6945.521604419
 31
0.0
  0
LINE
  5
264
330
1F
100
AcDbEntity
  8
0
  6
Continuous
 62
     7
370
    25
100
AcDbLine
 10
7513.2694474547
 20
6945.521604419
 30
0.0
 11
7513.2694474547
 21
6944.521604419
 31
0.0
  0
ARC
  5
265
330
1F
100
AcDbEntity
  8
0
  6
Continuous
 62
     7
370
    25
100
AcDbCircle
 10
7495.6694474547
 20
6945.521604419
 30
0.0
 40
1.0
100
AcDbArc
 50
180.0
 51
270.0
  0
ARC
  5
266
330
1F
100
AcDbEntity
  8
0
  6
Continuous
 62
     7
370
    25
100
AcDbCircle
 10
7513.2694474547
 20
6945.521604419
 30
0.0
 40
1.0
100
AcDbArc
 50
270.0
 51
0.0
  0
CIRCLE
  5
267
330
1F
100
AcDbEntity
  8
0
  6
Continuous
 62
     7
370
    25
100
AcDbCircle
 10
7504.4694474547
 20
7001.121604419
 30
0.0
 40
53.0
  0
CIRCLE
  5
268
330
1F
100
AcDbEntity
  8
0
  6
Continuous
 62
     7
370
    25
100
AcDbCircle
 10
7504.4694474547
 20
7001.121604419
 30
0.0
 40
53.99999999999909
  0
CIRCLE
  5
269
330
1F
100
AcDbEntity
  8
0
  6
Continuous
 62
     7
370
    25
100
AcDbCircle
 10
7504.4694474547
 20
7001.121604419
 30
0.0
 40
52.68675387000985
  0
CIRCLE
  5
26A
330
1F
100
AcDbEntity
  8
0
  6
Continuous
 62
     7
370
    25
100
AcDbCircle
 10
7504.4694474547
 20
7001.121604419
 30
0.0
 40
23.02766296091886
  0
CIRCLE
  5
26B
330
1F
100
AcDbEntity
  8
0
  6
Continuous
 62
     7
370
    25
100
AcDbCircle
 10
7504.4694474547
 20
7001.121604419
 30
0.0
 40
21.0
  0
CIRCLE
  5
26C
330
1F
100
AcDbEntity
  8
0
  6
Continuous
 62
     7
370
    25
100
AcDbCircle
 10
7504.4694474547
 20
7001.121604419
 30
0.0
 40
21.99999999999909
  0
LINE
  5
26D
330
1F
100
AcDbEntity
  8
0
  6
Continuous
 62
     8
370
    25
100
AcDbLine
 10
7271.0876278802
 20
8387.8833697693
 30
0.0
 11
7271.0886150218
 21
8387.866480394
 31
0.0
  0
LINE
  5
26E
330
1F
100
AcDbEntity
  8
0
  6
Continuous
 62
     8
370
    25
100
AcDbLine
 10
8017.8512670274
 20
8387.8833697384
 30
0.0
 11
8017.8502798876
 21
8387.866480394
 31
0.0
  0
LINE
  5
26F
330
1F
100
AcDbEntity
  8
0
  6
Continuous
 62
     8
370
    25
100
AcDbLine
 10
7303.0912355071
 20
7724.9435453868
 30
0.0
 11
7303.0912355071
 21
8373.5522666646
 31
0.0
  0
LINE
  5
270
330
1F
100
AcDbEntity
  8
0
  6
Continuous
 62
     8
370
    25
100
AcDbLine
 10
7985.8476594023
 20
7724.9435453868
 30
0.0
 11
7985.8476594023
 21
8373.5522666646
 31
0.0
  0
LINE
  5
271
330
1F
100
AcDbEntity
  8
0
  6
Continuous
 62
     8
370
    25
100
AcDbLine
 10
7644.4694474547
 20
7096.156899183
 30
0.0
 11
7644.4694474547
 21
7077.121604419
 31
0.0
  0
LWPOLYLINE
  5
272
330
1F
100
AcDbEntity
  8
0
  6
Continuous
 62
     8
370
    25
100
AcDbPolyline
 90
       10
 70
   128
 43
0.0
 10
7584.4361233755
 20
7091.1216044191
 10
7588.4609580627
 20
7090.752254637
 10
7592.3866879623
 20
7089.653299908
 10
7596.1166485754
 20
7087.8518001448
 10
7599.5589958926
 20
7085.3921142504
 10
7602.6289678985
 20
7082.3348078547
 10
7605.2509716936
 20
7078.7551619879
 10
7607.3604448426
 20
7074.7413194113
 10
7608.9054451157
 20
7070.3921142504
 10
7609.3678740695
 20
7068.5299091439
  0
LWPOLYLINE
  5
273
330
1F
100
AcDbEntity
  8
0
  6
Continuous
 62
     8
370
    25
100
AcDbPolyline
 90
       10
 70
   128
 43
0.0
 10
7704.5027715339
 20
7091.1216044191
 10
7700.4779368467
 20
7090.752254637
 10
7696.5522069471
 20
7089.653299908
 10
7692.822246334
 20
7087.8518001448
 10
7689.3798990168
 20
7085.3921142503
 10
7686.3099270109
 20
7082.3348078547
 10
7683.6879232158
 20
7078.7551619879
 10
7681.5784500668
 20
7074.7413194113
 10
7680.0334497937
 20
7070.3921142504
 10
7679.57102084
 20
7068.5299091439
  0
LINE
  5
274
330
1F
100
AcDbEntity
  8
0
  6
Continuous
 62
     8
370
    25
100
AcDbLine
 10
7597.821832296
 20
7061.1216044191
 30
0.0
 11
7474.4694474547
 21
7061.1216044191
 31
0.0
  0
LINE
  5
275
330
1F
100
AcDbEntity
  8
0
  6
Continuous
 62
     8
370
    25
100
AcDbLine
 10
7814.4694474547
 20
7061.1216044191
 30
0.0
 11
7691.1170626134
 21
7061.1216044191
 31
0.0
  0
LINE
  5
276
330
1F
100
AcDbEntity
  8
0
  6
Continuous
 62
     8
370
    25
100
AcDbLine
 10
7495.6694474547
 20
6947.8434663134
 30
0.0
 11
7495.6694474547
 21
6945.521604419
 31
0.0
  0
LINE
  5
277
330
1F
100
AcDbEntity
  8
0
  6
Continuous
 62
     8
370
    25
100
AcDbLine
 10
7513.2694474547
 20
6945.521604419
 30
0.0
 11
7513.2694474547
 21
6947.8434663134
 31
0.0
  0
ARC
  5
278
330
1F
100
AcDbEntity
  8
0
  6
Continuous
 62
     8
370
    25
100
AcDbCircle
 10
7494.8674206745
 20
6982.1880727278
 30
0.0
 40
0.6318671287509172
100
AcDbArc
 50
355.1702686282
 51
57.889242128
  0
ARC
  5
279
330
1F
100
AcDbEntity
  8
0
  6
Continuous
 62
     8
370
    25
100
AcDbCircle
 10
7514.0714742349
 20
6982.1880727278
 30
0.0
 40
0.6318671287531765
100
AcDbArc
 50
122.1107578721
 51
184.8297313713
  0
SPLINE
  5
27A
330
1F
100
AcDbEntity
  8
0
  6
Continuous
 62
     8
370
    25
100
AcDbSpline
210
0.0
220
0.0
230
1.0
 70
     8
 71
     3
 72
     9
 73
     5
 74
     0
 42
0.00000001
 43
0.00000001
 40
0.0
 40
0.0
 40
0.0
 40
0.0
 40
0.049919024991522
 40
0.9999999999999999
 40
0.9999999999999999
 40
0.9999999999999999
 40
0.9999999999999999
 10
7494.169007474511
 20
6983.559174885521
 30
0.0
 10
7494.171121836033
 20
6983.548331247804
 30
0.0
 10
7494.213477661751
 20
6983.33110669824
 30
0.0
 10
7494.325953601971
 20
6983.173210539975
 30
0.0
 10
7494.43281485292
 20
6983.023196403983
 30
0.0
  0
SPLINE
  5
27B
330
1F
100
AcDbEntity
  8
0
  6
Continuous
 62
     8
370
    25
100
AcDbSpline
210
0.0
220
0.0
230
1.0
 70
     8
 71
     3
 72
     9
 73
     5
 74
     0
 42
0.00000001
 43
0.00000001
 40
0.0
 40
0.0
 40
0.0
 40
0.0
 40
0.7574453879716057
 40
1.0
 40
1.0
 40
1.0
 40
1.0
 10
7514.26738160174
 20
6982.601501056434
 30
0.0
 10
7514.394848579631
 20
6982.755408731318
 30
0.0
 10
7514.563133950319
 20
6982.958601829233
 30
0.0
 10
7514.645692656284
 20
6983.250842090285
 30
0.0
 10
7514.665717651179
 20
6983.321726313424
 30
0.0
  0
ENDSEC
  0
SECTION
  2
OBJECTS
  0
DICTIONARY
  5
C
330
0
100
AcDbDictionary
281
     1
  3
ACAD_GROUP
350
D
  3
ACAD_LAYOUT
350
1A
  3
ACAD_MLINESTYLE
350
17
  3
ACAD_PLOTSETTINGS
350
19
  3
ACAD_PLOTSTYLENAME
350
E
  3
ACAD_SCALELIST
350
47
  3
DWGPROPS
350
27C
  0
DICTIONARY
  5
D
102
{ACAD_REACTORS
330
C
102
}
330
C
100
AcDbDictionary
281
     1
  0
DICTIONARY
  5
1A
102
{ACAD_REACTORS
330
C
102
}
330
C
100
AcDbDictionary
281
     1
  3
Layout1
350
1E
  3
Layout2
350
26
  3
Model
350
22
  0
DICTIONARY
  5
17
102
{ACAD_REACTORS
330
C
102
}
330
C
100
AcDbDictionary
281
     1
  3
Standard
350
18
  0
DICTIONARY
  5
19
102
{ACAD_REACTORS
330
C
102
}
330
C
100
AcDbDictionary
281
     1
  0
ACDBDICTIONARYWDFLT
  5
E
102
{ACAD_REACTORS
330
C
102
}
330
C
100
AcDbDictionary
281
     1
  3
Normal
350
F
100
AcDbDictionaryWithDefault
340
F
  0
DICTIONARY
  5
47
102
{ACAD_REACTORS
330
C
102
}
330
C
100
AcDbDictionary
281
     1
  3
A0
350
48
  3
A1
350
49
  3
A2
350
4A
  3
A3
350
4B
  3
A4
350
4C
  3
A5
350
4D
  3
A6
350
4E
  3
A7
350
4F
  3
A8
350
50
  3
A9
350
51
  3
B0
350
52
  3
B1
350
53
  3
B2
350
54
  3
B3
350
55
  3
B4
350
56
  3
B5
350
57
  3
B6
350
58
  3
B7
350
59
  3
B8
350
5A
  3
B9
350
5B
  3
C0
350
5C
  3
C1
350
5D
  3
C2
350
5E
  3
C3
350
5F
  3
C4
350
60
  3
C5
350
61
  3
C6
350
62
  3
C7
350
63
  3
C8
350
64
  3
C9
350
65
  3
D0
350
66
  3
D1
350
67
  3
D2
350
68
  0
XRECORD
  5
27C
102
{ACAD_REACTORS
330
C
102
}
330
C
100
AcDbXrecord
280
     1
  1
DWGPROPS COOKIE
  2

  3

  4

  6

  7

  8
radek.stransky
  9

300
=
301
=
302
=
303
=
304
=
305
=
306
=
307
=
308
=
309
=
 40
0.0
 41
2459088.23144993
 42
2459088.231450509
  1

 90
        0
  0
LAYOUT
  5
1E
102
{ACAD_REACTORS
330
1A
102
}
330
1A
100
AcDbPlotSettings
  1

  2
none_device
  4

  6

 40
0.0
 41
0.0
 42
0.0
 43
0.0
 44
0.0
 45
0.0
 46
0.0
 47
0.0
 48
0.0
 49
0.0
140
0.0
141
0.0
142
1.0
143
1.0
 70
   688
 72
     1
 73
     0
 74
     5
  7

 75
    16
147
1.0
148
0.0
149
0.0
100
AcDbLayout
  1
Layout1
 70
     1
 71
     1
 10
0.0
 20
0.0
 11
420.0
 21
297.0
 12
0.0
 22
0.0
 32
0.0
 14
1.0000000000E+20
 24
1.0000000000E+20
 34
1.0000000000E+20
 15
-1.0000000000E+20
 25
-1.0000000000E+20
 35
-1.0000000000E+20
146
0.0
 13
0.0
 23
0.0
 33
0.0
 16
1.0
 26
0.0
 36
0.0
 17
0.0
 27
1.0
 37
0.0
 76
     0
330
1B
  0
LAYOUT
  5
26
102
{ACAD_REACTORS
330
1A
102
}
330
1A
100
AcDbPlotSettings
  1

  2
none_device
  4

  6

 40
0.0
 41
0.0
 42
0.0
 43
0.0
 44
0.0
 45
0.0
 46
0.0
 47
0.0
 48
0.0
 49
0.0
140
0.0
141
0.0
142
1.0
143
1.0
 70
   688
 72
     1
 73
     0
 74
     5
  7

 75
    16
147
1.0
148
0.0
149
0.0
100
AcDbLayout
  1
Layout2
 70
     1
 71
     2
 10
0.0
 20
0.0
 11
0.0
 21
0.0
 12
0.0
 22
0.0
 32
0.0
 14
0.0
 24
0.0
 34
0.0
 15
0.0
 25
0.0
 35
0.0
146
0.0
 13
0.0
 23
0.0
 33
0.0
 16
1.0
 26
0.0
 36
0.0
 17
0.0
 27
1.0
 37
0.0
 76
     0
330
23
  0
LAYOUT
  5
22
102
{ACAD_REACTORS
330
1A
102
}
330
1A
100
AcDbPlotSettings
  1

  2
none_device
  4
Letter_(8.50_x_11.00_Inches)
  6

 40
6.35
 41
6.35
 42
6.35000508
 43
6.35000508
 44
215.9
 45
279.4
 46
0.0
 47
0.0
 48
0.0
 49
0.0
140
0.0
141
0.0
142
1.0
143
1.0
 70
  1712
 72
     1
 73
     0
 74
     0
  7

 75
     0
147
1.0
148
0.0
149
0.0
100
AcDbLayout
  1
Model
 70
     1
 71
     0
 10
0.0
 20
0.0
 11
20000.0
 21
10000.0
 12
0.0
 22
0.0
 32
0.0
 14
0.0
 24
0.0
 34
0.0
 15
20000.0
 25
10000.0
 35
0.0
146
0.0
 13
0.0
 23
0.0
 33
0.0
 16
1.0
 26
0.0
 36
0.0
 17
0.0
 27
1.0
 37
0.0
 76
     0
330
1F
331
29
  0
MLINESTYLE
  5
18
102
{ACAD_REACTORS
330
17
102
}
330
17
100
AcDbMlineStyle
  2
Standard
 70
     0
  3

 62
   256
 51
90.0
 52
90.0
 71
     2
 49
0.5
 62
   256
  6
BYLAYER
 49
-0.5
 62
   256
  6
BYLAYER
  0
ACDBPLACEHOLDER
  5
F
102
{ACAD_REACTORS
330
E
102
}
330
E
  0
SCALE
  5
48
102
{ACAD_REACTORS
330
47
102
}
330
47
100
AcDbScale
 70
     0
300
1:1
140
1.0
141
1.0
290
     1
  0
SCALE
  5
49
102
{ACAD_REACTORS
330
47
102
}
330
47
100
AcDbScale
 70
     0
300
1:2
140
1.0
141
2.0
290
     0
  0
SCALE
  5
4A
102
{ACAD_REACTORS
330
47
102
}
330
47
100
AcDbScale
 70
     0
300
1:4
140
1.0
141
4.0
290
     0
  0
SCALE
  5
4B
102
{ACAD_REACTORS
330
47
102
}
330
47
100
AcDbScale
 70
     0
300
1:5
140
1.0
141
5.0
290
     0
  0
SCALE
  5
4C
102
{ACAD_REACTORS
330
47
102
}
330
47
100
AcDbScale
 70
     0
300
1:8
140
1.0
141
8.0
290
     0
  0
SCALE
  5
4D
102
{ACAD_REACTORS
330
47
102
}
330
47
100
AcDbScale
 70
     0
300
1:10
140
1.0
141
10.0
290
     0
  0
SCALE
  5
4E
102
{ACAD_REACTORS
330
47
102
}
330
47
100
AcDbScale
 70
     0
300
1:16
140
1.0
141
16.0
290
     0
  0
SCALE
  5
4F
102
{ACAD_REACTORS
330
47
102
}
330
47
100
AcDbScale
 70
     0
300
1:20
140
1.0
141
20.0
290
     0
  0
SCALE
  5
50
102
{ACAD_REACTORS
330
47
102
}
330
47
100
AcDbScale
 70
     0
300
1:30
140
1.0
141
30.0
290
     0
  0
SCALE
  5
51
102
{ACAD_REACTORS
330
47
102
}
330
47
100
AcDbScale
 70
     0
300
1:40
140
1.0
141
40.0
290
     0
  0
SCALE
  5
52
102
{ACAD_REACTORS
330
47
102
}
330
47
100
AcDbScale
 70
     0
300
1:50
140
1.0
141
50.0
290
     0
  0
SCALE
  5
53
102
{ACAD_REACTORS
330
47
102
}
330
47
100
AcDbScale
 70
     0
300
1:100
140
1.0
141
100.0
290
     0
  0
SCALE
  5
54
102
{ACAD_REACTORS
330
47
102
}
330
47
100
AcDbScale
 70
     0
300
2:1
140
2.0
141
1.0
290
     0
  0
SCALE
  5
55
102
{ACAD_REACTORS
330
47
102
}
330
47
100
AcDbScale
 70
     0
300
4:1
140
4.0
141
1.0
290
     0
  0
SCALE
  5
56
102
{ACAD_REACTORS
330
47
102
}
330
47
100
AcDbScale
 70
     0
300
8:1
140
8.0
141
1.0
290
     0
  0
SCALE
  5
57
102
{ACAD_REACTORS
330
47
102
}
330
47
100
AcDbScale
 70
     0
300
10:1
140
10.0
141
1.0
290
     0
  0
SCALE
  5
58
102
{ACAD_REACTORS
330
47
102
}
330
47
100
AcDbScale
 70
     0
300
100:1
140
100.0
141
1.0
290
     0
  0
SCALE
  5
59
102
{ACAD_REACTORS
330
47
102
}
330
47
100
AcDbScale
 70
     0
300
1/128" = 1'-0"
140
0.0078125
141
12.0
290
     0
  0
SCALE
  5
5A
102
{ACAD_REACTORS
330
47
102
}
330
47
100
AcDbScale
 70
     0
300
1/64" = 1'-0"
140
0.015625
141
12.0
290
     0
  0
SCALE
  5
5B
102
{ACAD_REACTORS
330
47
102
}
330
47
100
AcDbScale
 70
     0
300
1/32" = 1'-0"
140
0.03125
141
12.0
290
     0
  0
SCALE
  5
5C
102
{ACAD_REACTORS
330
47
102
}
330
47
100
AcDbScale
 70
     0
300
1/16" = 1'-0"
140
0.0625
141
12.0
290
     0
  0
SCALE
  5
5D
102
{ACAD_REACTORS
330
47
102
}
330
47
100
AcDbScale
 70
     0
300
3/32" = 1'-0"
140
0.09375
141
12.0
290
     0
  0
SCALE
  5
5E
102
{ACAD_REACTORS
330
47
102
}
330
47
100
AcDbScale
 70
     0
300
1/8" = 1'-0"
140
0.125
141
12.0
290
     0
  0
SCALE
  5
5F
102
{ACAD_REACTORS
330
47
102
}
330
47
100
AcDbScale
 70
     0
300
3/16" = 1'-0"
140
0.1875
141
12.0
290
     0
  0
SCALE
  5
60
102
{ACAD_REACTORS
330
47
102
}
330
47
100
AcDbScale
 70
     0
300
1/4" = 1'-0"
140
0.25
141
12.0
290
     0
  0
SCALE
  5
61
102
{ACAD_REACTORS
330
47
102
}
330
47
100
AcDbScale
 70
     0
300
3/8" = 1'-0"
140
0.375
141
12.0
290
     0
  0
SCALE
  5
62
102
{ACAD_REACTORS
330
47
102
}
330
47
100
AcDbScale
 70
     0
300
1/2" = 1'-0"
140
0.5
141
12.0
290
     0
  0
SCALE
  5
63
102
{ACAD_REACTORS
330
47
102
}
330
47
100
AcDbScale
 70
     0
300
3/4" = 1'-0"
140
0.75
141
12.0
290
     0
  0
SCALE
  5
64
102
{ACAD_REACTORS
330
47
102
}
330
47
100
AcDbScale
 70
     0
300
1" = 1'-0"
140
1.0
141
12.0
290
     0
  0
SCALE
  5
65
102
{ACAD_REACTORS
330
47
102
}
330
47
100
AcDbScale
 70
     0
300
1-1/2" = 1'-0"
140
1.5
141
12.0
290
     0
  0
SCALE
  5
66
102
{ACAD_REACTORS
330
47
102
}
330
47
100
AcDbScale
 70
     0
300
3" = 1'-0"
140
3.0
141
12.0
290
     0
  0
SCALE
  5
67
102
{ACAD_REACTORS
330
47
102
}
330
47
100
AcDbScale
 70
     0
300
6" = 1'-0"
140
6.0
141
12.0
290
     0
  0
SCALE
  5
68
102
{ACAD_REACTORS
330
47
102
}
330
47
100
AcDbScale
 70
     0
300
1'-0" = 1'-0"
140
12.0
141
12.0
290
     0
  0
ENDSEC
  0
EOF
